  0
SECTION
  2
HEADER
  9
$ACADVER
  1
AC1009
  9
$INSBASE
 10
0
 20
0
 30
0
  9
$EXTMIN
 10
0
 20
0
  9
$EXTMAX
 10
420
 20
297
  9
$LIMMIN
 10
0
 20
0
  9
$LIMMAX
 10
420
 20
297
  9
$LTSCALE
 40
1
  0
ENDSEC
  0
SECTION
  2
TABLES
  0
TABLE
  2
LTYPE
 70
     9
  0
LTYPE
  2
CONTINUOUS
 70
    64
  3
実線
 72
    65
 73
     0
 40
0.0
  0
LTYPE
  2
DASHED1
 70
    64
  3
--  --  --  --  --  --  --  --  
 72
    65
 73
     2
 40
2.5
 49
1.25
 49
-1.25
  0
LTYPE
  2
DASHED2
 70
    64
  3
----    ----    ----    ----    
 72
    65
 73
     2
 40
5.0
 49
2.5
 49
-2.5
  0
LTYPE
  2
DASHED3
 70
    64
  3
------  ------  ------  ------  
 72
    65
 73
     2
 40
5.0
 49
3.75
 49
-1.25
  0
LTYPE
  2
CENTER1
 70
    64
  3
----- - ----- - ----- - ----- - 
 72
    65
 73
     4
 40
10.0
 49
6.25
 49
-1.25
 49
1.25
 49
-1.25
  0
LTYPE
  2
CENTER2
 70
    64
  3
----------  --  ----------  --  
 72
    65
 73
     4
 40
20.0
 49
12.5
 49
-2.5
 49
2.5
 49
-2.5
  0
LTYPE
  2
PHANTOM1
 70
    64
  3
--- - - --- - - --- - - --- - - 
 72
    65
 73
     6
 40
10.0
 49
3.25
 49
-1.25
 49
1.25
 49
-1.25
 49
1.25
 49
-1.25
  0
LTYPE
  2
PHANTOM2
 70
    64
  3
--------  -  -  --------  -  -  
 72
    65
 73
     6
 40
20.0
 49
10.0
 49
-2.5
 49
1.25
 49
-2.5
 49
1.25
 49
-2.5
  0
LTYPE
  2
DOT
 70
    64
  3
-   -   -   -   -   -   -   -   
 72
    65
 73
     2
 40
2.5
 49
0.625
 49
-1.875
  0
LTYPE
  2
DUMMY
 70
    64
  3
ダミー
 72
    65
 73
     0
 40
0.0
  0
LTYPE
  2
RAND1
 70
    64
  3
ランダム線1
 72
    65
 73
     4
 40
10.0
 49
1.0
 49
-2.0
 49
3.0
 49
-4.0
  0
LTYPE
  2
RAND2
 70
    64
  3
ランダム線2
 72
    65
 73
     4
 40
14.0
 49
2.0
 49
-3.0
 49
4.0
 49
-5.0
  0
LTYPE
  2
RAND3
 70
    64
  3
ランダム線3
 72
    65
 73
     4
 40
18.0
 49
3.0
 49
-4.0
 49
5.0
 49
-6.0
  0
LTYPE
  2
RAND4
 70
    64
  3
ランダム線4
 72
    65
 73
     4
 40
22.0
 49
4.0
 49
-5.0
 49
6.0
 49
-7.0
  0
LTYPE
  2
RAND5
 70
    64
  3
ランダム線5
 72
    65
 73
     4
 40
26.0
 49
5.0
 49
-6.0
 49
7.0
 49
-8.0
  0
LTYPE
  2
LONG1
 70
    64
  3
----------  --  ----------  --  
 72
    65
 73
     4
 40
40.0
 49
32.5
 49
-2.5
 49
2.5
 49
-2.5
  0
LTYPE
  2
LONG2
 70
    64
  3
--------  -  -  --------  -  -  
 72
    65
 73
     6
 40
40.0
 49
30.0
 49
-2.5
 49
1.25
 49
-2.5
 49
1.25
 49
-2.5
  0
LTYPE
  2
LONG3
 70
    64
  3
+++++++++++++++..+++++++++++++++
 72
    65
 73
     2
 40
40.0
 49
37.5
 49
-2.5
  0
LTYPE
  2
LONG4
 70
    64
  3
+++++++++++++++..+++++++++++++++
 72
    65
 73
     2
 40
80.0
 49
75.0
 49
-5.0
  0
LTYPE
  2
LONG5
 70
    64
  3
----------  --  ----------  --  
 72
    65
 73
     4
 40
60.0
 49
37.5
 49
-7.5
 49
7.5
 49
-7.5
  0
LTYPE
  2
dashed
 70
   64
  3
-------   -------------   ------
 72
   65
 73
    2
 40
7.5
 49
6
 49
-1.5
  0
LTYPE
  2
dashed_spaced
 70
   64
  3
----        --------        ----
 72
   65
 73
    2
 40
12
 49
6
 49
-6
  0
LTYPE
  2
long_dashed_dotted
 70
   64
  3
------------- --- --------------
 72
   65
 73
    4
 40
15.25
 49
12
 49
-1.5
 49
0.25
 49
-1.5
  0
LTYPE
  2
long_dashed_double-dotted
 70
   64
  3
----------- --- --- ------------
 72
   65
 73
    6
 40
17
 49
12
 49
-1.5
 49
0.25
 49
-1.5
 49
0.25
 49
-1.5
  0
LTYPE
  2
long_dashed_triplicate-dotted
 70
   64
  3
--------- --- --- --- ----------
 72
   65
 73
    8
 40
18.75
 49
12
 49
-1.5
 49
0.25
 49
-1.5
 49
0.25
 49
-1.5
 49
0.25
 49
-1.5
  0
LTYPE
  2
dotted
 70
   64
  3
   -       -       -       -    
 72
   65
 73
    2
 40
1.75
 49
0.25
 49
-1.5
  0
LTYPE
  2
chain
 70
   64
  3
-------------- -- --------------
 72
   65
 73
    4
 40
18.5
 49
12
 49
-1.5
 49
3.5
 49
-1.5
  0
LTYPE
  2
chain_double_dash
 70
   64
  3
------------ -- -- -------------
 72
   65
 73
    6
 40
23.5
 49
12
 49
-1.5
 49
3.5
 49
-1.5
 49
3.5
 49
-1.5
  0
LTYPE
  2
dashed_dotted
 70
   64
  3
-----------     -     ----------
 72
   65
 73
    4
 40
9.25
 49
6
 49
-1.5
 49
0.25
 49
-1.5
  0
LTYPE
  2
double-dashed_dotted
 70
   64
  3
------   -----------   -   -----
 72
   65
 73
    6
 40
16.75
 49
6
 49
-1.5
 49
6
 49
-1.5
 49
0.25
 49
-1.5
  0
LTYPE
  2
dashed_double-dotted
 70
   64
  3
---------    -    -    ---------
 72
   65
 73
    6
 40
11
 49
6
 49
-1.5
 49
0.25
 49
-1.5
 49
0.25
 49
-1.5
  0
LTYPE
  2
double-dashed_double-dotted
 70
   64
  3
-----   ---------   -   -   ----
 72
   65
 73
    8
 40
18.5
 49
6
 49
-1.5
 49
6
 49
-1.5
 49
0.25
 49
-1.5
 49
0.25
 49
-1.5
  0
LTYPE
  2
dashed_triplicate-dotted
 70
   64
  3
-------    -    -    -    ------
 72
   65
 73
    8
 40
12.75
 49
6
 49
-1.5
 49
0.25
 49
-1.5
 49
0.25
 49
-1.5
 49
0.25
 49
-1.5
  0
LTYPE
  2
double-dashed_triplicate-dotted
 70
   64
  3
-----  ---------  -  -  -  -----
 72
   65
 73
   10
 40
20.25
 49
6
 49
-1.5
 49
6
 49
-1.5
 49
0.25
 49
-1.5
 49
0.25
 49
-1.5
 49
0.25
 49
-1.5
  0
LTYPE
  2
undefined
 70
   64
  3
--------------------------------
 72
   65
 73
    0
 40
0
  0
LTYPE
  2
_
 70
   64
  3
                                
 72
   65
 73
    0
 40
0
  0
LTYPE
  2
__18
 70
   64
  3
                                
 72
   65
 73
    0
 40
0
  0
LTYPE
  2
__19
 70
   64
  3
                                
 72
   65
 73
    0
 40
0
  0
LTYPE
  2
__20
 70
   64
  3
                                
 72
   65
 73
    0
 40
0
  0
LTYPE
  2
__21
 70
   64
  3
                                
 72
   65
 73
    0
 40
0
  0
LTYPE
  2
__22
 70
   64
  3
                                
 72
   65
 73
    0
 40
0
  0
LTYPE
  2
__23
 70
   64
  3
                                
 72
   65
 73
    0
 40
0
  0
LTYPE
  2
__24
 70
   64
  3
                                
 72
   65
 73
    0
 40
0
  0
LTYPE
  2
__25
 70
   64
  3
                                
 72
   65
 73
    0
 40
0
  0
LTYPE
  2
__26
 70
   64
  3
                                
 72
   65
 73
    0
 40
0
  0
LTYPE
  2
__27
 70
   64
  3
                                
 72
   65
 73
    0
 40
0
  0
LTYPE
  2
__28
 70
   64
  3
                                
 72
   65
 73
    0
 40
0
  0
LTYPE
  2
__29
 70
   64
  3
                                
 72
   65
 73
    0
 40
0
  0
LTYPE
  2
__30
 70
   64
  3
                                
 72
   65
 73
    0
 40
0
  0
LTYPE
  2
__31
 70
   64
  3
                                
 72
   65
 73
    0
 40
0
  0
LTYPE
  2
__32
 70
   64
  3
                                
 72
   65
 73
    0
 40
0
  0
ENDTAB
  0
TABLE
  2
STYLE
  5
3
100
AcDbSymbolTable
 70
     1
  0
STYLE
  5
10
100
AcDbSymbolTableRecord
100
AcDbTextStyleTableRecord
  2
STANDARD
 70
     0
 40
0.0
 41
1.0
 50
0.0
 71
     0
 42
0.2
  3
txt
  4
bigfont.shx
  0
STYLE
  5
26
100
AcDbSymbolTableRecord
100
AcDbTextStyleTableRecord
  2
TATEGAKI
 70
    68
 40
0.0
 41
1.0
 50
0.0
 71
     0
 42
1.0
  3
txt
  4
bigfont.shx
  0
ENDTAB
  0
TABLE
  2
LAYER
 70
    3
  0
LAYER
  2
_0-0_
 70
   64
 62
    7
  6
CONTINUOUS
  0
LAYER
  2
_7-0_
 70
   64
 62
    7
  6
CONTINUOUS
  0
LAYER
  2
ADD_LINE
 70
   64
 62
    7
  6
CONTINUOUS
  0
ENDTAB
  0
ENDSEC
  0
SECTION
  2
BLOCKS
  0
ENDSEC
  0
SECTION
  2
ENTITIES
  0
LINE
  8
_0-0_
  6
CONTINUOUS
 62
    7
 10
394.99996700802365
 20
35.000004123997044
 11
299.99997525601776
 21
35.000004123997044
  0
LINE
  8
_0-0_
  6
CONTINUOUS
 62
    7
 10
15
 20
272.00000659839526
 11
394.99996700802365
 21
272.00000659839526
  0
LINE
  8
_0-0_
  6
CONTINUOUS
 62
    7
 10
394.99996700802365
 20
272.00000659839526
 11
394.99996700802365
 21
15
  0
LINE
  8
_0-0_
  6
CONTINUOUS
 62
    2
 10
349.99996700802365
 20
35.000004123997044
 11
349.99996700802365
 21
15
  0
LINE
  8
_0-0_
  6
CONTINUOUS
 62
    2
 10
349.99996700802365
 20
45.000006185995574
 11
349.99996700802365
 21
35.000004123997044
  0
LINE
  8
_0-0_
  6
CONTINUOUS
 62
    7
 10
344.99997525601776
 20
35.000004123997044
 11
344.99997525601776
 21
15
  0
LINE
  8
_0-0_
  6
CONTINUOUS
 62
    7
 10
310.0229459195524
 20
31.279208209063555
 11
310.0229459195524
 21
28.279210683461784
  0
LINE
  8
_0-0_
  6
CONTINUOUS
 62
    7
 10
310.0229459195524
 20
31.279208209063555
 11
317.02294426995354
 21
32.779206971864454
  0
LINE
  8
_0-0_
  6
CONTINUOUS
 62
    7
 10
317.02294426995354
 20
32.779206971864454
 11
317.02294426995354
 21
26.779205734665339
  0
LINE
  8
_0-0_
  6
CONTINUOUS
 62
    7
 10
310.0229459195524
 20
28.279210683461784
 11
317.02294426995354
 21
26.779205734665339
  0
LINE
  8
_0-0_
  6
CENTER2
 62
    2
 10
319.02292612436656
 20
29.779209446262669
 11
301.02294097075594
 21
29.779209446262669
  0
LINE
  8
_0-0_
  6
CENTER2
 62
    2
 10
305.02292942356422
 20
33.779210271062084
 11
305.02292942356422
 21
25.779207074964376
  0
LINE
  8
_0-0_
  6
CONTINUOUS
 62
    7
 10
344.99997525601776
 20
45.000006185995574
 11
344.99997525601776
 21
15
  0
LINE
  8
_0-0_
  6
CONTINUOUS
 62
    7
 10
374.99997525601776
 20
45.000006185995574
 11
374.99997525601776
 21
35.000004123997044
  0
LINE
  8
_0-0_
  6
CONTINUOUS
 62
    2
 10
380.00001649598818
 20
45.000006185995574
 11
380.00001649598818
 21
35.000004123997044
  0
LINE
  8
_0-0_
  6
CONTINUOUS
 62
    7
 10
319.99999175200594
 20
35.000004123997044
 11
319.99999175200594
 21
25.000000515499636
  0
LINE
  8
_0-0_
  6
CONTINUOUS
 62
    2
 10
324.99998350401182
 20
35.000004123997044
 11
324.99998350401182
 21
25.000000515499636
  0
LINE
  8
_0-0_
  6
CONTINUOUS
 62
    2
 10
335.00001649598818
 20
45.000006185995574
 11
335.00001649598818
 21
35.000004123997044
  0
LINE
  8
_0-0_
  6
CONTINUOUS
 62
    7
 10
329.99997525601776
 20
45.000006185995574
 11
329.99997525601776
 21
35.000004123997044
  0
LINE
  8
_0-0_
  6
CONTINUOUS
 62
    2
 10
319.99999175200594
 20
45.000006185995574
 11
319.99999175200594
 21
35.000004123997044
  0
LINE
  8
_0-0_
  6
CONTINUOUS
 62
    7
 10
314.99997525601776
 20
45.000006185995574
 11
314.99997525601776
 21
35.000004123997044
  0
LINE
  8
_0-0_
  6
CONTINUOUS
 62
    2
 10
304.99996700802365
 20
45.000006185995574
 11
304.99996700802365
 21
35.000004123997044
  0
LINE
  8
_0-0_
  6
CONTINUOUS
 62
    7
 10
394.99996700802365
 20
45.000006185995574
 11
299.99997525601776
 21
45.000006185995574
  0
LINE
  8
_0-0_
  6
CONTINUOUS
 62
    7
 10
394.99996700802365
 20
25.000000515499636
 11
299.99997525601776
 21
25.000000515499636
  0
CIRCLE
  8
_0-0_
  6
CONTINUOUS
 62
    7
 10
305.02292942356422
 20
29.779209446262669
 40
3.0000000386624723
  0
CIRCLE
  8
_0-0_
  6
CONTINUOUS
 62
    7
 10
305.02292942356422
 20
29.779209446262669
 40
1.5000000193312362
  0
TEXT
  8
_0-0_
 62
    7
 10
347.6258264490076
 20
23.126073888830234
 40
3
 41
1
 50
0
  1
図番
  7
TATEGAKI
  0
TEXT
  8
_0-0_
 62
    7
 10
347.50309629698057
 20
33.277761201600782
 40
3
 41
1
 50
0
  1
品名
  7
TATEGAKI
  0
TEXT
  8
_0-0_
 62
    7
 10
347.57888711465375
 20
43.076007018218178
 40
3
 41
1
 50
0
  1
作図
  7
TATEGAKI
  0
TEXT
  8
_0-0_
 62
    7
 10
377.2779260583826
 20
43.013794460812136
 40
3
 41
1
 50
0
  1
尺度
  7
TATEGAKI
  0
TEXT
  8
_0-0_
 62
    7
 10
385.93899783572635
 20
37.594552942224453
 40
3
 41
1
 50
0
  1
：
  0
TEXT
  8
_0-0_
 62
    7
 10
322.56749663481844
 20
33.277761201600782
 40
3
 41
1
 50
0
  1
材質
  7
TATEGAKI
  0
TEXT
  8
_0-0_
 62
    7
 10
302.50104254645271
 20
42.994976662300729
 40
3
 41
1
 50
0
  1
設計
  7
TATEGAKI
  0
TEXT
  8
_0-0_
 62
    7
 10
317.48364752692146
 20
42.994976662300729
 40
3
 41
1
 50
0
  1
製図
  7
TATEGAKI
  0
TEXT
  8
_0-0_
 62
    7
 10
332.46625250739021
 20
42.994976662300729
 40
3
 41
1
 50
0
  1
検図
  7
TATEGAKI
  0
TEXT
  8
_0-0_
 62
    7
 10
356.13318695893156
 20
38.271956572661537
 40
3
 41
1
 50
0
  1
年　月　日
  0
TEXT
  8
_0-0_
 62
    7
 10
305.73940582397756
 20
45.395881365276665
 40
4
 41
1
 50
0
  1
出図
  0
TEXT
  8
_0-0_
 62
    7
 10
331.66244169064771
 20
45.896091496297259
 40
3
 41
1
 50
0
  1
.   .
  0
LINE
  8
_0-0_
  6
CONTINUOUS
 62
    7
 10
394.99996700802365
 20
15
 11
15.003167229729712
 21
15
  0
LINE
  8
_0-0_
  6
CONTINUOUS
 62
    7
 10
15.003167229729712
 20
15
 11
15
 21
272.00000659839526
  0
TEXT
  8
_0-0_
 62
    7
 10
305.94202991751172
 20
18.241602781720246
 40
4
 41
1
 50
0
  1
ＦＫＫ株式会社
  0
LINE
  8
_0-0_
  6
CONTINUOUS
 62
    7
 10
319.99999175200594
 20
45.000006185995574
 11
319.99999175200594
 21
50.000006185995574
  0
LINE
  8
_0-0_
  6
CONTINUOUS
 62
    7
 10
349.99997525601776
 20
45.000006185995574
 11
349.99997525601776
 21
50.000006185995574
  0
LINE
  8
_0-0_
  6
CONTINUOUS
 62
    7
 10
384.99996700802365
 20
50.000006185995574
 11
384.99996700802365
 21
45.000006185995574
  0
LINE
  8
_0-0_
  6
CONTINUOUS
 62
    7
 10
299.99997525601776
 20
50.000006185995574
 11
299.99997525601776
 21
15
  0
LINE
  8
_0-0_
  6
CONTINUOUS
 62
    7
 10
394.99996700802365
 20
50.000006185995574
 11
299.99997525601776
 21
50.000006185995574
  0
LINE
  8
_0-0_
  6
CONTINUOUS
 62
    7
 10
279.94698500802366
 20
266.44730159839526
 11
277.69699300802364
 21
261.94729959839526
  0
LINE
  8
_0-0_
  6
CONTINUOUS
 62
    7
 10
277.69699300802364
 20
261.94729959839526
 11
282.19698500802366
 21
261.94729959839526
  0
LINE
  8
_0-0_
  6
CONTINUOUS
 62
    7
 10
279.94698500802366
 20
266.44730159839526
 11
282.19698500802366
 21
261.94729959839526
  0
TEXT
  8
_0-0_
 62
    7
 10
375.52411800802366
 20
267.10311459839528
 40
4
 41
1
 50
0
  1
担当
  0
TEXT
  8
_0-0_
 62
    7
 10
385.52411800802366
 20
267.10311459839528
 40
4
 41
1
 50
0
  1
検印
  0
TEXT
  8
_0-0_
 62
    7
 10
276.79392400802362
 20
267.79221159839528
 40
3
 41
1
 50
0
  1
Ｎｏ
  0
TEXT
  8
_0-0_
 62
    7
 10
292.17555400802365
 20
267.81606459839526
 40
3
 41
1
 50
0
  1
年　月　日
  0
TEXT
  8
_0-0_
 62
    7
 10
332.97356600802362
 20
267.81606459839526
 40
3
 41
1
 50
0
  1
訂　正　記　事
  0
LINE
  8
_0-0_
  6
CONTINUOUS
 62
    7
 10
275.02411000802363
 20
266.60311459839528
 11
275.02411000802363
 21
261.60313459839529
  0
LINE
  8
_0-0_
  6
CONTINUOUS
 62
    7
 10
285.02411800802366
 20
266.60311459839528
 11
285.02411800802366
 21
261.60313459839529
  0
LINE
  8
_0-0_
  6
CONTINUOUS
 62
    7
 10
315.02411800802366
 20
266.60311459839528
 11
315.02411800802366
 21
261.60313459839529
  0
LINE
  8
_0-0_
  6
CONTINUOUS
 62
    7
 10
275.02411000802363
 20
272.00000659839526
 11
275.02411000802363
 21
266.60311459839528
  0
LINE
  8
_0-0_
  6
CONTINUOUS
 62
    7
 10
285.02411800802366
 20
272.00000659839526
 11
285.02411800802366
 21
266.60311459839528
  0
LINE
  8
_0-0_
  6
CONTINUOUS
 62
    7
 10
315.02411800802366
 20
272.00000659839526
 11
315.02411800802366
 21
266.60311459839528
  0
LINE
  8
_0-0_
  6
CONTINUOUS
 62
    7
 10
375.02411800802366
 20
272.00000659839526
 11
375.02411800802366
 21
261.60313459839529
  0
LINE
  8
_0-0_
  6
CONTINUOUS
 62
    7
 10
385.02411800802366
 20
272.00000659839526
 11
385.02411800802366
 21
261.60313459839529
  0
LINE
  8
_0-0_
  6
CONTINUOUS
 62
    7
 10
394.99996700802365
 20
266.60311459839528
 11
275.02412600802364
 21
266.60311459839528
  0
LINE
  8
_0-0_
  6
CONTINUOUS
 62
    7
 10
275.02411000802363
 20
261.60313459839529
 11
394.99996700802365
 21
261.60313459839529
  0
TEXT
  8
_0-0_
 62
    7
 10
279.2866933813965
 20
262.03456874376604
 40
3
 41
1
 50
0
  1
1
  0
LINE
  8
_7-0_
  6
CONTINUOUS
 62
    7
 10
286.88839343699993
 20
206.01314408155906
 11
286.88839343699993
 21
218.01314408155906
  0
LINE
  8
_7-0_
  6
CONTINUOUS
 62
    7
 10
85.897658834203483
 20
187.4774230398977
 11
84.897658834203426
 21
187.4774230398977
  0
LINE
  8
_7-0_
  6
CONTINUOUS
 62
    7
 10
85.897658834203483
 20
194.14408970656439
 11
84.897658834203426
 21
194.14408970656439
  0
LINE
  8
_7-0_
  6
CONTINUOUS
 62
    7
 10
84.897658834203426
 20
187.4774230398977
 11
84.897658834203426
 21
194.14408970656439
  0
LINE
  8
ADD_LINE
  6
DOT
 62
    9
 10
53.680954545264427
 20
190.81075637323104
 11
85.897658834203483
 21
190.81075637323104
  0
LINE
  8
_7-0_
  6
CONTINUOUS
 62
    7
 10
263.27803889686174
 20
209.61314408155903
 11
263.27803889686174
 21
212.01314408155906
  0
LINE
  8
_7-0_
  6
CONTINUOUS
 62
    7
 10
263.27803889686174
 20
206.01314408155906
 11
263.27803889686174
 21
218.01314408155906
  0
LINE
  8
_7-0_
  6
CONTINUOUS
 62
    7
 10
263.27803889686174
 20
218.01314408155906
 11
286.88839343699993
 21
218.01314408155906
  0
LINE
  8
_7-0_
  6
CONTINUOUS
 62
    7
 10
286.88839343699993
 20
206.01314408155906
 11
263.27803889686174
 21
206.01314408155906
  0
LINE
  8
_7-0_
  6
CONTINUOUS
 62
    7
 10
275.72211624674333
 20
220.40467108325117
 11
268.88024315444676
 21
220.05078109571855
  0
LINE
  8
_7-0_
  6
CONTINUOUS
 62
    7
 10
268.88024315444676
 20
220.05078109571855
 11
276.31193289263092
 21
222.7049560022129
  0
LINE
  8
_7-0_
  6
CONTINUOUS
 62
    7
 10
279.14895557152727
 20
218.01314408155906
 11
275.72211624674333
 21
220.40467108325117
  0
LINE
  8
_7-0_
  6
CONTINUOUS
 62
    7
 10
276.31193289263092
 20
222.7049560022129
 11
280.68542940652799
 21
218.01314408155906
  0
LINE
  8
_7-0_
  6
CONTINUOUS
 62
    7
 10
276.31193289263092
 20
201.32133216090514
 11
280.68542940652799
 21
206.01314408155906
  0
LINE
  8
_7-0_
  6
CONTINUOUS
 62
    7
 10
268.88024315444676
 20
203.97550706739949
 11
276.31193289263092
 21
201.32133216090514
  0
LINE
  8
_7-0_
  6
CONTINUOUS
 62
    7
 10
275.72211624674333
 20
203.62161707986695
 11
268.88024315444676
 21
203.97550706739949
  0
LINE
  8
_7-0_
  6
CONTINUOUS
 62
    7
 10
279.14895557152727
 20
206.01314408155906
 11
275.72211624674333
 21
203.62161707986695
  0
LINE
  8
ADD_LINE
  6
DOT
 62
    9
 10
259.43050497167144
 20
212.01314408155906
 11
289.40644723309879
 21
212.01314408155906
  0
LINE
  8
_7-0_
  6
CONTINUOUS
 62
    7
 10
263.27803889686174
 20
172.00836866490329
 11
263.27803889686174
 21
169.60836866490325
  0
LINE
  8
_7-0_
  6
CONTINUOUS
 62
    7
 10
263.27803889686174
 20
175.60836866490325
 11
263.27803889686174
 21
163.60836866490325
  0
LINE
  8
_7-0_
  6
CONTINUOUS
 62
    7
 10
286.88839343699993
 20
175.60836866490325
 11
286.88839343699993
 21
163.60836866490325
  0
LINE
  8
_7-0_
  6
CONTINUOUS
 62
    7
 10
263.27803889686174
 20
163.60836866490325
 11
286.88839343699993
 21
163.60836866490325
  0
LINE
  8
_7-0_
  6
CONTINUOUS
 62
    7
 10
286.88839343699993
 20
175.60836866490325
 11
263.27803889686174
 21
175.60836866490325
  0
LINE
  8
_7-0_
  6
CONTINUOUS
 62
    7
 10
275.72211624674333
 20
161.21684166321114
 11
268.88024315444676
 21
161.57073165074377
  0
LINE
  8
_7-0_
  6
CONTINUOUS
 62
    7
 10
268.88024315444676
 20
161.57073165074377
 11
276.31193289263092
 21
158.91655674424942
  0
LINE
  8
_7-0_
  6
CONTINUOUS
 62
    7
 10
279.14895557152727
 20
163.60836866490325
 11
275.72211624674333
 21
161.21684166321114
  0
LINE
  8
_7-0_
  6
CONTINUOUS
 62
    7
 10
276.31193289263092
 20
158.91655674424942
 11
280.68542940652799
 21
163.60836866490325
  0
LINE
  8
_7-0_
  6
CONTINUOUS
 62
    7
 10
276.31193289263092
 20
180.30018058555717
 11
280.68542940652799
 21
175.60836866490325
  0
LINE
  8
_7-0_
  6
CONTINUOUS
 62
    7
 10
268.88024315444676
 20
177.64600567906282
 11
276.31193289263092
 21
180.30018058555717
  0
LINE
  8
_7-0_
  6
CONTINUOUS
 62
    7
 10
275.72211624674333
 20
177.99989566659536
 11
268.88024315444676
 21
177.64600567906282
  0
LINE
  8
_7-0_
  6
CONTINUOUS
 62
    7
 10
279.14895557152727
 20
175.60836866490325
 11
275.72211624674333
 21
177.99989566659536
  0
LINE
  8
ADD_LINE
  6
DOT
 62
    9
 10
259.43050497167144
 20
169.60836866490325
 11
289.40644723309879
 21
169.60836866490325
  0
LINE
  8
_7-0_
  6
CONTINUOUS
 62
    4
 10
85.897658834203469
 20
243.28036175710594
 11
263.27803889686174
 21
243.28036175710594
  0
LINE
  8
_7-0_
  6
CONTINUOUS
 62
    4
 10
85.897658834203469
 20
243.28036175710594
 11
88.795436313070667
 21
244.0568188924135
  0
LINE
  8
_7-0_
  6
CONTINUOUS
 62
    4
 10
85.897658834203469
 20
243.28036175710594
 11
88.795436313070667
 21
242.50390462179837
  0
LINE
  8
_7-0_
  6
CONTINUOUS
 62
    4
 10
263.27803889686174
 20
243.28036175710594
 11
260.38026141799457
 21
244.0568188924135
  0
LINE
  8
_7-0_
  6
CONTINUOUS
 62
    4
 10
263.27803889686174
 20
243.28036175710594
 11
260.38026141799457
 21
242.50390462179837
  0
LINE
  8
_7-0_
  6
CONTINUOUS
 62
    4
 10
85.897658834203469
 20
243.78036175710594
 11
85.897658834203469
 21
220.12790697674419
  0
LINE
  8
_7-0_
  6
CONTINUOUS
 62
    4
 10
263.27803889686174
 20
243.78036175710594
 11
263.27803889686174
 21
220.12790697674419
  0
TEXT
  8
_7-0_
 62
    7
 10
170.21284886553261
 20
243.78036175710594
 40
4
 41
1
 50
0
  1
100±10
  0
TEXT
  8
_7-0_
 62
    3
 10
307.78409862299054
 20
37.160448201341183
 40
5
 41
1
 50
0
  1
長
  0
TEXT
  8
_7-0_
 62
    3
 10
322.80340613433577
 20
37.06292023048826
 40
5
 41
1
 50
0
  1
長
  0
TEXT
  8
_7-0_
 62
    7
 10
351.36694954674641
 20
37.705732383426039
 40
4
 41
1
 50
0
  1
18
  0
TEXT
  8
_7-0_
 62
    7
 10
359.16264380479271
 20
37.644348964071327
 40
4
 41
1
 50
0
  1
12
  0
TEXT
  8
_7-0_
 62
    7
 10
366.03758677251858
 20
37.460198706007247
 40
4
 41
1
 50
0
  1
26
  0
LINE
  8
_7-0_
  6
CONTINUOUS
 62
    4
 10
380.00001649598818
 20
35.00000412399703
 11
394.99996700802365
 21
45.000006185995574
  0
LINE
  8
ADD_LINE
  6
DOT
 62
    9
 10
263.27803889686174
 20
212.01314408155906
 11
196.30472216777173
 21
212.01314408155906
  0
LINE
  8
_7-0_
  6
CONTINUOUS
 62
    7
 10
263.27803889686174
 20
210.01314408155901
 11
202.58372446919066
 21
210.01314408155901
  0
LINE
  8
_7-0_
  6
CONTINUOUS
 62
    7
 10
263.27803889686174
 20
171.60836866490331
 11
202.58372446919066
 21
171.60836866490331
  0
LINE
  8
_7-0_
  6
CONTINUOUS
 62
    7
 10
263.27803889686174
 20
214.01314408155903
 11
195.43433209259433
 21
214.01314408155903
  0
LINE
  8
_7-0_
  6
CONTINUOUS
 62
    7
 10
263.27803889686174
 20
167.60836866490328
 11
195.4343320925943
 21
167.60836866490328
  0
LINE
  8
_7-0_
  6
CONTINUOUS
 62
    7
 10
176.55867048428269
 20
194.42816916427034
 11
176.55867048428269
 21
198.63762261323112
  0
LINE
  8
_7-0_
  6
CONTINUOUS
 62
    7
 10
195.43433209259433
 20
214.01314408155903
 11
176.55867048428269
 21
198.63762261323112
  0
LINE
  8
_7-0_
  6
CONTINUOUS
 62
    7
 10
197.26930147174414
 20
171.60836866490331
 11
202.58372446919066
 21
171.60836866490331
  0
LINE
  8
_7-0_
  6
CONTINUOUS
 62
    7
 10
176.55867048428269
 20
187.19334358219191
 11
176.55867048428269
 21
182.98389013323117
  0
LINE
  8
_7-0_
  6
CONTINUOUS
 62
    7
 10
195.4343320925943
 20
167.60836866490328
 11
176.55867048428269
 21
182.98389013323117
  0
LINE
  8
_7-0_
  6
CONTINUOUS
 62
    7
 10
155.12093023871762
 20
198.63762261323112
 11
176.55867048428269
 21
198.63762261323112
  0
LINE
  8
_7-0_
  6
CONTINUOUS
 62
    7
 10
85.897658834203369
 20
194.63762261323112
 11
142.91926509282933
 21
194.63762261323112
  0
LINE
  8
_7-0_
  6
CONTINUOUS
 62
    7
 10
155.12093023871762
 20
198.63762261323112
 11
142.91926509282933
 21
194.63762261323112
  0
LINE
  8
_7-0_
  6
CONTINUOUS
 62
    7
 10
155.12093023871762
 20
194.42816916427034
 11
176.55867048428269
 21
194.42816916427034
  0
LINE
  8
_7-0_
  6
CONTINUOUS
 62
    7
 10
155.12093023871762
 20
194.42816916427034
 11
155.12093023871762
 21
198.63762261323112
  0
LINE
  8
_7-0_
  6
CONTINUOUS
 62
    7
 10
155.12093023871762
 20
182.98389013323117
 11
176.55867048428269
 21
182.98389013323117
  0
LINE
  8
_7-0_
  6
CONTINUOUS
 62
    7
 10
155.12093023871762
 20
182.98389013323117
 11
142.91926509282933
 21
186.98389013323117
  0
LINE
  8
_7-0_
  6
CONTINUOUS
 62
    7
 10
155.12093023871762
 20
187.19334358219191
 11
176.55867048428269
 21
187.19334358219191
  0
LINE
  8
_7-0_
  6
CONTINUOUS
 62
    7
 10
155.12093023871762
 20
187.19334358219191
 11
155.12093023871762
 21
182.98389013323117
  0
LINE
  8
_7-0_
  6
CONTINUOUS
 62
    7
 10
85.897658834203369
 20
186.98389013323117
 11
142.91926509282933
 21
186.98389013323117
  0
LINE
  8
_7-0_
  6
CONTINUOUS
 62
    7
 10
197.11524712228044
 20
210.01314408155901
 11
202.58372446919066
 21
210.01314408155901
  0
LINE
  8
_7-0_
  6
CONTINUOUS
 62
    7
 10
197.11524712228044
 20
210.01314408155901
 11
198.39400915243044
 21
210.01314408155901
  0
LINE
  8
_7-0_
  6
CONTINUOUS
 62
    7
 10
197.11524712228044
 20
210.01314408155901
 11
176.55867048428269
 21
183.96493057235728
  0
LINE
  8
_7-0_
  6
CONTINUOUS
 62
    7
 10
177.32261555514927
 20
196.68035637206515
 11
180.69767606654617
 21
192.43807391940618
  0
LINE
  8
_7-0_
  6
CONTINUOUS
 62
    7
 10
181.97671264476924
 20
190.83038883826998
 11
197.26930147174414
 21
171.60836866490331
  0
LINE
  8
_7-0_
  6
CONTINUOUS
 62
    7
 10
176.55867048428269
 20
194.42816916427034
 11
179.42497245009474
 21
190.82537078701884
  0
LINE
  8
_7-0_
  6
CONTINUOUS
 62
    4
 10
317.80361757105942
 20
218.31912144702841
 11
317.80361757105942
 21
162.9702842377261
  0
LINE
  8
_7-0_
  6
CONTINUOUS
 62
    4
 10
313.10077519379843
 20
218.31912144702841
 11
317.80361757105942
 21
218.31912144702841
  0
LINE
  8
_7-0_
  6
CONTINUOUS
 62
    4
 10
317.80361757105942
 20
162.9702842377261
 11
313.10077519379843
 21
162.9702842377261
  0
TEXT
  8
_7-0_
 62
    3
 10
287.77777777777777
 20
234.95994832041345
 40
5
 41
1
 50
0
  1
SMP-02V-NC
  0
LINE
  8
_7-0_
  6
CONTINUOUS
 62
    4
 10
285.92326223015499
 20
236.87325960534528
 11
272.51048465652906
 21
214.64112143536261
  0
TEXT
  8
_7-0_
 62
    3
 10
26.589147286821685
 20
217.23385012919897
 40
5
 41
1
 50
0
  1
SLR-02VF
  0
LINE
  8
_7-0_
  6
CONTINUOUS
 62
    4
 10
51.188630490956058
 20
216.87209302325581
 11
64.211886304909569
 21
196.61369509043928
  0
LINE
  8
_7-0_
  6
CONTINUOUS
 62
    7
 10
85.897658834203483
 20
196.87742303989776
 11
53.680954545264427
 21
196.87742303989776
  0
LINE
  8
_7-0_
  6
CONTINUOUS
 62
    7
 10
57.99454371005001
 20
196.87742303989776
 11
57.314543710049946
 21
197.87742303989774
  0
LINE
  8
_7-0_
  6
CONTINUOUS
 62
    7
 10
57.314543710049946
 20
197.87742303989774
 11
53.680954545264427
 21
197.87742303989774
  0
LINE
  8
_7-0_
  6
CONTINUOUS
 62
    7
 10
85.897658834203483
 20
184.74408970656438
 11
53.680954545264427
 21
184.74408970656438
  0
LINE
  8
_7-0_
  6
CONTINUOUS
 62
    7
 10
57.99454371005001
 20
184.74408970656438
 11
57.314543710049946
 21
183.74408970656441
  0
LINE
  8
_7-0_
  6
CONTINUOUS
 62
    7
 10
57.314543710049946
 20
183.74408970656441
 11
53.680954545264427
 21
183.74408970656441
  0
LINE
  8
_7-0_
  6
CONTINUOUS
 62
    7
 10
85.897658834203483
 20
184.74408970656447
 11
85.897658834203483
 21
196.87742303989776
  0
LINE
  8
_7-0_
  6
CONTINUOUS
 62
    7
 10
53.680954545264427
 20
183.74408970656441
 11
53.680954545264427
 21
197.87742303989774
  0
TEXT
  8
_7-0_
 62
    7
 10
352.85915865989182
 20
29.718721275208281
 40
4
 41
1
 50
0
  1
FSD-24用
  0
TEXT
  8
_7-0_
 62
    7
 10
353.08101142426005
 20
25.281665987843496
 40
4
 41
1
 50
0
  1
出力接続ｺｰﾄﾞ
  0
LINE
  8
_7-0_
  6
CONTINUOUS
 62
    4
 10
95.16283966196832
 20
188.48459850391825
 11
102.84044094572307
 21
177.06416659433305
  0
LINE
  8
_7-0_
  6
CONTINUOUS
 62
    7
 10
265.67803889686172
 20
215.01314408155906
 11
265.67803889686172
 21
218.01314408155906
  0
LINE
  8
_7-0_
  6
CONTINUOUS
 62
    7
 10
263.27803889686174
 20
215.01314408155906
 11
265.67803889686172
 21
215.01314408155906
  0
LINE
  8
_7-0_
  6
CONTINUOUS
 62
    7
 10
265.67803889686172
 20
209.01314408155906
 11
263.27803889686174
 21
209.01314408155906
  0
LINE
  8
_7-0_
  6
CONTINUOUS
 62
    7
 10
265.67803889686172
 20
206.01314408155906
 11
265.67803889686172
 21
209.01314408155906
  0
LINE
  8
_7-0_
  6
CONTINUOUS
 62
    7
 10
283.88839343699993
 20
209.01314408155906
 11
283.88839343699993
 21
215.01314408155906
  0
LINE
  8
_7-0_
  6
CONTINUOUS
 62
    7
 10
283.88839343699993
 20
209.01314408155906
 11
286.88839343699993
 21
209.01314408155906
  0
LINE
  8
_7-0_
  6
CONTINUOUS
 62
    7
 10
283.88839343699993
 20
215.01314408155906
 11
286.88839343699993
 21
215.01314408155906
  0
TEXT
  8
_7-0_
 62
    3
 10
251.92381052373702
 20
214.99797889653001
 40
5
 41
1
 50
0
  1
2pin
  0
TEXT
  8
_7-0_
 62
    3
 10
251.66412935062209
 20
203.74512806154888
 40
5
 41
1
 50
0
  1
1pin
  0
LINE
  8
_7-0_
  6
CONTINUOUS
 62
    4
 10
212.22039718944953
 20
201.72409844493853
 11
203.48774891110088
 21
210.88798861357603
  0
LINE
  8
_7-0_
  6
CONTINUOUS
 62
    7
 10
263.27803889686174
 20
172.60836866490325
 11
265.67803889686172
 21
172.60836866490325
  0
LINE
  8
_7-0_
  6
CONTINUOUS
 62
    7
 10
265.67803889686172
 20
172.60836866490325
 11
265.67803889686172
 21
175.60836866490325
  0
LINE
  8
_7-0_
  6
CONTINUOUS
 62
    7
 10
265.67803889686172
 20
166.60836866490325
 11
263.27803889686174
 21
166.60836866490325
  0
LINE
  8
_7-0_
  6
CONTINUOUS
 62
    7
 10
265.67803889686172
 20
163.60836866490325
 11
265.67803889686172
 21
166.60836866490325
  0
LINE
  8
_7-0_
  6
CONTINUOUS
 62
    7
 10
283.88839343699993
 20
166.60836866490325
 11
283.88839343699993
 21
172.60836866490325
  0
LINE
  8
_7-0_
  6
CONTINUOUS
 62
    7
 10
283.88839343699993
 20
172.60836866490325
 11
286.88839343699993
 21
172.60836866490325
  0
LINE
  8
_7-0_
  6
CONTINUOUS
 62
    7
 10
283.88839343699993
 20
166.60836866490325
 11
286.88839343699993
 21
166.60836866490325
  0
LINE
  8
_7-0_
  6
CONTINUOUS
 62
    4
 10
85.897658834203469
 20
231.34237726098192
 11
176.55867048428269
 21
231.34237726098192
  0
LINE
  8
_7-0_
  6
CONTINUOUS
 62
    4
 10
85.897658834203469
 20
231.34237726098192
 11
88.795436313070667
 21
232.11883439628949
  0
LINE
  8
_7-0_
  6
CONTINUOUS
 62
    4
 10
85.897658834203469
 20
231.34237726098192
 11
88.795436313070667
 21
230.56592012567435
  0
LINE
  8
_7-0_
  6
CONTINUOUS
 62
    4
 10
176.55867048428269
 20
231.34237726098192
 11
173.66089300541549
 21
232.11883439628949
  0
LINE
  8
_7-0_
  6
CONTINUOUS
 62
    4
 10
176.55867048428269
 20
231.34237726098192
 11
173.66089300541549
 21
230.56592012567435
  0
LINE
  8
_7-0_
  6
CONTINUOUS
 62
    4
 10
85.897658834203469
 20
231.84237726098192
 11
85.897658834203469
 21
220.12790697674419
  0
LINE
  8
_7-0_
  6
CONTINUOUS
 62
    4
 10
176.55867048428269
 20
231.84237726098192
 11
176.55867048428269
 21
220.12790697674419
  0
LINE
  8
_7-0_
  6
CONTINUOUS
 62
    4
 10
176.55867048428269
 20
231.34237726098192
 11
263.27803889686174
 21
231.34237726098192
  0
LINE
  8
_7-0_
  6
CONTINUOUS
 62
    4
 10
176.55867048428269
 20
231.34237726098192
 11
179.45644796314991
 21
232.11883439628949
  0
LINE
  8
_7-0_
  6
CONTINUOUS
 62
    4
 10
176.55867048428269
 20
231.34237726098192
 11
179.45644796314991
 21
230.56592012567435
  0
LINE
  8
_7-0_
  6
CONTINUOUS
 62
    4
 10
263.27803889686174
 20
231.34237726098192
 11
260.38026141799457
 21
232.11883439628949
  0
LINE
  8
_7-0_
  6
CONTINUOUS
 62
    4
 10
263.27803889686174
 20
231.34237726098192
 11
260.38026141799457
 21
230.56592012567435
  0
LINE
  8
_7-0_
  6
CONTINUOUS
 62
    4
 10
263.27803889686174
 20
231.84237726098192
 11
263.27803889686174
 21
220.12790697674419
  0
LINE
  8
_7-0_
  6
CONTINUOUS
 62
    2
 10
154.25733084333825
 20
183.26699883521707
 11
155.12093023871745
 21
184.13059823059626
  0
LINE
  8
_7-0_
  6
CONTINUOUS
 62
    2
 10
263.02786270732099
 20
210.01314408155918
 11
263.27803889686157
 21
210.26332027109976
  0
LINE
  8
_7-0_
  6
CONTINUOUS
 62
    2
 10
263.04949416185787
 20
167.60836866490331
 11
263.27803889686174
 21
167.83691339990716
  0
LINE
  8
_7-0_
  6
CONTINUOUS
 62
    2
 10
193.72840814477962
 20
168.99796076648084
 11
195.14998675052891
 21
170.41953937223013
  0
LINE
  8
_7-0_
  6
CONTINUOUS
 62
    2
 10
192.16967561367272
 20
170.26765536011879
 11
193.59125421942201
 21
171.68923396586808
  0
LINE
  8
_7-0_
  6
CONTINUOUS
 62
    2
 10
190.61094308256492
 20
171.53734995375765
 11
192.0325216883142
 21
172.95892855950694
  0
LINE
  8
_7-0_
  6
CONTINUOUS
 62
    2
 10
189.05221055145711
 20
172.80704454739652
 11
190.4737891572064
 21
174.2286231531458
  0
LINE
  8
_7-0_
  6
CONTINUOUS
 62
    2
 10
187.4934780203493
 20
174.07673914103538
 11
188.91505662609859
 21
175.49831774678466
  0
LINE
  8
_7-0_
  6
CONTINUOUS
 62
    2
 10
185.93474548924243
 20
175.34643373467335
 11
187.35632409499175
 21
176.76801234042267
  0
LINE
  8
_7-0_
  6
CONTINUOUS
 62
    2
 10
184.3760129581346
 20
176.61612832831219
 11
185.79759156388388
 21
178.03770693406148
  0
LINE
  8
_7-0_
  6
CONTINUOUS
 62
    2
 10
182.81728042702682
 20
177.88582292195105
 11
184.23885903277608
 21
179.30740152770034
  0
LINE
  8
_7-0_
  6
CONTINUOUS
 62
    2
 10
181.25854789592
 20
179.15551751558911
 11
182.68012650166929
 21
180.5770961213384
  0
LINE
  8
_7-0_
  6
CONTINUOUS
 62
    2
 10
179.69981536481214
 20
180.42521210922791
 11
181.12139397056143
 21
181.8467907149772
  0
LINE
  8
_7-0_
  6
CONTINUOUS
 62
    2
 10
178.1410828337043
 20
181.69490670286675
 11
179.56266143945359
 21
183.11648530861601
  0
LINE
  8
_7-0_
  6
CONTINUOUS
 62
    2
 10
176.5823503025965
 20
182.96460129650561
 11
178.00392890834578
 21
184.38617990225487
  0
LINE
  8
_7-0_
  6
CONTINUOUS
 62
    2
 10
176.55867048428252
 20
184.76975664046415
 11
176.91366551155431
 21
184.41476161319235
  0
LINE
  8
_7-0_
  6
CONTINUOUS
 62
    2
 10
176.7372385718557
 20
187.41961567763582
 11
178.16123638937967
 21
185.99561786011185
  0
LINE
  8
_7-0_
  6
CONTINUOUS
 62
    2
 10
177.9848094496819
 20
189.00047192455628
 11
179.40880726720587
 21
187.57647410703231
  0
LINE
  8
_7-0_
  6
CONTINUOUS
 62
    2
 10
179.23238032750805
 20
190.58132817147677
 11
180.65637814503202
 21
189.15733035395283
  0
LINE
  8
_7-0_
  6
CONTINUOUS
 62
    2
 10
180.47995120533426
 20
192.16218441839726
 11
181.90394902285823
 21
190.73818660087329
  0
LINE
  8
_7-0_
  6
CONTINUOUS
 62
    2
 10
181.72752208315961
 20
193.74304066531676
 11
183.15151990068358
 21
192.31904284779276
  0
LINE
  8
_7-0_
  6
CONTINUOUS
 62
    2
 10
182.97509296098582
 20
195.32389691223722
 11
184.39909077850982
 21
193.89989909471322
  0
LINE
  8
_7-0_
  6
CONTINUOUS
 62
    2
 10
184.222663838812
 20
196.90475315915771
 11
185.64666165633594
 21
195.48075534163374
  0
LINE
  8
_7-0_
  6
CONTINUOUS
 62
    2
 10
185.4702347166382
 20
198.48560940607817
 11
186.89423253416217
 21
197.0616115885542
  0
LINE
  8
_7-0_
  6
CONTINUOUS
 62
    2
 10
186.71780559446353
 20
200.06646565299769
 11
188.14180341198752
 21
198.6424678354737
  0
LINE
  8
_7-0_
  6
CONTINUOUS
 62
    2
 10
187.96537647228973
 20
201.64732189991815
 11
189.38937428981373
 21
200.22332408239416
  0
LINE
  8
_7-0_
  6
CONTINUOUS
 62
    2
 10
189.21294735011591
 20
203.22817814683862
 11
190.63694516763988
 21
201.80418032931465
  0
LINE
  8
_7-0_
  6
CONTINUOUS
 62
    2
 10
190.46051822794209
 20
204.80903439375913
 11
191.88451604546606
 21
203.38503657623517
  0
LINE
  8
_7-0_
  6
CONTINUOUS
 62
    2
 10
191.70808910576744
 20
206.38989064067863
 11
193.13208692329147
 21
204.9658928231546
  0
LINE
  8
_7-0_
  6
CONTINUOUS
 62
    2
 10
192.95565998359365
 20
207.97074688759909
 11
194.37965780111767
 21
206.54674907007507
  0
LINE
  8
_7-0_
  6
CONTINUOUS
 62
    2
 10
194.20323086141985
 20
209.55160313451955
 11
195.62722867894382
 21
208.12760531699558
  0
LINE
  8
_7-0_
  6
CONTINUOUS
 62
    2
 10
195.45080173924595
 20
211.13245938144013
 11
196.87479955676997
 21
209.7084615639161
  0
TEXT
  8
_7-0_
 62
    7
 10
287.41602067183464
 20
228.81007751937983
 40
4
 41
1
 50
0
  1
※SMコネクター極性・向き注意
  0
TEXT
  8
_7-0_
 62
    7
 10
124.26356589147287
 20
231.70413436692508
 40
4
 41
1
 50
0
  1
（45）
  0
TEXT
  8
_7-0_
 62
    7
 10
215.54335469057224
 20
231.84237726098192
 40
4
 41
1
 50
0
  1
（55）
  0
TEXT
  8
_7-0_
 62
    7
 10
287.93263848548986
 20
262.12257877130781
 40
4
 41
1
 50
0
  1
2019.1.17
  0
TEXT
  8
_7-0_
 62
    7
 10
316.87071423325256
 20
262.00542056989985
 40
4
 41
1
 50
0
  1
寸法変更
  0
TEXT
  8
_7-0_
 62
    7
 10
377.91013716679242
 20
262.00542056989985
 40
4
 41
1
 50
0
  1
長
  0
LINE
  8
_7-0_
  6
CONTINUOUS
 62
    7
 10
138.08046379100131
 20
237.23969517966003
 11
135.83047179100129
 21
232.73969317966004
  0
LINE
  8
_7-0_
  6
CONTINUOUS
 62
    7
 10
135.83047179100129
 20
232.73969317966004
 11
140.33046379100131
 21
232.73969317966004
  0
LINE
  8
_7-0_
  6
CONTINUOUS
 62
    7
 10
140.33046379100131
 20
232.73969317966004
 11
138.08046379100131
 21
237.23969517966003
  0
TEXT
  8
_7-0_
 62
    7
 10
137.46622982039833
 20
232.80081465671685
 40
3
 41
1
 50
0
  1
1
  0
LINE
  8
_7-0_
  6
CONTINUOUS
 62
    7
 10
230.03095643856744
 20
236.67384599413654
 11
227.78096443856742
 21
232.17384399413655
  0
LINE
  8
_7-0_
  6
CONTINUOUS
 62
    7
 10
227.78096443856742
 20
232.17384399413655
 11
232.28095643856744
 21
232.17384399413655
  0
LINE
  8
_7-0_
  6
CONTINUOUS
 62
    7
 10
232.28095643856744
 20
232.17384399413655
 11
230.03095643856744
 21
236.67384599413654
  0
TEXT
  8
_7-0_
 62
    7
 10
229.41672246796446
 20
232.23496547119336
 40
3
 41
1
 50
0
  1
1
  0
LINE
  8
_7-0_
  6
CONTINUOUS
 62
    7
 10
275.02411000802363
 20
256.60313459839529
 11
394.99996700802365
 21
256.60313459839529
  0
TEXT
  8
_7-0_
 62
    7
 10
377.91013716679242
 20
256.65440559953072
 40
4
 41
1
 50
0
  1
長
  0
TEXT
  8
_7-0_
 62
    7
 10
287.93263848548986
 20
256.77156380093868
 40
4
 41
1
 50
0
  1
2019.2.6
  0
TEXT
  8
_7-0_
 62
    7
 10
316.87071423325256
 20
256.65440559953072
 40
4
 41
1
 50
0
  1
配線仕様変更
  0
LINE
  8
_7-0_
  6
CONTINUOUS
 62
    7
 10
279.94698500802366
 20
261.34554000005028
 11
277.69699300802364
 21
256.84553800005028
  0
LINE
  8
_7-0_
  6
CONTINUOUS
 62
    7
 10
277.69699300802364
 20
256.84553800005028
 11
282.19698500802366
 21
256.84553800005028
  0
LINE
  8
_7-0_
  6
CONTINUOUS
 62
    7
 10
282.19698500802366
 20
256.84553800005028
 11
279.94698500802366
 21
261.34554000005028
  0
TEXT
  8
_7-0_
 62
    7
 10
279.18646331828444
 20
257.10013644529687
 40
3
 41
1
 50
0
  1
2
  0
TEXT
  8
_7-0_
 62
    3
 10
84.665651770393055
 20
168.26577262317301
 40
5
 41
1
 50
0
  1
UL1007＃18白
  0
TEXT
  8
_7-0_
 62
    3
 10
213.61757105943153
 20
199.14599483204134
 40
5
 41
1
 50
0
  1
UL1007＃22白/青ライン
  0
TEXT
  8
_7-0_
 62
    3
 10
213.08288097002713
 20
192.99145016658989
 40
5
 41
1
 50
0
  1
1pin側：配線青ライン（プラス）
  0
LINE
  8
_7-0_
  6
CONTINUOUS
 62
    7
 10
79.102628422434805
 20
172.11135188868835
 11
76.852636422434784
 21
167.61134988868835
  0
LINE
  8
_7-0_
  6
CONTINUOUS
 62
    7
 10
76.852636422434784
 20
167.61134988868835
 11
81.352628422434805
 21
167.61134988868835
  0
LINE
  8
_7-0_
  6
CONTINUOUS
 62
    7
 10
81.352628422434805
 20
167.61134988868835
 11
79.102628422434805
 21
172.11135188868835
  0
TEXT
  8
_7-0_
 62
    7
 10
78.342106732695584
 20
167.86594833393494
 40
3
 41
1
 50
0
  1
2
  0
LINE
  8
_7-0_
  6
CONTINUOUS
 62
    7
 10
208.6026284224348
 20
200.46135188868834
 11
206.35263642243478
 21
195.96134988868835
  0
LINE
  8
_7-0_
  6
CONTINUOUS
 62
    7
 10
206.35263642243478
 20
195.96134988868835
 11
210.8526284224348
 21
195.96134988868835
  0
LINE
  8
_7-0_
  6
CONTINUOUS
 62
    7
 10
210.8526284224348
 20
195.96134988868835
 11
208.6026284224348
 21
200.46135188868834
  0
TEXT
  8
_7-0_
 62
    3
 10
322.50645994832041
 20
189.01679586563307
 40
5
 41
1
 50
0
  1
分岐数：2～6
  0
LINE
  8
_7-0_
  6
CONTINUOUS
 62
    7
 10
85.897658834203483
 20
108.17170603477857
 11
84.897658834203426
 21
108.17170603477857
  0
LINE
  8
_7-0_
  6
CONTINUOUS
 62
    7
 10
85.897658834203483
 20
114.83837270144525
 11
84.897658834203426
 21
114.83837270144525
  0
LINE
  8
_7-0_
  6
CONTINUOUS
 62
    7
 10
84.897658834203426
 20
108.17170603477857
 11
84.897658834203426
 21
114.83837270144525
  0
LINE
  8
ADD_LINE
  6
DOT
 62
    9
 10
53.680954545264427
 20
111.50503936811191
 11
85.897658834203483
 21
111.50503936811191
  0
TEXT
  8
_7-0_
 62
    3
 10
26.589147286821685
 20
137.92813312407984
 40
5
 41
1
 50
0
  1
SLR-02VF
  0
LINE
  8
_7-0_
  6
CONTINUOUS
 62
    4
 10
51.188630490956058
 20
137.56637601813668
 11
64.211886304909569
 21
117.30797808532014
  0
LINE
  8
_7-0_
  6
CONTINUOUS
 62
    7
 10
85.897658834203483
 20
117.57170603477863
 11
53.680954545264427
 21
117.57170603477863
  0
LINE
  8
_7-0_
  6
CONTINUOUS
 62
    7
 10
57.99454371005001
 20
117.57170603477863
 11
57.314543710049946
 21
118.57170603477863
  0
LINE
  8
_7-0_
  6
CONTINUOUS
 62
    7
 10
57.314543710049946
 20
118.57170603477863
 11
53.680954545264427
 21
118.57170603477863
  0
LINE
  8
_7-0_
  6
CONTINUOUS
 62
    7
 10
85.897658834203483
 20
105.43837270144525
 11
53.680954545264427
 21
105.43837270144525
  0
LINE
  8
_7-0_
  6
CONTINUOUS
 62
    7
 10
57.99454371005001
 20
105.43837270144525
 11
57.314543710049946
 21
104.43837270144527
  0
LINE
  8
_7-0_
  6
CONTINUOUS
 62
    7
 10
57.314543710049946
 20
104.43837270144527
 11
53.680954545264427
 21
104.43837270144527
  0
LINE
  8
_7-0_
  6
CONTINUOUS
 62
    7
 10
85.897658834203483
 20
105.43837270144533
 11
85.897658834203483
 21
117.57170603477863
  0
LINE
  8
_7-0_
  6
CONTINUOUS
 62
    7
 10
53.680954545264427
 20
104.43837270144527
 11
53.680954545264427
 21
118.57170603477863
  0
LINE
  8
_7-0_
  6
CONTINUOUS
 62
    2
 10
176.55867048428252
 20
105.46403963534502
 11
176.91366551155431
 21
105.10904460807322
  0
LINE
  8
_7-0_
  6
CONTINUOUS
 62
    7
 10
286.88839343699993
 20
105.50503936811191
 11
286.88839343699993
 21
117.50503936811191
  0
LINE
  8
_7-0_
  6
CONTINUOUS
 62
    7
 10
263.27803889686174
 20
109.10503936811187
 11
263.27803889686174
 21
111.50503936811191
  0
LINE
  8
_7-0_
  6
CONTINUOUS
 62
    7
 10
263.27803889686174
 20
105.50503936811191
 11
263.27803889686174
 21
117.50503936811191
  0
LINE
  8
_7-0_
  6
CONTINUOUS
 62
    7
 10
263.27803889686174
 20
117.50503936811191
 11
286.88839343699993
 21
117.50503936811191
  0
LINE
  8
_7-0_
  6
CONTINUOUS
 62
    7
 10
286.88839343699993
 20
105.50503936811191
 11
263.27803889686174
 21
105.50503936811191
  0
LINE
  8
_7-0_
  6
CONTINUOUS
 62
    7
 10
275.72211624674333
 20
119.89656636980402
 11
268.88024315444676
 21
119.5426763822714
  0
LINE
  8
_7-0_
  6
CONTINUOUS
 62
    7
 10
268.88024315444676
 20
119.5426763822714
 11
276.31193289263092
 21
122.19685128876574
  0
LINE
  8
_7-0_
  6
CONTINUOUS
 62
    7
 10
279.14895557152727
 20
117.50503936811191
 11
275.72211624674333
 21
119.89656636980402
  0
LINE
  8
_7-0_
  6
CONTINUOUS
 62
    7
 10
276.31193289263092
 20
122.19685128876574
 11
280.68542940652799
 21
117.50503936811191
  0
LINE
  8
_7-0_
  6
CONTINUOUS
 62
    7
 10
276.31193289263092
 20
100.81322744745799
 11
280.68542940652799
 21
105.50503936811191
  0
LINE
  8
_7-0_
  6
CONTINUOUS
 62
    7
 10
268.88024315444676
 20
103.46740235395234
 11
276.31193289263092
 21
100.81322744745799
  0
LINE
  8
_7-0_
  6
CONTINUOUS
 62
    7
 10
275.72211624674333
 20
103.1135123664198
 11
268.88024315444676
 21
103.46740235395234
  0
LINE
  8
_7-0_
  6
CONTINUOUS
 62
    7
 10
279.14895557152727
 20
105.50503936811191
 11
275.72211624674333
 21
103.1135123664198
  0
LINE
  8
ADD_LINE
  6
DOT
 62
    9
 10
259.43050497167144
 20
111.50503936811191
 11
289.40644723309879
 21
111.50503936811191
  0
LINE
  8
ADD_LINE
  6
DOT
 62
    9
 10
263.27803889686174
 20
111.50503936811191
 11
196.30472216777173
 21
111.50503936811191
  0
LINE
  8
_7-0_
  6
CONTINUOUS
 62
    7
 10
263.27803889686174
 20
109.50503936811185
 11
202.58372446919066
 21
109.50503936811185
  0
LINE
  8
_7-0_
  6
CONTINUOUS
 62
    7
 10
265.67803889686172
 20
114.50503936811191
 11
265.67803889686172
 21
117.50503936811191
  0
LINE
  8
_7-0_
  6
CONTINUOUS
 62
    7
 10
263.27803889686174
 20
114.50503936811191
 11
265.67803889686172
 21
114.50503936811191
  0
LINE
  8
_7-0_
  6
CONTINUOUS
 62
    7
 10
265.67803889686172
 20
108.50503936811191
 11
263.27803889686174
 21
108.50503936811191
  0
LINE
  8
_7-0_
  6
CONTINUOUS
 62
    7
 10
265.67803889686172
 20
105.50503936811191
 11
265.67803889686172
 21
108.50503936811191
  0
LINE
  8
_7-0_
  6
CONTINUOUS
 62
    7
 10
283.88839343699993
 20
108.50503936811191
 11
283.88839343699993
 21
114.50503936811191
  0
LINE
  8
_7-0_
  6
CONTINUOUS
 62
    7
 10
283.88839343699993
 20
108.50503936811191
 11
286.88839343699993
 21
108.50503936811191
  0
LINE
  8
_7-0_
  6
CONTINUOUS
 62
    7
 10
283.88839343699993
 20
114.50503936811191
 11
286.88839343699993
 21
114.50503936811191
  0
TEXT
  8
_7-0_
 62
    3
 10
251.92381052373702
 20
114.48987418308286
 40
5
 41
1
 50
0
  1
2pin
  0
TEXT
  8
_7-0_
 62
    3
 10
251.66412935062209
 20
103.23702334810173
 40
5
 41
1
 50
0
  1
1pin
  0
LINE
  8
_7-0_
  6
CONTINUOUS
 62
    4
 10
212.22039718944953
 20
101.21599373149138
 11
203.48774891110088
 21
110.37988390012887
  0
LINE
  8
_7-0_
  6
CONTINUOUS
 62
    2
 10
263.02786270732099
 20
109.50503936811205
 11
263.27803889686157
 21
109.7552155576526
  0
LINE
  8
_7-0_
  6
CONTINUOUS
 62
    7
 10
263.27803889686174
 20
113.50503936811191
 11
85.897658834203483
 21
113.50503936811191
  0
LINE
  8
_7-0_
  6
CONTINUOUS
 62
    7
 10
263.27803889686174
 20
111.50503936811191
 11
85.897658834203483
 21
111.50503936811191
  0
LINE
  8
_7-0_
  6
CONTINUOUS
 62
    7
 10
85.897658834203483
 20
109.50503936811185
 11
202.58372446919066
 21
109.50503936811185
  0
LINE
  8
_7-0_
  6
CONTINUOUS
 62
    2
 10
260.66071023866664
 20
109.50503936811219
 11
262.66071023866664
 21
111.50503936811219
  0
LINE
  8
_7-0_
  6
CONTINUOUS
 62
    2
 10
257.83228311391963
 20
109.50503936811191
 11
259.83228311391969
 21
111.50503936811191
  0
LINE
  8
_7-0_
  6
CONTINUOUS
 62
    2
 10
255.0038559891747
 20
109.50503936811177
 11
257.00385598917467
 21
111.50503936811177
  0
LINE
  8
_7-0_
  6
CONTINUOUS
 62
    2
 10
252.17542886442774
 20
109.50503936811151
 11
254.17542886442774
 21
111.50503936811151
  0
LINE
  8
_7-0_
  6
CONTINUOUS
 62
    2
 10
249.34700173968079
 20
109.50503936811123
 11
251.34700173968133
 21
111.50503936811174
  0
LINE
  8
_7-0_
  6
CONTINUOUS
 62
    2
 10
246.51857461493677
 20
109.50503936811205
 11
248.51857461493677
 21
111.50503936811205
  0
LINE
  8
_7-0_
  6
CONTINUOUS
 62
    2
 10
243.69014749018987
 20
109.5050393681118
 11
245.69014749018987
 21
111.5050393681118
  0
LINE
  8
_7-0_
  6
CONTINUOUS
 62
    2
 10
240.86172036544343
 20
109.50503936811202
 11
242.86172036544343
 21
111.50503936811202
  0
LINE
  8
_7-0_
  6
CONTINUOUS
 62
    2
 10
238.03329324069648
 20
109.50503936811174
 11
240.03329324069648
 21
111.50503936811174
  0
LINE
  8
_7-0_
  6
CONTINUOUS
 62
    2
 10
235.20486611595146
 20
109.5050393681116
 11
237.20486611595149
 21
111.5050393681116
  0
LINE
  8
_7-0_
  6
CONTINUOUS
 62
    2
 10
232.37643899120505
 20
109.50503936811182
 11
234.37643899120505
 21
111.50503936811182
  0
LINE
  8
_7-0_
  6
CONTINUOUS
 62
    2
 10
229.54801186645818
 20
109.50503936811162
 11
231.54801186645818
 21
111.50503936811162
  0
LINE
  8
_7-0_
  6
CONTINUOUS
 62
    2
 10
226.71958474171123
 20
109.50503936811134
 11
228.71958474171123
 21
111.50503936811134
  0
LINE
  8
_7-0_
  6
CONTINUOUS
 62
    2
 10
223.89115761696706
 20
109.50503936811202
 11
225.89115761696706
 21
111.50503936811205
  0
LINE
  8
_7-0_
  6
CONTINUOUS
 62
    2
 10
221.06273049222023
 20
109.50503936811185
 11
223.06273049222023
 21
111.50503936811185
  0
LINE
  8
_7-0_
  6
CONTINUOUS
 62
    2
 10
218.23430336747379
 20
109.50503936811208
 11
220.23430336747379
 21
111.50503936811211
  0
LINE
  8
_7-0_
  6
CONTINUOUS
 62
    2
 10
215.40587624272669
 20
109.50503936811165
 11
217.40587624272669
 21
111.50503936811168
  0
LINE
  8
_7-0_
  6
CONTINUOUS
 62
    2
 10
212.57744911798181
 20
109.50503936811165
 11
214.57744911798184
 21
111.50503936811165
  0
LINE
  8
_7-0_
  6
CONTINUOUS
 62
    2
 10
209.74902199323503
 20
109.50503936811151
 11
211.74902199323503
 21
111.50503936811151
  0
LINE
  8
_7-0_
  6
CONTINUOUS
 62
    2
 10
206.92059486848859
 20
109.50503936811177
 11
208.92059486848859
 21
111.50503936811177
  0
LINE
  8
_7-0_
  6
CONTINUOUS
 62
    2
 10
204.09216774374147
 20
109.50503936811131
 11
206.0921677437415
 21
111.50503936811131
  0
LINE
  8
_7-0_
  6
CONTINUOUS
 62
    2
 10
201.26374061899699
 20
109.50503936811168
 11
203.26374061899702
 21
111.50503936811168
  0
LINE
  8
_7-0_
  6
CONTINUOUS
 62
    2
 10
198.43531349425058
 20
109.50503936811191
 11
200.43531349425058
 21
111.50503936811194
  0
LINE
  8
_7-0_
  6
CONTINUOUS
 62
    2
 10
195.60688636950363
 20
109.50503936811162
 11
197.60688636950414
 21
111.50503936811216
  0
LINE
  8
_7-0_
  6
CONTINUOUS
 62
    2
 10
192.77845924475861
 20
109.50503936811148
 11
194.77845924475864
 21
111.50503936811151
  0
LINE
  8
_7-0_
  6
CONTINUOUS
 62
    2
 10
189.9500321200122
 20
109.50503936811171
 11
191.9500321200122
 21
111.50503936811174
  0
LINE
  8
_7-0_
  6
CONTINUOUS
 62
    2
 10
187.12160499526544
 20
109.50503936811165
 11
189.12160499526547
 21
111.50503936811165
  0
LINE
  8
_7-0_
  6
CONTINUOUS
 62
    2
 10
184.29317787051849
 20
109.50503936811137
 11
186.29317787051849
 21
111.50503936811137
  0
LINE
  8
_7-0_
  6
CONTINUOUS
 62
    2
 10
181.4647507457741
 20
109.5050393681118
 11
183.4647507457741
 21
111.50503936811182
  0
LINE
  8
_7-0_
  6
CONTINUOUS
 62
    2
 10
178.63632362102737
 20
109.50503936811177
 11
180.63632362102737
 21
111.50503936811174
  0
LINE
  8
_7-0_
  6
CONTINUOUS
 62
    2
 10
175.80789649628093
 20
109.50503936811199
 11
177.80789649628093
 21
111.50503936811199
  0
LINE
  8
_7-0_
  6
CONTINUOUS
 62
    2
 10
172.97946937153398
 20
109.50503936811168
 11
174.97946937153398
 21
111.50503936811171
  0
LINE
  8
_7-0_
  6
CONTINUOUS
 62
    2
 10
170.15104224678899
 20
109.50503936811154
 11
172.15104224678899
 21
111.50503936811157
  0
LINE
  8
_7-0_
  6
CONTINUOUS
 62
    2
 10
167.32261512204229
 20
109.50503936811154
 11
169.32261512204229
 21
111.50503936811154
  0
LINE
  8
_7-0_
  6
CONTINUOUS
 62
    2
 10
164.49418799729588
 20
109.50503936811177
 11
166.49418799729588
 21
111.5050393681118
  0
LINE
  8
_7-0_
  6
CONTINUOUS
 62
    2
 10
161.66576087254862
 20
109.5050393681112
 11
163.66576087254862
 21
111.5050393681112
  0
LINE
  8
_7-0_
  6
CONTINUOUS
 62
    2
 10
158.83733374780437
 20
109.5050393681118
 11
160.83733374780439
 21
111.5050393681118
  0
LINE
  8
_7-0_
  6
CONTINUOUS
 62
    2
 10
156.00890662305773
 20
109.5050393681118
 11
158.00890662305773
 21
111.50503936811182
  0
LINE
  8
_7-0_
  6
CONTINUOUS
 62
    2
 10
153.18047949831129
 20
109.50503936811205
 11
155.18047949831131
 21
111.50503936811208
  0
LINE
  8
_7-0_
  6
CONTINUOUS
 62
    2
 10
150.35205237356399
 20
109.50503936811143
 11
152.35205237356402
 21
111.50503936811145
  0
LINE
  8
_7-0_
  6
CONTINUOUS
 62
    2
 10
147.52362524881934
 20
109.50503936811162
 11
149.52362524881934
 21
111.50503936811162
  0
LINE
  8
_7-0_
  6
CONTINUOUS
 62
    2
 10
144.69519812407273
 20
109.50503936811168
 11
146.69519812407273
 21
111.50503936811168
  0
LINE
  8
_7-0_
  6
CONTINUOUS
 62
    2
 10
141.86677099932578
 20
109.5050393681114
 11
143.86677099932632
 21
111.50503936811191
  0
LINE
  8
_7-0_
  6
CONTINUOUS
 62
    2
 10
139.03834387458113
 20
109.50503936811157
 11
141.03834387458113
 21
111.50503936811157
  0
LINE
  8
_7-0_
  6
CONTINUOUS
 62
    2
 10
136.20991674983452
 20
109.50503936811165
 11
138.20991674983452
 21
111.50503936811165
  0
LINE
  8
_7-0_
  6
CONTINUOUS
 62
    2
 10
133.38148962508808
 20
109.50503936811188
 11
135.38148962508808
 21
111.50503936811188
  0
LINE
  8
_7-0_
  6
CONTINUOUS
 62
    2
 10
130.55306250034113
 20
109.5050393681116
 11
132.55306250034113
 21
111.5050393681116
  0
LINE
  8
_7-0_
  6
CONTINUOUS
 62
    2
 10
127.72463537559614
 20
109.50503936811145
 11
129.72463537559616
 21
111.50503936811145
  0
LINE
  8
_7-0_
  6
CONTINUOUS
 62
    2
 10
124.8962082508497
 20
109.50503936811168
 11
126.89620825084971
 21
111.50503936811168
  0
LINE
  8
_7-0_
  6
CONTINUOUS
 62
    2
 10
122.06778112610317
 20
109.5050393681118
 11
124.06778112610317
 21
111.50503936811182
  0
LINE
  8
_7-0_
  6
CONTINUOUS
 62
    2
 10
119.23935400135622
 20
109.50503936811151
 11
121.2393540013562
 21
111.50503936811151
  0
LINE
  8
_7-0_
  6
CONTINUOUS
 62
    2
 10
116.41092687661141
 20
109.50503936811157
 11
118.41092687661143
 21
111.5050393681116
  0
LINE
  8
_7-0_
  6
CONTINUOUS
 62
    2
 10
113.58249975186489
 20
109.50503936811171
 11
115.58249975186489
 21
111.50503936811171
  0
LINE
  8
_7-0_
  6
CONTINUOUS
 62
    2
 10
110.75407262711845
 20
109.50503936811194
 11
112.75407262711845
 21
111.50503936811194
  0
LINE
  8
_7-0_
  6
CONTINUOUS
 62
    2
 10
107.92564550237148
 20
109.50503936811165
 11
109.92564550237148
 21
111.50503936811165
  0
LINE
  8
_7-0_
  6
CONTINUOUS
 62
    2
 10
105.09721837762649
 20
109.50503936811151
 11
107.0972183776265
 21
111.50503936811151
  0
LINE
  8
_7-0_
  6
CONTINUOUS
 62
    2
 10
102.26879125288002
 20
109.50503936811171
 11
104.26879125288002
 21
111.50503936811171
  0
LINE
  8
_7-0_
  6
CONTINUOUS
 62
    2
 10
99.440364128133595
 20
109.50503936811194
 11
101.44036412813358
 21
111.50503936811194
  0
LINE
  8
_7-0_
  6
CONTINUOUS
 62
    2
 10
96.611937003386132
 20
109.50503936811114
 11
98.61193700338616
 21
111.50503936811117
  0
LINE
  8
_7-0_
  6
CONTINUOUS
 62
    2
 10
93.783509878641681
 20
109.50503936811154
 11
95.783509878641695
 21
111.50503936811157
  0
LINE
  8
_7-0_
  6
CONTINUOUS
 62
    2
 10
90.95508275389524
 20
109.50503936811177
 11
92.955082753895255
 21
111.5050393681118
  0
LINE
  8
_7-0_
  6
CONTINUOUS
 62
    2
 10
88.126655629148303
 20
109.50503936811151
 11
90.126655629148843
 21
111.50503936811205
  0
LINE
  8
_7-0_
  6
CONTINUOUS
 62
    2
 10
85.897658834204009
 20
110.10446969791207
 11
87.298228504403284
 21
111.50503936811134
  0
LINE
  8
_7-0_
  6
CONTINUOUS
 62
    4
 10
85.897658834203469
 20
135.68413064972367
 11
263.27803889686174
 21
135.68413064972367
  0
LINE
  8
_7-0_
  6
CONTINUOUS
 62
    4
 10
85.897658834203469
 20
135.68413064972367
 11
88.795436313070667
 21
136.46058778503124
  0
LINE
  8
_7-0_
  6
CONTINUOUS
 62
    4
 10
85.897658834203469
 20
135.68413064972367
 11
88.795436313070667
 21
134.9076735144161
  0
LINE
  8
_7-0_
  6
CONTINUOUS
 62
    4
 10
263.27803889686174
 20
135.68413064972367
 11
260.38026141799457
 21
136.46058778503124
  0
LINE
  8
_7-0_
  6
CONTINUOUS
 62
    4
 10
263.27803889686174
 20
135.68413064972367
 11
260.38026141799457
 21
134.9076735144161
  0
TEXT
  8
_7-0_
 62
    7
 10
170.21284886553261
 20
136.18413064972367
 40
4
 41
1
 50
0
  1
100±10
  0
LINE
  8
_7-0_
  6
CONTINUOUS
 62
    4
 10
85.897658834203469
 20
136.18413064972367
 11
85.897658834203469
 21
127.55984124403892
  0
LINE
  8
_7-0_
  6
CONTINUOUS
 62
    4
 10
263.27803889686174
 20
136.18413064972367
 11
263.27803889686174
 21
123.00984124403894
  0
TEXT
  8
_7-0_
 62
    3
 10
322.50645994832041
 20
109.71107886051394
 40
5
 41
1
 50
0
  1
分岐数：1
  0
LINE
  8
_7-0_
  6
CONTINUOUS
 62
    4
 10
263.27803889686174
 20
124.24614615359965
 11
263.27803889686174
 21
120.6348976774475
  0
TEXT
  8
_7-0_
 62
    3
 10
287.77777777777777
 20
136.23477664455572
 40
5
 41
1
 50
0
  1
SMP-02V-NC
  0
TEXT
  8
_7-0_
 62
    7
 10
287.41602067183464
 20
130.08490584352214
 40
4
 41
1
 50
0
  1
※SMコネクター極性・向き注意
  0
LINE
  8
_7-0_
  6
CONTINUOUS
 62
    4
 10
285.92326223015499
 20
138.14808792948756
 11
272.51048465652906
 21
115.91594975950488
  0
TEXT
  8
_7-0_
 62
    3
 10
212.19782902588466
 20
94.527272332725715
 40
5
 41
1
 50
0
  1
HKVF0.3白
  0
TEXT
  8
_7-0_
 62
    3
 10
211.66313893648027
 20
88.372727667274262
 40
5
 41
1
 50
0
  1
1pin側：配線マーク側（プラス）
  0
LINE
  8
_7-0_
  6
CONTINUOUS
 62
    4
 10
22.856335961063053
 20
82.121584792053937
 11
112.85633596106307
 21
82.121584792053937
  0
LINE
  8
_7-0_
  6
CONTINUOUS
 62
    4
 10
22.856335961063053
 20
74.121584792053937
 11
112.85633596106307
 21
74.121584792053937
  0
LINE
  8
_7-0_
  6
CONTINUOUS
 62
    4
 10
22.856335961063053
 20
66.121584792053937
 11
112.85633596106307
 21
66.121584792053937
  0
LINE
  8
_7-0_
  6
CONTINUOUS
 62
    4
 10
22.856335961063053
 20
58.121584792053937
 11
112.85633596106307
 21
58.121584792053937
  0
LINE
  8
_7-0_
  6
CONTINUOUS
 62
    4
 10
22.856335961063053
 20
50.121584792053937
 11
112.85633596106307
 21
50.121584792053937
  0
LINE
  8
_7-0_
  6
CONTINUOUS
 62
    4
 10
22.856335961063053
 20
42.121584792053937
 11
112.85633596106307
 21
42.121584792053937
  0
TEXT
  8
_7-0_
 62
    3
 10
59.444433324004251
 20
75.130911615859219
 40
5
 41
1
 50
0
  1
分岐数
  0
TEXT
  8
_7-0_
 62
    3
 10
66.131223531714227
 20
67.43479458434399
 40
5
 41
1
 50
0
  1
1
  0
TEXT
  8
_7-0_
 62
    3
 10
66.257389384689873
 20
58.603184876047834
 40
5
 41
1
 50
0
  1
2
  0
TEXT
  8
_7-0_
 62
    3
 10
66.005057678738552
 20
51.159399550483926
 40
5
 41
1
 50
0
  1
3
  0
TEXT
  8
_7-0_
 62
    3
 10
66.005057678738552
 20
43.337116665993079
 40
5
 41
1
 50
0
  1
4
  0
TEXT
  8
_7-0_
 62
    3
 10
27.493277386976388
 20
67.439694229119738
 40
5
 41
1
 50
0
  1
FSD-WR-1
  0
TEXT
  8
_7-0_
 62
    3
 10
27.493277386976388
 20
59.481037898370374
 40
5
 41
1
 50
0
  1
FSD-WR-2
  0
TEXT
  8
_7-0_
 62
    3
 10
27.493277386976388
 20
51.411731256435274
 40
5
 41
1
 50
0
  1
FSD-WR-3
  0
TEXT
  8
_7-0_
 62
    3
 10
27.493277386976388
 20
43.589448371944371
 40
5
 41
1
 50
0
  1
FSD-WR-4
  0
TEXT
  8
_7-0_
 62
    3
 10
32.19611976423738
 20
75.257077468834865
 40
5
 41
1
 50
0
  1
型番
  0
LINE
  8
_7-0_
  6
CONTINUOUS
 62
    4
 10
22.856335961063053
 20
34.121584792053937
 11
112.85633596106307
 21
34.121584792053937
  0
LINE
  8
_7-0_
  6
CONTINUOUS
 62
    4
 10
22.856335961063053
 20
26.121584792053937
 11
112.85633596106307
 21
26.121584792053937
  0
LINE
  8
_7-0_
  6
CONTINUOUS
 62
    4
 10
22.856335961063053
 20
82.121584792053937
 11
22.856335961063053
 21
26.121584792053937
  0
LINE
  8
_7-0_
  6
CONTINUOUS
 62
    4
 10
52.856335961063053
 20
82.121584792053937
 11
52.856335961063053
 21
26.121584792053937
  0
LINE
  8
_7-0_
  6
CONTINUOUS
 62
    4
 10
82.856335961063067
 20
82.121584792053937
 11
82.856335961063067
 21
26.121584792053937
  0
LINE
  8
_7-0_
  6
CONTINUOUS
 62
    4
 10
112.85633596106307
 20
82.121584792053937
 11
112.85633596106307
 21
26.121584792053937
  0
TEXT
  8
_7-0_
 62
    3
 10
27.493277386976388
 20
35.091821620426515
 40
5
 41
1
 50
0
  1
FSD-WR-5
  0
TEXT
  8
_7-0_
 62
    3
 10
27.493277386976388
 20
27.099513465868483
 40
5
 41
1
 50
0
  1
FSD-WR-6
  0
TEXT
  8
_7-0_
 62
    3
 10
66.005057678738552
 20
34.839489914475195
 40
5
 41
1
 50
0
  1
5
  0
TEXT
  8
_7-0_
 62
    3
 10
66.005057678738552
 20
26.847181759917163
 40
5
 41
1
 50
0
  1
6
  0
TEXT
  8
_7-0_
 62
    3
 10
92.176510248427249
 20
75.183582797198568
 40
5
 41
1
 50
0
  1
図番
  0
LINE
  8
_7-0_
  6
CONTINUOUS
 62
    7
 10
155.12093023871762
 20
194.42816916427034
 11
145.30648186062803
 21
191.21075637323113
  0
LINE
  8
_7-0_
  6
CONTINUOUS
 62
    7
 10
85.897658834203369
 20
191.21075637323113
 11
145.30648186062803
 21
191.21075637323113
  0
LINE
  8
_7-0_
  6
CONTINUOUS
 62
    7
 10
85.897658834203369
 20
190.41075637323112
 11
145.30648186062803
 21
190.41075637323112
  0
LINE
  8
_7-0_
  6
CONTINUOUS
 62
    7
 10
155.12093023871762
 20
187.19334358219191
 11
145.30648186062803
 21
190.41075637323112
  0
LINE
  8
_7-0_
  6
CONTINUOUS
 62
    7
 10
180.70400902831781
 20
189.21768570588262
 11
196.14560685430263
 21
169.80836866490324
  0
LINE
  8
_7-0_
  6
CONTINUOUS
 62
    7
 10
263.27803889686174
 20
169.80836866490324
 11
196.14560685430263
 21
169.80836866490324
  0
LINE
  8
_7-0_
  6
CONTINUOUS
 62
    7
 10
196.39134406898179
 20
212.21314408155905
 11
176.55867048428269
 21
196.05807069639062
  0
LINE
  8
_7-0_
  6
CONTINUOUS
 62
    7
 10
263.27803889686174
 20
212.21314408155905
 11
196.39134406898179
 21
212.21314408155905
  0
LINE
  8
_7-0_
  6
CONTINUOUS
 62
    7
 10
195.98798050581919
 20
211.81314408155905
 11
176.55867048428269
 21
187.19334358219191
  0
LINE
  8
_7-0_
  6
CONTINUOUS
 62
    7
 10
263.27803889686174
 20
211.81314408155905
 11
195.98798050581919
 21
211.81314408155905
  0
LINE
  8
_7-0_
  6
CONTINUOUS
 62
    7
 10
196.39134406898177
 20
169.40836866490326
 11
177.32655209559218
 21
184.93794979211424
  0
LINE
  8
_7-0_
  6
CONTINUOUS
 62
    7
 10
263.27803889686174
 20
169.40836866490326
 11
196.39134406898177
 21
169.40836866490326
  0
LINE
  8
_7-0_
  6
CONTINUOUS
 62
    2
 10
195.2871406758874
 20
167.72826617284198
 11
196.96724316794871
 21
169.40836866490326
  0
LINE
  8
_7-0_
  6
CONTINUOUS
 62
    2
 10
197.99567029269519
 20
167.60836866490308
 11
199.79567029269538
 21
169.40836866490326
  0
LINE
  8
_7-0_
  6
CONTINUOUS
 62
    2
 10
200.82409741744169
 20
167.60836866490291
 11
202.62409741744204
 21
169.40836866490326
  0
LINE
  8
_7-0_
  6
CONTINUOUS
 62
    2
 10
203.65252454218711
 20
167.60836866490348
 11
205.45252454218689
 21
169.40836866490326
  0
LINE
  8
_7-0_
  6
CONTINUOUS
 62
    2
 10
206.48095166693352
 20
167.60836866490322
 11
208.28095166693356
 21
169.40836866490326
  0
LINE
  8
_7-0_
  6
CONTINUOUS
 62
    2
 10
209.30937879168005
 20
167.60836866490308
 11
211.10937879168023
 21
169.40836866490326
  0
LINE
  8
_7-0_
  6
CONTINUOUS
 62
    2
 10
212.13780591642649
 20
167.60836866490286
 11
213.9378059164269
 21
169.40836866490326
  0
LINE
  8
_7-0_
  6
CONTINUOUS
 62
    2
 10
214.96623304117202
 20
167.60836866490354
 11
216.76623304117174
 21
169.40836866490326
  0
LINE
  8
_7-0_
  6
CONTINUOUS
 62
    2
 10
217.79466016591846
 20
167.60836866490331
 11
219.59466016591841
 21
169.40836866490326
  0
LINE
  8
_7-0_
  6
CONTINUOUS
 62
    2
 10
220.6230872906649
 20
167.60836866490308
 11
222.42308729066508
 21
169.40836866490326
  0
LINE
  8
_7-0_
  6
CONTINUOUS
 62
    2
 10
223.45151441541208
 20
167.60836866490359
 11
225.25151441541175
 21
169.40836866490326
  0
LINE
  8
_7-0_
  6
CONTINUOUS
 62
    2
 10
226.27994154015664
 20
167.60836866490331
 11
228.0799415401566
 21
169.40836866490326
  0
LINE
  8
_7-0_
  6
CONTINUOUS
 62
    2
 10
231.93679578964975
 20
167.60836866490308
 11
233.73679578964993
 21
169.40836866490326
  0
LINE
  8
_7-0_
  6
CONTINUOUS
 62
    2
 10
229.10836866490305
 20
167.60836866490305
 11
230.90836866490326
 21
169.40836866490326
  0
LINE
  8
_7-0_
  6
CONTINUOUS
 62
    2
 10
234.76522291439528
 20
167.60836866490376
 11
236.56522291439478
 21
169.40836866490326
  0
LINE
  8
_7-0_
  6
CONTINUOUS
 62
    2
 10
237.59365003914172
 20
167.60836866490354
 11
239.39365003914145
 21
169.40836866490326
  0
LINE
  8
_7-0_
  6
CONTINUOUS
 62
    2
 10
240.42207716388816
 20
167.60836866490331
 11
242.22207716388812
 21
169.40836866490326
  0
LINE
  8
_7-0_
  6
CONTINUOUS
 62
    2
 10
243.25050428863497
 20
167.60836866490345
 11
245.05050428863478
 21
169.40836866490326
  0
LINE
  8
_7-0_
  6
CONTINUOUS
 62
    2
 10
248.90735853812618
 20
167.60836866490314
 11
250.7073585381263
 21
169.40836866490326
  0
LINE
  8
_7-0_
  6
CONTINUOUS
 62
    2
 10
246.07893141337973
 20
167.60836866490337
 11
247.87893141337963
 21
169.40836866490326
  0
LINE
  8
_7-0_
  6
CONTINUOUS
 62
    2
 10
251.73578566287256
 20
167.60836866490286
 11
253.53578566287297
 21
169.40836866490326
  0
LINE
  8
_7-0_
  6
CONTINUOUS
 62
    2
 10
254.56421278761945
 20
167.60836866490308
 11
256.36421278761964
 21
169.40836866490326
  0
LINE
  8
_7-0_
  6
CONTINUOUS
 62
    2
 10
257.39263991236498
 20
167.60836866490376
 11
259.19263991236448
 21
169.40836866490326
  0
LINE
  8
_7-0_
  6
CONTINUOUS
 62
    2
 10
260.22106703711142
 20
167.60836866490354
 11
262.02106703711115
 21
169.40836866490326
  0
LINE
  8
_7-0_
  6
CONTINUOUS
 62
    2
 10
197.9740388381588
 20
210.01314408155943
 11
199.77403883815845
 21
211.81314408155905
  0
LINE
  8
_7-0_
  6
CONTINUOUS
 62
    2
 10
200.80246596290525
 20
210.0131440815592
 11
202.60246596290511
 21
211.81314408155905
  0
LINE
  8
_7-0_
  6
CONTINUOUS
 62
    2
 10
203.63089308765021
 20
210.01314408155932
 11
205.43089308764993
 21
211.81314408155905
  0
LINE
  8
_7-0_
  6
CONTINUOUS
 62
    2
 10
220.60145583612854
 20
210.01314408155946
 11
222.40145583612815
 21
211.81314408155905
  0
LINE
  8
_7-0_
  6
CONTINUOUS
 62
    2
 10
223.42988296087279
 20
210.01314408155886
 11
225.22988296087297
 21
211.81314408155905
  0
LINE
  8
_7-0_
  6
CONTINUOUS
 62
    2
 10
226.25831008561974
 20
210.01314408155915
 11
228.05831008561964
 21
211.81314408155905
  0
LINE
  8
_7-0_
  6
CONTINUOUS
 62
    2
 10
229.08673721036644
 20
210.01314408155918
 11
230.88673721036631
 21
211.81314408155905
  0
LINE
  8
_7-0_
  6
CONTINUOUS
 62
    2
 10
231.9151643351131
 20
210.01314408155918
 11
233.71516433511297
 21
211.81314408155905
  0
LINE
  8
_7-0_
  6
CONTINUOUS
 62
    2
 10
234.74359145985787
 20
210.01314408155909
 11
236.54359145985782
 21
211.81314408155905
  0
LINE
  8
_7-0_
  6
CONTINUOUS
 62
    2
 10
237.57201858460485
 20
210.01314408155937
 11
239.37201858460452
 21
211.81314408155905
  0
LINE
  8
_7-0_
  6
CONTINUOUS
 62
    2
 10
240.40044570935146
 20
210.01314408155935
 11
242.20044570935119
 21
211.81314408155905
  0
LINE
  8
_7-0_
  6
CONTINUOUS
 62
    2
 10
243.22887283409824
 20
210.01314408155946
 11
245.02887283409783
 21
211.81314408155905
  0
LINE
  8
_7-0_
  6
CONTINUOUS
 62
    2
 10
246.05729995884286
 20
210.01314408155923
 11
247.85729995884267
 21
211.81314408155905
  0
LINE
  8
_7-0_
  6
CONTINUOUS
 62
    2
 10
248.8857270835893
 20
210.01314408155898
 11
250.68572708358937
 21
211.81314408155905
  0
LINE
  8
_7-0_
  6
CONTINUOUS
 62
    2
 10
251.71415420833623
 20
210.01314408155926
 11
253.51415420833604
 21
211.81314408155905
  0
LINE
  8
_7-0_
  6
CONTINUOUS
 62
    2
 10
254.54258133308264
 20
210.01314408155901
 11
256.34258133308271
 21
211.81314408155905
  0
LINE
  8
_7-0_
  6
CONTINUOUS
 62
    2
 10
257.37100845782811
 20
210.01314408155963
 11
259.17100845782755
 21
211.81314408155905
  0
LINE
  8
_7-0_
  6
CONTINUOUS
 62
    2
 10
260.19943558257455
 20
210.0131440815594
 11
261.99943558257422
 21
211.81314408155905
  0
LINE
  8
_7-0_
  6
CONTINUOUS
 62
    2
 10
217.77302871138156
 20
210.01314408155915
 11
219.57302871138145
 21
211.81314408155905
  0
LINE
  8
_7-0_
  6
CONTINUOUS
 62
    2
 10
206.45932021239662
 20
210.01314408155906
 11
208.2593202123966
 21
211.81314408155905
  0
LINE
  8
_7-0_
  6
CONTINUOUS
 62
    2
 10
209.28774733714357
 20
210.01314408155935
 11
211.08774733714327
 21
211.81314408155905
  0
LINE
  8
_7-0_
  6
CONTINUOUS
 62
    2
 10
212.11617446188998
 20
210.01314408155909
 11
213.91617446188994
 21
211.81314408155905
  0
LINE
  8
_7-0_
  6
CONTINUOUS
 62
    2
 10
214.94460158663512
 20
210.01314408155937
 11
216.74460158663479
 21
211.81314408155905
  0
TEXT
  8
_7-0_
 62
    3
 10
216.50999999999999
 20
223.70625000000001
 40
5
 41
1
 50
0
  1
UL1007＃22白
  0
LINE
  8
_7-0_
  6
CONTINUOUS
 62
    7
 10
211.35887842243483
 20
229.17885188868837
 11
209.10888642243481
 21
224.67884988868838
  0
LINE
  8
_7-0_
  6
CONTINUOUS
 62
    7
 10
209.10888642243481
 20
224.67884988868838
 11
213.60887842243483
 21
224.67884988868838
  0
LINE
  8
_7-0_
  6
CONTINUOUS
 62
    7
 10
213.60887842243483
 20
224.67884988868838
 11
211.35887842243483
 21
229.17885188868837
  0
TEXT
  8
_7-0_
 62
    7
 10
210.59835673269561
 20
224.93344833393496
 40
3
 41
1
 50
0
  1
2
  0
TEXT
  8
_7-0_
 62
    7
 10
207.84360891647856
 20
196.1864334085779
 40
3
 41
1
 50
0
  1
2
  0
LINE
  8
_7-0_
  6
CONTINUOUS
 62
    4
 10
202.8775
 20
213.73124999999999
 11
215.94841986455981
 21
225.26534988713317
  0
TEXT
  8
_7-0_
 62
    3
 10
168.4213021386268
 20
158.0768253109789
 40
5
 41
1
 50
0
  1
半田接続後白収縮チューブで絶縁
  0
LINE
  8
_7-0_
  6
CONTINUOUS
 62
    4
 10
167.312661498708
 20
183.22868217054264
 11
175.63307493540051
 21
164.71464755723815
  0
LINE
  8
_7-0_
  6
CONTINUOUS
 62
    4
 10
102.84044094572307
 20
177.06416659433305
 11
98.225166666666667
 21
192.70995833333333
  0
TEXT
  8
_7-0_
 62
    7
 10
352.28770083706684
 20
18.063038189923589
 40
4
 41
1
 50
0
  1
Ｆ２１８Ｃ０８０-３
  0
LINE
  8
_7-0_
  6
CONTINUOUS
 62
    7
 10
275.02411000802363
 20
251.60313459839529
 11
394.99996700802365
 21
251.60313459839529
  0
LINE
  8
_7-0_
  6
CONTINUOUS
 62
    7
 10
275.02411000802363
 20
261.60313459839529
 11
275.02411000802363
 21
251.60313459839529
  0
LINE
  8
_7-0_
  6
CONTINUOUS
 62
    7
 10
285.02411800802366
 20
261.60313459839529
 11
285.02411800802366
 21
251.60313459839529
  0
LINE
  8
_7-0_
  6
CONTINUOUS
 62
    7
 10
315.02411800802366
 20
261.60313459839529
 11
315.02411800802366
 21
251.60313459839529
  0
LINE
  8
_7-0_
  6
CONTINUOUS
 62
    7
 10
375.02411800802366
 20
261.60313459839529
 11
375.02411800802366
 21
251.60313459839529
  0
LINE
  8
_7-0_
  6
CONTINUOUS
 62
    7
 10
385.02411800802366
 20
261.60313459839529
 11
385.02411800802366
 21
251.60313459839529
  0
TEXT
  8
_7-0_
 62
    7
 10
377.91013716679242
 20
251.75685086387517
 40
4
 41
1
 50
0
  1
長
  0
LINE
  8
_7-0_
  6
CONTINUOUS
 62
    7
 10
279.94698500802366
 20
256.44798526439473
 11
277.69699300802364
 21
251.94798326439474
  0
LINE
  8
_7-0_
  6
CONTINUOUS
 62
    7
 10
277.69699300802364
 20
251.94798326439474
 11
282.19698500802366
 21
251.94798326439474
  0
LINE
  8
_7-0_
  6
CONTINUOUS
 62
    7
 10
282.19698500802366
 20
251.94798326439474
 11
279.94698500802366
 21
256.44798526439473
  0
TEXT
  8
_7-0_
 62
    7
 10
279.18646331828444
 20
252.20258170964132
 40
3
 41
1
 50
0
  1
3
  0
TEXT
  8
_7-0_
 62
    7
 10
287.93263848548986
 20
251.8740090652831
 40
4
 41
1
 50
0
  1
2019.3.8
  0
TEXT
  8
_7-0_
 62
    7
 10
316.87071423325256
 20
251.75685086387517
 40
4
 41
1
 50
0
  1
端子番号変更
  0
TEXT
  8
_7-0_
 62
    3
 10
80.465717204494922
 20
178.79505438375099
 40
5
 41
1
 50
0
  1
1pin
  0
TEXT
  8
_7-0_
 62
    3
 10
80.465717204494922
 20
198.91884502133286
 40
5
 41
1
 50
0
  1
2pin
  0
TEXT
  8
_7-0_
 62
    3
 10
80.465717204494922
 20
99.489337378631859
 40
5
 41
1
 50
0
  1
1pin
  0
TEXT
  8
_7-0_
 62
    3
 10
80.465717204494922
 20
119.61312801621372
 40
5
 41
1
 50
0
  1
2pin
  0
TEXT
  8
_7-0_
 62
    3
 10
84.875040896313635
 20
162.82165534923783
 40
5
 41
1
 50
0
  1
1pin側：プラス
  0
LINE
  8
_7-0_
  6
CONTINUOUS
 62
    7
 10
125.76402797096756
 20
167.91530222728881
 11
123.51403597096754
 21
163.41530022728881
  0
LINE
  8
_7-0_
  6
CONTINUOUS
 62
    7
 10
123.51403597096754
 20
163.41530022728881
 11
128.01402797096756
 21
163.41530022728881
  0
LINE
  8
_7-0_
  6
CONTINUOUS
 62
    7
 10
128.01402797096756
 20
163.41530022728881
 11
125.76402797096756
 21
167.91530222728881
  0
TEXT
  8
_7-0_
 62
    7
 10
125.00350628122834
 20
163.6698986725354
 40
3
 41
1
 50
0
  1
3
  0
TEXT
  8
_7-0_
 62
    3
 10
84.729123162027193
 20
67.439694229119738
 40
5
 41
1
 50
0
  1
F218C081-3
  0
TEXT
  8
_7-0_
 62
    3
 10
84.729123162027193
 20
59.107848287950475
 40
5
 41
1
 50
0
  1
F218C082-3
  0
TEXT
  8
_7-0_
 62
    3
 10
84.729123162027193
 20
51.53789710941092
 40
5
 41
1
 50
0
  1
F218C083-3
  0
TEXT
  8
_7-0_
 62
    3
 10
84.729123162027193
 20
43.084784960041759
 40
5
 41
1
 50
0
  1
F218C084-3
  0
TEXT
  8
_7-0_
 62
    3
 10
84.729123162027193
 20
34.587158208523874
 40
5
 41
1
 50
0
  1
F218C085-3
  0
TEXT
  8
_7-0_
 62
    3
 10
84.592781367220752
 20
27.12761362498938
 40
5
 41
1
 50
0
  1
F218C086-3
  0
ENDSEC
  0
EOF
