  0
SECTION
  2
HEADER
  9
$ACADVER
  1
AC1009
  9
$INSBASE
 10
0
 20
0
 30
0
  9
$EXTMIN
 10
0
 20
0
  9
$EXTMAX
 10
420
 20
297
  9
$LIMMIN
 10
0
 20
0
  9
$LIMMAX
 10
420
 20
297
  9
$LTSCALE
 40
1
  0
ENDSEC
  0
SECTION
  2
TABLES
  0
TABLE
  2
LTYPE
 70
     9
  0
LTYPE
  2
CONTINUOUS
 70
    64
  3
実線
 72
    65
 73
     0
 40
0.0
  0
LTYPE
  2
DASHED1
 70
    64
  3
--  --  --  --  --  --  --  --  
 72
    65
 73
     2
 40
2.5
 49
1.25
 49
-1.25
  0
LTYPE
  2
DASHED2
 70
    64
  3
----    ----    ----    ----    
 72
    65
 73
     2
 40
5.0
 49
2.5
 49
-2.5
  0
LTYPE
  2
DASHED3
 70
    64
  3
------  ------  ------  ------  
 72
    65
 73
     2
 40
5.0
 49
3.75
 49
-1.25
  0
LTYPE
  2
CENTER1
 70
    64
  3
----- - ----- - ----- - ----- - 
 72
    65
 73
     4
 40
10.0
 49
6.25
 49
-1.25
 49
1.25
 49
-1.25
  0
LTYPE
  2
CENTER2
 70
    64
  3
----------  --  ----------  --  
 72
    65
 73
     4
 40
20.0
 49
12.5
 49
-2.5
 49
2.5
 49
-2.5
  0
LTYPE
  2
PHANTOM1
 70
    64
  3
--- - - --- - - --- - - --- - - 
 72
    65
 73
     6
 40
10.0
 49
3.25
 49
-1.25
 49
1.25
 49
-1.25
 49
1.25
 49
-1.25
  0
LTYPE
  2
PHANTOM2
 70
    64
  3
--------  -  -  --------  -  -  
 72
    65
 73
     6
 40
20.0
 49
10.0
 49
-2.5
 49
1.25
 49
-2.5
 49
1.25
 49
-2.5
  0
LTYPE
  2
DOT
 70
    64
  3
-   -   -   -   -   -   -   -   
 72
    65
 73
     2
 40
2.5
 49
0.625
 49
-1.875
  0
LTYPE
  2
DUMMY
 70
    64
  3
ダミー
 72
    65
 73
     0
 40
0.0
  0
LTYPE
  2
RAND1
 70
    64
  3
ランダム線1
 72
    65
 73
     4
 40
10.0
 49
1.0
 49
-2.0
 49
3.0
 49
-4.0
  0
LTYPE
  2
RAND2
 70
    64
  3
ランダム線2
 72
    65
 73
     4
 40
14.0
 49
2.0
 49
-3.0
 49
4.0
 49
-5.0
  0
LTYPE
  2
RAND3
 70
    64
  3
ランダム線3
 72
    65
 73
     4
 40
18.0
 49
3.0
 49
-4.0
 49
5.0
 49
-6.0
  0
LTYPE
  2
RAND4
 70
    64
  3
ランダム線4
 72
    65
 73
     4
 40
22.0
 49
4.0
 49
-5.0
 49
6.0
 49
-7.0
  0
LTYPE
  2
RAND5
 70
    64
  3
ランダム線5
 72
    65
 73
     4
 40
26.0
 49
5.0
 49
-6.0
 49
7.0
 49
-8.0
  0
LTYPE
  2
LONG1
 70
    64
  3
----------  --  ----------  --  
 72
    65
 73
     4
 40
40.0
 49
32.5
 49
-2.5
 49
2.5
 49
-2.5
  0
LTYPE
  2
LONG2
 70
    64
  3
--------  -  -  --------  -  -  
 72
    65
 73
     6
 40
40.0
 49
30.0
 49
-2.5
 49
1.25
 49
-2.5
 49
1.25
 49
-2.5
  0
LTYPE
  2
LONG3
 70
    64
  3
+++++++++++++++..+++++++++++++++
 72
    65
 73
     2
 40
40.0
 49
37.5
 49
-2.5
  0
LTYPE
  2
LONG4
 70
    64
  3
+++++++++++++++..+++++++++++++++
 72
    65
 73
     2
 40
80.0
 49
75.0
 49
-5.0
  0
LTYPE
  2
LONG5
 70
    64
  3
----------  --  ----------  --  
 72
    65
 73
     4
 40
60.0
 49
37.5
 49
-7.5
 49
7.5
 49
-7.5
  0
LTYPE
  2
dashed
 70
   64
  3
-------   -------------   ------
 72
   65
 73
    2
 40
7.5
 49
6
 49
-1.5
  0
LTYPE
  2
dashed_spaced
 70
   64
  3
----        --------        ----
 72
   65
 73
    2
 40
12
 49
6
 49
-6
  0
LTYPE
  2
long_dashed_dotted
 70
   64
  3
------------- --- --------------
 72
   65
 73
    4
 40
15.25
 49
12
 49
-1.5
 49
0.25
 49
-1.5
  0
LTYPE
  2
long_dashed_double-dotted
 70
   64
  3
----------- --- --- ------------
 72
   65
 73
    6
 40
17
 49
12
 49
-1.5
 49
0.25
 49
-1.5
 49
0.25
 49
-1.5
  0
LTYPE
  2
long_dashed_triplicate-dotted
 70
   64
  3
--------- --- --- --- ----------
 72
   65
 73
    8
 40
18.75
 49
12
 49
-1.5
 49
0.25
 49
-1.5
 49
0.25
 49
-1.5
 49
0.25
 49
-1.5
  0
LTYPE
  2
dotted
 70
   64
  3
   -       -       -       -    
 72
   65
 73
    2
 40
1.75
 49
0.25
 49
-1.5
  0
LTYPE
  2
chain
 70
   64
  3
-------------- -- --------------
 72
   65
 73
    4
 40
18.5
 49
12
 49
-1.5
 49
3.5
 49
-1.5
  0
LTYPE
  2
chain_double_dash
 70
   64
  3
------------ -- -- -------------
 72
   65
 73
    6
 40
23.5
 49
12
 49
-1.5
 49
3.5
 49
-1.5
 49
3.5
 49
-1.5
  0
LTYPE
  2
dashed_dotted
 70
   64
  3
-----------     -     ----------
 72
   65
 73
    4
 40
9.25
 49
6
 49
-1.5
 49
0.25
 49
-1.5
  0
LTYPE
  2
double-dashed_dotted
 70
   64
  3
------   -----------   -   -----
 72
   65
 73
    6
 40
16.75
 49
6
 49
-1.5
 49
6
 49
-1.5
 49
0.25
 49
-1.5
  0
LTYPE
  2
dashed_double-dotted
 70
   64
  3
---------    -    -    ---------
 72
   65
 73
    6
 40
11
 49
6
 49
-1.5
 49
0.25
 49
-1.5
 49
0.25
 49
-1.5
  0
LTYPE
  2
double-dashed_double-dotted
 70
   64
  3
-----   ---------   -   -   ----
 72
   65
 73
    8
 40
18.5
 49
6
 49
-1.5
 49
6
 49
-1.5
 49
0.25
 49
-1.5
 49
0.25
 49
-1.5
  0
LTYPE
  2
dashed_triplicate-dotted
 70
   64
  3
-------    -    -    -    ------
 72
   65
 73
    8
 40
12.75
 49
6
 49
-1.5
 49
0.25
 49
-1.5
 49
0.25
 49
-1.5
 49
0.25
 49
-1.5
  0
LTYPE
  2
double-dashed_triplicate-dotted
 70
   64
  3
-----  ---------  -  -  -  -----
 72
   65
 73
   10
 40
20.25
 49
6
 49
-1.5
 49
6
 49
-1.5
 49
0.25
 49
-1.5
 49
0.25
 49
-1.5
 49
0.25
 49
-1.5
  0
LTYPE
  2
undefined
 70
   64
  3
--------------------------------
 72
   65
 73
    0
 40
0
  0
LTYPE
  2
_
 70
   64
  3
                                
 72
   65
 73
    0
 40
0
  0
LTYPE
  2
__18
 70
   64
  3
                                
 72
   65
 73
    0
 40
0
  0
LTYPE
  2
__19
 70
   64
  3
                                
 72
   65
 73
    0
 40
0
  0
LTYPE
  2
__20
 70
   64
  3
                                
 72
   65
 73
    0
 40
0
  0
LTYPE
  2
__21
 70
   64
  3
                                
 72
   65
 73
    0
 40
0
  0
LTYPE
  2
__22
 70
   64
  3
                                
 72
   65
 73
    0
 40
0
  0
LTYPE
  2
__23
 70
   64
  3
                                
 72
   65
 73
    0
 40
0
  0
LTYPE
  2
__24
 70
   64
  3
                                
 72
   65
 73
    0
 40
0
  0
LTYPE
  2
__25
 70
   64
  3
                                
 72
   65
 73
    0
 40
0
  0
LTYPE
  2
__26
 70
   64
  3
                                
 72
   65
 73
    0
 40
0
  0
LTYPE
  2
__27
 70
   64
  3
                                
 72
   65
 73
    0
 40
0
  0
LTYPE
  2
__28
 70
   64
  3
                                
 72
   65
 73
    0
 40
0
  0
LTYPE
  2
__29
 70
   64
  3
                                
 72
   65
 73
    0
 40
0
  0
LTYPE
  2
__30
 70
   64
  3
                                
 72
   65
 73
    0
 40
0
  0
LTYPE
  2
__31
 70
   64
  3
                                
 72
   65
 73
    0
 40
0
  0
LTYPE
  2
__32
 70
   64
  3
                                
 72
   65
 73
    0
 40
0
  0
ENDTAB
  0
TABLE
  2
STYLE
  5
3
100
AcDbSymbolTable
 70
     1
  0
STYLE
  5
10
100
AcDbSymbolTableRecord
100
AcDbTextStyleTableRecord
  2
STANDARD
 70
     0
 40
0.0
 41
1.0
 50
0.0
 71
     0
 42
0.2
  3
txt
  4
bigfont.shx
  0
STYLE
  5
26
100
AcDbSymbolTableRecord
100
AcDbTextStyleTableRecord
  2
TATEGAKI
 70
    68
 40
0.0
 41
1.0
 50
0.0
 71
     0
 42
1.0
  3
txt
  4
bigfont.shx
  0
ENDTAB
  0
TABLE
  2
LAYER
 70
    3
  0
LAYER
  2
_0-0_
 70
   64
 62
    7
  6
CONTINUOUS
  0
LAYER
  2
_2-0_
 70
   64
 62
    7
  6
CONTINUOUS
  0
LAYER
  2
ADD_LINE
 70
   64
 62
    7
  6
CONTINUOUS
  0
ENDTAB
  0
ENDSEC
  0
SECTION
  2
BLOCKS
  0
ENDSEC
  0
SECTION
  2
ENTITIES
  0
TEXT
  8
_2-0_
 62
    7
 10
278.4405643738977
 20
83.601940035273372
 40
3
 41
1
 50
0
  1
入力側接続コネクターIP65
  0
LINE
  8
_0-0_
  6
CONTINUOUS
 62
    7
 10
202.1340463188192
 20
231.84120708120042
 11
322.10990331881902
 21
231.84120708120042
  0
LINE
  8
_0-0_
  6
CONTINUOUS
 62
    7
 10
204.21517366572913
 20
232.15903539870151
 11
208.71516566572904
 21
232.15903539870151
  0
LINE
  8
_0-0_
  6
CONTINUOUS
 62
    7
 10
206.45261827533167
 20
236.67528621649944
 11
204.20262627533176
 21
232.17528421649939
  0
LINE
  8
_0-0_
  6
CONTINUOUS
 62
    7
 10
206.45261827533167
 20
236.67528621649944
 11
208.70261827533167
 21
232.17528421649939
  0
LINE
  8
_0-0_
  6
CONTINUOUS
 62
    7
 10
212.16435836919808
 20
242.22799121649941
 11
212.16435836919808
 21
236.83109921649935
  0
LINE
  8
_0-0_
  6
CONTINUOUS
 62
    7
 10
202.16435036919827
 20
242.22799121649941
 11
202.16435036919827
 21
236.83109921649935
  0
LINE
  8
_0-0_
  6
CONTINUOUS
 62
    7
 10
247.10993383639728
 20
102.23810006203528
 11
247.10993383639728
 21
92.238098154686696
  0
LINE
  8
_0-0_
  6
CONTINUOUS
 62
    7
 10
322.10990331881902
 20
236.84118708120041
 11
202.1340623188191
 21
236.84118708120041
  0
LINE
  8
_0-0_
  6
CONTINUOUS
 62
    7
 10
242.13405431881892
 20
242.23807908120042
 11
242.13405431881892
 21
236.84118708120041
  0
CIRCLE
  8
_0-0_
  6
CONTINUOUS
 62
    7
 10
232.13285253756907
 20
87.017303476952321
 40
1.5000000000000002
  0
CIRCLE
  8
_0-0_
  6
CONTINUOUS
 62
    7
 10
232.13285253756907
 20
87.017303476952321
 40
3.0000000000000004
  0
LINE
  8
_0-0_
  6
CONTINUOUS
 62
    7
 10
322.10990331881902
 20
82.238094339989444
 11
227.10990331881907
 21
82.238094339989444
  0
LINE
  8
_0-0_
  6
CONTINUOUS
 62
    7
 10
322.10990331881902
 20
92.238098154686696
 11
227.10990331881907
 21
92.238098154686696
  0
LINE
  8
_0-0_
  6
CONTINUOUS
 62
    7
 10
242.10990331881907
 20
102.23810006203528
 11
242.10990331881907
 21
92.238098154686696
  0
LINE
  8
_0-0_
  6
CONTINUOUS
 62
    7
 10
257.10990331881907
 20
102.23810006203528
 11
257.10990331881907
 21
92.238098154686696
  0
LINE
  8
_0-0_
  6
CONTINUOUS
 62
    7
 10
252.1099033188191
 20
92.238098154686696
 11
252.1099033188191
 21
82.238094339989444
  0
LINE
  8
_0-0_
  6
CONTINUOUS
 62
    7
 10
247.10993383639728
 20
92.238098154686696
 11
247.10993383639728
 21
82.238094339989444
  0
LINE
  8
_0-0_
  6
CONTINUOUS
 62
    7
 10
307.10993383639743
 20
102.23810006203528
 11
307.10993383639743
 21
92.238098154686696
  0
LINE
  8
_0-0_
  6
CONTINUOUS
 62
    7
 10
302.10990331881907
 20
102.23810006203528
 11
302.10990331881907
 21
92.238098154686696
  0
LINE
  8
_0-0_
  6
CONTINUOUS
 62
    7
 10
237.13288305514726
 20
85.517305384300968
 11
244.13288305514726
 21
84.017299662255069
  0
LINE
  8
_0-0_
  6
CONTINUOUS
 62
    7
 10
244.13288305514726
 20
90.017301569603702
 11
244.13288305514726
 21
84.017299662255069
  0
LINE
  8
_0-0_
  6
CONTINUOUS
 62
    7
 10
237.13288305514726
 20
88.517301569603688
 11
244.13288305514726
 21
90.017301569603702
  0
LINE
  8
_0-0_
  6
CONTINUOUS
 62
    7
 10
237.13288305514726
 20
88.517301569603688
 11
237.13288305514726
 21
85.517305384300968
  0
LINE
  8
_0-0_
  6
CONTINUOUS
 62
    7
 10
272.10990331881907
 20
92.238098154686696
 11
272.10990331881907
 21
72.238094339989444
  0
LINE
  8
_0-0_
  6
CONTINUOUS
 62
    7
 10
277.10990331881907
 20
92.238098154686696
 11
277.10990331881907
 21
72.238094339989444
  0
TEXT
  8
_0-0_
 62
    7
 10
203.93416436919827
 20
238.02019621649938
 40
3
 41
0.9999999999999994
 50
0
  1
Ｎｏ
  0
TEXT
  8
_0-0_
 62
    7
 10
205.58853875959545
 20
232.39363239870147
 40
3
 41
1
 50
0
  1
1
  0
TEXT
  8
_0-0_
 62
    7
 10
219.28549031881897
 20
238.0541370812005
 40
3
 41
1
 50
0
  1
年　月　日
  0
TEXT
  8
_0-0_
 62
    7
 10
260.08350231881917
 20
238.0541370812005
 40
3
 41
1
 50
0
  1
訂　正　記　事
  0
TEXT
  8
_0-0_
 62
    7
 10
302.85297836193353
 20
237.74633268192087
 40
3.2000000000000028
 41
0.9999999999999992
 50
0
  1
担当
  0
TEXT
  8
_0-0_
 62
    7
 10
312.70286614138967
 20
237.80990223732177
 40
3.2000000000000028
 41
0.9999999999999992
 50
0
  1
検印
  0
TEXT
  8
_0-0_
 62
    7
 10
229.61097143405345
 20
100.23307031812352
 40
2.9999999999999897
 41
1.0000000000000042
 50
-0.0000025044783455
  1
設計
  7
TATEGAKI
  0
TEXT
  8
_0-0_
 62
    7
 10
244.59357641452226
 20
100.23307031812352
 40
2.9999999999999897
 41
1.0000000000000042
 50
-0.0000025044783455
  1
製図
  7
TATEGAKI
  0
TEXT
  8
_0-0_
 62
    7
 10
259.57618139499095
 20
100.23307031812352
 40
2.9999999999999897
 41
1.0000000000000042
 50
-0.0000025044783455
  1
検図
  7
TATEGAKI
  0
TEXT
  8
_0-0_
 62
    7
 10
249.67743871920978
 20
90.51585573377298
 40
2.9999999999999897
 41
0.9999999999999994
 50
-0.0000025044783455
  1
材質
  7
TATEGAKI
  0
TEXT
  8
_0-0_
 62
    7
 10
239.14687155982008
 20
75.506228644154106
 40
3.2000000000000028
 41
0.9999999999999992
 50
0
  1
ＦＫＫ株式会社
  0
TEXT
  8
_0-0_
 62
    7
 10
274.68882177585044
 20
100.31410021009129
 40
2.9999999999999897
 41
1.0000000000000042
 50
-0.0000025044783455
  1
作図
  7
TATEGAKI
  0
TEXT
  8
_0-0_
 62
    7
 10
274.61301611178794
 20
90.515855733772966
 40
2.9999999999999897
 41
1.0000000000000042
 50
-0.0000025044783455
  1
品名
  7
TATEGAKI
  0
TEXT
  8
_0-0_
 62
    7
 10
274.73575781100657
 20
80.364168111702653
 40
2.9999999999999968
 41
1.0000000000000019
 50
-0.0000025044783455
  1
図番
  7
TATEGAKI
  0
TEXT
  8
_0-0_
 62
    7
 10
304.38785742038157
 20
100.25188821973479
 40
2.9999999999999968
 41
1.0000000000000019
 50
-0.0000025044784592
  1
尺度
  7
TATEGAKI
  0
LINE
  8
_0-0_
  6
CONTINUOUS
 62
    7
 10
322.10989531881892
 20
102.23810006203528
 11
278.866540000972
 21
102.23810006203528
  0
LINE
  8
_0-0_
  6
CONTINUOUS
 62
    7
 10
277.10990331881907
 20
102.21992284286613
 11
277.10990331881907
 21
92.238098154686696
  0
LINE
  8
_0-0_
  6
CENTER2
 62
    7
 10
232.13285253756907
 20
91.017305384300968
 11
232.13285253756907
 21
83.017301569603688
  0
LINE
  8
_0-0_
  6
CENTER2
 62
    7
 10
246.13285253756907
 20
87.017303476952321
 11
232.12630601893121
 21
87.017303476952321
  0
LINE
  8
_0-0_
  6
CENTER2
 62
    7
 10
232.12630601893121
 20
87.017303476952321
 11
228.13288305514726
 21
87.017303476952321
  0
LINE
  8
_0-0_
  6
CONTINUOUS
 62
    7
 10
272.10990331881907
 20
102.23810006203528
 11
272.10990331881907
 21
72.238094339989444
  0
LINE
  8
_0-0_
  6
CONTINUOUS
 62
    7
 10
65.109872801240982
 20
242.23807908120042
 11
322.10990331881902
 21
242.23807908120042
  0
LINE
  8
_0-0_
  6
CONTINUOUS
 62
    7
 10
232.10990331881907
 20
102.23810006203528
 11
232.10990331881907
 21
92.238098154686696
  0
LINE
  8
_0-0_
  6
CONTINUOUS
 62
    7
 10
262.10993383639743
 20
102.23810006203528
 11
262.10993383639743
 21
92.238098154686696
  0
LINE
  8
_0-0_
  6
CONTINUOUS
 62
    7
 10
322.10989531881892
 20
102.23810006203528
 11
227.10990331881907
 21
102.23810006203528
  0
LINE
  8
_0-0_
  6
CONTINUOUS
 62
    7
 10
227.10990331881907
 20
102.23810006203528
 11
227.10990331881907
 21
72.238094339989444
  0
TEXT
  8
_2-0_
 62
    7
 10
309.80629091944206
 20
94.951323654995746
 40
4
 41
1
 50
0
  1
1：1
  0
LINE
  8
_0-0_
  6
CONTINUOUS
 62
    7
 10
132.92338566275475
 20
192.23807908120042
 11
132.92338566275475
 21
177.80701548355548
  0
LINE
  8
_0-0_
  6
CONTINUOUS
 62
    7
 10
181.56548835386035
 20
166.85518866685785
 11
261.5638194590864
 21
166.85518866729918
  0
LINE
  8
_0-0_
  6
CONTINUOUS
 62
    7
 10
139.92716095469427
 20
176.29670820263208
 11
143.39168064713953
 21
176.29670820263208
  0
LINE
  8
_0-0_
  6
CONTINUOUS
 62
    7
 10
139.92716095469427
 20
165.48853323919769
 11
143.39168064713953
 21
165.48853323919769
  0
LINE
  8
_0-0_
  6
CONTINUOUS
 62
    7
 10
139.92716095469427
 20
165.0184025591559
 11
143.39168064713953
 21
165.0184025591559
  0
LINE
  8
_0-0_
  6
CONTINUOUS
 62
    7
 10
139.92716095469427
 20
164.54827187896628
 11
143.39168064713953
 21
164.54827187896628
  0
LINE
  8
_0-0_
  6
CONTINUOUS
 62
    7
 10
139.92716095469427
 20
164.07814119877653
 11
143.39168064713953
 21
164.07814119877653
  0
LINE
  8
_0-0_
  6
CONTINUOUS
 62
    7
 10
139.92716095469427
 20
163.60801051858669
 11
143.39168064713953
 21
163.60801051858669
  0
LINE
  8
_0-0_
  6
CONTINUOUS
 62
    7
 10
139.92716095469427
 20
163.13787983854507
 11
143.39168064713953
 21
163.13787983854507
  0
LINE
  8
_0-0_
  6
CONTINUOUS
 62
    7
 10
139.92716095469427
 20
162.6677491583552
 11
143.39168064713953
 21
162.6677491583552
  0
LINE
  8
_0-0_
  6
CONTINUOUS
 62
    7
 10
139.92716095469427
 20
162.19761847816556
 11
143.39168064713953
 21
162.19761847816556
  0
LINE
  8
_0-0_
  6
CONTINUOUS
 62
    7
 10
139.92716095469427
 20
175.8314082026321
 11
143.39168064713953
 21
175.8314082026321
  0
LINE
  8
_0-0_
  6
CONTINUOUS
 62
    7
 10
139.92716095469427
 20
175.36127752244235
 11
143.39168064713953
 21
175.36127752244235
  0
LINE
  8
_0-0_
  6
CONTINUOUS
 62
    7
 10
139.92716095469427
 20
174.89114684225268
 11
143.39168064713953
 21
174.89114684225268
  0
LINE
  8
_0-0_
  6
CONTINUOUS
 62
    7
 10
139.92716095469427
 20
174.42101616206281
 11
143.39168064713953
 21
174.42101616206281
  0
LINE
  8
_0-0_
  6
CONTINUOUS
 62
    7
 10
139.92716095469427
 20
173.95088548202119
 11
143.39168064713953
 21
173.95088548202119
  0
LINE
  8
_0-0_
  6
CONTINUOUS
 62
    7
 10
139.92716095469427
 20
173.48075480183135
 11
143.39168064713953
 21
173.48075480183135
  0
LINE
  8
_0-0_
  6
CONTINUOUS
 62
    7
 10
139.92716095469427
 20
173.01062412164165
 11
143.39168064713953
 21
173.01062412164165
  0
LINE
  8
_0-0_
  6
CONTINUOUS
 62
    7
 10
139.92716095469427
 20
172.54049344145192
 11
143.39168064713953
 21
172.54049344145192
  0
LINE
  8
_0-0_
  6
CONTINUOUS
 62
    7
 10
139.92716095469427
 20
172.07036276141019
 11
143.39168064713953
 21
172.07036276141019
  0
LINE
  8
_0-0_
  6
CONTINUOUS
 62
    7
 10
139.92716095469427
 20
171.60023208122032
 11
143.39168064713953
 21
171.60023208122032
  0
LINE
  8
_0-0_
  6
CONTINUOUS
 62
    7
 10
143.39168064713953
 20
169.0700334701238
 11
143.39168064713953
 21
174.53185825612388
  0
LINE
  8
_0-0_
  6
CONTINUOUS
 62
    7
 10
139.92716095469427
 20
171.13010140103065
 11
143.39168064713953
 21
171.13010140103065
  0
LINE
  8
_0-0_
  6
CONTINUOUS
 62
    7
 10
139.92716095469427
 20
170.6599707208409
 11
143.39168064713953
 21
170.6599707208409
  0
LINE
  8
_0-0_
  6
CONTINUOUS
 62
    7
 10
139.92716095469427
 20
170.18984004079916
 11
143.39168064713953
 21
170.18984004079916
  0
LINE
  8
_0-0_
  6
CONTINUOUS
 62
    7
 10
139.92716095469427
 20
169.71970936060947
 11
143.39168064713953
 21
169.71970936060947
  0
LINE
  8
_0-0_
  6
CONTINUOUS
 62
    7
 10
139.92716095469427
 20
169.24957868041963
 11
143.39168064713953
 21
169.24957868041963
  0
LINE
  8
_0-0_
  6
CONTINUOUS
 62
    7
 10
139.92716095469427
 20
168.77944800022987
 11
143.39168064713953
 21
168.77944800022987
  0
LINE
  8
_0-0_
  6
CONTINUOUS
 62
    7
 10
139.92716095469427
 20
168.30931732018814
 11
143.39168064713953
 21
168.30931732018814
  0
LINE
  8
_0-0_
  6
CONTINUOUS
 62
    7
 10
139.92716095469427
 20
167.83918663999847
 11
143.39168064713953
 21
167.83918663999847
  0
LINE
  8
_0-0_
  6
CONTINUOUS
 62
    7
 10
139.92716095469427
 20
167.36905595980871
 11
143.39168064713953
 21
167.36905595980871
  0
LINE
  8
_0-0_
  6
CONTINUOUS
 62
    7
 10
139.92716095469427
 20
166.89892527976692
 11
143.39168064713953
 21
166.89892527976692
  0
LINE
  8
_0-0_
  6
CONTINUOUS
 62
    7
 10
139.92716095469427
 20
166.42879459957728
 11
143.39168064713953
 21
166.42879459957728
  0
LINE
  8
_0-0_
  6
CONTINUOUS
 62
    7
 10
139.92716095469427
 20
165.95866391938744
 11
143.39168064713953
 21
165.95866391938744
  0
LINE
  8
_0-0_
  6
CONTINUOUS
 62
    7
 10
139.92716095469427
 20
176.47277914212386
 11
139.92716095469427
 21
161.6672877981237
  0
LINE
  8
_0-0_
  6
CONTINUOUS
 62
    7
 10
143.39168064713953
 20
176.47277914212386
 11
139.92716095469427
 21
176.47277914212386
  0
LINE
  8
_0-0_
  6
CONTINUOUS
 62
    7
 10
143.39168064713953
 20
169.0700334701238
 11
143.39168064713953
 21
176.47277914212386
  0
LINE
  8
_0-0_
  6
CONTINUOUS
 62
    7
 10
143.39168064713953
 20
169.0700334701238
 11
143.39168064713953
 21
163.91840868412376
  0
LINE
  8
_0-0_
  6
CONTINUOUS
 62
    7
 10
132.92338566275475
 20
175.56218321332372
 11
132.92338566275475
 21
162.57788372692374
  0
LINE
  8
_0-0_
  6
CONTINUOUS
 62
    7
 10
133.67225274867291
 20
162.57788372692374
 11
133.67225274867291
 21
175.56218321332372
  0
LINE
  8
_0-0_
  6
CONTINUOUS
 62
    7
 10
153.68586972162506
 20
175.81976445262381
 11
153.68586972162506
 21
162.32030248762376
  0
LINE
  8
_0-0_
  6
CONTINUOUS
 62
    7
 10
153.68586972162506
 20
175.81976445262381
 11
153.68586972162506
 21
162.32030248762376
  0
LINE
  8
_0-0_
  6
CONTINUOUS
 62
    7
 10
154.18742294918342
 20
175.81976445262381
 11
154.18742294918342
 21
162.32030248762376
  0
LINE
  8
_0-0_
  6
CONTINUOUS
 62
    7
 10
169.5942102447276
 20
174.78351808762377
 11
169.5942102447276
 21
163.35654885262385
  0
LINE
  8
_0-0_
  6
CONTINUOUS
 62
    7
 10
169.31385205984963
 20
174.78351808762377
 11
169.31385205984963
 21
163.35654885262385
  0
LINE
  8
_0-0_
  6
CONTINUOUS
 62
    7
 10
172.33644843493163
 20
174.78351808762377
 11
172.33644843493163
 21
163.35654885262385
  0
LINE
  8
_0-0_
  6
CONTINUOUS
 62
    7
 10
172.61680661966204
 20
174.78351808762377
 11
172.61680661966204
 21
163.35654885262385
  0
LINE
  8
_0-0_
  6
CONTINUOUS
 62
    7
 10
175.37846564080405
 20
174.78351808762377
 11
175.37846564080405
 21
163.35654885262385
  0
LINE
  8
_0-0_
  6
CONTINUOUS
 62
    7
 10
175.65882382568247
 20
174.78351808762377
 11
175.65882382568247
 21
163.35654885262385
  0
LINE
  8
_0-0_
  6
CONTINUOUS
 62
    7
 10
181.5638194590864
 20
174.78351808762377
 11
181.5638194590864
 21
163.35654885262385
  0
LINE
  8
_0-0_
  6
CONTINUOUS
 62
    7
 10
136.73541263672143
 20
162.798750669875
 11
136.05409827132723
 21
175.34275382742015
  0
LINE
  8
_0-0_
  6
CONTINUOUS
 62
    7
 10
137.44188552266393
 20
162.798750669875
 11
136.76057115726939
 21
175.34275382742015
  0
LINE
  8
_0-0_
  6
CONTINUOUS
 62
    7
 10
138.14835840860621
 20
162.798750669875
 11
137.46704404321155
 21
175.34275382742015
  0
LINE
  8
_0-0_
  6
CONTINUOUS
 62
    7
 10
138.85483129454848
 20
162.798750669875
 11
138.17351692915383
 21
175.34275382742015
  0
LINE
  8
_0-0_
  6
CONTINUOUS
 62
    7
 10
139.56130418049065
 20
162.798750669875
 11
138.87998981494786
 21
175.34275382742015
  0
LINE
  8
_0-0_
  6
CONTINUOUS
 62
    7
 10
135.68832363904039
 20
175.56218321332372
 11
135.68832363904039
 21
162.57788372692374
  0
LINE
  8
_0-0_
  6
CONTINUOUS
 62
    7
 10
136.39479652498278
 20
162.57788372692374
 11
135.68832363904039
 21
175.56218321332372
  0
LINE
  8
_0-0_
  6
CONTINUOUS
 62
    7
 10
137.10126941092528
 20
162.57788372692374
 11
136.39479652498278
 21
175.56218321332372
  0
LINE
  8
_0-0_
  6
CONTINUOUS
 62
    7
 10
137.80774229686744
 20
162.57788372692374
 11
137.10126941092528
 21
175.56218321332372
  0
LINE
  8
_0-0_
  6
CONTINUOUS
 62
    7
 10
138.5142151828096
 20
162.57788372692374
 11
137.80774229686744
 21
175.56218321332372
  0
LINE
  8
_0-0_
  6
CONTINUOUS
 62
    7
 10
139.22068806875199
 20
162.57788372692374
 11
138.5142151828096
 21
175.56218321332372
  0
LINE
  8
_0-0_
  6
CONTINUOUS
 62
    7
 10
139.92716095469427
 20
162.57788372692374
 11
139.22068806875199
 21
175.56218321332372
  0
LINE
  8
_0-0_
  6
CONTINUOUS
 62
    7
 10
178.17995147213957
 20
162.94631533545168
 11
178.17995147213957
 21
175.19375160464784
  0
LINE
  8
_0-0_
  6
CONTINUOUS
 62
    7
 10
155.25164805500742
 20
175.81976445262381
 11
155.25164805500742
 21
162.32030248762376
  0
LINE
  8
_0-0_
  6
CONTINUOUS
 62
    7
 10
155.25164805500742
 20
175.81976445262381
 11
155.25164805500742
 21
162.32030248762376
  0
LINE
  8
_0-0_
  6
CONTINUOUS
 62
    7
 10
155.75320128256578
 20
175.81976445262381
 11
155.75320128256578
 21
162.32030248762376
  0
LINE
  8
_0-0_
  6
CONTINUOUS
 62
    7
 10
156.81742638839011
 20
175.81976445262381
 11
156.81742638839011
 21
162.32030248762376
  0
LINE
  8
_0-0_
  6
CONTINUOUS
 62
    7
 10
156.81742638839011
 20
175.81976445262381
 11
156.81742638839011
 21
162.32030248762376
  0
LINE
  8
_0-0_
  6
CONTINUOUS
 62
    7
 10
157.31897961609649
 20
175.81976445262381
 11
157.31897961609649
 21
162.32030248762376
  0
ARC
  8
_0-0_
  6
CONTINUOUS
 62
    7
 10
153.93664633533001
 20
162.32030248762376
 40
0.250776613824416
 50
180
 51
0
  0
ARC
  8
_0-0_
  6
CONTINUOUS
 62
    7
 10
155.50242466886084
 20
162.32030248762376
 40
0.250776613824416
 50
180
 51
0
  0
ARC
  8
_0-0_
  6
CONTINUOUS
 62
    7
 10
157.06820300224308
 20
162.32030248762376
 40
0.250776613824416
 50
180
 51
0
  0
ARC
  8
_0-0_
  6
CONTINUOUS
 62
    7
 10
169.45403115228839
 20
163.35654885262385
 40
0.1401790924116232
 50
0
 51
180
  0
ARC
  8
_0-0_
  6
CONTINUOUS
 62
    7
 10
172.47662752722271
 20
163.35654885262385
 40
0.1401790924119598
 50
0
 51
180
  0
ARC
  8
_0-0_
  6
CONTINUOUS
 62
    7
 10
175.51864473324314
 20
163.35654885262385
 40
0.1401790924116232
 50
0
 51
180
  0
ARC
  8
_0-0_
  6
CONTINUOUS
 62
    7
 10
178.6390813585499
 20
162.94631533545168
 40
0.459129886426179
 50
179.99999999999997
 51
289.22864252619996
  0
LINE
  8
_0-0_
  6
CONTINUOUS
 62
    7
 10
133.67225274867291
 20
162.57788372692374
 11
132.92338566275475
 21
162.57788372692374
  0
LINE
  8
_0-0_
  6
CONTINUOUS
 62
    7
 10
135.68832363904039
 20
163.23742808494907
 11
133.67225274867291
 21
163.23742808494907
  0
LINE
  8
_0-0_
  6
CONTINUOUS
 62
    7
 10
155.25164805500742
 20
162.32030248762376
 11
154.18742294918342
 21
162.32030248762376
  0
LINE
  8
_0-0_
  6
CONTINUOUS
 62
    7
 10
156.81742638839011
 20
162.32030248762376
 11
155.75320128256578
 21
162.32030248762376
  0
LINE
  8
_0-0_
  6
CONTINUOUS
 62
    7
 10
169.5942102447276
 20
163.35654885262385
 11
172.33644843493163
 21
163.35654885262385
  0
LINE
  8
_0-0_
  6
CONTINUOUS
 62
    7
 10
172.61680661966204
 20
163.35654885262385
 11
175.37846564080405
 21
163.35654885262385
  0
LINE
  8
_0-0_
  6
CONTINUOUS
 62
    7
 10
175.65882382568247
 20
163.35654885262385
 11
178.17995147213957
 21
163.35654885262385
  0
LINE
  8
_0-0_
  6
CONTINUOUS
 62
    7
 10
158.94951656639125
 20
162.32030248762376
 11
165.01029029054973
 21
163.35654885262385
  0
LINE
  8
_0-0_
  6
CONTINUOUS
 62
    7
 10
157.31897961609649
 20
162.32030248762376
 11
158.94951656639125
 21
162.32030248762376
  0
LINE
  8
_0-0_
  6
CONTINUOUS
 62
    7
 10
178.79029060088805
 20
162.51279945611997
 11
181.5638194590864
 21
163.35654885262385
  0
LINE
  8
_0-0_
  6
CONTINUOUS
 62
    7
 10
136.02893975077915
 20
162.798750669875
 11
135.68832363904039
 21
169.0700334701238
  0
LINE
  8
_0-0_
  6
CONTINUOUS
 62
    7
 10
136.02893975077915
 20
162.798750669875
 11
135.68832363904039
 21
162.57788372692374
  0
LINE
  8
_0-0_
  6
CONTINUOUS
 62
    7
 10
136.39479652498278
 20
162.57788372692374
 11
136.02893975077915
 21
162.798750669875
  0
LINE
  8
_0-0_
  6
CONTINUOUS
 62
    7
 10
136.73541263672143
 20
162.798750669875
 11
136.39479652498278
 21
162.57788372692374
  0
LINE
  8
_0-0_
  6
CONTINUOUS
 62
    7
 10
137.10126941092528
 20
162.57788372692374
 11
136.73541263672143
 21
162.798750669875
  0
LINE
  8
_0-0_
  6
CONTINUOUS
 62
    7
 10
137.44188552266393
 20
162.798750669875
 11
137.10126941092528
 21
162.57788372692374
  0
LINE
  8
_0-0_
  6
CONTINUOUS
 62
    7
 10
137.80774229686744
 20
162.57788372692374
 11
137.44188552266393
 21
162.798750669875
  0
LINE
  8
_0-0_
  6
CONTINUOUS
 62
    7
 10
138.14835840860621
 20
162.798750669875
 11
137.80774229686744
 21
162.57788372692374
  0
LINE
  8
_0-0_
  6
CONTINUOUS
 62
    7
 10
138.5142151828096
 20
162.57788372692374
 11
138.14835840860621
 21
162.798750669875
  0
LINE
  8
_0-0_
  6
CONTINUOUS
 62
    7
 10
138.85483129454848
 20
162.798750669875
 11
138.5142151828096
 21
162.57788372692374
  0
LINE
  8
_0-0_
  6
CONTINUOUS
 62
    7
 10
139.22068806875199
 20
162.57788372692374
 11
138.85483129454848
 21
162.798750669875
  0
LINE
  8
_0-0_
  6
CONTINUOUS
 62
    7
 10
139.56130418049065
 20
162.798750669875
 11
139.22068806875199
 21
162.57788372692374
  0
LINE
  8
_0-0_
  6
CONTINUOUS
 62
    7
 10
139.92716095469427
 20
162.57788372692374
 11
139.56130418049065
 21
162.798750669875
  0
LINE
  8
_0-0_
  6
CONTINUOUS
 62
    7
 10
165.01029029054973
 20
163.35654885262385
 11
169.31385205984963
 21
163.35654885262385
  0
LINE
  8
_0-0_
  6
CONTINUOUS
 62
    7
 10
143.39168064713953
 20
162.32030248762376
 11
153.68586972162506
 21
162.32030248762376
  0
ARC
  8
_0-0_
  6
CONTINUOUS
 62
    7
 10
153.93664633533001
 20
175.81976445262381
 40
0.250776613824416
 50
0
 51
180
  0
ARC
  8
_0-0_
  6
CONTINUOUS
 62
    7
 10
155.50242466886084
 20
175.81976445262381
 40
0.250776613824416
 50
0
 51
180
  0
ARC
  8
_0-0_
  6
CONTINUOUS
 62
    7
 10
157.06820300224308
 20
175.81976445262381
 40
0.250776613824416
 50
0
 51
180
  0
ARC
  8
_0-0_
  6
CONTINUOUS
 62
    7
 10
169.45403115228839
 20
174.78351808762377
 40
0.1401790924116232
 50
180
 51
0
  0
ARC
  8
_0-0_
  6
CONTINUOUS
 62
    7
 10
172.47662752722271
 20
174.78351808762377
 40
0.1401790924119598
 50
180
 51
0
  0
ARC
  8
_0-0_
  6
CONTINUOUS
 62
    7
 10
175.51864473324314
 20
174.78351808762377
 40
0.1401790924116232
 50
180
 51
0
  0
ARC
  8
_0-0_
  6
CONTINUOUS
 62
    7
 10
178.6390813585499
 20
175.19375160464784
 40
0.4591298864248326
 50
70.771357473799994
 51
180
  0
LINE
  8
_0-0_
  6
CONTINUOUS
 62
    7
 10
133.67225274867291
 20
175.56218321332372
 11
132.92338566275475
 21
175.56218321332372
  0
LINE
  8
_0-0_
  6
CONTINUOUS
 62
    7
 10
135.68832363904039
 20
174.90263885515045
 11
133.67225274867291
 21
174.90263885515045
  0
LINE
  8
_0-0_
  6
CONTINUOUS
 62
    7
 10
155.25164805500742
 20
175.81976445262381
 11
154.18742294918342
 21
175.81976445262381
  0
LINE
  8
_0-0_
  6
CONTINUOUS
 62
    7
 10
156.81742638839011
 20
175.81976445262381
 11
155.75320128256578
 21
175.81976445262381
  0
LINE
  8
_0-0_
  6
CONTINUOUS
 62
    7
 10
172.61680661966204
 20
174.78351808762377
 11
175.37846564080405
 21
174.78351808762377
  0
LINE
  8
_0-0_
  6
CONTINUOUS
 62
    7
 10
169.5942102447276
 20
174.78351808762377
 11
172.33644843493163
 21
174.78351808762377
  0
LINE
  8
_0-0_
  6
CONTINUOUS
 62
    7
 10
175.65882382568247
 20
174.78351808762377
 11
178.17995147213957
 21
174.78351808762377
  0
LINE
  8
_0-0_
  6
CONTINUOUS
 62
    7
 10
178.79029060088805
 20
175.62726748397955
 11
181.5638194590864
 21
174.78351808762377
  0
LINE
  8
_0-0_
  6
CONTINUOUS
 62
    7
 10
136.76057115726939
 20
175.34275382742015
 11
136.39479652498278
 21
175.56218321332372
  0
LINE
  8
_0-0_
  6
CONTINUOUS
 62
    7
 10
137.10126941092528
 20
175.56218321332372
 11
136.76057115726939
 21
175.34275382742015
  0
LINE
  8
_0-0_
  6
CONTINUOUS
 62
    7
 10
136.05409827132723
 20
175.34275382742015
 11
135.68832363904039
 21
175.56218321332372
  0
LINE
  8
_0-0_
  6
CONTINUOUS
 62
    7
 10
136.39479652498278
 20
175.56218321332372
 11
136.05409827132723
 21
175.34275382742015
  0
LINE
  8
_0-0_
  6
CONTINUOUS
 62
    7
 10
138.17351692915383
 20
175.34275382742015
 11
137.80774229686744
 21
175.56218321332372
  0
LINE
  8
_0-0_
  6
CONTINUOUS
 62
    7
 10
138.5142151828096
 20
175.56218321332372
 11
138.17351692915383
 21
175.34275382742015
  0
LINE
  8
_0-0_
  6
CONTINUOUS
 62
    7
 10
137.46704404321155
 20
175.34275382742015
 11
137.10126941092528
 21
175.56218321332372
  0
LINE
  8
_0-0_
  6
CONTINUOUS
 62
    7
 10
137.80774229686744
 20
175.56218321332372
 11
137.46704404321155
 21
175.34275382742015
  0
LINE
  8
_0-0_
  6
CONTINUOUS
 62
    7
 10
139.58646270089047
 20
175.34275382742015
 11
139.22068806875199
 21
175.56218321332372
  0
LINE
  8
_0-0_
  6
CONTINUOUS
 62
    7
 10
139.92716095469427
 20
175.56218321332372
 11
139.58646270089047
 21
175.34275382742015
  0
LINE
  8
_0-0_
  6
CONTINUOUS
 62
    7
 10
139.92716095469427
 20
169.0700334701238
 11
139.58646270089047
 21
175.34275382742015
  0
LINE
  8
_0-0_
  6
CONTINUOUS
 62
    7
 10
138.87998981494786
 20
175.34275382742015
 11
138.5142151828096
 21
175.56218321332372
  0
LINE
  8
_0-0_
  6
CONTINUOUS
 62
    7
 10
139.22068806875199
 20
175.56218321332372
 11
138.87998981494786
 21
175.34275382742015
  0
LINE
  8
_0-0_
  6
CONTINUOUS
 62
    7
 10
157.31897961609649
 20
175.81976445262381
 11
158.94951656639125
 21
175.81976445262381
  0
LINE
  8
_0-0_
  6
CONTINUOUS
 62
    7
 10
158.94951656639125
 20
175.81976445262381
 11
165.01029029054973
 21
174.78351808762377
  0
LINE
  8
_0-0_
  6
CONTINUOUS
 62
    7
 10
165.01029029054973
 20
174.78351808762377
 11
169.31385205984963
 21
174.78351808762377
  0
LINE
  8
_0-0_
  6
CONTINUOUS
 62
    7
 10
143.39168064713953
 20
175.81976445262381
 11
153.68586972162506
 21
175.81976445262381
  0
CIRCLE
  8
_0-0_
  6
CONTINUOUS
 62
    7
 10
170.96532933975549
 20
166.89992755708783
 40
0.3251976299149837
  0
CIRCLE
  8
_0-0_
  6
CONTINUOUS
 62
    7
 10
170.96532933975549
 20
171.24013938301163
 40
0.3251976299149837
  0
CIRCLE
  8
_0-0_
  6
CONTINUOUS
 62
    7
 10
176.96503834834925
 20
166.89992755708783
 40
0.3251976299153204
  0
CIRCLE
  8
_0-0_
  6
CONTINUOUS
 62
    7
 10
176.96503834834925
 20
171.24013938301163
 40
0.3251976299153204
  0
LINE
  8
_0-0_
  6
CONTINUOUS
 62
    7
 10
146.14994230082243
 20
169.0700334701238
 11
147.66264633146136
 21
168.18977612797061
  0
LINE
  8
_0-0_
  6
CONTINUOUS
 62
    7
 10
146.14994230082243
 20
169.0700334701238
 11
147.70220080071396
 21
169.97493743851916
  0
LINE
  8
_0-0_
  6
CONTINUOUS
 62
    7
 10
151.21925292743128
 20
168.50151388234363
 11
151.21925292743128
 21
169.0700334701238
  0
LINE
  8
_0-0_
  6
CONTINUOUS
 62
    7
 10
148.07890293603531
 20
168.50151388234363
 11
151.21925292743128
 21
168.50151388234363
  0
LINE
  8
_0-0_
  6
CONTINUOUS
 62
    7
 10
147.80221201445976
 20
168.10281191634521
 11
148.07890293603531
 21
168.50151388234363
  0
LINE
  8
_0-0_
  6
CONTINUOUS
 62
    7
 10
147.66264633146136
 20
168.18977612797061
 11
147.80221201445976
 21
168.10281191634521
  0
LINE
  8
_0-0_
  6
CONTINUOUS
 62
    7
 10
151.21925292743128
 20
169.63855305775589
 11
151.21925292743128
 21
169.0700334701238
  0
LINE
  8
_0-0_
  6
CONTINUOUS
 62
    7
 10
148.07890293603531
 20
169.63855305775589
 11
151.21925292743128
 21
169.63855305775589
  0
LINE
  8
_0-0_
  6
CONTINUOUS
 62
    7
 10
147.80221201445976
 20
170.03725502375431
 11
148.07890293603531
 21
169.63855305775589
  0
LINE
  8
_0-0_
  6
CONTINUOUS
 62
    7
 10
147.70220080071396
 20
169.97493743851916
 11
147.80221201445976
 21
170.03725502375431
  0
LINE
  8
_0-0_
  6
CONTINUOUS
 62
    7
 10
143.39168064713953
 20
169.0700334701238
 11
143.39168064713953
 21
161.6672877981237
  0
LINE
  8
_0-0_
  6
CONTINUOUS
 62
    7
 10
143.39168064713953
 20
161.6672877981237
 11
139.92716095469427
 21
161.6672877981237
  0
LINE
  8
_0-0_
  6
CONTINUOUS
 62
    7
 10
141.91695593277546
 20
167.08779823927133
 11
144.99294990170352
 21
155.60803246345625
  0
LINE
  8
_0-0_
  6
CONTINUOUS
 62
    7
 10
164.53423988339272
 20
168.27298342445649
 11
167.88554424065432
 21
155.76574529152929
  0
LINE
  8
_0-0_
  6
CONTINUOUS
 62
    7
 10
181.54030725139668
 20
192.23807908120042
 11
180.09141851196309
 21
192.6263076488542
  0
LINE
  8
_0-0_
  6
CONTINUOUS
 62
    7
 10
181.54030725139668
 20
192.23807908120042
 11
180.09141851196309
 21
191.84985051354664
  0
LINE
  8
_0-0_
  6
CONTINUOUS
 62
    7
 10
132.92338566275475
 20
192.23807908120042
 11
181.5638194590864
 21
192.23807908120042
  0
LINE
  8
_0-0_
  6
CONTINUOUS
 62
    7
 10
132.92338566275475
 20
192.23807908120042
 11
134.37227440218836
 21
192.6263076488542
  0
LINE
  8
_0-0_
  6
CONTINUOUS
 62
    7
 10
132.92338566275475
 20
192.23807908120042
 11
134.37227440218836
 21
191.84985051354664
  0
LINE
  8
_0-0_
  6
CONTINUOUS
 62
    7
 10
181.5638194590864
 20
192.23807908120042
 11
180.11493071965281
 21
191.84985051354664
  0
LINE
  8
_0-0_
  6
CONTINUOUS
 62
    7
 10
181.5638194590864
 20
192.23807908120042
 11
180.11493071965281
 21
192.6263076488542
  0
LINE
  8
_0-0_
  6
CONTINUOUS
 62
    7
 10
181.5638194590864
 20
192.23807908120042
 11
181.5638194590864
 21
177.80701548355548
  0
LINE
  8
_0-0_
  6
CONTINUOUS
 62
    7
 10
181.54030725139668
 20
192.23807908120042
 11
182.98919599083029
 21
192.6263076488542
  0
LINE
  8
_0-0_
  6
CONTINUOUS
 62
    7
 10
181.54030725139668
 20
192.23807908120042
 11
182.98919599083029
 21
191.84985051354664
  0
LINE
  8
_0-0_
  6
CONTINUOUS
 62
    7
 10
181.56548835385774
 20
177.95670425427516
 11
181.56548835385774
 21
192.23807908120042
  0
TEXT
  8
_0-0_
 62
    7
 10
144.78115346363966
 20
151.68039083186391
 40
3
 41
1
 50
0
  1
Al
  0
TEXT
  8
_0-0_
 62
    7
 10
167.49720284635569
 20
152.27298342445649
 40
3
 41
1
 50
0
  1
PVC白
  0
CIRCLE
  8
_0-0_
  6
CONTINUOUS
 62
    7
 10
92.509294493135513
 20
169.16231652563669
 40
7.4000000000000003
  0
CIRCLE
  8
_0-0_
  6
CONTINUOUS
 62
    7
 10
92.509294493135513
 20
169.16231652563669
 40
6.9000000000000003
  0
CIRCLE
  8
_0-0_
  6
CONTINUOUS
 62
    7
 10
94.009376424931389
 20
169.16069632923279
 40
0.6999999999999998
  0
CIRCLE
  8
_0-0_
  6
CONTINUOUS
 62
    7
 10
91.010016736735479
 20
169.16283023791879
 40
0.6999999999999998
  0
CIRCLE
  8
_0-0_
  6
CONTINUOUS
 62
    7
 10
92.510142258490333
 20
169.16135264911554
 40
5.2495305167474253
  0
ARC
  8
_0-0_
  6
CONTINUOUS
 62
    7
 10
92.510142258490333
 20
169.16135264911554
 40
4.2495305167474253
 50
96.078679080141554
 51
83.921320919858374
  0
LINE
  8
_0-0_
  6
CONTINUOUS
 62
    7
 10
92.960142258490151
 20
173.38698983334802
 11
92.960142258490151
 21
172.87603855566464
  0
LINE
  8
_0-0_
  6
CONTINUOUS
 62
    7
 10
92.060142258490287
 20
173.38698983334802
 11
92.060142258490287
 21
172.87603855566464
  0
LINE
  8
_0-0_
  6
CONTINUOUS
 62
    7
 10
92.960142258490151
 20
172.87603855566464
 11
92.060142258490287
 21
172.87603855566464
  0
LINE
  8
_0-0_
  6
CONTINUOUS
 62
    7
 10
85.109872801240982
 20
184.61850737423822
 11
99.908716185030044
 21
184.61850737423822
  0
LINE
  8
_0-0_
  6
CONTINUOUS
 62
    7
 10
85.109872801240982
 20
184.61850737423822
 11
85.109872801240982
 21
169.0700334701238
  0
LINE
  8
_0-0_
  6
CONTINUOUS
 62
    7
 10
99.908716185030044
 20
184.61850737423822
 11
99.908716185030044
 21
169.0700334701238
  0
TEXT
  8
_0-0_
 62
    7
 10
87.379139916755178
 20
185.77152449660457
 40
3
 41
1
 50
0
  1
φ14.8
  0
LINE
  8
_0-0_
  6
CONTINUOUS
 62
    7
 10
85.109872801240982
 20
184.61850737423822
 11
86.558761540674566
 21
185.006735941892
  0
LINE
  8
_0-0_
  6
CONTINUOUS
 62
    7
 10
85.109872801240982
 20
184.61850737423822
 11
86.558761540674566
 21
184.23027880658443
  0
LINE
  8
_0-0_
  6
CONTINUOUS
 62
    7
 10
99.908716185030044
 20
184.61850737423822
 11
98.459827445596431
 21
184.23027880658443
  0
LINE
  8
_0-0_
  6
CONTINUOUS
 62
    7
 10
99.908716185030044
 20
184.61850737423822
 11
98.459827445596431
 21
185.006735941892
  0
LINE
  8
_0-0_
  6
CONTINUOUS
 62
    7
 10
65.109872801240982
 20
72.23809433998943
 11
65.109872801240982
 21
242.23807908120039
  0
LINE
  8
_0-0_
  6
CONTINUOUS
 62
    7
 10
181.56548835385774
 20
171.25518866695787
 11
265.04030725139671
 21
171.25518866695787
  0
LINE
  8
_0-0_
  6
CONTINUOUS
 62
    7
 10
275.04030725139671
 20
192.23807908120042
 11
275.04030725139671
 21
172.23884281716362
  0
LINE
  8
_0-0_
  6
CONTINUOUS
 62
    7
 10
275.04030725139671
 20
192.23807908120042
 11
181.54030725139668
 21
192.23807908120042
  0
LINE
  8
_0-0_
  6
CONTINUOUS
 62
    7
 10
275.04030725139671
 20
192.23807908120042
 11
273.59141851196307
 21
191.84985051354664
  0
LINE
  8
_0-0_
  6
CONTINUOUS
 62
    7
 10
275.04030725139671
 20
192.23807908120042
 11
273.59141851196307
 21
192.6263076488542
  0
LINE
  8
_0-0_
  6
CONTINUOUS
 62
    7
 10
322.10990331881902
 20
242.23807908120042
 11
322.10990331881902
 21
72.238094339989444
  0
LINE
  8
_0-0_
  6
CONTINUOUS
 62
    7
 10
322.10990331881902
 20
72.238094339989444
 11
65.109872801240982
 21
72.238094339989444
  0
LINE
  8
_0-0_
  6
CONTINUOUS
 62
    7
 10
242.13405431881892
 20
236.84118708120041
 11
242.13405431881892
 21
231.84120708120042
  0
LINE
  8
_0-0_
  6
CONTINUOUS
 62
    7
 10
302.13405431881903
 20
242.23807908120042
 11
302.13405431881903
 21
231.84120708120042
  0
LINE
  8
_0-0_
  6
CONTINUOUS
 62
    7
 10
312.13405431881903
 20
242.23807908120042
 11
312.13405431881903
 21
231.84120708120042
  0
LINE
  8
_0-0_
  6
CONTINUOUS
 62
    7
 10
202.16435036919827
 20
236.83109921649935
 11
202.16435036919827
 21
231.84120708120042
  0
LINE
  8
_0-0_
  6
CONTINUOUS
 62
    7
 10
212.16435836919808
 20
236.83109921649935
 11
212.16435836919808
 21
231.84120708120042
  0
LINE
  8
_0-0_
  6
CONTINUOUS
 62
    7
 10
181.56548835385774
 20
171.25518866695787
 11
275.04030725139671
 21
171.25518866695787
  0
LINE
  8
_0-0_
  6
CONTINUOUS
 62
    7
 10
275.04030725139671
 20
171.25518866695787
 11
275.04030725139671
 21
166.85518866748014
  0
LINE
  8
_0-0_
  6
CONTINUOUS
 62
    7
 10
181.54053602810537
 20
166.85518866695787
 11
275.04030725139671
 21
166.85518866748014
  0
TEXT
  8
_0-0_
 62
    7
 10
108.80966584249246
 20
136.10189897303541
 40
3
 41
1
 50
0
  1
注記）
  0
TEXT
  8
_0-0_
 62
    7
 10
113.59910107613079
 20
126.99969872682972
 40
2
 41
1
 50
0
  1
(シリコン)
  0
TEXT
  8
_0-0_
 62
    7
 10
109.12115056045739
 20
118.20059125158087
 40
3
 41
1
 50
0
  1
※IP65
  0
TEXT
  8
_0-0_
 62
    7
 10
153.86943700830624
 20
192.73807908120042
 40
3
 41
1
 50
0
  1
(47)
  0
LINE
  8
_2-0_
  6
CONTINUOUS
 62
    7
 10
196.55898230802492
 20
166.85518927792122
 11
196.55898230802492
 21
161.85518927792122
  0
LINE
  8
_2-0_
  6
CONTINUOUS
 62
    7
 10
196.55898230802492
 20
171.25518698910286
 11
196.55898230802492
 21
176.25518698910286
  0
LINE
  8
_2-0_
  6
CONTINUOUS
 62
    7
 10
196.55898230802492
 20
166.85518927792122
 11
196.55898230802492
 21
171.25518698910286
  0
LINE
  8
_2-0_
  6
CONTINUOUS
 62
    7
 10
196.55898230802492
 20
166.85518927792122
 11
196.9472108756787
 21
165.40630053848761
  0
LINE
  8
_2-0_
  6
CONTINUOUS
 62
    7
 10
196.55898230802492
 20
166.85518927792122
 11
196.17075374037113
 21
165.40630053848761
  0
LINE
  8
_2-0_
  6
CONTINUOUS
 62
    7
 10
196.55898230802492
 20
171.25518698910286
 11
196.17075374037113
 21
172.70407572853648
  0
LINE
  8
_2-0_
  6
CONTINUOUS
 62
    7
 10
196.55898230802492
 20
171.25518698910286
 11
196.9472108756787
 21
172.70407572853648
  0
LINE
  8
_2-0_
  6
CONTINUOUS
 62
    7
 10
196.55898230802492
 20
166.85518927792122
 11
193.00342675246938
 21
166.85518927792122
  0
LINE
  8
_2-0_
  6
CONTINUOUS
 62
    7
 10
196.55898230802492
 20
171.25518698910286
 11
193.00342675246938
 21
171.25518698910286
  0
LINE
  8
_2-0_
  6
CONTINUOUS
 62
    7
 10
221.81819050067667
 20
168.66804515285156
 11
221.81819050067667
 21
152.76681058495034
  0
LINE
  8
_2-0_
  6
CONTINUOUS
 62
    7
 10
196.55898230802492
 20
161.85518927792122
 11
196.55898230802492
 21
159.31691962809907
  0
TEXT
  8
_2-0_
 62
    7
 10
221.96796634277629
 20
192.73807908120042
 40
3
 41
1
 50
0
  1
500
  0
TEXT
  8
_2-0_
 62
    4
 10
228.93259187886107
 20
194.39040049558235
 40
2
 41
1
 50
0
  1
+15
  0
TEXT
  8
_2-0_
 62
    4
 10
228.93259187886107
 20
192.19835017792476
 40
2
 41
1
 50
0
  1
-0
  0
TEXT
  8
_2-0_
 62
    7
 10
217.472511488331
 20
148.61866243680219
 40
3
 41
1
 50
0
  1
シリコン　白色
  0
TEXT
  8
_2-0_
 62
    7
 10
217.472511488331
 20
144.13596645348701
 40
3
 41
1
 50
0
  1
耐熱170℃
  0
TEXT
  8
_2-0_
 62
    7
 10
294.24215167548493
 20
87.513051146384469
 40
3
 41
1
 50
0
  1
FMP-2
  0
TEXT
  8
_2-0_
 62
    3
 10
286.79790939169799
 20
73.955206815328097
 40
5
 41
1
 50
0
  1
F7213020
  0
TEXT
  8
_2-0_
 62
    7
 10
279.84635037165344
 20
94.675140000183318
 40
3
 41
1
 50
0
  1
2021年3月19日
  0
TEXT
  8
_2-0_
 62
    7
 10
232.83447196128659
 20
94.707087959009413
 40
4
 41
1
 50
0
  1
吉田
  0
TEXT
  8
_2-0_
 62
    7
 10
248.35921943448826
 20
94.819812126387716
 40
4
 41
1
 50
0
  1
谷山
  0
TEXT
  8
_2-0_
 62
    7
 10
263.2440789936046
 20
94.819812126387716
 40
4
 41
1
 50
0
  1
指方
  0
TEXT
  8
_0-0_
 62
    7
 10
109.12115056045739
 20
129.74161661297952
 40
3
 41
1
 50
0
  1
※リード線:AWG22　(白＋/黒－)
  0
LINE
  8
_0-0_
  6
CONTINUOUS
 62
    7
 10
133.41438845550169
 20
163.27553665831126
 11
131.84013868390846
 21
155.68415442640616
  0
TEXT
  8
_0-0_
 62
    7
 10
128.70038497278642
 20
152.1595841044502
 40
3
 41
1
 50
0
  1
PA66
  0
TEXT
  8
_2-0_
 62
    7
 10
195.81824156728418
 20
145.2560975609756
 40
3
 41
1
 50
90
  1
φ4.4 ±0.1
  0
LINE
  8
_2-0_
  6
CONTINUOUS
 62
    7
 10
196.55898230802492
 20
159.31691962809907
 11
196.55898230802492
 21
145.2560975609756
  0
ENDSEC
  0
EOF
