  0
SECTION
  2
HEADER
  9
$ACADVER
  1
AC1009
  9
$INSBASE
 10
0
 20
0
 30
0
  9
$EXTMIN
 10
0
 20
0
  9
$EXTMAX
 10
420
 20
297
  9
$LIMMIN
 10
0
 20
0
  9
$LIMMAX
 10
420
 20
297
  9
$LTSCALE
 40
1
  0
ENDSEC
  0
SECTION
  2
TABLES
  0
TABLE
  2
LTYPE
 70
     9
  0
LTYPE
  2
CONTINUOUS
 70
    64
  3
実線
 72
    65
 73
     0
 40
0.0
  0
LTYPE
  2
DASHED1
 70
    64
  3
--  --  --  --  --  --  --  --  
 72
    65
 73
     2
 40
2.5
 49
1.25
 49
-1.25
  0
LTYPE
  2
DASHED2
 70
    64
  3
----    ----    ----    ----    
 72
    65
 73
     2
 40
5.0
 49
2.5
 49
-2.5
  0
LTYPE
  2
DASHED3
 70
    64
  3
------  ------  ------  ------  
 72
    65
 73
     2
 40
5.0
 49
3.75
 49
-1.25
  0
LTYPE
  2
CENTER1
 70
    64
  3
----- - ----- - ----- - ----- - 
 72
    65
 73
     4
 40
10.0
 49
6.25
 49
-1.25
 49
1.25
 49
-1.25
  0
LTYPE
  2
CENTER2
 70
    64
  3
----------  --  ----------  --  
 72
    65
 73
     4
 40
20.0
 49
12.5
 49
-2.5
 49
2.5
 49
-2.5
  0
LTYPE
  2
PHANTOM1
 70
    64
  3
--- - - --- - - --- - - --- - - 
 72
    65
 73
     6
 40
10.0
 49
3.25
 49
-1.25
 49
1.25
 49
-1.25
 49
1.25
 49
-1.25
  0
LTYPE
  2
PHANTOM2
 70
    64
  3
--------  -  -  --------  -  -  
 72
    65
 73
     6
 40
20.0
 49
10.0
 49
-2.5
 49
1.25
 49
-2.5
 49
1.25
 49
-2.5
  0
LTYPE
  2
DOT
 70
    64
  3
-   -   -   -   -   -   -   -   
 72
    65
 73
     2
 40
2.5
 49
0.625
 49
-1.875
  0
LTYPE
  2
DUMMY
 70
    64
  3
ダミー
 72
    65
 73
     0
 40
0.0
  0
LTYPE
  2
RAND1
 70
    64
  3
ランダム線1
 72
    65
 73
     4
 40
10.0
 49
1.0
 49
-2.0
 49
3.0
 49
-4.0
  0
LTYPE
  2
RAND2
 70
    64
  3
ランダム線2
 72
    65
 73
     4
 40
14.0
 49
2.0
 49
-3.0
 49
4.0
 49
-5.0
  0
LTYPE
  2
RAND3
 70
    64
  3
ランダム線3
 72
    65
 73
     4
 40
18.0
 49
3.0
 49
-4.0
 49
5.0
 49
-6.0
  0
LTYPE
  2
RAND4
 70
    64
  3
ランダム線4
 72
    65
 73
     4
 40
22.0
 49
4.0
 49
-5.0
 49
6.0
 49
-7.0
  0
LTYPE
  2
RAND5
 70
    64
  3
ランダム線5
 72
    65
 73
     4
 40
26.0
 49
5.0
 49
-6.0
 49
7.0
 49
-8.0
  0
LTYPE
  2
LONG1
 70
    64
  3
----------  --  ----------  --  
 72
    65
 73
     4
 40
40.0
 49
32.5
 49
-2.5
 49
2.5
 49
-2.5
  0
LTYPE
  2
LONG2
 70
    64
  3
--------  -  -  --------  -  -  
 72
    65
 73
     6
 40
40.0
 49
30.0
 49
-2.5
 49
1.25
 49
-2.5
 49
1.25
 49
-2.5
  0
LTYPE
  2
LONG3
 70
    64
  3
+++++++++++++++..+++++++++++++++
 72
    65
 73
     2
 40
40.0
 49
37.5
 49
-2.5
  0
LTYPE
  2
LONG4
 70
    64
  3
+++++++++++++++..+++++++++++++++
 72
    65
 73
     2
 40
80.0
 49
75.0
 49
-5.0
  0
LTYPE
  2
LONG5
 70
    64
  3
----------  --  ----------  --  
 72
    65
 73
     4
 40
60.0
 49
37.5
 49
-7.5
 49
7.5
 49
-7.5
  0
LTYPE
  2
dashed
 70
   64
  3
-------   -------------   ------
 72
   65
 73
    2
 40
7.5
 49
6
 49
-1.5
  0
LTYPE
  2
dashed_spaced
 70
   64
  3
----        --------        ----
 72
   65
 73
    2
 40
12
 49
6
 49
-6
  0
LTYPE
  2
long_dashed_dotted
 70
   64
  3
------------- --- --------------
 72
   65
 73
    4
 40
15.25
 49
12
 49
-1.5
 49
0.25
 49
-1.5
  0
LTYPE
  2
long_dashed_double-dotted
 70
   64
  3
----------- --- --- ------------
 72
   65
 73
    6
 40
17
 49
12
 49
-1.5
 49
0.25
 49
-1.5
 49
0.25
 49
-1.5
  0
LTYPE
  2
long_dashed_triplicate-dotted
 70
   64
  3
--------- --- --- --- ----------
 72
   65
 73
    8
 40
18.75
 49
12
 49
-1.5
 49
0.25
 49
-1.5
 49
0.25
 49
-1.5
 49
0.25
 49
-1.5
  0
LTYPE
  2
dotted
 70
   64
  3
   -       -       -       -    
 72
   65
 73
    2
 40
1.75
 49
0.25
 49
-1.5
  0
LTYPE
  2
chain
 70
   64
  3
-------------- -- --------------
 72
   65
 73
    4
 40
18.5
 49
12
 49
-1.5
 49
3.5
 49
-1.5
  0
LTYPE
  2
chain_double_dash
 70
   64
  3
------------ -- -- -------------
 72
   65
 73
    6
 40
23.5
 49
12
 49
-1.5
 49
3.5
 49
-1.5
 49
3.5
 49
-1.5
  0
LTYPE
  2
dashed_dotted
 70
   64
  3
-----------     -     ----------
 72
   65
 73
    4
 40
9.25
 49
6
 49
-1.5
 49
0.25
 49
-1.5
  0
LTYPE
  2
double-dashed_dotted
 70
   64
  3
------   -----------   -   -----
 72
   65
 73
    6
 40
16.75
 49
6
 49
-1.5
 49
6
 49
-1.5
 49
0.25
 49
-1.5
  0
LTYPE
  2
dashed_double-dotted
 70
   64
  3
---------    -    -    ---------
 72
   65
 73
    6
 40
11
 49
6
 49
-1.5
 49
0.25
 49
-1.5
 49
0.25
 49
-1.5
  0
LTYPE
  2
double-dashed_double-dotted
 70
   64
  3
-----   ---------   -   -   ----
 72
   65
 73
    8
 40
18.5
 49
6
 49
-1.5
 49
6
 49
-1.5
 49
0.25
 49
-1.5
 49
0.25
 49
-1.5
  0
LTYPE
  2
dashed_triplicate-dotted
 70
   64
  3
-------    -    -    -    ------
 72
   65
 73
    8
 40
12.75
 49
6
 49
-1.5
 49
0.25
 49
-1.5
 49
0.25
 49
-1.5
 49
0.25
 49
-1.5
  0
LTYPE
  2
double-dashed_triplicate-dotted
 70
   64
  3
-----  ---------  -  -  -  -----
 72
   65
 73
   10
 40
20.25
 49
6
 49
-1.5
 49
6
 49
-1.5
 49
0.25
 49
-1.5
 49
0.25
 49
-1.5
 49
0.25
 49
-1.5
  0
LTYPE
  2
undefined
 70
   64
  3
--------------------------------
 72
   65
 73
    0
 40
0
  0
LTYPE
  2
_
 70
   64
  3
                                
 72
   65
 73
    0
 40
0
  0
LTYPE
  2
__18
 70
   64
  3
                                
 72
   65
 73
    0
 40
0
  0
LTYPE
  2
__19
 70
   64
  3
                                
 72
   65
 73
    0
 40
0
  0
LTYPE
  2
__20
 70
   64
  3
                                
 72
   65
 73
    0
 40
0
  0
LTYPE
  2
__21
 70
   64
  3
                                
 72
   65
 73
    0
 40
0
  0
LTYPE
  2
__22
 70
   64
  3
                                
 72
   65
 73
    0
 40
0
  0
LTYPE
  2
__23
 70
   64
  3
                                
 72
   65
 73
    0
 40
0
  0
LTYPE
  2
__24
 70
   64
  3
                                
 72
   65
 73
    0
 40
0
  0
LTYPE
  2
__25
 70
   64
  3
                                
 72
   65
 73
    0
 40
0
  0
LTYPE
  2
__26
 70
   64
  3
                                
 72
   65
 73
    0
 40
0
  0
LTYPE
  2
__27
 70
   64
  3
                                
 72
   65
 73
    0
 40
0
  0
LTYPE
  2
__28
 70
   64
  3
                                
 72
   65
 73
    0
 40
0
  0
LTYPE
  2
__29
 70
   64
  3
                                
 72
   65
 73
    0
 40
0
  0
LTYPE
  2
__30
 70
   64
  3
                                
 72
   65
 73
    0
 40
0
  0
LTYPE
  2
__31
 70
   64
  3
                                
 72
   65
 73
    0
 40
0
  0
LTYPE
  2
__32
 70
   64
  3
                                
 72
   65
 73
    0
 40
0
  0
ENDTAB
  0
TABLE
  2
STYLE
  5
3
100
AcDbSymbolTable
 70
     1
  0
STYLE
  5
10
100
AcDbSymbolTableRecord
100
AcDbTextStyleTableRecord
  2
STANDARD
 70
     0
 40
0.0
 41
1.0
 50
0.0
 71
     0
 42
0.2
  3
txt
  4
bigfont.shx
  0
STYLE
  5
26
100
AcDbSymbolTableRecord
100
AcDbTextStyleTableRecord
  2
TATEGAKI
 70
    68
 40
0.0
 41
1.0
 50
0.0
 71
     0
 42
1.0
  3
txt
  4
bigfont.shx
  0
ENDTAB
  0
TABLE
  2
LAYER
 70
    7
  0
LAYER
  2
_0-0_
 70
   64
 62
    7
  6
CONTINUOUS
  0
LAYER
  2
_0-3_
 70
   64
 62
    7
  6
CONTINUOUS
  0
LAYER
  2
_0-a_
 70
   64
 62
    7
  6
CONTINUOUS
  0
LAYER
  2
_2-0_
 70
   64
 62
    7
  6
CONTINUOUS
  0
LAYER
  2
_2-1_
 70
   64
 62
    7
  6
CONTINUOUS
  0
LAYER
  2
_2-f_
 70
   64
 62
    7
  6
CONTINUOUS
  0
LAYER
  2
ADD_LINE
 70
   64
 62
    7
  6
CONTINUOUS
  0
ENDTAB
  0
ENDSEC
  0
SECTION
  2
BLOCKS
  0
ENDSEC
  0
SECTION
  2
ENTITIES
  0
LINE
  8
_0-a_
  6
CONTINUOUS
 62
    7
 10
277.69699243580237
 20
261.94730002127642
 11
282.19698480640784
 21
261.94730002127642
  0
LINE
  8
_0-a_
  6
CONTINUOUS
 62
    7
 10
279.94698480640784
 20
266.44730204783434
 11
282.19698480640784
 21
261.94730002127642
  0
LINE
  8
_0-a_
  6
CONTINUOUS
 62
    7
 10
275.02411035572425
 20
261.60313517294878
 11
394.99996700802365
 21
261.60313517294878
  0
TEXT
  8
_0-a_
 62
    7
 10
297.956456334748
 20
262.46271130286215
 40
3
 41
1
 50
0
  1
.   .
  0
LINE
  8
_0-0_
  6
CONTINUOUS
 62
    7
 10
15.00316722972974
 20
15
 11
15
 21
272.00000659839526
  0
LINE
  8
_0-0_
  6
CONTINUOUS
 62
    7
 10
15
 20
272.00000659839526
 11
394.99996700802365
 21
272.00000659839526
  0
LINE
  8
_0-0_
  6
CONTINUOUS
 62
    7
 10
394.99996700802365
 20
272.00000659839526
 11
394.99996700802365
 21
15
  0
LINE
  8
_0-0_
  6
CONTINUOUS
 62
    7
 10
394.99996700802365
 20
15
 11
15
 21
15
  0
LINE
  8
_0-0_
  6
CONTINUOUS
 62
    2
 10
349.99996700802365
 20
35.000004123997044
 11
349.99996700802365
 21
15
  0
LINE
  8
_0-0_
  6
CONTINUOUS
 62
    2
 10
349.99996700802365
 20
45.000006185995574
 11
349.99996700802365
 21
35.000004123997044
  0
LINE
  8
_0-0_
  6
CONTINUOUS
 62
    7
 10
344.99997525601776
 20
35.000004123997044
 11
344.99997525601776
 21
15
  0
LINE
  8
_0-0_
  6
CONTINUOUS
 62
    7
 10
310.0229459195524
 20
31.279208209063555
 11
310.0229459195524
 21
28.279210683461784
  0
LINE
  8
_0-0_
  6
CONTINUOUS
 62
    7
 10
310.0229459195524
 20
31.279208209063555
 11
317.02294426995354
 21
32.779206971864454
  0
LINE
  8
_0-0_
  6
CONTINUOUS
 62
    7
 10
317.02294426995354
 20
32.779206971864454
 11
317.02294426995354
 21
26.779205734665339
  0
LINE
  8
_0-0_
  6
CONTINUOUS
 62
    7
 10
310.0229459195524
 20
28.279210683461784
 11
317.02294426995354
 21
26.779205734665339
  0
LINE
  8
_0-0_
  6
CENTER2
 62
    2
 10
319.02292612436656
 20
29.779209446262669
 11
301.02294097075594
 21
29.779209446262669
  0
LINE
  8
_0-0_
  6
CENTER2
 62
    2
 10
305.02292942356422
 20
33.779210271062084
 11
305.02292942356422
 21
25.779207074964376
  0
LINE
  8
_0-0_
  6
CONTINUOUS
 62
    7
 10
344.99997525601776
 20
45.000006185995574
 11
344.99997525601776
 21
15
  0
LINE
  8
_0-0_
  6
CONTINUOUS
 62
    7
 10
374.99997525601776
 20
45.000006185995574
 11
374.99997525601776
 21
35.000004123997044
  0
LINE
  8
_0-0_
  6
CONTINUOUS
 62
    2
 10
380.00001649598818
 20
45.000006185995574
 11
380.00001649598818
 21
35.000004123997044
  0
LINE
  8
_0-0_
  6
CONTINUOUS
 62
    7
 10
319.99999175200594
 20
35.000004123997044
 11
319.99999175200594
 21
25.000000515499636
  0
LINE
  8
_0-0_
  6
CONTINUOUS
 62
    2
 10
324.99998350401182
 20
35.000004123997044
 11
324.99998350401182
 21
25.000000515499636
  0
LINE
  8
_0-0_
  6
CONTINUOUS
 62
    2
 10
335.00001649598818
 20
45.000006185995574
 11
335.00001649598818
 21
35.000004123997044
  0
LINE
  8
_0-0_
  6
CONTINUOUS
 62
    7
 10
329.99997525601776
 20
45.000006185995574
 11
329.99997525601776
 21
35.000004123997044
  0
LINE
  8
_0-0_
  6
CONTINUOUS
 62
    2
 10
319.99999175200594
 20
45.000006185995574
 11
319.99999175200594
 21
35.000004123997044
  0
LINE
  8
_0-0_
  6
CONTINUOUS
 62
    7
 10
314.99997525601776
 20
45.000006185995574
 11
314.99997525601776
 21
35.000004123997044
  0
LINE
  8
_0-0_
  6
CONTINUOUS
 62
    2
 10
304.99996700802365
 20
45.000006185995574
 11
304.99996700802365
 21
35.000004123997044
  0
LINE
  8
_0-0_
  6
CONTINUOUS
 62
    7
 10
299.99997525601776
 20
45.000006185995574
 11
299.99997525601776
 21
15
  0
LINE
  8
_0-0_
  6
CONTINUOUS
 62
    7
 10
394.99996700802365
 20
35.000004123997044
 11
299.99997525601776
 21
35.000004123997044
  0
LINE
  8
_0-0_
  6
CONTINUOUS
 62
    7
 10
394.99996700802365
 20
25.000000515499636
 11
299.99997525601776
 21
25.000000515499636
  0
CIRCLE
  8
_0-0_
  6
CONTINUOUS
 62
    7
 10
305.02292942356422
 20
29.779209446262669
 40
3.0000000386624723
  0
CIRCLE
  8
_0-0_
  6
CONTINUOUS
 62
    7
 10
305.02292942356422
 20
29.779209446262669
 40
1.5000000193312362
  0
TEXT
  8
_0-0_
 62
    7
 10
347.6258264490076
 20
23.126073888830234
 40
3
 41
1
 50
0
  1
図番
  7
TATEGAKI
  0
TEXT
  8
_0-0_
 62
    7
 10
347.50309629698057
 20
33.277761201600782
 40
3
 41
1
 50
0
  1
品名
  7
TATEGAKI
  0
TEXT
  8
_0-0_
 62
    7
 10
347.57888711465375
 20
43.076007018218178
 40
3
 41
1
 50
0
  1
作図
  7
TATEGAKI
  0
TEXT
  8
_0-0_
 62
    7
 10
377.2779260583826
 20
43.013794460812136
 40
3
 41
1
 50
0
  1
尺度
  7
TATEGAKI
  0
TEXT
  8
_0-0_
 62
    7
 10
385.93899783572635
 20
37.594552942224453
 40
3
 41
1
 50
0
  1
：
  0
TEXT
  8
_0-0_
 62
    7
 10
322.56749663481844
 20
33.277761201600782
 40
3
 41
1
 50
0
  1
材質
  7
TATEGAKI
  0
TEXT
  8
_0-0_
 62
    7
 10
302.50104254645271
 20
42.994976662300729
 40
3
 41
1
 50
0
  1
設計
  7
TATEGAKI
  0
TEXT
  8
_0-0_
 62
    7
 10
317.48364752692146
 20
42.994976662300729
 40
3
 41
1
 50
0
  1
製図
  7
TATEGAKI
  0
TEXT
  8
_0-0_
 62
    7
 10
332.46625250739021
 20
42.994976662300729
 40
3
 41
1
 50
0
  1
検図
  7
TATEGAKI
  0
TEXT
  8
_0-0_
 62
    7
 10
356.13318695893156
 20
38.271956572661537
 40
3
 41
1
 50
0
  1
年　月　日
  0
TEXT
  8
_0-0_
 62
    7
 10
305.6219512195122
 20
18.162195121951214
 40
4
 41
1
 50
0
  1
ＦＫＫ株式会社
  0
LINE
  8
_0-a_
  6
CONTINUOUS
 62
    7
 10
279.94698480640784
 20
266.44730204783434
 11
277.69699243580237
 21
261.94730002127642
  0
TEXT
  8
_0-a_
 62
    7
 10
375.52411798511878
 20
267.10311478816027
 40
4
 41
1
 50
0
  1
担当
  0
TEXT
  8
_0-a_
 62
    7
 10
385.52411798511878
 20
267.10311478816027
 40
4
 41
1
 50
0
  1
検印
  0
TEXT
  8
_0-a_
 62
    7
 10
276.7939238933219
 20
267.7922115965938
 40
3
 41
1
 50
0
  1
Ｎｏ
  0
TEXT
  8
_0-a_
 62
    7
 10
292.17555383716956
 20
267.81606489859576
 40
3
 41
1
 50
0
  1
年　月　日
  0
TEXT
  8
_0-a_
 62
    7
 10
332.97356561695472
 20
267.81606489859576
 40
3
 41
1
 50
0
  1
訂　正　記　事
  0
LINE
  8
_0-a_
  6
CONTINUOUS
 62
    7
 10
275.02411035572425
 20
266.60311478816027
 11
275.02411035572425
 21
261.60313517294878
  0
LINE
  8
_0-a_
  6
CONTINUOUS
 62
    7
 10
285.02411798511878
 20
266.60311478816027
 11
285.02411798511878
 21
261.60313517294878
  0
LINE
  8
_0-a_
  6
CONTINUOUS
 62
    7
 10
315.02411831294432
 20
266.60311478816027
 11
315.02411831294432
 21
261.60313517294878
  0
LINE
  8
_0-a_
  6
CONTINUOUS
 62
    7
 10
275.02411035572425
 20
272.00000659839526
 11
275.02411035572425
 21
266.60311478816027
  0
LINE
  8
_0-a_
  6
CONTINUOUS
 62
    7
 10
285.02411798511878
 20
272.00000659839526
 11
285.02411798511878
 21
266.60311478816027
  0
LINE
  8
_0-a_
  6
CONTINUOUS
 62
    7
 10
315.02411831294432
 20
272.00000659839526
 11
315.02411831294432
 21
266.60311478816027
  0
LINE
  8
_0-a_
  6
CONTINUOUS
 62
    7
 10
375.02411798511878
 20
272.00000659839526
 11
375.02411798511878
 21
261.60313517294878
  0
LINE
  8
_0-a_
  6
CONTINUOUS
 62
    7
 10
385.02411798511878
 20
272.00000659839526
 11
385.02411798511878
 21
261.60313517294878
  0
LINE
  8
_0-a_
  6
CONTINUOUS
 62
    7
 10
394.99996700802365
 20
266.60311478816027
 11
275.02412561451331
 21
266.60311478816027
  0
LINE
  8
_0-0_
  6
CONTINUOUS
 62
    7
 10
394.99996700802365
 20
45.000006185995574
 11
299.99997525601776
 21
45.000006185995574
  0
LINE
  8
_0-3_
  6
CONTINUOUS
 62
    7
 10
299.99997525601776
 20
50.000006185995574
 11
299.99997525601776
 21
45.000006185995574
  0
LINE
  8
_0-3_
  6
CONTINUOUS
 62
    7
 10
384.99996700802365
 20
50.000006185995574
 11
384.99996700802365
 21
45.000006185995574
  0
LINE
  8
_0-3_
  6
CONTINUOUS
 62
    7
 10
349.99997525601776
 20
45.000006185995574
 11
349.99997525601776
 21
50.000006185995574
  0
TEXT
  8
_0-3_
 62
    7
 10
305.73940582397756
 20
45.395881365276665
 40
4
 41
1
 50
0
  1
出図
  0
LINE
  8
_0-3_
  6
CONTINUOUS
 62
    7
 10
319.99999175200594
 20
45.000006185995574
 11
319.99999175200594
 21
50.000006185995574
  0
LINE
  8
_0-3_
  6
CONTINUOUS
 62
    7
 10
394.99996700802365
 20
50.000006185995574
 11
299.99997525601776
 21
50.000006185995574
  0
LINE
  8
_0-3_
  6
CONTINUOUS
 62
    7
 10
394.99996700802365
 20
45.000006185995574
 11
299.99997525601776
 21
45.000006185995574
  0
TEXT
  8
_0-3_
 62
    7
 10
331.66244169064771
 20
45.896091496297259
 40
3
 41
1
 50
0
  1
.   .
  0
LINE
  8
_2-f_
  6
CONTINUOUS
 62
    7
 10
380.00001649598818
 20
35.000004123997044
 11
394.99996700802365
 21
45.000006185995574
  0
LINE
  8
_2-0_
  6
CONTINUOUS
 62
    7
 10
135.74668803266937
 20
147.24370942546932
 11
142.31097203266935
 21
147.24370942546932
  0
LINE
  8
_2-0_
  6
CONTINUOUS
 62
    7
 10
142.31097203266935
 20
157.10485342546934
 11
142.31097203266935
 21
147.24370942546932
  0
LINE
  8
_2-1_
  6
CONTINUOUS
 62
    7
 10
218.52430611444046
 20
154.95481642546932
 11
142.31097203266935
 21
154.95481642546932
  0
LINE
  8
ADD_LINE
  6
DOT
 62
    9
 10
264.91835409496019
 20
160.8636847999451
 11
244.74563958012459
 21
160.8636847999451
  0
LINE
  8
_2-f_
  6
CONTINUOUS
 62
    7
 10
256.05367453928085
 20
162.8636847999451
 11
256.05367453928085
 21
158.8636847999451
  0
LINE
  8
_2-f_
  6
CONTINUOUS
 62
    7
 10
256.05367453928085
 20
158.8636847999451
 11
248.05367453928085
 21
158.8636847999451
  0
LINE
  8
_2-f_
  6
CONTINUOUS
 62
    7
 10
248.05367453928085
 20
162.8636847999451
 11
248.05367453928085
 21
158.8636847999451
  0
LINE
  8
_2-f_
  6
CONTINUOUS
 62
    7
 10
256.05367453928085
 20
162.8636847999451
 11
248.05367453928085
 21
162.8636847999451
  0
ARC
  8
_2-f_
  6
CONTINUOUS
 62
    7
 10
261.13053849996595
 20
160.8636847999451
 40
2.5
 50
90
 51
180
  0
LINE
  8
_2-f_
  6
CONTINUOUS
 62
    7
 10
266.64657699234766
 20
164.8636847999451
 11
266.64657699234766
 21
163.3636847999451
  0
LINE
  8
_2-f_
  6
CONTINUOUS
 62
    7
 10
266.64657699234766
 20
158.3636847999451
 11
266.64657699234766
 21
156.8636847999451
  0
LINE
  8
_2-f_
  6
CONTINUOUS
 62
    7
 10
261.13053849996595
 20
163.3636847999451
 11
266.64657699234766
 21
163.3636847999451
  0
LINE
  8
_2-f_
  6
CONTINUOUS
 62
    7
 10
261.13053849996595
 20
158.3636847999451
 11
266.64657699234766
 21
158.3636847999451
  0
ARC
  8
_2-f_
  6
CONTINUOUS
 62
    7
 10
261.13053849996595
 20
160.8636847999451
 40
2.5
 50
180
 51
270
  0
LINE
  8
_2-f_
  6
CONTINUOUS
 62
    7
 10
258.04342868084217
 20
164.8636847999451
 11
266.64657699234766
 21
164.8636847999451
  0
ARC
  8
_2-f_
  6
CONTINUOUS
 62
    7
 10
258.04342868084217
 20
163.8636847999451
 40
1
 50
90
 51
143.36588612403253
  0
LINE
  8
_2-f_
  6
CONTINUOUS
 62
    7
 10
258.04342868084217
 20
156.8636847999451
 11
266.64657699234766
 21
156.8636847999451
  0
ARC
  8
_2-f_
  6
CONTINUOUS
 62
    7
 10
258.04342868084217
 20
157.8636847999451
 40
1
 50
216.63411387596747
 51
270
  0
LINE
  8
_2-f_
  6
CONTINUOUS
 62
    7
 10
257.24096633989603
 20
164.46038756628968
 11
256.05367453928085
 21
162.8636847999451
  0
LINE
  8
_2-f_
  6
CONTINUOUS
 62
    7
 10
257.24096633989603
 20
157.26698203360056
 11
256.05367453928085
 21
158.8636847999451
  0
LINE
  8
_2-f_
  6
CONTINUOUS
 62
    7
 10
248.05367453928085
 20
162.16368479994512
 11
244.74563958012459
 21
162.16368479994512
  0
LINE
  8
_2-f_
  6
CONTINUOUS
 62
    7
 10
248.05367453928085
 20
159.56368479994512
 11
244.74563958012459
 21
159.56368479994512
  0
LINE
  8
_2-f_
  6
CONTINUOUS
 62
    7
 10
244.74563958012459
 20
159.56368479994512
 11
218.52430611444046
 21
152.29727042546932
  0
LINE
  8
_2-f_
  6
CONTINUOUS
 62
    7
 10
218.52430611444046
 20
154.95481642546932
 11
244.74563958012459
 21
162.16368479994512
  0
LINE
  8
ADD_LINE
  6
DOT
 62
    9
 10
264.91835409496019
 20
143.73085605099354
 11
244.74563958012459
 21
143.73085605099354
  0
LINE
  8
_2-f_
  6
CONTINUOUS
 62
    7
 10
256.05367453928085
 20
141.73085605099354
 11
256.05367453928085
 21
145.73085605099354
  0
LINE
  8
_2-f_
  6
CONTINUOUS
 62
    7
 10
256.05367453928085
 20
145.73085605099354
 11
248.05367453928085
 21
145.73085605099354
  0
LINE
  8
_2-f_
  6
CONTINUOUS
 62
    7
 10
248.05367453928085
 20
141.73085605099354
 11
248.05367453928085
 21
145.73085605099354
  0
LINE
  8
_2-f_
  6
CONTINUOUS
 62
    7
 10
256.05367453928085
 20
141.73085605099354
 11
248.05367453928085
 21
141.73085605099354
  0
ARC
  8
_2-f_
  6
CONTINUOUS
 62
    7
 10
261.13053849996595
 20
143.73085605099354
 40
2.5
 50
180
 51
270
  0
LINE
  8
_2-f_
  6
CONTINUOUS
 62
    7
 10
266.64657699234766
 20
139.73085605099354
 11
266.64657699234766
 21
141.23085605099354
  0
LINE
  8
_2-f_
  6
CONTINUOUS
 62
    7
 10
266.64657699234766
 20
146.23085605099354
 11
266.64657699234766
 21
147.73085605099354
  0
LINE
  8
_2-f_
  6
CONTINUOUS
 62
    7
 10
261.13053849996595
 20
141.23085605099354
 11
266.64657699234766
 21
141.23085605099354
  0
LINE
  8
_2-f_
  6
CONTINUOUS
 62
    7
 10
261.13053849996595
 20
146.23085605099354
 11
266.64657699234766
 21
146.23085605099354
  0
ARC
  8
_2-f_
  6
CONTINUOUS
 62
    7
 10
261.13053849996595
 20
143.73085605099354
 40
2.5
 50
90
 51
180
  0
LINE
  8
_2-f_
  6
CONTINUOUS
 62
    7
 10
258.04342868084217
 20
139.73085605099354
 11
266.64657699234766
 21
139.73085605099354
  0
ARC
  8
_2-f_
  6
CONTINUOUS
 62
    7
 10
258.04342868084217
 20
140.73085605099354
 40
1
 50
216.63411387596747
 51
270
  0
LINE
  8
_2-f_
  6
CONTINUOUS
 62
    7
 10
258.04342868084217
 20
147.73085605099354
 11
266.64657699234766
 21
147.73085605099354
  0
ARC
  8
_2-f_
  6
CONTINUOUS
 62
    7
 10
258.04342868084217
 20
146.73085605099354
 40
1
 50
90
 51
143.36588612403253
  0
LINE
  8
_2-f_
  6
CONTINUOUS
 62
    7
 10
257.24096633989603
 20
140.13415328464896
 11
256.05367453928085
 21
141.73085605099354
  0
LINE
  8
_2-f_
  6
CONTINUOUS
 62
    7
 10
257.24096633989603
 20
147.32755881733809
 11
256.05367453928085
 21
145.73085605099354
  0
LINE
  8
_2-f_
  6
CONTINUOUS
 62
    7
 10
248.05367453928085
 20
142.43085605099353
 11
244.74563958012459
 21
142.43085605099353
  0
LINE
  8
_2-f_
  6
CONTINUOUS
 62
    7
 10
248.05367453928085
 20
145.03085605099355
 11
244.74563958012459
 21
145.03085605099355
  0
LINE
  8
_2-f_
  6
CONTINUOUS
 62
    7
 10
244.74563958012459
 20
145.03085605099355
 11
218.52430611444046
 21
152.29727042546932
  0
LINE
  8
_2-f_
  6
CONTINUOUS
 62
    7
 10
218.52430611444046
 20
149.63972442546932
 11
244.74563958012459
 21
142.43085605099353
  0
LINE
  8
_2-1_
  6
CONTINUOUS
 62
    4
 10
248.0980950767013
 20
131.7059779248145
 11
245.20031759783407
 21
132.48243506012207
  0
LINE
  8
_2-1_
  6
CONTINUOUS
 62
    4
 10
248.0980950767013
 20
131.7059779248145
 11
245.20031759783407
 21
130.92952078950694
  0
LINE
  8
_2-1_
  6
CONTINUOUS
 62
    4
 10
248.0980950767013
 20
131.2059779248145
 11
248.0980950767013
 21
139.29900456738696
  0
LINE
  8
_2-1_
  6
CONTINUOUS
 62
    4
 10
142.31097203266935
 20
131.7059779248145
 11
145.20874951153655
 21
132.48243506012207
  0
LINE
  8
_2-1_
  6
CONTINUOUS
 62
    4
 10
142.31097203266935
 20
131.7059779248145
 11
145.20874951153655
 21
130.92952078950694
  0
LINE
  8
_2-1_
  6
CONTINUOUS
 62
    4
 10
142.31097203266935
 20
131.2059779248145
 11
142.31097203266935
 21
144.14059685548821
  0
LINE
  8
_2-1_
  6
CONTINUOUS
 62
    4
 10
248.0980950767013
 20
131.7059779248145
 11
142.31097203266935
 21
131.7059779248145
  0
LINE
  8
_2-1_
  6
CONTINUOUS
 62
    7
 10
218.52430611444046
 20
152.29727042546932
 11
142.31097203266935
 21
152.29727042546932
  0
LINE
  8
ADD_LINE
  6
DOT
 62
    9
 10
124.25619209933605
 20
152.29727042546932
 11
143.3492754326694
 21
152.29727042546932
  0
LINE
  8
_2-0_
  6
CONTINUOUS
 62
    7
 10
135.74668803266937
 20
157.10485342546934
 11
142.31097203266935
 21
157.10485342546934
  0
LINE
  8
_2-0_
  6
CONTINUOUS
 62
    7
 10
125.48857003266937
 20
156.27940742546934
 11
125.48857003266937
 21
152.65355542546934
  0
LINE
  8
_2-0_
  6
CONTINUOUS
 62
    7
 10
125.48857003266937
 20
152.65355542546934
 11
127.45434203266939
 21
152.65355542546934
  0
LINE
  8
_2-0_
  6
CONTINUOUS
 62
    7
 10
125.48857003266937
 20
151.93960742546932
 11
127.45434203266939
 21
151.93960742546932
  0
LINE
  8
_2-1_
  6
CONTINUOUS
 62
    7
 10
142.31097203266935
 20
154.15481642546931
 11
142.31097203266935
 21
150.45832642546932
  0
LINE
  8
_2-0_
  6
CONTINUOUS
 62
    7
 10
140.03204203266935
 20
155.53687742546933
 11
140.03204203266935
 21
154.87266342546934
  0
LINE
  8
_2-0_
  6
CONTINUOUS
 62
    7
 10
133.87875603266937
 20
155.53687742546933
 11
140.74586603266937
 21
155.53687742546933
  0
LINE
  8
_2-0_
  6
CONTINUOUS
 62
    7
 10
140.74586603266937
 20
155.53687742546933
 11
140.74586603266937
 21
154.87266342546934
  0
LINE
  8
_2-0_
  6
CONTINUOUS
 62
    7
 10
140.03204203266935
 20
149.72187742546933
 11
140.03204203266935
 21
148.93432942546934
  0
LINE
  8
_2-0_
  6
CONTINUOUS
 62
    7
 10
133.87875603266937
 20
148.93432942546934
 11
140.74586603266937
 21
148.93432942546934
  0
LINE
  8
_2-0_
  6
CONTINUOUS
 62
    7
 10
140.74586603266937
 20
149.72187742546933
 11
140.74586603266937
 21
148.93432942546934
  0
LINE
  8
_2-0_
  6
CONTINUOUS
 62
    7
 10
129.62027403266939
 20
154.87266342546934
 11
129.62027403266939
 21
149.72187742546933
  0
LINE
  8
_2-1_
  6
CONTINUOUS
 62
    7
 10
218.52430611444046
 20
149.63972442546932
 11
142.31097203266935
 21
149.63972442546932
  0
LINE
  8
_2-0_
  6
CONTINUOUS
 62
    7
 10
135.74668803266937
 20
156.27940742546934
 11
135.74668803266937
 21
157.10485342546934
  0
LINE
  8
_2-0_
  6
CONTINUOUS
 62
    7
 10
135.74668803266937
 20
156.27940742546934
 11
125.48857003266937
 21
156.27940742546934
  0
LINE
  8
_2-0_
  6
CONTINUOUS
 62
    7
 10
136.74958500000002
 20
154.87266342546934
 11
136.74958500000002
 21
149.72187742546933
  0
LINE
  8
_2-0_
  6
CONTINUOUS
 62
    7
 10
128.16144881385594
 20
154.87266342546934
 11
140.74586603266937
 21
154.87266342546934
  0
LINE
  8
_2-0_
  6
CONTINUOUS
 62
    7
 10
128.16144881385594
 20
154.87266342546934
 11
127.45434203266939
 21
154.16555664428279
  0
LINE
  8
_2-0_
  6
CONTINUOUS
 62
    7
 10
127.45434203266939
 20
150.42898420665588
 11
127.45434203266939
 21
154.16555664428279
  0
LINE
  8
_2-0_
  6
CONTINUOUS
 62
    7
 10
128.16144881385594
 20
149.72187742546933
 11
140.74586603266937
 21
149.72187742546933
  0
LINE
  8
_2-0_
  6
CONTINUOUS
 62
    7
 10
127.45434203266939
 20
150.42898420665588
 11
128.16144881385594
 21
149.72187742546933
  0
LINE
  8
_2-0_
  6
CONTINUOUS
 62
    7
 10
128.16144881385594
 20
154.87266342546934
 11
128.16144881385594
 21
149.72187742546933
  0
LINE
  8
_2-0_
  6
CONTINUOUS
 62
    7
 10
125.48857003266937
 20
151.93960742546932
 11
125.48857003266937
 21
148.33960742546932
  0
LINE
  8
_2-0_
  6
CONTINUOUS
 62
    7
 10
125.48857003266937
 20
148.33960742546932
 11
135.74668803266937
 21
148.33960742546932
  0
LINE
  8
_2-0_
  6
CONTINUOUS
 62
    7
 10
135.74668803266937
 20
147.24370942546932
 11
135.74668803266937
 21
148.33960742546932
  0
LINE
  8
_2-0_
  6
CONTINUOUS
 62
    7
 10
125.98857003266937
 20
155.27940742546934
 11
125.98857003266937
 21
153.65355542546934
  0
LINE
  8
_2-0_
  6
CONTINUOUS
 62
    7
 10
125.98857003266937
 20
153.65355542546934
 11
127.45434203266939
 21
153.65355542546934
  0
LINE
  8
_2-0_
  6
CONTINUOUS
 62
    7
 10
125.98857003266937
 20
150.93960742546932
 11
127.45434203266939
 21
150.93960742546932
  0
LINE
  8
_2-0_
  6
CONTINUOUS
 62
    7
 10
125.98857003266937
 20
150.93960742546932
 11
125.98857003266937
 21
149.33960742546932
  0
LINE
  8
_2-0_
  6
CONTINUOUS
 62
    7
 10
133.87875603266937
 20
155.53687742546933
 11
133.87875603266937
 21
154.87266342546934
  0
LINE
  8
_2-0_
  6
CONTINUOUS
 62
    7
 10
133.87875603266937
 20
149.72187742546933
 11
133.87875603266937
 21
148.93432942546934
  0
LINE
  8
_2-0_
  6
CONTINUOUS
 62
    7
 10
125.98857003266937
 20
149.33960742546932
 11
133.87875603266937
 21
149.33960742546932
  0
LINE
  8
_2-0_
  6
CONTINUOUS
 62
    7
 10
133.87875603266937
 20
155.27940742546934
 11
125.98857003266937
 21
155.27940742546934
  0
LINE
  8
_2-0_
  6
CONTINUOUS
 62
    7
 10
139.31097203266935
 20
152.79727042546932
 11
139.31097203266935
 21
151.79727042546932
  0
LINE
  8
_2-0_
  6
CONTINUOUS
 62
    7
 10
139.31097203266935
 20
151.79727042546932
 11
141.31097203266935
 21
151.79727042546932
  0
LINE
  8
_2-0_
  6
CONTINUOUS
 62
    7
 10
141.31097203266935
 20
152.79727042546932
 11
141.31097203266935
 21
151.79727042546932
  0
LINE
  8
_2-0_
  6
CONTINUOUS
 62
    7
 10
139.31097203266935
 20
152.79727042546932
 11
141.31097203266935
 21
152.79727042546932
  0
TEXT
  8
_2-0_
 62
    3
 10
145.94999999999999
 20
157.59999999999999
 40
5
 41
1
 50
0
  1
2pin：－
  0
TEXT
  8
_2-0_
 62
    3
 10
145.94999999999999
 20
141.84999999999999
 40
5
 41
1
 50
0
  1
1pin：＋
  0
TEXT
  8
_2-0_
 62
    7
 10
123.2
 20
116.30000000000001
 40
4
 41
1
 50
0
  1
PVFF0.75×2Cシロ（コードマーキング側を＋側に接続）
  0
LINE
  8
_2-0_
  6
CONTINUOUS
 62
    7
 10
180.59999999999999
 20
147.44999999999999
 11
157.84999999999999
 21
124.34999999999999
  0
TEXT
  8
_2-0_
 62
    3
 10
270.19999999999999
 20
141.15000000000001
 40
5
 41
1
 50
0
  1
＋
  0
TEXT
  8
_2-0_
 62
    3
 10
270.89999999999998
 20
157.94999999999999
 40
5
 41
1
 50
0
  1
－
  0
TEXT
  8
_2-f_
 62
    7
 10
265.10590417000799
 20
182.72085004009622
 40
4
 41
1
 50
0
  1
U端子カシメ
  0
TEXT
  8
_2-f_
 62
    7
 10
264.76909582999201
 20
178.67914995990378
 40
4
 41
1
 50
0
  1
TMEE1.25-YAS4
  0
LINE
  8
_2-0_
  6
CONTINUOUS
 62
    4
 10
261.80000000000001
 20
179.30000000000001
 11
253.40000000000001
 21
162.5
  0
LINE
  8
_2-0_
  6
CONTINUOUS
 62
    4
 10
261.80000000000001
 20
179.30000000000001
 11
253.05000000000001
 21
145.34999999999999
  0
TEXT
  8
_2-0_
 62
    7
 10
264.25
 20
172.65000000000001
 40
4
 41
1
 50
0
  1
※白収縮チューブで絶縁処理
  0
TEXT
  8
_2-0_
 62
    7
 10
268.61828442437923
 20
167.99136568848758
 40
4
 41
1
 50
0
  1
マイナス側チューブに「－」印字
  0
TEXT
  8
_2-f_
 62
    7
 10
307.97899999999998
 20
37.405333333333346
 40
4
 41
1
 50
0
  1
長
  0
TEXT
  8
_2-f_
 62
    7
 10
323.12
 20
37.285166666666669
 40
4
 41
1
 50
0
  1
長
  0
TEXT
  8
_2-f_
 62
    7
 10
350.75833333333333
 20
37.765833333333347
 40
4
 41
1
 50
0
  1
18
  0
TEXT
  8
_2-f_
 62
    7
 10
360.01116666666667
 20
37.765833333333347
 40
4
 41
1
 50
0
  1
3
  0
TEXT
  8
_2-f_
 62
    7
 10
365.89933333333335
 20
37.88600000000001
 40
4
 41
1
 50
0
  1
19
  0
TEXT
  8
_2-f_
 62
    7
 10
353.28183333333334
 20
27.551666666666677
 40
4
 41
1
 50
0
  1
DGC-1000-VL
  0
TEXT
  8
_2-f_
 62
    7
 10
352.80116666666663
 20
17.698000000000008
 40
4
 41
1
 50
0
  1
Ｆ２１８３１２１
  0
TEXT
  8
_2-0_
 62
    7
 10
185.84999999999999
 20
133.09999999999999
 40
4
 41
1
 50
0
  1
1000±20
  0
TEXT
  8
_2-0_
 62
    7
 10
268.61828442437923
 20
163.46190744920995
 40
4
 41
1
 50
0
  1
プラス側チューブに「＋」印字
  0
TEXT
  8
_2-f_
 62
    7
 10
103.60000000000001
 20
160.40000000000001
 40
4
 41
1
 50
0
  1
※リテーナー有り
  0
TEXT
  8
_2-f_
 62
    7
 10
103.60000000000001
 20
165.30000000000001
 40
4
 41
1
 50
0
  1
VLP-02V
  0
TEXT
  8
_2-f_
 62
    7
 10
322.78750000000002
 20
45.36375000000001
 40
4
 41
1
 50
0
  1
18
  0
TEXT
  8
_2-f_
 62
    7
 10
333.95249999999999
 20
45.556250000000006
 40
4
 41
1
 50
0
  1
3
  0
TEXT
  8
_2-f_
 62
    7
 10
341.94124999999997
 20
45.36375000000001
 40
4
 41
1
 50
0
  1
19
  0
TEXT
  8
_2-f_
 62
    7
 10
351.47000000000003
 20
45.36375000000001
 40
4
 41
1
 50
0
  1
F2183121
  0
TEXT
  8
_2-f_
 62
    7
 10
388.14125000000001
 20
45.267500000000013
 40
4
 41
1
 50
0
  1
長
  0
ENDSEC
  0
EOF
