  0
SECTION
  2
HEADER
  9
$ACADVER
  1
AC1009
  9
$INSBASE
 10
0
 20
0
 30
0
  9
$EXTMIN
 10
0
 20
0
  9
$EXTMAX
 10
420
 20
297
  9
$LIMMIN
 10
0
 20
0
  9
$LIMMAX
 10
420
 20
297
  9
$LTSCALE
 40
1
  0
ENDSEC
  0
SECTION
  2
TABLES
  0
TABLE
  2
LTYPE
 70
     9
  0
LTYPE
  2
CONTINUOUS
 70
    64
  3
実線
 72
    65
 73
     0
 40
0.0
  0
LTYPE
  2
DASHED1
 70
    64
  3
--  --  --  --  --  --  --  --  
 72
    65
 73
     2
 40
2.5
 49
1.25
 49
-1.25
  0
LTYPE
  2
DASHED2
 70
    64
  3
----    ----    ----    ----    
 72
    65
 73
     2
 40
5.0
 49
2.5
 49
-2.5
  0
LTYPE
  2
DASHED3
 70
    64
  3
------  ------  ------  ------  
 72
    65
 73
     2
 40
5.0
 49
3.75
 49
-1.25
  0
LTYPE
  2
CENTER1
 70
    64
  3
----- - ----- - ----- - ----- - 
 72
    65
 73
     4
 40
10.0
 49
6.25
 49
-1.25
 49
1.25
 49
-1.25
  0
LTYPE
  2
CENTER2
 70
    64
  3
----------  --  ----------  --  
 72
    65
 73
     4
 40
20.0
 49
12.5
 49
-2.5
 49
2.5
 49
-2.5
  0
LTYPE
  2
PHANTOM1
 70
    64
  3
--- - - --- - - --- - - --- - - 
 72
    65
 73
     6
 40
10.0
 49
3.25
 49
-1.25
 49
1.25
 49
-1.25
 49
1.25
 49
-1.25
  0
LTYPE
  2
PHANTOM2
 70
    64
  3
--------  -  -  --------  -  -  
 72
    65
 73
     6
 40
20.0
 49
10.0
 49
-2.5
 49
1.25
 49
-2.5
 49
1.25
 49
-2.5
  0
LTYPE
  2
DOT
 70
    64
  3
-   -   -   -   -   -   -   -   
 72
    65
 73
     2
 40
2.5
 49
0.625
 49
-1.875
  0
LTYPE
  2
DUMMY
 70
    64
  3
ダミー
 72
    65
 73
     0
 40
0.0
  0
LTYPE
  2
RAND1
 70
    64
  3
ランダム線1
 72
    65
 73
     4
 40
10.0
 49
1.0
 49
-2.0
 49
3.0
 49
-4.0
  0
LTYPE
  2
RAND2
 70
    64
  3
ランダム線2
 72
    65
 73
     4
 40
14.0
 49
2.0
 49
-3.0
 49
4.0
 49
-5.0
  0
LTYPE
  2
RAND3
 70
    64
  3
ランダム線3
 72
    65
 73
     4
 40
18.0
 49
3.0
 49
-4.0
 49
5.0
 49
-6.0
  0
LTYPE
  2
RAND4
 70
    64
  3
ランダム線4
 72
    65
 73
     4
 40
22.0
 49
4.0
 49
-5.0
 49
6.0
 49
-7.0
  0
LTYPE
  2
RAND5
 70
    64
  3
ランダム線5
 72
    65
 73
     4
 40
26.0
 49
5.0
 49
-6.0
 49
7.0
 49
-8.0
  0
LTYPE
  2
LONG1
 70
    64
  3
----------  --  ----------  --  
 72
    65
 73
     4
 40
40.0
 49
32.5
 49
-2.5
 49
2.5
 49
-2.5
  0
LTYPE
  2
LONG2
 70
    64
  3
--------  -  -  --------  -  -  
 72
    65
 73
     6
 40
40.0
 49
30.0
 49
-2.5
 49
1.25
 49
-2.5
 49
1.25
 49
-2.5
  0
LTYPE
  2
LONG3
 70
    64
  3
+++++++++++++++..+++++++++++++++
 72
    65
 73
     2
 40
40.0
 49
37.5
 49
-2.5
  0
LTYPE
  2
LONG4
 70
    64
  3
+++++++++++++++..+++++++++++++++
 72
    65
 73
     2
 40
80.0
 49
75.0
 49
-5.0
  0
LTYPE
  2
LONG5
 70
    64
  3
----------  --  ----------  --  
 72
    65
 73
     4
 40
60.0
 49
37.5
 49
-7.5
 49
7.5
 49
-7.5
  0
LTYPE
  2
dashed
 70
   64
  3
-------   -------------   ------
 72
   65
 73
    2
 40
7.5
 49
6
 49
-1.5
  0
LTYPE
  2
dashed_spaced
 70
   64
  3
----        --------        ----
 72
   65
 73
    2
 40
12
 49
6
 49
-6
  0
LTYPE
  2
long_dashed_dotted
 70
   64
  3
------------- --- --------------
 72
   65
 73
    4
 40
15.25
 49
12
 49
-1.5
 49
0.25
 49
-1.5
  0
LTYPE
  2
long_dashed_double-dotted
 70
   64
  3
----------- --- --- ------------
 72
   65
 73
    6
 40
17
 49
12
 49
-1.5
 49
0.25
 49
-1.5
 49
0.25
 49
-1.5
  0
LTYPE
  2
long_dashed_triplicate-dotted
 70
   64
  3
--------- --- --- --- ----------
 72
   65
 73
    8
 40
18.75
 49
12
 49
-1.5
 49
0.25
 49
-1.5
 49
0.25
 49
-1.5
 49
0.25
 49
-1.5
  0
LTYPE
  2
dotted
 70
   64
  3
   -       -       -       -    
 72
   65
 73
    2
 40
1.75
 49
0.25
 49
-1.5
  0
LTYPE
  2
chain
 70
   64
  3
-------------- -- --------------
 72
   65
 73
    4
 40
18.5
 49
12
 49
-1.5
 49
3.5
 49
-1.5
  0
LTYPE
  2
chain_double_dash
 70
   64
  3
------------ -- -- -------------
 72
   65
 73
    6
 40
23.5
 49
12
 49
-1.5
 49
3.5
 49
-1.5
 49
3.5
 49
-1.5
  0
LTYPE
  2
dashed_dotted
 70
   64
  3
-----------     -     ----------
 72
   65
 73
    4
 40
9.25
 49
6
 49
-1.5
 49
0.25
 49
-1.5
  0
LTYPE
  2
double-dashed_dotted
 70
   64
  3
------   -----------   -   -----
 72
   65
 73
    6
 40
16.75
 49
6
 49
-1.5
 49
6
 49
-1.5
 49
0.25
 49
-1.5
  0
LTYPE
  2
dashed_double-dotted
 70
   64
  3
---------    -    -    ---------
 72
   65
 73
    6
 40
11
 49
6
 49
-1.5
 49
0.25
 49
-1.5
 49
0.25
 49
-1.5
  0
LTYPE
  2
double-dashed_double-dotted
 70
   64
  3
-----   ---------   -   -   ----
 72
   65
 73
    8
 40
18.5
 49
6
 49
-1.5
 49
6
 49
-1.5
 49
0.25
 49
-1.5
 49
0.25
 49
-1.5
  0
LTYPE
  2
dashed_triplicate-dotted
 70
   64
  3
-------    -    -    -    ------
 72
   65
 73
    8
 40
12.75
 49
6
 49
-1.5
 49
0.25
 49
-1.5
 49
0.25
 49
-1.5
 49
0.25
 49
-1.5
  0
LTYPE
  2
double-dashed_triplicate-dotted
 70
   64
  3
-----  ---------  -  -  -  -----
 72
   65
 73
   10
 40
20.25
 49
6
 49
-1.5
 49
6
 49
-1.5
 49
0.25
 49
-1.5
 49
0.25
 49
-1.5
 49
0.25
 49
-1.5
  0
LTYPE
  2
undefined
 70
   64
  3
--------------------------------
 72
   65
 73
    0
 40
0
  0
LTYPE
  2
_
 70
   64
  3
                                
 72
   65
 73
    0
 40
0
  0
LTYPE
  2
__18
 70
   64
  3
                                
 72
   65
 73
    0
 40
0
  0
LTYPE
  2
__19
 70
   64
  3
                                
 72
   65
 73
    0
 40
0
  0
LTYPE
  2
__20
 70
   64
  3
                                
 72
   65
 73
    0
 40
0
  0
LTYPE
  2
__21
 70
   64
  3
                                
 72
   65
 73
    0
 40
0
  0
LTYPE
  2
__22
 70
   64
  3
                                
 72
   65
 73
    0
 40
0
  0
LTYPE
  2
__23
 70
   64
  3
                                
 72
   65
 73
    0
 40
0
  0
LTYPE
  2
__24
 70
   64
  3
                                
 72
   65
 73
    0
 40
0
  0
LTYPE
  2
__25
 70
   64
  3
                                
 72
   65
 73
    0
 40
0
  0
LTYPE
  2
__26
 70
   64
  3
                                
 72
   65
 73
    0
 40
0
  0
LTYPE
  2
__27
 70
   64
  3
                                
 72
   65
 73
    0
 40
0
  0
LTYPE
  2
__28
 70
   64
  3
                                
 72
   65
 73
    0
 40
0
  0
LTYPE
  2
__29
 70
   64
  3
                                
 72
   65
 73
    0
 40
0
  0
LTYPE
  2
__30
 70
   64
  3
                                
 72
   65
 73
    0
 40
0
  0
LTYPE
  2
__31
 70
   64
  3
                                
 72
   65
 73
    0
 40
0
  0
LTYPE
  2
__32
 70
   64
  3
                                
 72
   65
 73
    0
 40
0
  0
ENDTAB
  0
TABLE
  2
STYLE
  5
3
100
AcDbSymbolTable
 70
     1
  0
STYLE
  5
10
100
AcDbSymbolTableRecord
100
AcDbTextStyleTableRecord
  2
STANDARD
 70
     0
 40
0.0
 41
1.0
 50
0.0
 71
     0
 42
0.2
  3
txt
  4
bigfont.shx
  0
STYLE
  5
26
100
AcDbSymbolTableRecord
100
AcDbTextStyleTableRecord
  2
TATEGAKI
 70
    68
 40
0.0
 41
1.0
 50
0.0
 71
     0
 42
1.0
  3
txt
  4
bigfont.shx
  0
ENDTAB
  0
TABLE
  2
LAYER
 70
    2
  0
LAYER
  2
_0-0_
 70
   64
 62
    7
  6
CONTINUOUS
  0
LAYER
  2
ADD_LINE
 70
   64
 62
    7
  6
CONTINUOUS
  0
ENDTAB
  0
ENDSEC
  0
SECTION
  2
BLOCKS
  0
BLOCK
  2
-000-_DOT
 70
   64
 10
0
 20
0
 30
0
  0
CIRCLE
  8
_0-0_
  6
CONTINUOUS
 62
    7
 10
0
 20
0
 40
0.5
  0
LINE
  8
_0-0_
  6
CONTINUOUS
 62
    7
 10
0.5
 20
0
 11
-0.5
 21
0
  0
LINE
  8
_0-0_
  6
CONTINUOUS
 62
    7
 10
-1
 20
0
 11
-2
 21
0
  0
ENDBLK
  0
ENDSEC
  0
SECTION
  2
ENTITIES
  0
LINE
  8
_0-0_
  6
CONTINUOUS
 62
    7
 10
219.52969665609871
 20
85.817775518701708
 11
169.52969665609871
 21
85.817775518701708
  0
LINE
  8
_0-0_
  6
CONTINUOUS
 62
    7
 10
219.52969665609871
 20
89.817775518701708
 11
169.52969665609871
 21
89.817775518701708
  0
LINE
  8
_0-0_
  6
CONTINUOUS
 62
    7
 10
314.52969665609874
 20
83.817775518701723
 11
219.52969665609871
 21
83.817775518701723
  0
LINE
  8
_0-0_
  6
CONTINUOUS
 62
    7
 10
57.529666138520639
 20
243.81776025991269
 11
314.52969665609874
 21
243.81776025991269
  0
LINE
  8
_0-0_
  6
CONTINUOUS
 62
    7
 10
314.52969665609874
 20
243.81776025991269
 11
314.52969665609874
 21
73.817775518701708
  0
LINE
  8
_0-0_
  6
CONTINUOUS
 62
    7
 10
314.52969665609874
 20
73.817775518701708
 11
57.529666138520639
 21
73.817775518701708
  0
LINE
  8
_0-0_
  6
CONTINUOUS
 62
    7
 10
57.529666138520639
 20
73.817775518701708
 11
57.529666138520639
 21
243.81776025991269
  0
LINE
  8
_0-0_
  6
CONTINUOUS
 62
    7
 10
269.52969665609874
 20
93.817779333398988
 11
269.52969665609874
 21
73.817775518701708
  0
LINE
  8
_0-0_
  6
CONTINUOUS
 62
    7
 10
269.52969665609874
 20
103.81778124074758
 11
269.52969665609874
 21
93.817779333398988
  0
LINE
  8
_0-0_
  6
CONTINUOUS
 62
    7
 10
264.52969665609874
 20
93.817779333398988
 11
264.52969665609874
 21
73.817775518701708
  0
LINE
  8
_0-0_
  6
CONTINUOUS
 62
    7
 10
229.55267639242689
 20
90.09698274831598
 11
229.55267639242689
 21
87.096986563013246
  0
LINE
  8
_0-0_
  6
CONTINUOUS
 62
    7
 10
229.55267639242689
 20
90.09698274831598
 11
236.55267639242689
 21
91.59698274831598
  0
LINE
  8
_0-0_
  6
CONTINUOUS
 62
    7
 10
236.55267639242689
 20
91.59698274831598
 11
236.55267639242689
 21
85.596980840967348
  0
LINE
  8
_0-0_
  6
CONTINUOUS
 62
    7
 10
229.55267639242689
 20
87.096986563013246
 11
236.55267639242689
 21
85.596980840967348
  0
LINE
  8
_0-0_
  6
CENTER2
 62
    2
 10
238.55264587484871
 20
88.596984655664613
 11
220.55267639242689
 21
88.596984655664613
  0
LINE
  8
_0-0_
  6
CENTER2
 62
    2
 10
224.55264587484871
 20
92.596986563013246
 11
224.55264587484871
 21
84.59698274831598
  0
LINE
  8
_0-0_
  6
CONTINUOUS
 62
    7
 10
264.52969665609874
 20
103.81778124074758
 11
264.52969665609874
 21
73.817775518701708
  0
LINE
  8
_0-0_
  6
CONTINUOUS
 62
    7
 10
294.52969665609874
 20
103.81778124074758
 11
294.52969665609874
 21
93.817779333398988
  0
LINE
  8
_0-0_
  6
CONTINUOUS
 62
    7
 10
299.52972717367697
 20
103.81778124074758
 11
299.52972717367697
 21
93.817779333398988
  0
LINE
  8
_0-0_
  6
CONTINUOUS
 62
    7
 10
239.52972717367689
 20
93.817779333398988
 11
239.52972717367689
 21
83.817775518701723
  0
LINE
  8
_0-0_
  6
CONTINUOUS
 62
    7
 10
244.52969665609871
 20
93.817779333398988
 11
244.52969665609871
 21
83.817775518701723
  0
LINE
  8
_0-0_
  6
CONTINUOUS
 62
    7
 10
254.529727173677
 20
103.81778124074758
 11
254.529727173677
 21
93.817779333398988
  0
LINE
  8
_0-0_
  6
CONTINUOUS
 62
    7
 10
249.52969665609871
 20
103.81778124074758
 11
249.52969665609871
 21
93.817779333398988
  0
LINE
  8
_0-0_
  6
CONTINUOUS
 62
    7
 10
239.52972717367689
 20
103.81778124074758
 11
239.52972717367689
 21
93.817779333398988
  0
LINE
  8
_0-0_
  6
CONTINUOUS
 62
    7
 10
234.52969665609871
 20
103.81778124074758
 11
234.52969665609871
 21
93.817779333398988
  0
LINE
  8
_0-0_
  6
CONTINUOUS
 62
    7
 10
224.52969665609871
 20
103.81778124074758
 11
224.52969665609871
 21
93.817779333398988
  0
LINE
  8
_0-0_
  6
CONTINUOUS
 62
    7
 10
219.52969665609871
 20
103.81778124074758
 11
219.52969665609871
 21
73.817775518701708
  0
LINE
  8
_0-0_
  6
CONTINUOUS
 62
    7
 10
314.52969665609874
 20
103.81778124074758
 11
219.52969665609871
 21
103.81778124074758
  0
LINE
  8
_0-0_
  6
CONTINUOUS
 62
    7
 10
314.52969665609874
 20
93.817779333398988
 11
219.52969665609871
 21
93.817779333398988
  0
CIRCLE
  8
_0-0_
  6
CONTINUOUS
 62
    7
 10
224.55264587484871
 20
88.596984655664613
 40
3
  0
CIRCLE
  8
_0-0_
  6
CONTINUOUS
 62
    7
 10
224.55264587484871
 20
88.596984655664613
 40
1.5
  0
TEXT
  8
_0-0_
 62
    7
 10
267.15555114828624
 20
81.943849290414903
 40
2.9999999999999978
 41
1
 50
-0.0000025044783455
  1
図番
  7
TATEGAKI
  0
TEXT
  8
_0-0_
 62
    7
 10
267.03280944906749
 20
92.09553691248523
 40
2.9999999999999978
 41
1
 50
-0.0000025044783455
  1
品名
  7
TATEGAKI
  0
TEXT
  8
_0-0_
 62
    7
 10
267.10861511312999
 20
101.89378138880359
 40
2.9999999999999978
 41
1
 50
-0.0000025044783455
  1
作図
  7
TATEGAKI
  0
TEXT
  8
_0-0_
 62
    7
 10
296.80765075766124
 20
101.83156939844709
 40
2.9999999999999978
 41
1
 50
-0.0000025044783455
  1
尺度
  7
TATEGAKI
  0
TEXT
  8
_0-0_
 62
    7
 10
242.09723205648939
 20
92.09553691248523
 40
2.9999999999999978
 41
1
 50
-0.0000025044783455
  1
材質
  7
TATEGAKI
  0
TEXT
  8
_0-0_
 62
    7
 10
222.03076477133308
 20
101.8127514968358
 40
2.9999999999999978
 41
1
 50
-0.0000025044783455
  1
設計
  7
TATEGAKI
  0
TEXT
  8
_0-0_
 62
    7
 10
237.01336975180189
 20
101.8127514968358
 40
2.9999999999999978
 41
1
 50
-0.0000025044783455
  1
製図
  7
TATEGAKI
  0
TEXT
  8
_0-0_
 62
    7
 10
251.99597473227058
 20
101.8127514968358
 40
2.9999999999999978
 41
1
 50
-0.0000025044783455
  1
検図
  7
TATEGAKI
  0
TEXT
  8
_0-0_
 62
    7
 10
295.27277169921319
 20
239.32601386063317
 40
3.2000000000000002
 41
1
 50
0
  1
担当
  0
TEXT
  8
_0-0_
 62
    7
 10
305.12265947866933
 20
239.38958341603404
 40
3.2000000000000002
 41
1
 50
0
  1
検印
  0
TEXT
  8
_0-0_
 62
    7
 10
196.3236536560988
 20
239.60996525991266
 40
3
 41
1
 50
0
  1
Ｎｏ
  0
TEXT
  8
_0-0_
 62
    7
 10
211.7052836560986
 20
239.63381825991274
 40
3
 41
1
 50
0
  1
年　月　日
  0
TEXT
  8
_0-0_
 62
    7
 10
252.5032956560988
 20
239.63381825991274
 40
3
 41
1
 50
0
  1
訂　正　記　事
  0
TEXT
  8
_0-0_
 62
    7
 10
217.4861856560988
 20
234.28046425991266
 40
3
 41
1
 50
0
  1
.   .
  0
LINE
  8
_0-0_
  6
CONTINUOUS
 62
    7
 10
194.5538396560988
 20
238.42086825991265
 11
194.5538396560988
 21
233.42088825991266
  0
LINE
  8
_0-0_
  6
CONTINUOUS
 62
    7
 10
204.55384765609858
 20
238.42086825991265
 11
204.55384765609858
 21
233.42088825991266
  0
LINE
  8
_0-0_
  6
CONTINUOUS
 62
    7
 10
234.55384765609855
 20
238.42086825991265
 11
234.55384765609855
 21
233.42088825991266
  0
LINE
  8
_0-0_
  6
CONTINUOUS
 62
    7
 10
194.5538396560988
 20
243.81776025991269
 11
194.5538396560988
 21
238.42086825991265
  0
LINE
  8
_0-0_
  6
CONTINUOUS
 62
    7
 10
204.55384765609858
 20
243.81776025991269
 11
204.55384765609858
 21
238.42086825991265
  0
LINE
  8
_0-0_
  6
CONTINUOUS
 62
    7
 10
234.55384765609855
 20
243.81776025991269
 11
234.55384765609855
 21
238.42086825991265
  0
LINE
  8
_0-0_
  6
CONTINUOUS
 62
    7
 10
294.5538476560987
 20
243.81776025991269
 11
294.5538476560987
 21
233.42088825991266
  0
LINE
  8
_0-0_
  6
CONTINUOUS
 62
    7
 10
304.5538476560987
 20
243.81776025991269
 11
304.5538476560987
 21
233.42088825991266
  0
LINE
  8
_0-0_
  6
CONTINUOUS
 62
    7
 10
314.52969665609874
 20
238.42086825991265
 11
194.5538556560987
 21
238.42086825991265
  0
LINE
  8
_0-0_
  6
CONTINUOUS
 62
    7
 10
194.5538396560988
 20
233.42088825991266
 11
314.52969665609874
 21
233.42088825991266
  0
TEXT
  8
_0-0_
 62
    7
 10
197.96548065609861
 20
233.99965025991264
 40
3
 41
1
 50
0
  1
1
  0
LINE
  8
_0-0_
  6
CONTINUOUS
 62
    7
 10
198.8421075622322
 20
238.26505525991274
 11
201.0921075622322
 21
233.76505325991269
  0
LINE
  8
_0-0_
  6
CONTINUOUS
 62
    7
 10
196.59211556223229
 20
233.76505325991269
 11
201.0921075622322
 21
233.76505325991269
  0
LINE
  8
_0-0_
  6
CONTINUOUS
 62
    7
 10
198.8421075622322
 20
238.26505525991274
 11
196.59211556223229
 21
233.76505325991269
  0
LINE
  8
_0-0_
  6
CONTINUOUS
 62
    7
 10
314.52968865609864
 20
103.81778124074758
 11
219.52968865609861
 21
103.81778124074758
  0
LINE
  8
_0-0_
  6
CONTINUOUS
 62
    7
 10
314.52968865609864
 20
103.81778124074758
 11
219.52969665609871
 21
103.81778124074758
  0
TEXT
  8
_0-0_
 62
    7
 10
241.10154001186669
 20
97.331935389716705
 40
3.2000000000000002
 41
1
 50
0
  1
積山
  0
TEXT
  8
_0-0_
 62
    7
 10
272.70471461504127
 20
96.877967135748435
 40
3
 41
1
 50
0
  1
17年7月19日
  0
TEXT
  8
_0-0_
 62
    7
 10
303.0158257261524
 20
97.157332215113513
 40
3
 41
1
 50
0
  1
1：1
  0
LINE
  8
_0-0_
  6
CONTINUOUS
 62
    7
 10
78.93040789596364
 20
145.44600418382061
 11
78.93040789596364
 21
155.14600418382071
  0
LINE
  8
_0-0_
  6
CONTINUOUS
 62
    7
 10
62.930407895963668
 20
145.44600418382061
 11
78.93040789596364
 21
145.44600418382061
  0
LINE
  8
_0-0_
  6
CONTINUOUS
 62
    7
 10
80.93040789596364
 20
146.5460041838208
 11
80.93040789596364
 21
147.54600418382074
  0
ARC
  8
_0-0_
  6
CONTINUOUS
 62
    7
 10
80.43040789596364
 20
147.54600418382074
 40
0.5
 50
0
 51
90
  0
LINE
  8
_0-0_
  6
CONTINUOUS
 62
    7
 10
65.930407895963668
 20
143.44600418382061
 11
75.930407895963583
 21
143.44600418382061
  0
LINE
  8
_0-0_
  6
CONTINUOUS
 62
    7
 10
75.930407895963583
 20
143.44600418382061
 11
78.93040789596364
 21
145.44600418382061
  0
LINE
  8
_0-0_
  6
CONTINUOUS
 62
    7
 10
80.43040789596364
 20
148.04600418382063
 11
78.93040789596364
 21
148.04600418382063
  0
LINE
  8
_0-0_
  6
CONTINUOUS
 62
    7
 10
80.43040789596364
 20
146.0460041838208
 11
78.93040789596364
 21
146.0460041838208
  0
ARC
  8
_0-0_
  6
CONTINUOUS
 62
    7
 10
80.43040789596364
 20
146.5460041838208
 40
0.5
 50
270
 51
0
  0
LINE
  8
_0-0_
  6
CONTINUOUS
 62
    7
 10
62.930407895963668
 20
145.44600418382061
 11
62.930407895963668
 21
155.14600418382071
  0
LINE
  8
_0-0_
  6
CONTINUOUS
 62
    7
 10
60.930407895963668
 20
146.5460041838208
 11
60.930407895963668
 21
147.54600418382074
  0
ARC
  8
_0-0_
  6
CONTINUOUS
 62
    7
 10
61.430407895963668
 20
147.54600418382074
 40
0.5
 50
90
 51
180
  0
LINE
  8
_0-0_
  6
CONTINUOUS
 62
    7
 10
65.930407895963668
 20
143.44600418382061
 11
62.930407895963668
 21
145.44600418382061
  0
LINE
  8
_0-0_
  6
CONTINUOUS
 62
    7
 10
61.430407895963668
 20
148.04600418382063
 11
62.930407895963668
 21
148.04600418382063
  0
LINE
  8
_0-0_
  6
CONTINUOUS
 62
    7
 10
61.430407895963668
 20
146.0460041838208
 11
62.930407895963668
 21
146.0460041838208
  0
ARC
  8
_0-0_
  6
CONTINUOUS
 62
    7
 10
61.430407895963668
 20
146.5460041838208
 40
0.5
 50
180
 51
270
  0
LINE
  8
_0-0_
  6
CONTINUOUS
 62
    7
 10
66.655407895963776
 20
163.64600418382059
 11
66.655407895963776
 21
155.94600418382072
  0
LINE
  8
_0-0_
  6
CONTINUOUS
 62
    7
 10
67.455407895963788
 20
163.64600418382059
 11
67.455407895963788
 21
155.94600418382072
  0
LINE
  8
_0-0_
  6
CONTINUOUS
 62
    7
 10
70.655407895963776
 20
164.64600418382122
 11
70.655407895963663
 21
159.54600418382051
  0
LINE
  8
_0-0_
  6
CONTINUOUS
 62
    7
 10
71.455407895963788
 20
164.64600418381991
 11
71.455407895963788
 21
159.54600418382051
  0
LINE
  8
_0-0_
  6
CONTINUOUS
 62
    7
 10
66.805407895963782
 20
164.64600418382059
 11
67.295407895963791
 21
164.64600418382059
  0
LINE
  8
_0-0_
  6
CONTINUOUS
 62
    7
 10
73.55540789596364
 20
156.74600418382073
 11
73.55540789596364
 21
159.04600418382051
  0
LINE
  8
_0-0_
  6
CONTINUOUS
 62
    7
 10
68.55540789596364
 20
156.74600418382073
 11
68.55540789596364
 21
159.04600418382051
  0
LINE
  8
_0-0_
  6
CONTINUOUS
 62
    7
 10
69.05540789596364
 20
159.54600418382051
 11
73.05540789596364
 21
159.54600418382051
  0
ARC
  8
_0-0_
  6
CONTINUOUS
 62
    7
 10
63.730407895963651
 20
155.14600418382071
 40
0.8
 50
90
 51
180
  0
ARC
  8
_0-0_
  6
CONTINUOUS
 62
    7
 10
78.130407895963685
 20
155.14600418382071
 40
0.8
 50
0
 51
90
  0
ARC
  8
_0-0_
  6
CONTINUOUS
 62
    7
 10
69.05540789596364
 20
159.04600418382051
 40
0.5
 50
90
 51
180
  0
ARC
  8
_0-0_
  6
CONTINUOUS
 62
    7
 10
73.05540789596364
 20
159.04600418382051
 40
0.5
 50
0
 51
90
  0
LINE
  8
_0-0_
  6
CONTINUOUS
 62
    7
 10
66.805407895963782
 20
164.64600418382059
 11
66.655407895963776
 21
163.64600418382059
  0
LINE
  8
_0-0_
  6
CONTINUOUS
 62
    7
 10
67.295407895963791
 20
164.64600418382059
 11
67.455407895963788
 21
163.64600418382059
  0
LINE
  8
_0-0_
  6
CONTINUOUS
 62
    7
 10
66.655407895963776
 20
163.64600418382059
 11
67.455407895963788
 21
163.64600418382059
  0
LINE
  8
_0-0_
  6
CONTINUOUS
 62
    7
 10
75.455407895963674
 20
163.64600418382059
 11
75.455407895963674
 21
155.94600418382072
  0
LINE
  8
_0-0_
  6
CONTINUOUS
 62
    7
 10
74.655407895963663
 20
163.64600418382059
 11
74.655407895963663
 21
155.94600418382072
  0
LINE
  8
_0-0_
  6
CONTINUOUS
 62
    7
 10
75.30540789596364
 20
164.64600418382059
 11
74.815407895963688
 21
164.64600418382059
  0
LINE
  8
_0-0_
  6
CONTINUOUS
 62
    7
 10
75.30540789596364
 20
164.64600418382059
 11
75.455407895963674
 21
163.64600418382059
  0
LINE
  8
_0-0_
  6
CONTINUOUS
 62
    7
 10
74.815407895963688
 20
164.64600418382059
 11
74.655407895963663
 21
163.64600418382059
  0
LINE
  8
_0-0_
  6
CONTINUOUS
 62
    7
 10
75.455407895963674
 20
163.64600418382059
 11
74.655407895963663
 21
163.64600418382059
  0
LINE
  8
_0-0_
  6
CONTINUOUS
 62
    7
 10
70.80540789596364
 20
165.64600418382059
 11
71.295407895963592
 21
165.64600418382059
  0
LINE
  8
_0-0_
  6
CONTINUOUS
 62
    7
 10
70.80540789596364
 20
165.64600418382059
 11
70.655407895963776
 21
164.64600418382122
  0
LINE
  8
_0-0_
  6
CONTINUOUS
 62
    7
 10
71.295407895963592
 20
165.64600418382059
 11
71.455407895963788
 21
164.64600418381991
  0
LINE
  8
_0-0_
  6
CONTINUOUS
 62
    7
 10
70.655407895963663
 20
164.64600418382059
 11
71.45540789596356
 21
164.64600418382059
  0
ARC
  8
_0-0_
  6
CONTINUOUS
 62
    7
 10
67.755407895963685
 20
156.74600418382073
 40
0.8
 50
270
 51
0
  0
LINE
  8
_0-0_
  6
CONTINUOUS
 62
    7
 10
63.730407895963651
 20
155.94600418382072
 11
78.130407895963685
 21
155.94600418382072
  0
ARC
  8
_0-0_
  6
CONTINUOUS
 62
    7
 10
74.355407895963651
 20
156.74600418382073
 40
0.8
 50
180
 51
270
  0
LINE
  8
_0-0_
  6
CONTINUOUS
 62
    7
 10
219.52969665609871
 20
81.817775518701708
 11
169.52969665609871
 21
81.817775518701708
  0
LINE
  8
_0-0_
  6
CONTINUOUS
 62
    7
 10
219.52969665609871
 20
77.817775518701708
 11
169.52969665609871
 21
77.817775518701708
  0
TEXT
  8
_0-0_
 62
    7
 10
172.23279368617591
 20
82.588987613898468
 40
2.5
 41
1
 50
0
  1
200以上
  0
TEXT
  8
_0-0_
 62
    7
 10
185.7354391888214
 20
82.495865920776779
 40
2.5
 41
1
 50
0
  1
500未満
  0
TEXT
  8
_0-0_
 62
    7
 10
172.06983072321293
 20
78.644249224715637
 40
2.5
 41
1
 50
0
  1
500以上
  0
TEXT
  8
_0-0_
 62
    7
 10
184.36189421527641
 20
78.582168095967845
 40
2.5
 41
1
 50
0
  1
1000未満
  0
TEXT
  8
_0-0_
 62
    7
 10
171.94566846571735
 20
74.546894727361135
 40
2.5
 41
1
 50
0
  1
1000以上
  0
TEXT
  8
_0-0_
 62
    7
 10
204.57447505007949
 20
78.61579537403955
 40
2.5
 41
1
 50
0
  1
+30, -0
  0
TEXT
  8
_0-0_
 62
    7
 10
204.51239392133169
 20
82.65106874264626
 40
2.5
 41
1
 50
0
  1
+20, -0
  0
TEXT
  8
_0-0_
 62
    7
 10
204.62620932403598
 20
74.523614304080709
 40
2.5
 41
1
 50
0
  1
+80, -0
  0
LINE
  8
_0-0_
  6
CONTINUOUS
 62
    7
 10
169.55398974723155
 20
73.817775518701708
 11
169.55398974723155
 21
89.817775518701708
  0
LINE
  8
_0-0_
  6
CONTINUOUS
 62
    7
 10
154.55398974723155
 20
73.817775518701708
 11
154.55398974723155
 21
89.817775518701708
  0
LINE
  8
_0-0_
  6
CONTINUOUS
 62
    7
 10
135.55398974723155
 20
73.817775518701708
 11
135.55398974723155
 21
89.817775518701708
  0
TEXT
  8
_0-0_
 62
    7
 10
132.48965697742659
 20
82.567889730300635
 40
2.5
 41
1
 50
0
  1
1
  0
TEXT
  8
_0-0_
 62
    7
 10
132.48965697742659
 20
74.65254581495671
 40
2.5
 41
1
 50
0
  1
3
  0
TEXT
  8
_0-0_
 62
    7
 10
132.45861641305271
 20
78.718859747937316
 40
2.5
 41
1
 50
0
  1
2
  0
TEXT
  8
_0-0_
 62
    7
 10
140.96373105150067
 20
86.292757455168356
 40
2.5
 41
1
 50
0
  1
品番
  0
TEXT
  8
_0-0_
 62
    7
 10
158.34644710088338
 20
86.541081970159539
 40
2.5
 41
1
 50
0
  1
実寸L
  0
TEXT
  8
_0-0_
 62
    7
 10
139.74538889982517
 20
78.486055515133074
 40
2.5
 41
1
 50
0
  1
DCP500
  0
TEXT
  8
_0-0_
 62
    7
 10
139.74538889982517
 20
74.668066097143665
 40
2.5
 41
1
 50
0
  1
DCP600
  0
TEXT
  8
_0-0_
 62
    7
 10
139.5591455135818
 20
82.676531705609264
 40
2.5
 41
1
 50
0
  1
DCP400
  0
TEXT
  8
_0-0_
 62
    7
 10
159.67343122786752
 20
82.490288319365888
 40
2.5
 41
1
 50
0
  1
400
  0
TEXT
  8
_0-0_
 62
    7
 10
159.7665529209892
 20
78.579177208254777
 40
2.5
 41
1
 50
0
  1
500
  0
TEXT
  8
_0-0_
 62
    7
 10
159.8596746141109
 20
74.481822710900275
 40
2.5
 41
1
 50
0
  1
600
  0
LINE
  8
_0-0_
  6
CONTINUOUS
 62
    7
 10
169.55398974723155
 20
89.817775518701708
 11
130.55398974723155
 21
89.817775518701708
  0
LINE
  8
_0-0_
  6
CONTINUOUS
 62
    7
 10
169.55398974723155
 20
85.817775518701708
 11
130.55398974723155
 21
85.817775518701708
  0
LINE
  8
_0-0_
  6
CONTINUOUS
 62
    7
 10
169.55398974723155
 20
81.817775518701708
 11
130.55398974723155
 21
81.817775518701708
  0
LINE
  8
_0-0_
  6
CONTINUOUS
 62
    7
 10
169.55398974723155
 20
77.817775518701708
 11
130.55398974723155
 21
77.817775518701708
  0
LINE
  8
_0-0_
  6
CONTINUOUS
 62
    7
 10
130.55398974723155
 20
89.817775518701708
 11
130.55398974723155
 21
73.817775518701708
  0
TEXT
  8
_0-0_
 62
    7
 10
131.0567305860387
 20
86.383049930183006
 40
2.5
 41
1
 50
0
  1
No.
  0
LINE
  8
_0-0_
  6
CONTINUOUS
 62
    7
 10
283.17445545376358
 20
119.81778124074758
 11
283.17445545376358
 21
103.81778124074758
  0
LINE
  8
_0-0_
  6
CONTINUOUS
 62
    7
 10
289.17445545376358
 20
119.81778124074758
 11
289.17445545376358
 21
103.81778124074758
  0
TEXT
  8
_0-0_
 62
    4
 10
283.72726752509413
 20
116.65449809792747
 40
2.5
 41
1
 50
0
  1
数量
  0
TEXT
  8
_0-0_
 62
    7
 10
182.74173198578532
 20
202.42947342392944
 40
0.0016
 41
1
 50
180
  1
559
  0
LINE
  8
_0-0_
  6
CONTINUOUS
 62
    7
 10
183.30597218684883
 20
205.11639290014466
 11
184.26963896875461
 21
204.26186008424406
  0
LINE
  8
_0-0_
  6
CONTINUOUS
 62
    7
 10
184.26963896875461
 20
204.26186008424406
 11
181.74598632502645
 21
203.74543261227507
  0
LINE
  8
_0-0_
  6
CONTINUOUS
 62
    7
 10
181.74598632502645
 20
203.74543261227507
 11
182.70965310693245
 21
202.89089979637436
  0
LINE
  8
_0-0_
  6
CONTINUOUS
 62
    7
 10
182.70965310693245
 20
202.89089979637436
 11
181.81802521748975
 21
199.56329921152837
  0
LINE
  8
_0-0_
  6
CONTINUOUS
 62
    7
 10
180.60292444190625
 20
205.84067236050475
 11
181.56659122381203
 21
204.9861395446045
  0
LINE
  8
_0-0_
  6
CONTINUOUS
 62
    7
 10
181.56659122381203
 20
204.9861395446045
 11
179.04293858008381
 21
204.4697120726355
  0
LINE
  8
_0-0_
  6
CONTINUOUS
 62
    7
 10
179.04293858008381
 20
204.4697120726355
 11
180.00660536198981
 21
203.61517925673468
  0
LINE
  8
_0-0_
  6
CONTINUOUS
 62
    7
 10
180.00660536198981
 20
203.61517925673468
 11
178.92090737604903
 21
199.56329921152837
  0
LINE
  8
_0-0_
  6
CONTINUOUS
 62
    7
 10
184.49861034668143
 20
209.56737910768459
 11
183.30597218684895
 21
205.11639290014466
  0
LINE
  8
_0-0_
  6
CONTINUOUS
 62
    7
 10
181.60149250524066
 20
209.56737910768459
 11
180.60292444190625
 21
205.84067236050475
  0
TEXT
  8
_0-0_
 62
    7
 10
180.67778573694503
 20
202.42787342392944
 40
0.0016
 41
1
 50
0
  1
559
  0
LINE
  8
_0-0_
  6
CONTINUOUS
 62
    7
 10
208.12384519804201
 20
201.81533915960654
 11
208.12384519804201
 21
207.31533915960654
  0
LINE
  8
_0-0_
  6
CONTINUOUS
 62
    7
 10
204.02725426668732
 20
204.56533915960642
 11
183.92740201952532
 21
204.56533915960642
  0
LINE
  8
_0-0_
  6
CONTINUOUS
 62
    7
 10
179.51024437604732
 20
204.56533915960642
 11
154.69307740148136
 21
204.56533915960642
  0
LINE
  8
_0-0_
  6
CONTINUOUS
 62
    7
 10
204.02717729772124
 20
205.86533915960672
 11
183.50665173224613
 21
205.86533915960672
  0
LINE
  8
_0-0_
  6
CONTINUOUS
 62
    7
 10
180.60953389080541
 20
205.86533915960649
 11
154.69307740148136
 21
205.86533915960672
  0
LINE
  8
_0-0_
  6
CONTINUOUS
 62
    7
 10
204.02717729772095
 20
203.26533915960647
 11
182.28739340026002
 21
203.26533915960567
  0
LINE
  8
_0-0_
  6
CONTINUOUS
 62
    7
 10
179.91286599048411
 20
203.26533915960579
 11
154.69307740148136
 21
203.26533915960556
  0
LINE
  8
_0-0_
  6
CONTINUOUS
 62
    7
 10
208.12384519804201
 20
206.56533915960654
 11
206.65966661393773
 21
206.56533915960654
  0
LINE
  8
_0-0_
  6
CONTINUOUS
 62
    7
 10
208.12384519804201
 20
205.26533915960647
 11
206.65974358290416
 21
205.26533915960647
  0
ARC
  8
_0-0_
  6
CONTINUOUS
 62
    7
 10
206.65974358290416
 20
203.26533915960647
 40
2
 50
90
 51
119.7816552342827
  0
ARC
  8
_0-0_
  6
CONTINUOUS
 62
    7
 10
204.02717729772095
 20
207.86533915960672
 40
2
 50
270
 51
299.7816552342826
  0
ARC
  8
_0-0_
  6
CONTINUOUS
 62
    7
 10
204.02725426668806
 20
207.86533915960172
 40
3.2999999999999989
 50
269.99999999998698
 51
299.78165523431983
  0
ARC
  8
_0-0_
  6
CONTINUOUS
 62
    7
 10
206.65966661393733
 20
203.26533915961079
 40
3.2999999999999989
 50
89.999999999986969
 51
119.7816552343119
  0
LINE
  8
_0-0_
  6
CONTINUOUS
 62
    7
 10
208.12384519804201
 20
202.56533915959676
 11
206.65966661393773
 21
202.56533915959676
  0
LINE
  8
_0-0_
  6
CONTINUOUS
 62
    7
 10
208.12384519804201
 20
203.8653391595966
 11
206.65974358290416
 21
203.8653391595966
  0
ARC
  8
_0-0_
  6
CONTINUOUS
 62
    7
 10
206.65974358290416
 20
205.86533915959672
 40
2
 50
240.21834476571723
 51
269.99999999999994
  0
ARC
  8
_0-0_
  6
CONTINUOUS
 62
    7
 10
206.65974358290416
 20
205.86533915959672
 40
2.649999999999999
 50
240.21834476571723
 51
269.99999999999994
  0
ARC
  8
_0-0_
  6
CONTINUOUS
 62
    7
 10
204.02717729772095
 20
201.26533915959658
 40
2
 50
60.218344765717319
 51
90
  0
ARC
  8
_0-0_
  6
CONTINUOUS
 62
    7
 10
204.02725426668806
 20
201.26533915960147
 40
3.2999999999999989
 50
60.218344765680158
 51
90.000000000006509
  0
ARC
  8
_0-0_
  6
CONTINUOUS
 62
    7
 10
204.02725426668806
 20
201.26533915960147
 40
2.649999999999999
 50
60.218344765680158
 51
90.000000000006509
  0
ARC
  8
_0-0_
  6
CONTINUOUS
 62
    7
 10
206.65966661393733
 20
205.86533915959217
 40
3.2999999999999989
 50
240.21834476568011
 51
270.00000000001302
  0
LINE
  8
_0-0_
  6
CONTINUOUS
 62
    7
 10
204.02725426668732
 20
203.91533915960667
 11
182.57627737387972
 21
203.91533915960576
  0
LINE
  8
_0-0_
  6
CONTINUOUS
 62
    7
 10
179.66811148290802
 20
203.91533915960576
 11
154.69307740148136
 21
203.91533915960508
  0
LINE
  8
_0-0_
  6
CONTINUOUS
 62
    7
 10
208.12384519804201
 20
203.21533915959651
 11
206.65974358290416
 21
203.21533915959651
  0
LINE
  8
_0-0_
  6
CONTINUOUS
 62
    7
 10
220.12384519804212
 20
201.81533915960654
 11
220.12384519804212
 21
207.31533915960654
  0
LINE
  8
_0-0_
  6
CONTINUOUS
 62
    7
 10
208.12384519804201
 20
207.31533915960654
 11
220.12384519804212
 21
207.31533915960654
  0
LINE
  8
_0-0_
  6
CONTINUOUS
 62
    7
 10
209.68384519804201
 20
201.81533915960654
 11
209.68384519804201
 21
207.31533915960654
  0
LINE
  8
_0-0_
  6
CONTINUOUS
 62
    7
 10
208.12384519804201
 20
201.81533915960654
 11
220.12384519804212
 21
201.81533915960654
  0
LINE
  8
_0-0_
  6
CONTINUOUS
 62
    7
 10
215.42384519804202
 20
206.41533915960656
 11
220.12384519804212
 21
206.41533915960656
  0
LINE
  8
_0-0_
  6
CONTINUOUS
 62
    7
 10
215.42384519804202
 20
202.71533915960663
 11
220.12384519804212
 21
202.71533915960651
  0
LINE
  8
_0-0_
  6
CONTINUOUS
 62
    7
 10
215.42384519804202
 20
202.71533915960651
 11
215.42384519804202
 21
203.71533915960651
  0
LINE
  8
_0-0_
  6
CONTINUOUS
 62
    7
 10
215.42384519804202
 20
205.41533915960656
 11
220.12384519804212
 21
205.41533915960656
  0
LINE
  8
_0-0_
  6
CONTINUOUS
 62
    7
 10
215.42384519804202
 20
203.71533915960663
 11
220.12384519804212
 21
203.71533915960651
  0
LINE
  8
_0-0_
  6
CONTINUOUS
 62
    7
 10
215.42384519804202
 20
205.41533915960656
 11
215.42384519804202
 21
206.41533915960656
  0
LINE
  8
_0-0_
  6
CONTINUOUS
 62
    7
 10
219.12384519804201
 20
202.71533915960651
 11
219.12384519804201
 21
203.71533915960651
  0
LINE
  8
_0-0_
  6
CONTINUOUS
 62
    7
 10
219.12384519804201
 20
205.41533915960656
 11
219.12384519804212
 21
206.41533915960656
  0
ARC
  8
_0-0_
  6
CONTINUOUS
 62
    7
 10
132.19307740148136
 20
213.06533915960642
 40
1.5
 50
0
 51
90
  0
LINE
  8
_0-0_
  6
CONTINUOUS
 62
    7
 10
132.19307740148136
 20
214.56533915960654
 11
119.19307740148136
 21
214.56533915960654
  0
LINE
  8
_0-0_
  6
CONTINUOUS
 62
    7
 10
138.69307740148136
 20
196.56533915960642
 11
112.69307740148133
 21
196.56533915960642
  0
LINE
  8
_0-0_
  6
CONTINUOUS
 62
    7
 10
138.69307740148136
 20
212.56533915960654
 11
112.69307740148133
 21
212.56533915960654
  0
LINE
  8
_0-0_
  6
CONTINUOUS
 62
    7
 10
145.88682468645047
 20
208.06533915960654
 11
154.69307740148136
 21
207.06533915960654
  0
LINE
  8
_0-0_
  6
CONTINUOUS
 62
    7
 10
117.69307740148133
 20
196.56533915960642
 11
117.69307740148133
 21
196.06533915960654
  0
ARC
  8
_0-0_
  6
CONTINUOUS
 62
    7
 10
119.19307740148136
 20
196.06533915960654
 40
1.5
 50
180
 51
270
  0
LINE
  8
_0-0_
  6
CONTINUOUS
 62
    7
 10
133.69307740148136
 20
196.56533915960642
 11
133.69307740148136
 21
196.06533915960654
  0
ARC
  8
_0-0_
  6
CONTINUOUS
 62
    7
 10
132.19307740148136
 20
196.06533915960654
 40
1.5
 50
270
 51
0
  0
LINE
  8
_0-0_
  6
CONTINUOUS
 62
    7
 10
132.19307740148136
 20
194.56533915960654
 11
119.19307740148136
 21
194.56533915960654
  0
LINE
  8
_0-0_
  6
CONTINUOUS
 62
    7
 10
117.69307740148133
 20
212.56533915960654
 11
117.69307740148133
 21
213.06533915960642
  0
ARC
  8
_0-0_
  6
CONTINUOUS
 62
    7
 10
119.19307740148136
 20
213.06533915960642
 40
1.5
 50
90
 51
180
  0
LINE
  8
_0-0_
  6
CONTINUOUS
 62
    7
 10
133.69307740148136
 20
212.56533915960654
 11
133.69307740148136
 21
213.06533915960642
  0
LINE
  8
_0-0_
  6
CONTINUOUS
 62
    7
 10
125.69307740148136
 20
204.16533915960645
 11
133.69307740148136
 21
204.16533915960645
  0
LINE
  8
_0-0_
  6
CONTINUOUS
 62
    7
 10
125.69307740148136
 20
204.96533915960629
 11
133.69307740148136
 21
204.96533915960629
  0
LINE
  8
_0-0_
  6
CONTINUOUS
 62
    7
 10
112.94307740148133
 20
200.16533915960645
 11
120.94307740148136
 21
200.16533915960645
  0
LINE
  8
_0-0_
  6
CONTINUOUS
 62
    7
 10
149.19307740148147
 20
207.68989539004644
 11
149.19307740148136
 21
201.44078292916674
  0
LINE
  8
_0-0_
  6
CONTINUOUS
 62
    7
 10
148.19307740148136
 20
207.80345106830816
 11
148.19307740148153
 21
201.32722725090491
  0
LINE
  8
_0-0_
  6
CONTINUOUS
 62
    7
 10
151.19307740148147
 20
204.56533915960642
 11
150.19307740148147
 21
204.56533915960642
  0
LINE
  8
_0-0_
  6
CONTINUOUS
 62
    7
 10
150.19307740148147
 20
207.57633971178461
 11
150.19307740148147
 21
201.55433860742846
  0
LINE
  8
_0-0_
  6
CONTINUOUS
 62
    7
 10
151.19307740148136
 20
207.46278403352278
 11
151.19307740148136
 21
201.66789428569007
  0
LINE
  8
_0-0_
  6
CONTINUOUS
 62
    7
 10
152.19307740148153
 20
207.34922835526106
 11
152.19307740148136
 21
201.7814499639519
  0
LINE
  8
_0-0_
  6
CONTINUOUS
 62
    7
 10
153.19307740148136
 20
207.23567267699934
 11
153.19307740148147
 21
201.89500564221385
  0
LINE
  8
_0-0_
  6
CONTINUOUS
 62
    7
 10
112.94307740148133
 20
208.16533915960645
 11
112.94307740148133
 21
208.96533915960629
  0
LINE
  8
_0-0_
  6
CONTINUOUS
 62
    7
 10
120.94307740148136
 20
208.16533915960645
 11
120.94307740148136
 21
208.96533915960629
  0
LINE
  8
_0-0_
  6
CONTINUOUS
 62
    7
 10
125.69307740148136
 20
204.16533915960645
 11
125.69307740148136
 21
204.96533915960629
  0
LINE
  8
_0-0_
  6
CONTINUOUS
 62
    7
 10
133.69307740148136
 20
204.16533915960645
 11
133.69307740148136
 21
204.96533915960629
  0
LINE
  8
_0-0_
  6
CONTINUOUS
 62
    7
 10
112.94307740148133
 20
208.16533915960645
 11
120.94307740148136
 21
208.16533915960645
  0
LINE
  8
_0-0_
  6
CONTINUOUS
 62
    7
 10
112.94307740148133
 20
208.96533915960629
 11
120.94307740148136
 21
208.96533915960629
  0
LINE
  8
_0-0_
  6
CONTINUOUS
 62
    7
 10
120.94307740148136
 20
200.96533915960629
 11
120.94307740148136
 21
200.16533915960645
  0
LINE
  8
_0-0_
  6
CONTINUOUS
 62
    7
 10
112.94307740148133
 20
200.96533915960629
 11
112.94307740148133
 21
200.16533915960645
  0
LINE
  8
_0-0_
  6
CONTINUOUS
 62
    7
 10
112.94307740148133
 20
200.96533915960629
 11
120.94307740148136
 21
200.96533915960629
  0
LINE
  8
_0-0_
  6
CONTINUOUS
 62
    7
 10
149.19307740148147
 20
204.56533915960642
 11
148.19307740148147
 21
204.56533915960642
  0
LINE
  8
_0-0_
  6
CONTINUOUS
 62
    7
 10
153.19307740148147
 20
204.56533915960642
 11
152.19307740148147
 21
204.56533915960642
  0
LINE
  8
_0-0_
  6
CONTINUOUS
 62
    7
 10
152.19307740148147
 20
203.36533915960638
 11
153.19307740148136
 21
203.36533915960638
  0
LINE
  8
_0-0_
  6
CONTINUOUS
 62
    7
 10
152.19307740148147
 20
205.76533915960647
 11
153.19307740148136
 21
205.76533915960647
  0
LINE
  8
_0-0_
  6
CONTINUOUS
 62
    7
 10
148.19307740148147
 20
205.76533915960647
 11
149.19307740148147
 21
205.76533915960647
  0
LINE
  8
_0-0_
  6
CONTINUOUS
 62
    7
 10
150.19307740148147
 20
205.76533915960647
 11
151.19307740148136
 21
205.76533915960647
  0
LINE
  8
_0-0_
  6
CONTINUOUS
 62
    7
 10
148.19307740148147
 20
203.36533915960638
 11
149.19307740148136
 21
203.36533915960638
  0
LINE
  8
_0-0_
  6
CONTINUOUS
 62
    7
 10
150.19307740148153
 20
203.36533915960638
 11
151.19307740148136
 21
203.36533915960638
  0
LINE
  8
_0-0_
  6
CONTINUOUS
 62
    7
 10
121.44307740148136
 20
201.94033915960642
 11
110.44307740148133
 21
201.94033915960642
  0
ARC
  8
_0-0_
  6
CONTINUOUS
 62
    7
 10
110.44307740148133
 20
202.44033915960654
 40
0.5
 50
180
 51
270
  0
LINE
  8
_0-0_
  6
CONTINUOUS
 62
    7
 10
121.44307740148136
 20
206.94033915960654
 11
110.44307740148133
 21
206.94033915960654
  0
ARC
  8
_0-0_
  6
CONTINUOUS
 62
    7
 10
121.44307740148136
 20
206.44033915960654
 40
0.5
 50
0
 51
90
  0
LINE
  8
_0-0_
  6
CONTINUOUS
 62
    7
 10
109.94307740148133
 20
206.44033915960654
 11
109.94307740148133
 21
202.44033915960654
  0
ARC
  8
_0-0_
  6
CONTINUOUS
 62
    7
 10
110.44307740148133
 20
206.44033915960654
 40
0.5
 50
90
 51
180
  0
LINE
  8
_0-0_
  6
CONTINUOUS
 62
    7
 10
121.94307740148136
 20
206.44033915960654
 11
121.94307740148136
 21
202.44033915960654
  0
ARC
  8
_0-0_
  6
CONTINUOUS
 62
    7
 10
121.44307740148136
 20
202.44033915960654
 40
0.5
 50
270
 51
0
  0
LINE
  8
_0-0_
  6
CONTINUOUS
 62
    7
 10
141.44307740148136
 20
202.06533915960654
 11
136.44307740148136
 21
202.06533915960654
  0
LINE
  8
_0-0_
  6
CONTINUOUS
 62
    7
 10
141.44307740148136
 20
207.06533915960654
 11
136.44307740148136
 21
207.06533915960654
  0
ARC
  8
_0-0_
  6
CONTINUOUS
 62
    7
 10
112.69307740148133
 20
204.56533915960642
 40
8
 50
90
 51
270
  0
LINE
  8
_0-0_
  6
CONTINUOUS
 62
    7
 10
141.94307740148136
 20
206.56533915960654
 11
141.94307740148136
 21
202.56533915960654
  0
LINE
  8
_0-0_
  6
CONTINUOUS
 62
    7
 10
135.94307740148136
 20
206.56533915960654
 11
135.94307740148136
 21
202.56533915960654
  0
ARC
  8
_0-0_
  6
CONTINUOUS
 62
    7
 10
141.44307740148136
 20
206.56533915960654
 40
0.5
 50
0
 51
90
  0
ARC
  8
_0-0_
  6
CONTINUOUS
 62
    7
 10
136.44307740148136
 20
206.56533915960654
 40
0.5
 50
90
 51
180
  0
ARC
  8
_0-0_
  6
CONTINUOUS
 62
    7
 10
136.44307740148136
 20
202.56533915960654
 40
0.5
 50
180
 51
270
  0
ARC
  8
_0-0_
  6
CONTINUOUS
 62
    7
 10
141.44307740148136
 20
202.56533915960654
 40
0.5
 50
270
 51
0
  0
ARC
  8
_0-0_
  6
CONTINUOUS
 62
    7
 10
138.69307740148136
 20
204.56533915960642
 40
8.000000000000032
 50
270
 51
90
  0
LINE
  8
_0-0_
  6
CONTINUOUS
 62
    7
 10
154.69307740148136
 20
207.06533915960654
 11
154.69307740148136
 21
202.06533915960654
  0
LINE
  8
_0-0_
  6
CONTINUOUS
 62
    7
 10
145.88682468645047
 20
201.06533915960654
 11
154.69307740148136
 21
202.06533915960654
  0
LINE
  8
_0-0_
  6
CONTINUOUS
 62
    7
 10
180.60292444190625
 20
114.16030765285818
 11
181.56659122381203
 21
113.30577483695798
  0
LINE
  8
_0-0_
  6
CONTINUOUS
 62
    7
 10
181.56659122381203
 20
113.30577483695798
 11
179.04293858008381
 21
112.7893473649891
  0
LINE
  8
_0-0_
  6
CONTINUOUS
 62
    7
 10
179.04293858008381
 20
112.7893473649891
 11
180.00660536198981
 21
111.93481454908822
  0
LINE
  8
_0-0_
  6
CONTINUOUS
 62
    7
 10
180.00660536198981
 20
111.93481454908822
 11
178.92090737604903
 21
107.88293450388191
  0
LINE
  8
_0-0_
  6
CONTINUOUS
 62
    7
 10
181.60149250524066
 20
117.88701440003813
 11
180.60292444190625
 21
114.16030765285818
  0
TEXT
  8
_0-0_
 62
    7
 10
180.67778573694503
 20
110.74750871628289
 40
0.0016
 41
1
 50
0
  1
559
  0
LINE
  8
_0-0_
  6
CONTINUOUS
 62
    7
 10
179.51024437604732
 20
112.88497445195991
 11
154.69307740148136
 21
112.88497445195991
  0
LINE
  8
_0-0_
  6
CONTINUOUS
 62
    7
 10
180.60953389080541
 20
114.18497445196003
 11
154.69307740148136
 21
114.1849744519602
  0
LINE
  8
_0-0_
  6
CONTINUOUS
 62
    7
 10
179.91286599048411
 20
111.58497445195933
 11
154.69307740148136
 21
111.58497445195898
  0
LINE
  8
_0-0_
  6
CONTINUOUS
 62
    7
 10
179.66811148290802
 20
112.2349744519593
 11
154.69307740148136
 21
112.23497445195862
  0
ARC
  8
_0-0_
  6
CONTINUOUS
 62
    7
 10
132.19307740148136
 20
121.38497445195991
 40
1.5
 50
0
 51
90
  0
LINE
  8
_0-0_
  6
CONTINUOUS
 62
    7
 10
132.19307740148136
 20
122.88497445196002
 11
119.19307740148136
 21
122.88497445196002
  0
LINE
  8
_0-0_
  6
CONTINUOUS
 62
    7
 10
138.69307740148136
 20
120.88497445195991
 11
112.69307740148133
 21
120.88497445195991
  0
LINE
  8
_0-0_
  6
CONTINUOUS
 62
    7
 10
145.88682468645047
 20
116.38497445195991
 11
154.69307740148136
 21
115.38497445196002
  0
LINE
  8
_0-0_
  6
CONTINUOUS
 62
    7
 10
117.69307740148133
 20
120.88497445195991
 11
117.69307740148133
 21
121.38497445195991
  0
ARC
  8
_0-0_
  6
CONTINUOUS
 62
    7
 10
119.19307740148136
 20
121.38497445195991
 40
1.5
 50
90
 51
180
  0
LINE
  8
_0-0_
  6
CONTINUOUS
 62
    7
 10
133.69307740148136
 20
120.88497445195991
 11
133.69307740148136
 21
121.38497445195991
  0
LINE
  8
_0-0_
  6
CONTINUOUS
 62
    7
 10
149.19307740148147
 20
116.00953068239993
 11
149.19307740148136
 21
109.76041822152011
  0
LINE
  8
_0-0_
  6
CONTINUOUS
 62
    7
 10
148.19307740148136
 20
116.12308636066159
 11
148.19307740148153
 21
109.64686254325839
  0
LINE
  8
_0-0_
  6
CONTINUOUS
 62
    7
 10
151.19307740148147
 20
112.88497445195991
 11
150.19307740148147
 21
112.88497445195991
  0
LINE
  8
_0-0_
  6
CONTINUOUS
 62
    7
 10
150.19307740148147
 20
115.89597500413821
 11
150.19307740148147
 21
109.87397389978189
  0
LINE
  8
_0-0_
  6
CONTINUOUS
 62
    7
 10
151.19307740148136
 20
115.78241932587632
 11
151.19307740148136
 21
109.98752957804361
  0
LINE
  8
_0-0_
  6
CONTINUOUS
 62
    7
 10
152.19307740148153
 20
115.66886364761449
 11
152.19307740148136
 21
110.10108525630538
  0
LINE
  8
_0-0_
  6
CONTINUOUS
 62
    7
 10
153.19307740148136
 20
115.55530796935271
 11
153.19307740148147
 21
110.21464093456733
  0
LINE
  8
_0-0_
  6
CONTINUOUS
 62
    7
 10
149.19307740148147
 20
112.88497445195991
 11
148.19307740148147
 21
112.88497445195991
  0
LINE
  8
_0-0_
  6
CONTINUOUS
 62
    7
 10
153.19307740148147
 20
112.88497445195991
 11
152.19307740148147
 21
112.88497445195991
  0
LINE
  8
_0-0_
  6
CONTINUOUS
 62
    7
 10
152.19307740148147
 20
111.68497445195992
 11
153.19307740148136
 21
111.68497445195992
  0
LINE
  8
_0-0_
  6
CONTINUOUS
 62
    7
 10
152.19307740148147
 20
114.08497445196001
 11
153.19307740148136
 21
114.08497445196001
  0
LINE
  8
_0-0_
  6
CONTINUOUS
 62
    7
 10
148.19307740148147
 20
114.08497445196001
 11
149.19307740148147
 21
114.08497445196001
  0
LINE
  8
_0-0_
  6
CONTINUOUS
 62
    7
 10
150.19307740148147
 20
114.08497445196001
 11
151.19307740148136
 21
114.08497445195989
  0
LINE
  8
_0-0_
  6
CONTINUOUS
 62
    7
 10
148.19307740148147
 20
111.68497445195992
 11
149.19307740148136
 21
111.68497445195992
  0
LINE
  8
_0-0_
  6
CONTINUOUS
 62
    7
 10
150.19307740148153
 20
111.68497445195992
 11
151.19307740148136
 21
111.68497445195992
  0
LINE
  8
_0-0_
  6
CONTINUOUS
 62
    7
 10
154.69307740148136
 20
115.38497445196002
 11
154.69307740148136
 21
110.38497445196002
  0
LINE
  8
_0-0_
  6
CONTINUOUS
 62
    7
 10
145.88682468645047
 20
109.38497445196002
 11
154.69307740148136
 21
110.38497445196002
  0
LINE
  8
_0-0_
  6
CONTINUOUS
 62
    7
 10
144.93807539987975
 20
117.88497445196013
 11
114.69307740148122
 21
117.88497445196002
  0
LINE
  8
_0-0_
  6
CONTINUOUS
 62
    7
 10
144.93807539987986
 20
107.88497445196002
 11
114.69307740148122
 21
107.88497445196002
  0
ARC
  8
_0-0_
  6
CONTINUOUS
 62
    7
 10
114.69307740148122
 20
112.88497445196013
 40
4.9999999999998774
 50
90
 51
270
  0
LINE
  8
_0-0_
  6
CONTINUOUS
 62
    7
 10
144.33289588198986
 20
110.38497445195991
 11
142.93289588198982
 21
110.38497445195991
  0
LINE
  8
_0-0_
  6
CONTINUOUS
 62
    7
 10
143.63289588198992
 20
116.08497445195978
 11
143.63289588198992
 21
114.6849744519598
  0
LINE
  8
_0-0_
  6
CONTINUOUS
 62
    7
 10
143.63289588198987
 20
111.08497445195989
 11
143.63289588198987
 21
109.68497445195992
  0
LINE
  8
_0-0_
  6
CONTINUOUS
 62
    7
 10
113.94307740148133
 20
208.81533915960642
 11
113.94307740148133
 21
208.32533915960641
  0
LINE
  8
_0-0_
  6
CONTINUOUS
 62
    7
 10
119.94307740148136
 20
208.32533915960641
 11
119.94307740148136
 21
208.81533915960642
  0
LINE
  8
_0-0_
  6
CONTINUOUS
 62
    7
 10
119.94307740148136
 20
208.81533915960642
 11
113.94307740148133
 21
208.81533915960642
  0
LINE
  8
_0-0_
  6
CONTINUOUS
 62
    7
 10
119.94307740148136
 20
208.32533915960641
 11
113.94307740148133
 21
208.32533915960641
  0
LINE
  8
_0-0_
  6
CONTINUOUS
 62
    7
 10
112.94307740148133
 20
208.96533915960629
 11
113.94307740148133
 21
208.81533915960642
  0
LINE
  8
_0-0_
  6
CONTINUOUS
 62
    7
 10
113.94307740148133
 20
208.32533915960641
 11
112.94307740148133
 21
208.16533915960645
  0
LINE
  8
_0-0_
  6
CONTINUOUS
 62
    7
 10
119.94307740148136
 20
208.81533915960642
 11
120.94307740148136
 21
208.96533915960629
  0
LINE
  8
_0-0_
  6
CONTINUOUS
 62
    7
 10
119.94307740148136
 20
208.32533915960641
 11
120.94307740148136
 21
208.16533915960645
  0
LINE
  8
_0-0_
  6
CONTINUOUS
 62
    7
 10
126.69307740148136
 20
204.81533915960642
 11
126.69307740148136
 21
204.32533915960641
  0
LINE
  8
_0-0_
  6
CONTINUOUS
 62
    7
 10
132.69307740148136
 20
204.32533915960641
 11
132.69307740148136
 21
204.81533915960642
  0
LINE
  8
_0-0_
  6
CONTINUOUS
 62
    7
 10
132.69307740148136
 20
204.81533915960642
 11
126.69307740148136
 21
204.81533915960642
  0
LINE
  8
_0-0_
  6
CONTINUOUS
 62
    7
 10
132.69307740148136
 20
204.32533915960641
 11
126.69307740148136
 21
204.32533915960641
  0
LINE
  8
_0-0_
  6
CONTINUOUS
 62
    7
 10
125.69307740148136
 20
204.96533915960629
 11
126.69307740148136
 21
204.81533915960642
  0
LINE
  8
_0-0_
  6
CONTINUOUS
 62
    7
 10
126.69307740148136
 20
204.32533915960641
 11
125.69307740148136
 21
204.16533915960645
  0
LINE
  8
_0-0_
  6
CONTINUOUS
 62
    7
 10
132.69307740148136
 20
204.81533915960642
 11
133.69307740148136
 21
204.96533915960629
  0
LINE
  8
_0-0_
  6
CONTINUOUS
 62
    7
 10
132.69307740148136
 20
204.32533915960641
 11
133.69307740148136
 21
204.16533915960645
  0
LINE
  8
_0-0_
  6
CONTINUOUS
 62
    7
 10
113.94307740148133
 20
200.81533915960642
 11
113.94307740148133
 21
200.32533915960641
  0
LINE
  8
_0-0_
  6
CONTINUOUS
 62
    7
 10
119.94307740148136
 20
200.32533915960641
 11
119.94307740148136
 21
200.81533915960642
  0
LINE
  8
_0-0_
  6
CONTINUOUS
 62
    7
 10
119.94307740148136
 20
200.81533915960642
 11
113.94307740148133
 21
200.81533915960642
  0
LINE
  8
_0-0_
  6
CONTINUOUS
 62
    7
 10
119.94307740148136
 20
200.32533915960641
 11
113.94307740148133
 21
200.32533915960641
  0
LINE
  8
_0-0_
  6
CONTINUOUS
 62
    7
 10
112.94307740148133
 20
200.96533915960629
 11
113.94307740148133
 21
200.81533915960642
  0
LINE
  8
_0-0_
  6
CONTINUOUS
 62
    7
 10
113.94307740148133
 20
200.32533915960641
 11
112.94307740148133
 21
200.16533915960645
  0
LINE
  8
_0-0_
  6
CONTINUOUS
 62
    7
 10
119.94307740148136
 20
200.81533915960642
 11
120.94307740148136
 21
200.96533915960629
  0
LINE
  8
_0-0_
  6
CONTINUOUS
 62
    7
 10
119.94307740148136
 20
200.32533915960641
 11
120.94307740148136
 21
200.16533915960645
  0
LINE
  8
_0-0_
  6
CONTINUOUS
 62
    7
 10
208.12384519804201
 20
110.13497445195991
 11
208.12384519804201
 21
115.63497445196002
  0
LINE
  8
_0-0_
  6
CONTINUOUS
 62
    7
 10
220.12384519804212
 20
110.13497445195991
 11
220.12384519804212
 21
115.63497445196002
  0
LINE
  8
_0-0_
  6
CONTINUOUS
 62
    7
 10
208.12384519804201
 20
115.63497445196002
 11
220.12384519804212
 21
115.63497445196002
  0
LINE
  8
_0-0_
  6
CONTINUOUS
 62
    7
 10
209.68384519804201
 20
110.13497445195991
 11
209.68384519804201
 21
111.38497445196002
  0
LINE
  8
_0-0_
  6
CONTINUOUS
 62
    7
 10
209.68384519804201
 20
114.38497445196002
 11
209.68384519804201
 21
115.63497445196002
  0
LINE
  8
_0-0_
  6
CONTINUOUS
 62
    7
 10
208.12384519804201
 20
110.13497445195991
 11
220.12384519804212
 21
110.13497445195991
  0
LINE
  8
_0-0_
  6
CONTINUOUS
 62
    7
 10
218.52384519804204
 20
111.38497445196002
 11
218.52384519804204
 21
114.38497445196002
  0
LINE
  8
_0-0_
  6
CONTINUOUS
 62
    7
 10
218.52384519804204
 20
114.38497445196002
 11
220.12384519804212
 21
114.38497445196002
  0
LINE
  8
_0-0_
  6
CONTINUOUS
 62
    7
 10
218.52384519804204
 20
111.38497445196002
 11
220.12384519804212
 21
111.38497445196002
  0
LINE
  8
_0-0_
  6
CONTINUOUS
 62
    7
 10
208.12384519804201
 20
114.38497445196002
 11
209.68384519804201
 21
114.38497445196002
  0
LINE
  8
_0-0_
  6
CONTINUOUS
 62
    7
 10
209.68384519804201
 20
111.38497445196002
 11
208.12384519804201
 21
111.38497445196002
  0
LINE
  8
_0-0_
  6
CONTINUOUS
 62
    7
 10
218.92384519804202
 20
111.38497445196002
 11
218.92384519804202
 21
114.38497445196002
  0
TEXT
  8
_0-0_
 62
    7
 10
182.74173198578532
 20
110.74910871628289
 40
0.0016
 41
1
 50
180
  1
559
  0
LINE
  8
_0-0_
  6
CONTINUOUS
 62
    7
 10
183.30597218684883
 20
113.43602819249809
 11
184.26963896875461
 21
112.5814953765976
  0
LINE
  8
_0-0_
  6
CONTINUOUS
 62
    7
 10
184.26963896875461
 20
112.5814953765976
 11
181.74598632502645
 21
112.06506790462861
  0
LINE
  8
_0-0_
  6
CONTINUOUS
 62
    7
 10
181.74598632502645
 20
112.06506790462861
 11
182.70965310693245
 21
111.21053508872778
  0
LINE
  8
_0-0_
  6
CONTINUOUS
 62
    7
 10
182.70965310693245
 20
111.21053508872778
 11
181.81802521748975
 21
107.88293450388191
  0
LINE
  8
_0-0_
  6
CONTINUOUS
 62
    7
 10
184.49861034668143
 20
117.88701440003813
 11
183.30597218684895
 21
113.43602819249809
  0
LINE
  8
_0-0_
  6
CONTINUOUS
 62
    7
 10
204.02725426668732
 20
112.88497445195991
 11
183.92740201952532
 21
112.88497445195991
  0
LINE
  8
_0-0_
  6
CONTINUOUS
 62
    7
 10
204.02717729772124
 20
114.1849744519602
 11
183.50665173224613
 21
114.1849744519602
  0
LINE
  8
_0-0_
  6
CONTINUOUS
 62
    7
 10
204.02717729772095
 20
111.58497445196001
 11
182.28739340026002
 21
111.58497445195921
  0
LINE
  8
_0-0_
  6
CONTINUOUS
 62
    7
 10
208.12384519804201
 20
114.88497445196002
 11
206.65966661393773
 21
114.88497445196002
  0
LINE
  8
_0-0_
  6
CONTINUOUS
 62
    7
 10
208.12384519804201
 20
113.58497445196001
 11
206.65974358290416
 21
113.58497445196001
  0
ARC
  8
_0-0_
  6
CONTINUOUS
 62
    7
 10
206.65974358290416
 20
111.58497445196001
 40
2
 50
90
 51
119.7816552342827
  0
ARC
  8
_0-0_
  6
CONTINUOUS
 62
    7
 10
204.02717729772095
 20
116.18497445196009
 40
2
 50
270
 51
299.78165523428282
  0
ARC
  8
_0-0_
  6
CONTINUOUS
 62
    7
 10
204.02725426668806
 20
116.1849744519552
 40
3.2999999999999989
 50
269.99999999998698
 51
299.7816552343196
  0
ARC
  8
_0-0_
  6
CONTINUOUS
 62
    7
 10
206.65966661393733
 20
111.58497445196433
 40
3.2999999999999989
 50
89.999999999986969
 51
119.78165523431201
  0
LINE
  8
_0-0_
  6
CONTINUOUS
 62
    7
 10
208.12384519804201
 20
110.88497445195019
 11
206.65966661393773
 21
110.88497445195019
  0
LINE
  8
_0-0_
  6
CONTINUOUS
 62
    7
 10
208.12384519804201
 20
112.18497445195008
 11
206.65974358290416
 21
112.18497445195008
  0
ARC
  8
_0-0_
  6
CONTINUOUS
 62
    7
 10
206.65974358290416
 20
114.1849744519502
 40
2
 50
240.21834476571721
 51
270
  0
ARC
  8
_0-0_
  6
CONTINUOUS
 62
    7
 10
206.65974358290416
 20
114.1849744519502
 40
2.649999999999999
 50
240.21834476571721
 51
270
  0
ARC
  8
_0-0_
  6
CONTINUOUS
 62
    7
 10
204.02717729772095
 20
109.58497445195
 40
2
 50
60.218344765717212
 51
90
  0
ARC
  8
_0-0_
  6
CONTINUOUS
 62
    7
 10
204.02725426668806
 20
109.58497445195501
 40
3.2999999999999989
 50
60.218344765680349
 51
90.000000000006494
  0
ARC
  8
_0-0_
  6
CONTINUOUS
 62
    7
 10
204.02725426668806
 20
109.58497445195501
 40
2.649999999999999
 50
60.218344765680349
 51
90.000000000006494
  0
ARC
  8
_0-0_
  6
CONTINUOUS
 62
    7
 10
206.65966661393733
 20
114.18497445194559
 40
3.2999999999999989
 50
240.21834476568031
 51
270.00000000001302
  0
LINE
  8
_0-0_
  6
CONTINUOUS
 62
    7
 10
204.02725426668732
 20
112.2349744519601
 11
182.57627737387972
 21
112.2349744519593
  0
LINE
  8
_0-0_
  6
CONTINUOUS
 62
    7
 10
208.12384519804201
 20
111.53497445194999
 11
206.65974358290416
 21
111.53497445194999
  0
LINE
  8
_0-0_
  6
CONTINUOUS
 62
    7
 10
124.31430766092987
 20
199.58285756505597
 11
122.63430766092992
 21
199.58285756505597
  0
LINE
  8
_0-0_
  6
CONTINUOUS
 62
    7
 10
123.47430766092995
 20
200.42285756505601
 11
123.47430766092995
 21
198.74285756505606
  0
CIRCLE
  8
_0-0_
  6
CONTINUOUS
 62
    7
 10
123.47430766092995
 20
199.58285756505597
 40
1.3
  0
LINE
  8
_0-0_
  6
CONTINUOUS
 62
    7
 10
124.31430766092987
 20
209.54782075415687
 11
122.63430766092992
 21
209.54782075415687
  0
LINE
  8
_0-0_
  6
CONTINUOUS
 62
    7
 10
123.47430766092995
 20
208.70782075415673
 11
123.47430766092995
 21
210.38782075415679
  0
CIRCLE
  8
_0-0_
  6
CONTINUOUS
 62
    7
 10
123.47430766092995
 20
209.54782075415687
 40
1.3
  0
LINE
  8
_0-0_
  6
CONTINUOUS
 62
    7
 10
133.11049515014483
 20
206.07151727663336
 11
133.11049515014483
 21
207.75151727663342
  0
CIRCLE
  8
_0-0_
  6
CONTINUOUS
 62
    7
 10
133.11049515014483
 20
206.91151727663339
 40
1.3
  0
LINE
  8
_0-0_
  6
CONTINUOUS
 62
    7
 10
104.69307740148133
 20
155.14600418382059
 11
104.69307740148133
 21
145.44600418382061
  0
LINE
  8
_0-0_
  6
CONTINUOUS
 62
    7
 10
146.69307740148136
 20
155.14600418382042
 11
146.69307740148136
 21
143.44600418382061
  0
LINE
  8
_0-0_
  6
CONTINUOUS
 62
    7
 10
107.94307740148133
 20
143.44600418382061
 11
146.69307740148136
 21
143.44600418382061
  0
LINE
  8
_0-0_
  6
CONTINUOUS
 62
    7
 10
126.69307740148136
 20
165.64600418382054
 11
132.69307740148136
 21
165.64600418382054
  0
LINE
  8
_0-0_
  6
CONTINUOUS
 62
    7
 10
125.69307740148136
 20
164.64600418382054
 11
126.69307740148136
 21
165.64600418382054
  0
LINE
  8
_0-0_
  6
CONTINUOUS
 62
    7
 10
113.94307740148133
 20
164.64600418382059
 11
119.94307740148136
 21
164.64600418382071
  0
LINE
  8
_0-0_
  6
CONTINUOUS
 62
    7
 10
112.94307740148133
 20
163.64600418382059
 11
113.94307740148133
 21
164.64600418382059
  0
LINE
  8
_0-0_
  6
CONTINUOUS
 62
    7
 10
104.69307740148133
 20
145.44600418382061
 11
144.19307740148136
 21
145.44600418382061
  0
LINE
  8
_0-0_
  6
CONTINUOUS
 62
    7
 10
104.69307740148133
 20
145.44600418382061
 11
107.94307740148133
 21
143.44600418382061
  0
LINE
  8
_0-0_
  6
CONTINUOUS
 62
    7
 10
112.94307740148133
 20
163.64600418382059
 11
112.94307740148133
 21
155.94600418382061
  0
LINE
  8
_0-0_
  6
CONTINUOUS
 62
    7
 10
120.94307740148136
 20
163.64600418382071
 11
120.94307740148153
 21
155.94600418382061
  0
LINE
  8
_0-0_
  6
CONTINUOUS
 62
    7
 10
119.94307740148136
 20
164.64600418382071
 11
120.94307740148136
 21
163.64600418382071
  0
LINE
  8
_0-0_
  6
CONTINUOUS
 62
    7
 10
133.69307740148136
 20
164.64600418382054
 11
133.69307740148136
 21
155.94600418382061
  0
LINE
  8
_0-0_
  6
CONTINUOUS
 62
    7
 10
132.69307740148136
 20
165.64600418382054
 11
133.69307740148136
 21
164.64600418382054
  0
LINE
  8
_0-0_
  6
CONTINUOUS
 62
    7
 10
125.69307740148136
 20
164.64600418382054
 11
125.69307740148136
 21
155.94600418382061
  0
LINE
  8
_0-0_
  6
CONTINUOUS
 62
    7
 10
118.19307740148133
 20
148.04600418382063
 11
133.19307740148136
 21
148.04600418382063
  0
LINE
  8
_0-0_
  6
CONTINUOUS
 62
    7
 10
118.19307740148133
 20
146.04600418382051
 11
133.19307740148136
 21
146.0460041838208
  0
LINE
  8
_0-0_
  6
CONTINUOUS
 62
    7
 10
146.69307740148136
 20
149.54600418382063
 11
148.19307740148153
 21
149.35850418382063
  0
LINE
  8
_0-0_
  6
CONTINUOUS
 62
    7
 10
133.69307740148136
 20
146.5460041838208
 11
133.69307740148136
 21
147.54600418382051
  0
ARC
  8
_0-0_
  6
CONTINUOUS
 62
    7
 10
133.19307740148136
 20
147.54600418382051
 40
0.5
 50
0
 51
90
  0
ARC
  8
_0-0_
  6
CONTINUOUS
 62
    7
 10
133.19307740148136
 20
146.5460041838208
 40
0.5
 50
270
 51
0
  0
LINE
  8
_0-0_
  6
CONTINUOUS
 62
    7
 10
117.69307740148133
 20
146.5460041838208
 11
117.69307740148133
 21
147.54600418382051
  0
ARC
  8
_0-0_
  6
CONTINUOUS
 62
    7
 10
118.19307740148133
 20
147.54600418382051
 40
0.5
 50
90
 51
180
  0
ARC
  8
_0-0_
  6
CONTINUOUS
 62
    7
 10
118.19307740148133
 20
146.5460041838208
 40
0.5
 50
180
 51
270
  0
LINE
  8
_0-0_
  6
CONTINUOUS
 62
    7
 10
154.69307740148136
 20
147.69600418382061
 11
175.84180463801621
 21
147.69600418382061
  0
LINE
  8
_0-0_
  6
CONTINUOUS
 62
    7
 10
154.69307740148125
 20
146.39600418382042
 11
174.20179601875091
 21
146.39600418382042
  0
LINE
  8
_0-0_
  6
CONTINUOUS
 62
    7
 10
175.29836867635251
 20
148.17789675426241
 11
176.26203545825845
 21
147.32336393836232
  0
LINE
  8
_0-0_
  6
CONTINUOUS
 62
    7
 10
176.26203545825845
 20
147.32336393836232
 11
173.73838281453024
 21
146.80693646639332
  0
LINE
  8
_0-0_
  6
CONTINUOUS
 62
    7
 10
173.73838281453024
 20
146.80693646639332
 11
174.70204959643624
 21
145.95240365049244
  0
LINE
  8
_0-0_
  6
CONTINUOUS
 62
    7
 10
174.70204959643624
 20
145.95240365049244
 11
173.61635161049546
 21
141.90052360528603
  0
LINE
  8
_0-0_
  6
CONTINUOUS
 62
    7
 10
176.29693673968703
 20
151.90460350144241
 11
175.29836867635251
 21
148.17789675426241
  0
TEXT
  8
_0-0_
 62
    7
 10
175.37322997139134
 20
144.76509781768709
 40
0.0016
 41
1
 50
0
  1
559
  0
LINE
  8
_0-0_
  6
CONTINUOUS
 62
    7
 10
136.44307740148136
 20
159.64600418382059
 11
142.44307740148136
 21
159.64600418382059
  0
LINE
  8
_0-0_
  6
CONTINUOUS
 62
    7
 10
112.94307740148133
 20
155.94600418382061
 11
112.94307740148133
 21
158.64600418382059
  0
LINE
  8
_0-0_
  6
CONTINUOUS
 62
    7
 10
142.94307740148136
 20
159.14600418382059
 11
142.94307740148136
 21
156.7460041838205
  0
LINE
  8
_0-0_
  6
CONTINUOUS
 62
    7
 10
135.94307740148136
 20
159.14600418382059
 11
135.94307740148136
 21
156.74600418382062
  0
LINE
  8
_0-0_
  6
CONTINUOUS
 62
    7
 10
121.94307740148136
 20
159.14600418382059
 11
121.94307740148136
 21
156.74600418382062
  0
LINE
  8
_0-0_
  6
CONTINUOUS
 62
    7
 10
109.94307740148133
 20
159.14600418382059
 11
109.94307740148133
 21
156.74600418382062
  0
ARC
  8
_0-0_
  6
CONTINUOUS
 62
    7
 10
142.44307740148136
 20
159.14600418382054
 40
0.5
 50
0.0000000000065138
 51
90.000000000000014
  0
ARC
  8
_0-0_
  6
CONTINUOUS
 62
    7
 10
136.44307740148136
 20
159.14600418382054
 40
0.5
 50
90.000000000003141
 51
179.99999999999349
  0
LINE
  8
_0-0_
  6
CONTINUOUS
 62
    7
 10
120.94307740148147
 20
159.64600418382059
 11
121.44307740148136
 21
159.64600418382059
  0
LINE
  8
_0-0_
  6
CONTINUOUS
 62
    7
 10
112.94307740148133
 20
159.64600418382059
 11
110.44307740148133
 21
159.64600418382059
  0
ARC
  8
_0-0_
  6
CONTINUOUS
 62
    7
 10
121.44307740148147
 20
159.14600418382082
 40
0.5
 50
359.99999999999352
 51
90.000000000003155
  0
ARC
  8
_0-0_
  6
CONTINUOUS
 62
    7
 10
110.44307740148133
 20
159.14600418382082
 40
0.5
 50
90
 51
180.00000000000651
  0
ARC
  8
_0-0_
  6
CONTINUOUS
 62
    7
 10
144.25969424392375
 20
142.9667752368735
 40
2.4801237822086977
 50
11.141217158685169
 51
91.539166333134474
  0
LINE
  8
_0-0_
  6
CONTINUOUS
 62
    7
 10
148.19307740148153
 20
149.35850418382063
 11
148.19307740148153
 21
147.54600418382074
  0
LINE
  8
_0-0_
  6
CONTINUOUS
 62
    7
 10
154.69307740148136
 20
148.54600418382063
 11
154.69307740148136
 21
145.54600418382063
  0
LINE
  8
_0-0_
  6
CONTINUOUS
 62
    7
 10
149.19307740148136
 20
149.23350418382063
 11
149.19307740148136
 21
147.54600418382074
  0
LINE
  8
_0-0_
  6
CONTINUOUS
 62
    7
 10
150.19307740148147
 20
149.10850418382074
 11
150.19307740148147
 21
147.54600418382074
  0
LINE
  8
_0-0_
  6
CONTINUOUS
 62
    7
 10
151.19307740148136
 20
148.98350418382063
 11
151.19307740148136
 21
147.54600418382074
  0
LINE
  8
_0-0_
  6
CONTINUOUS
 62
    7
 10
152.19307740148136
 20
148.85850418382063
 11
152.19307740148136
 21
147.54600418382074
  0
LINE
  8
_0-0_
  6
CONTINUOUS
 62
    7
 10
153.19307740148147
 20
148.73350418382063
 11
153.19307740148147
 21
147.54600418382074
  0
LINE
  8
_0-0_
  6
CONTINUOUS
 62
    7
 10
148.19307740148153
 20
147.54600418382074
 11
149.19307740148136
 21
147.54600418382074
  0
LINE
  8
_0-0_
  6
CONTINUOUS
 62
    7
 10
150.19307740148147
 20
147.54600418382074
 11
151.19307740148136
 21
147.54600418382074
  0
LINE
  8
_0-0_
  6
CONTINUOUS
 62
    7
 10
152.19307740148136
 20
147.54600418382074
 11
153.19307740148147
 21
147.54600418382074
  0
LINE
  8
_0-0_
  6
CONTINUOUS
 62
    7
 10
149.19307740148136
 20
149.23350418382063
 11
150.19307740148147
 21
149.10850418382074
  0
LINE
  8
_0-0_
  6
CONTINUOUS
 62
    7
 10
151.19307740148136
 20
148.98350418382063
 11
152.19307740148136
 21
148.85850418382063
  0
LINE
  8
_0-0_
  6
CONTINUOUS
 62
    7
 10
153.19307740148147
 20
148.73350418382051
 11
154.69307740148136
 21
148.54600418382063
  0
LINE
  8
_0-0_
  6
CONTINUOUS
 62
    7
 10
146.69307740148136
 20
144.54600418382063
 11
148.19307740148153
 21
144.73350418382074
  0
LINE
  8
_0-0_
  6
CONTINUOUS
 62
    7
 10
149.19307740148136
 20
144.85850418382063
 11
150.19307740148147
 21
144.98350418382063
  0
LINE
  8
_0-0_
  6
CONTINUOUS
 62
    7
 10
151.19307740148136
 20
145.10850418382063
 11
152.19307740148136
 21
145.23350418382074
  0
LINE
  8
_0-0_
  6
CONTINUOUS
 62
    7
 10
153.19307740148147
 20
145.3585041838208
 11
154.69307740148136
 21
145.54600418382063
  0
LINE
  8
_0-0_
  6
CONTINUOUS
 62
    7
 10
148.19307740148153
 20
144.73350418382063
 11
148.19307740148153
 21
146.54600418382063
  0
LINE
  8
_0-0_
  6
CONTINUOUS
 62
    7
 10
149.19307740148136
 20
144.85850418382063
 11
149.19307740148136
 21
146.54600418382063
  0
LINE
  8
_0-0_
  6
CONTINUOUS
 62
    7
 10
150.19307740148147
 20
144.98350418382063
 11
150.19307740148147
 21
146.54600418382063
  0
LINE
  8
_0-0_
  6
CONTINUOUS
 62
    7
 10
151.19307740148136
 20
145.10850418382063
 11
151.19307740148136
 21
146.54600418382063
  0
LINE
  8
_0-0_
  6
CONTINUOUS
 62
    7
 10
152.19307740148136
 20
145.23350418382063
 11
152.19307740148136
 21
146.54600418382063
  0
LINE
  8
_0-0_
  6
CONTINUOUS
 62
    7
 10
153.19307740148147
 20
145.35850418382063
 11
153.19307740148147
 21
146.54600418382063
  0
LINE
  8
_0-0_
  6
CONTINUOUS
 62
    7
 10
148.19307740148153
 20
146.54600418382063
 11
149.19307740148136
 21
146.54600418382063
  0
LINE
  8
_0-0_
  6
CONTINUOUS
 62
    7
 10
150.19307740148147
 20
146.54600418382063
 11
151.19307740148136
 21
146.54600418382063
  0
LINE
  8
_0-0_
  6
CONTINUOUS
 62
    7
 10
152.19307740148136
 20
146.54600418382063
 11
153.19307740148147
 21
146.54600418382063
  0
ARC
  8
_0-0_
  6
CONTINUOUS
 62
    7
 10
105.49307740148143
 20
155.14600418382059
 40
0.8
 50
89.999999999999829
 51
180
  0
ARC
  8
_0-0_
  6
CONTINUOUS
 62
    7
 10
145.89307740148135
 20
155.14600418382042
 40
0.8
 50
0.0000000000001018
 51
89.999999999999844
  0
LINE
  8
_0-0_
  6
CONTINUOUS
 62
    7
 10
112.94307740148133
 20
163.64600418382059
 11
120.94307740148136
 21
163.64600418382071
  0
LINE
  8
_0-0_
  6
CONTINUOUS
 62
    7
 10
125.69307740148136
 20
164.64600418382054
 11
133.69307740148136
 21
164.64600418382054
  0
ARC
  8
_0-0_
  6
CONTINUOUS
 62
    7
 10
143.74307740148137
 20
156.7460041838205
 40
0.8
 50
180
 51
269.99999999999977
  0
LINE
  8
_0-0_
  6
CONTINUOUS
 62
    7
 10
145.89307740148135
 20
155.94600418382061
 11
105.49307740148143
 21
155.94600418382061
  0
ARC
  8
_0-0_
  6
CONTINUOUS
 62
    7
 10
135.14307740148135
 20
156.74600418382062
 40
0.8
 50
270
 51
0
  0
ARC
  8
_0-0_
  6
CONTINUOUS
 62
    7
 10
122.74307740148137
 20
156.74600418382062
 40
0.8
 50
180
 51
270
  0
ARC
  8
_0-0_
  6
CONTINUOUS
 62
    7
 10
109.14307740148132
 20
156.74600418382062
 40
0.8
 50
270
 51
0
  0
LINE
  8
_0-0_
  6
_
 62
    1
 10
126.69307740148136
 20
159.94600418382049
 11
132.69307740148136
 21
159.94600418382049
  0
LINE
  8
_0-0_
  6
_
 62
    1
 10
129.69307740148136
 20
162.94600418382049
 11
129.69307740148136
 21
156.94600418382049
  0
CIRCLE
  8
_0-0_
  6
CONTINUOUS
 62
    7
 10
129.69307740148136
 20
159.94600418382049
 40
0.75
  0
LINE
  8
_0-0_
  6
_
 62
    1
 10
113.94307740148133
 20
159.64600418382059
 11
119.94307740148136
 21
159.64600418382059
  0
LINE
  8
_0-0_
  6
_
 62
    1
 10
116.94307740148133
 20
162.64600418382059
 11
116.94307740148133
 21
156.64600418382059
  0
CIRCLE
  8
_0-0_
  6
CONTINUOUS
 62
    7
 10
116.94307740148133
 20
159.64600418382059
 40
0.75
  0
TEXT
  8
_0-0_
 62
    7
 10
118.56520428465922
 20
111.96201083553285
 40
4
 41
1
 50
0
  1
DC24V　3A
  0
TEXT
  8
_0-0_
 62
    7
 10
125.39412844691671
 20
108.60962988315191
 40
2.5
 41
1
 50
0
  1
SRT
  0
ARC
  8
_0-0_
  6
CONTINUOUS
 62
    7
 10
112.69307740148133
 20
112.88497445195991
 40
8
 50
90
 51
270
  0
LINE
  8
_0-0_
  6
CONTINUOUS
 62
    7
 10
132.19307740148136
 20
102.88497445196002
 11
119.19307740148136
 21
102.88497445196002
  0
LINE
  8
_0-0_
  6
CONTINUOUS
 62
    7
 10
138.69307740148136
 20
104.88497445196002
 11
112.69307740148133
 21
104.88497445196002
  0
ARC
  8
_0-0_
  6
CONTINUOUS
 62
    7
 10
132.19307740148136
 20
104.38497445195991
 40
1.5
 50
270
 51
0
  0
ARC
  8
_0-0_
  6
CONTINUOUS
 62
    7
 10
119.19307740148136
 20
104.38497445195991
 40
1.5
 50
180
 51
270
  0
LINE
  8
_0-0_
  6
CONTINUOUS
 62
    7
 10
117.69307740148133
 20
104.88497445196002
 11
117.69307740148133
 21
104.38497445195991
  0
LINE
  8
_0-0_
  6
CONTINUOUS
 62
    7
 10
133.69307740148136
 20
104.88497445196002
 11
133.69307740148136
 21
104.38497445195991
  0
ARC
  8
_0-0_
  6
CONTINUOUS
 62
    7
 10
138.69307740148136
 20
112.88497445195991
 40
8.000000000000032
 50
270
 51
90
  0
LINE
  8
_0-0_
  6
CONTINUOUS
 62
    7
 10
224.17445545376356
 20
119.81778124074758
 11
224.17445545376356
 21
103.81778124074758
  0
LINE
  8
_0-0_
  6
CONTINUOUS
 62
    7
 10
229.17445545376356
 20
119.81778124074758
 11
229.17445545376356
 21
103.81778124074758
  0
LINE
  8
_0-0_
  6
CONTINUOUS
 62
    7
 10
314.52969665609874
 20
107.81778124074758
 11
224.17445545376356
 21
107.81778124074758
  0
LINE
  8
_0-0_
  6
CONTINUOUS
 62
    7
 10
314.52969665609874
 20
111.81778124074758
 11
224.17445545376356
 21
111.81778124074758
  0
LINE
  8
_0-0_
  6
CONTINUOUS
 62
    7
 10
314.52969665609874
 20
115.81778124074758
 11
224.17445545376356
 21
115.81778124074758
  0
LINE
  8
_0-0_
  6
CONTINUOUS
 62
    7
 10
314.52969665609874
 20
119.81778124074758
 11
224.17445545376356
 21
119.81778124074758
  0
TEXT
  8
_0-0_
 62
    7
 10
224.56934081531563
 20
116.52483907382404
 40
2.5
 41
1
 50
0
  1
No.
  0
TEXT
  8
_0-0_
 62
    4
 10
230.06352070949552
 20
112.89309304207801
 40
2
 41
1
 50
0
  1
DC電源レール用プラグ付きコード
  0
TEXT
  8
_0-0_
 62
    4
 10
230.15664240261722
 20
108.79573854472351
 40
2
 41
1
 50
0
  1
ソケットコンタクト
  0
TEXT
  8
_0-0_
 62
    4
 10
230.24976409573893
 20
104.88462743361239
 40
2
 41
1
 50
0
  1
プラグハウジング
  0
LINE
  8
_0-0_
  6
CONTINUOUS
 62
    7
 10
260.67445545376358
 20
119.81778124074758
 11
260.67445545376358
 21
103.81778124074758
  0
TEXT
  8
_0-0_
 62
    7
 10
239.67057538321686
 20
116.43171738070234
 40
2.5
 41
1
 50
0
  1
部品名
  0
TEXT
  8
_0-0_
 62
    4
 10
262.91478467187062
 20
116.48862508205448
 40
2.5
 41
1
 50
0
  1
品番、仕様
  0
TEXT
  8
_0-0_
 62
    4
 10
263.06362848923294
 20
108.63590119414545
 40
2.5
 41
1
 50
0
  1
SHF-001T-0.8BS
  0
TEXT
  8
_0-0_
 62
    4
 10
263.18779074672852
 20
112.42285004776097
 40
2.5
 41
1
 50
0
  1
VFF 0.3m㎡ 白
  0
TEXT
  8
_0-0_
 62
    4
 10
263.18779074672852
 20
104.60062782553875
 40
2.5
 41
1
 50
0
  1
SMP-02VF-N 白
  0
TEXT
  8
_0-0_
 62
    4
 10
285.53699709593485
 20
112.79533682024775
 40
2.5
 41
1
 50
0
  1
1
  0
TEXT
  8
_0-0_
 62
    4
 10
285.39731455625235
 20
108.60486062977157
 40
2.5
 41
1
 50
0
  1
2
  0
TEXT
  8
_0-0_
 62
    4
 10
285.39731455625235
 20
104.83343205834299
 40
2.5
 41
1
 50
0
  1
1
  0
TEXT
  8
_0-0_
 62
    4
 10
289.72747328641105
 20
112.65565428056522
 40
2.5
 41
1
 50
0
  1
2芯平行コード0.3m㎡
  0
TEXT
  8
_0-0_
 62
    4
 10
289.85680897130231
 20
104.45577185846057
 40
2.5
 41
1
 50
0
  1
JST
  0
TEXT
  8
_0-0_
 62
    4
 10
289.77403413297191
 20
108.76006345164105
 40
2.5
 41
1
 50
0
  1
JST
  0
TEXT
  8
_0-0_
 62
    7
 10
231.00745564972675
 20
76.934431470453504
 40
3.2000000000000002
 41
1
 50
0
  1
ＦＫＫ株式会社
  0
LINE
  8
_0-0_
  6
CONTINUOUS
 62
    7
 10
140.38234542044981
 20
209.66630977733183
 11
147.92520256330695
 21
230.40916692018899
  0
LINE
  8
_0-0_
  6
CONTINUOUS
 62
    7
 10
140.38234542044981
 20
209.66630977733183
 11
140.64293146283882
 21
212.65497083447968
  0
LINE
  8
_0-0_
  6
CONTINUOUS
 62
    7
 10
140.38234542044981
 20
209.66630977733183
 11
142.10235008160427
 21
212.12427315492863
  0
TEXT
  8
_0-0_
 62
    7
 10
225.42767169910942
 20
112.59211812536243
 40
2.5
 41
1
 50
0
  1
①
  0
TEXT
  8
_0-0_
 62
    7
 10
225.39663113473551
 20
108.52580419238183
 40
2.5
 41
1
 50
0
  1
②
  0
TEXT
  8
_0-0_
 62
    7
 10
225.33455000598772
 20
104.55261195252292
 40
2.5
 41
1
 50
0
  1
③
  0
TEXT
  8
_0-0_
 62
    4
 10
297.59601385078486
 20
116.44017809008909
 40
2.5
 41
1
 50
0
  1
備考
  0
LINE
  8
_0-0_
  6
CONTINUOUS
 62
    7
 10
213.0376364257408
 20
202.821218654463
 11
218.20589039399476
 21
193.18312341636775
  0
LINE
  8
_0-0_
  6
CONTINUOUS
 62
    7
 10
213.0376364257408
 20
202.821218654463
 11
215.09133988970169
 21
200.63437113300313
  0
LINE
  8
_0-0_
  6
CONTINUOUS
 62
    7
 10
213.0376364257408
 20
202.821218654463
 11
213.72277203664109
 21
199.90050141469527
  0
TEXT
  8
_0-0_
 62
    3
 10
215.69160467970906
 20
186.47836151160584
 40
5
 41
1
 50
0
  1
②③
  0
TEXT
  8
_0-0_
 62
    3
 10
147.42176340986779
 20
231.45613928938363
 40
5
 41
1
 50
0
  1
①
  0
TEXT
  8
_0-0_
 62
    7
 10
226.0971051206262
 20
122.99167720825483
 40
3
 41
1
 50
0
  1
・変形、割れ、汚れ、線被覆の汚れ等の不具合の無い事
  0
TEXT
  8
_0-0_
 62
    7
 10
226.0971051206262
 20
128.57897879555642
 40
3
 41
1
 50
0
  1
・人体に有害なバリ、突起等は不可とする
  0
TEXT
  8
_0-0_
 62
    7
 10
225.81774004126112
 20
135.84247085904849
 40
3
 41
1
 50
0
  1
※注記
  0
LINE
  8
_0-0_
  6
CONTINUOUS
 62
    7
 10
260.61631452061374
 20
170.54252242314499
 11
249.32617614326708
 21
164.02416028229027
  0
LINE
  8
_0-0_
  6
CONTINUOUS
 62
    7
 10
260.61631452061374
 20
170.54252242314496
 11
260.61631452061374
 21
170.54252242314496
  0
LINE
  8
_0-0_
  6
CONTINUOUS
 62
    7
 10
260.61631452061374
 20
170.54252242314496
 11
261.13919241509183
 21
170.90229323123523
  0
LINE
  8
_0-0_
  6
CONTINUOUS
 62
    7
 10
261.13919241509183
 20
170.90229323123523
 11
261.54591921458086
 21
171.30901984108789
  0
LINE
  8
_0-0_
  6
CONTINUOUS
 62
    7
 10
261.54591921458086
 20
171.30901984108789
 11
261.82413673109215
 21
171.75034407047613
  0
LINE
  8
_0-0_
  6
CONTINUOUS
 62
    7
 10
261.82413673109215
 20
171.75034407047613
 11
261.96539146617135
 21
172.21285650601081
  0
LINE
  8
_0-0_
  6
CONTINUOUS
 62
    7
 10
261.96539146617135
 20
172.21285650601081
 11
261.9831495417431
 21
172.44768081690958
  0
LINE
  8
_0-0_
  6
CONTINUOUS
 62
    7
 10
240.22160664360555
 20
166.20148280496127
 11
240.22160664360555
 21
166.20148280496127
  0
LINE
  8
_0-0_
  6
CONTINUOUS
 62
    7
 10
240.22160664360555
 20
166.20148280496127
 11
240.30263216478176
 21
165.66678534658899
  0
LINE
  8
_0-0_
  6
CONTINUOUS
 62
    7
 10
240.30263216478176
 20
165.66678534658899
 11
240.54324640103434
 21
165.14833442051881
  0
LINE
  8
_0-0_
  6
CONTINUOUS
 62
    7
 10
240.54324640103434
 20
165.14833442051881
 11
240.93613841055145
 21
164.66188289579054
  0
LINE
  8
_0-0_
  6
CONTINUOUS
 62
    7
 10
240.93613841055145
 20
164.66188289579054
 11
241.46937036843687
 21
164.22221135582672
  0
LINE
  8
_0-0_
  6
CONTINUOUS
 62
    7
 10
241.46937036843687
 20
164.22221135582672
 11
242.12674029147865
 21
163.8426789978846
  0
LINE
  8
_0-0_
  6
CONTINUOUS
 62
    7
 10
242.12674029147865
 20
163.8426789978846
 11
242.88827432721041
 21
163.53481772060761
  0
LINE
  8
_0-0_
  6
CONTINUOUS
 62
    7
 10
242.88827432721041
 20
163.53481772060761
 11
243.73083364931122
 21
163.30798173312047
  0
LINE
  8
_0-0_
  6
CONTINUOUS
 62
    7
 10
243.73083364931122
 20
163.30798173312047
 11
244.62881751913466
 21
163.16906333211847
  0
LINE
  8
_0-0_
  6
CONTINUOUS
 62
    7
 10
244.62881751913466
 20
163.16906333211847
 11
245.55494115119791
 21
163.12228348291995
  0
LINE
  8
_0-0_
  6
CONTINUOUS
 62
    7
 10
245.55494115119791
 20
163.12228348291995
 11
246.48106474758185
 21
163.16906356757102
  0
LINE
  8
_0-0_
  6
CONTINUOUS
 62
    7
 10
246.48106474758185
 20
163.16906356757102
 11
247.3790485114516
 21
163.30798219687145
  0
LINE
  8
_0-0_
  6
CONTINUOUS
 62
    7
 10
247.3790485114516
 20
163.30798219687145
 11
248.22160766054361
 21
163.53481839856619
  0
LINE
  8
_0-0_
  6
CONTINUOUS
 62
    7
 10
248.22160766054361
 20
163.53481839856619
 11
248.98314146146822
 21
163.84267986945133
  0
LINE
  8
_0-0_
  6
CONTINUOUS
 62
    7
 10
248.98314146146822
 20
163.84267986945133
 11
249.32617614326699
 21
164.0241602822903
  0
LINE
  8
_0-0_
  6
CONTINUOUS
 62
    7
 10
256.50074474347986
 20
181.23034084866379
 11
244.14072432653754
 21
174.09428268659536
  0
LINE
  8
_0-0_
  6
CONTINUOUS
 62
    7
 10
261.91011168918982
 20
178.91013085319548
 11
248.85476953444774
 21
171.37262868580837
  0
LINE
  8
_0-0_
  6
CONTINUOUS
 62
    7
 10
244.14072432653754
 20
174.09428268659522
 11
244.14072432653754
 21
174.09428268659522
  0
LINE
  8
_0-0_
  6
CONTINUOUS
 62
    7
 10
244.14072432653754
 20
174.09428268659522
 11
243.76724011619606
 21
173.83730353795931
  0
LINE
  8
_0-0_
  6
CONTINUOUS
 62
    7
 10
243.76724011619606
 20
173.83730353795931
 11
243.47672097370386
 21
173.54678453092171
  0
LINE
  8
_0-0_
  6
CONTINUOUS
 62
    7
 10
243.47672097370386
 20
173.54678453092171
 11
243.27799417619582
 21
173.23155293850155
  0
LINE
  8
_0-0_
  6
CONTINUOUS
 62
    7
 10
243.27799417619582
 20
173.23155293850155
 11
243.17709793685356
 21
172.90118691311963
  0
LINE
  8
_0-0_
  6
CONTINUOUS
 62
    7
 10
243.17709793685356
 20
172.90118691311963
 11
243.17709793685356
 21
172.5657244592839
  0
LINE
  8
_0-0_
  6
CONTINUOUS
 62
    7
 10
243.17709793685356
 20
172.5657244592839
 11
243.27799417619582
 21
172.23535843390198
  0
LINE
  8
_0-0_
  6
CONTINUOUS
 62
    7
 10
243.27799417619582
 20
172.23535843390198
 11
243.47672097370386
 21
171.92012684148182
  0
LINE
  8
_0-0_
  6
CONTINUOUS
 62
    7
 10
243.47672097370386
 20
171.92012684148182
 11
243.76724011619604
 21
171.62960783444419
  0
LINE
  8
_0-0_
  6
CONTINUOUS
 62
    7
 10
243.76724011619604
 20
171.62960783444419
 11
244.14072432653751
 21
171.37262868580828
  0
LINE
  8
_0-0_
  6
CONTINUOUS
 62
    7
 10
244.14072432653751
 20
171.37262868580828
 11
244.58582547598917
 21
171.15699757696763
  0
LINE
  8
_0-0_
  6
CONTINUOUS
 62
    7
 10
244.58582547598917
 20
171.15699757696763
 11
245.089019391357
 21
170.98926635004977
  0
LINE
  8
_0-0_
  6
CONTINUOUS
 62
    7
 10
245.089019391357
 20
170.98926635004977
 11
245.63501678015092
 21
170.87453143350848
  0
LINE
  8
_0-0_
  6
CONTINUOUS
 62
    7
 10
245.63501678015092
 20
170.87453143350848
 11
246.20722778800044
 21
170.81627898972422
  0
LINE
  8
_0-0_
  6
CONTINUOUS
 62
    7
 10
246.20722778800044
 20
170.81627898972422
 11
246.78826607298481
 21
170.81627898972422
  0
LINE
  8
_0-0_
  6
CONTINUOUS
 62
    7
 10
246.78826607298481
 20
170.81627898972422
 11
247.36047708083433
 21
170.87453143350848
  0
LINE
  8
_0-0_
  6
CONTINUOUS
 62
    7
 10
247.36047708083433
 20
170.87453143350848
 11
247.90647446962825
 21
170.98926635004975
  0
LINE
  8
_0-0_
  6
CONTINUOUS
 62
    7
 10
247.90647446962825
 20
170.98926635004975
 11
248.40966838499608
 21
171.15699757696763
  0
LINE
  8
_0-0_
  6
CONTINUOUS
 62
    7
 10
248.40966838499608
 20
171.15699757696763
 11
248.85476953444774
 21
171.37262868580828
  0
LINE
  8
_0-0_
  6
CONTINUOUS
 62
    7
 10
248.85476953444774
 20
171.37262868580828
 11
248.85476953444774
 21
171.37262868580828
  0
LINE
  8
_0-0_
  6
CONTINUOUS
 62
    7
 10
253.55462486100143
 20
180.03813881101905
 11
253.55462486100143
 21
180.03813881101905
  0
LINE
  8
_0-0_
  6
CONTINUOUS
 62
    7
 10
253.55462486100143
 20
180.03813881101905
 11
253.07237791685668
 21
179.79530355388158
  0
LINE
  8
_0-0_
  6
CONTINUOUS
 62
    7
 10
260.61631265237804
 20
175.44150184526308
 11
249.32617427503138
 21
168.92313970440847
  0
LINE
  8
_0-0_
  6
CONTINUOUS
 62
    7
 10
260.61631265237804
 20
175.44150184526316
 11
260.61631265237804
 21
175.44150184526316
  0
LINE
  8
_0-0_
  6
CONTINUOUS
 62
    7
 10
260.61631265237804
 20
175.44150184526316
 11
261.13919054685613
 21
175.80127265335344
  0
LINE
  8
_0-0_
  6
CONTINUOUS
 62
    7
 10
261.13919054685613
 20
175.80127265335344
 11
261.54591734634516
 21
176.20799926320609
  0
LINE
  8
_0-0_
  6
CONTINUOUS
 62
    7
 10
261.54591734634516
 20
176.20799926320609
 11
261.82413486285645
 21
176.64932349259433
  0
LINE
  8
_0-0_
  6
CONTINUOUS
 62
    7
 10
261.82413486285645
 20
176.64932349259433
 11
261.96538959793565
 21
177.11183592812901
  0
LINE
  8
_0-0_
  6
CONTINUOUS
 62
    7
 10
261.96538959793565
 20
177.11183592812901
 11
261.98136765850796
 21
177.42106907484578
  0
LINE
  8
_0-0_
  6
CONTINUOUS
 62
    7
 10
253.07237791685665
 20
179.79530355388169
 11
241.78370194237473
 21
173.2777861056677
  0
LINE
  8
_0-0_
  6
CONTINUOUS
 62
    7
 10
241.78370194237482
 20
173.27778610566756
 11
241.78370194237482
 21
173.27778610566756
  0
LINE
  8
_0-0_
  6
CONTINUOUS
 62
    7
 10
241.78370194237482
 20
173.27778610566756
 11
241.18612720582846
 21
172.86661946785009
  0
LINE
  8
_0-0_
  6
CONTINUOUS
 62
    7
 10
241.18612720582846
 20
172.86661946785009
 11
240.72129657784095
 21
172.40178905658991
  0
LINE
  8
_0-0_
  6
CONTINUOUS
 62
    7
 10
240.72129657784095
 20
172.40178905658991
 11
240.40333370182805
 21
171.89741850871764
  0
LINE
  8
_0-0_
  6
CONTINUOUS
 62
    7
 10
240.40333370182805
 20
171.89741850871764
 11
240.24189971888043
 21
171.36883286810652
  0
LINE
  8
_0-0_
  6
CONTINUOUS
 62
    7
 10
240.24189971888043
 20
171.36883286810652
 11
240.24189971888043
 21
170.83209294196936
  0
LINE
  8
_0-0_
  6
CONTINUOUS
 62
    7
 10
240.24189971888043
 20
170.83209294196936
 11
240.40333370182805
 21
170.30350730135828
  0
LINE
  8
_0-0_
  6
CONTINUOUS
 62
    7
 10
240.40333370182805
 20
170.30350730135828
 11
240.72129657784095
 21
169.79913675348601
  0
LINE
  8
_0-0_
  6
CONTINUOUS
 62
    7
 10
240.72129657784095
 20
169.79913675348601
 11
241.18612720582846
 21
169.33430634222583
  0
LINE
  8
_0-0_
  6
CONTINUOUS
 62
    7
 10
241.18612720582846
 20
169.33430634222583
 11
241.78370194237482
 21
168.92313970440836
  0
LINE
  8
_0-0_
  6
CONTINUOUS
 62
    7
 10
241.78370194237482
 20
168.92313970440836
 11
242.49586378149749
 21
168.57812993026332
  0
LINE
  8
_0-0_
  6
CONTINUOUS
 62
    7
 10
242.49586378149749
 20
168.57812993026332
 11
243.300974046086
 21
168.30975996719474
  0
LINE
  8
_0-0_
  6
CONTINUOUS
 62
    7
 10
243.300974046086
 20
168.30975996719474
 11
244.17456986815628
 21
168.12618410072869
  0
LINE
  8
_0-0_
  6
CONTINUOUS
 62
    7
 10
244.17456986815628
 20
168.12618410072869
 11
245.09010748071555
 21
168.0329801906739
  0
LINE
  8
_0-0_
  6
CONTINUOUS
 62
    7
 10
245.09010748071555
 20
168.0329801906739
 11
246.01976873669057
 21
168.03298019067392
  0
LINE
  8
_0-0_
  6
CONTINUOUS
 62
    7
 10
246.01976873669057
 20
168.03298019067392
 11
246.93530634924983
 21
168.12618410072872
  0
LINE
  8
_0-0_
  6
CONTINUOUS
 62
    7
 10
246.93530634924983
 20
168.12618410072872
 11
247.80890217132011
 21
168.30975996719479
  0
LINE
  8
_0-0_
  6
CONTINUOUS
 62
    7
 10
247.80890217132011
 20
168.30975996719479
 11
248.61401243590862
 21
168.57812993026337
  0
LINE
  8
_0-0_
  6
CONTINUOUS
 62
    7
 10
248.61401243590862
 20
168.57812993026337
 11
249.32617427503129
 21
168.92313970440844
  0
LINE
  8
_0-0_
  6
CONTINUOUS
 62
    7
 10
249.32617427503129
 20
168.92313970440844
 11
249.32617427503129
 21
168.92313970440844
  0
LINE
  8
_0-0_
  6
CONTINUOUS
 62
    7
 10
258.86033170533824
 20
174.101086223594
 11
259.56743832168041
 21
173.6928378379572
  0
LINE
  8
_0-0_
  6
CONTINUOUS
 62
    7
 10
259.67350339100352
 20
180.88481022752887
 11
260.61631243258563
 21
180.34047942737141
  0
LINE
  8
_0-0_
  6
CONTINUOUS
 62
    7
 10
259.67350339100363
 20
180.88481022752879
 11
259.67350339100363
 21
180.88481022752879
  0
LINE
  8
_0-0_
  6
CONTINUOUS
 62
    7
 10
259.67350339100363
 20
180.88481022752879
 11
259.0503617817713
 21
181.18669377990571
  0
LINE
  8
_0-0_
  6
CONTINUOUS
 62
    7
 10
259.0503617817713
 20
181.18669377990571
 11
258.34589030025631
 21
181.42151749759074
  0
LINE
  8
_0-0_
  6
CONTINUOUS
 62
    7
 10
258.34589030025631
 20
181.42151749759074
 11
257.58149395594484
 21
181.58214638074853
  0
LINE
  8
_0-0_
  6
CONTINUOUS
 62
    7
 10
257.58149395594484
 20
181.58214638074853
 11
257.19606646384761
 21
181.63178521826489
  0
LINE
  8
_0-0_
  6
CONTINUOUS
 62
    7
 10
261.91011167175787
 20
178.91013121747787
 11
261.91011167175787
 21
178.91013121747787
  0
LINE
  8
_0-0_
  6
CONTINUOUS
 62
    7
 10
261.91011167175787
 20
178.91013121747787
 11
261.69751675261676
 21
179.36345581904212
  0
LINE
  8
_0-0_
  6
CONTINUOUS
 62
    7
 10
261.69751675261676
 20
179.36345581904212
 11
261.35180627257307
 21
179.78857953283429
  0
LINE
  8
_0-0_
  6
CONTINUOUS
 62
    7
 10
261.35180627257307
 20
179.78857953283429
 11
260.88348446962493
 21
180.17258518993376
  0
LINE
  8
_0-0_
  6
CONTINUOUS
 62
    7
 10
260.88348446962493
 20
180.17258518993376
 11
260.61631243258563
 21
180.34047942737138
  0
LINE
  8
_0-0_
  6
CONTINUOUS
 62
    7
 10
242.83258003152295
 20
174.3732549547243
 11
242.83258013042976
 21
173.883356301888
  0
LINE
  8
_0-0_
  6
CONTINUOUS
 62
    7
 10
243.06828218202239
 20
174.50933765476378
 11
243.49254696505986
 21
174.2643881538616
  0
LINE
  8
_0-0_
  6
CONTINUOUS
 62
    7
 10
243.06828218202236
 20
174.50933765476373
 11
243.06828218202236
 21
174.50933765476373
  0
LINE
  8
_0-0_
  6
CONTINUOUS
 62
    7
 10
243.06828218202236
 20
174.50933765476373
 11
243.02735292440912
 21
174.52883337873874
  0
LINE
  8
_0-0_
  6
CONTINUOUS
 62
    7
 10
243.02735292440912
 20
174.52883337873874
 11
242.98766728324682
 21
174.53946712415524
  0
LINE
  8
_0-0_
  6
CONTINUOUS
 62
    7
 10
242.98766728324682
 20
174.53946712415524
 11
242.9504310866603
 21
174.54091579003969
  0
LINE
  8
_0-0_
  6
CONTINUOUS
 62
    7
 10
242.9504310866603
 20
174.54091579003969
 11
242.91677573764036
 21
174.53313535941228
  0
LINE
  8
_0-0_
  6
CONTINUOUS
 62
    7
 10
242.91677573764036
 20
174.53313535941228
 11
242.8877238369366
 21
174.51636223672048
  0
LINE
  8
_0-0_
  6
CONTINUOUS
 62
    7
 10
242.8877238369366
 20
174.51636223672048
 11
242.86415811185091
 21
174.49110606480971
  0
LINE
  8
_0-0_
  6
CONTINUOUS
 62
    7
 10
242.86415811185091
 20
174.49110606480971
 11
242.84679459501518
 21
174.45813423968326
  0
LINE
  8
_0-0_
  6
CONTINUOUS
 62
    7
 10
242.84679459501518
 20
174.45813423968326
 11
242.83616086810213
 21
174.418448593563
  0
LINE
  8
_0-0_
  6
CONTINUOUS
 62
    7
 10
242.83616086810213
 20
174.418448593563
 11
242.83258003152304
 21
174.37325495472439
  0
LINE
  8
_0-0_
  6
CONTINUOUS
 62
    7
 10
242.83258003152304
 20
174.37325495472439
 11
242.83258003152304
 21
174.37325495472439
  0
LINE
  8
_0-0_
  6
CONTINUOUS
 62
    7
 10
252.26066824941958
 20
168.92994314623405
 11
252.26066835931564
 21
168.385612155731
  0
LINE
  8
_0-0_
  6
CONTINUOUS
 62
    7
 10
252.02496620881647
 20
168.24952945569174
 11
252.02496620881647
 21
168.24952945569174
  0
LINE
  8
_0-0_
  6
CONTINUOUS
 62
    7
 10
252.02496620881647
 20
168.24952945569174
 11
252.06589546642968
 21
168.23003373171673
  0
LINE
  8
_0-0_
  6
CONTINUOUS
 62
    7
 10
252.06589546642968
 20
168.23003373171673
 11
252.10558110759197
 21
168.21939998630023
  0
LINE
  8
_0-0_
  6
CONTINUOUS
 62
    7
 10
252.10558110759197
 20
168.21939998630023
 11
252.14281730417852
 21
168.21795132041575
  0
LINE
  8
_0-0_
  6
CONTINUOUS
 62
    7
 10
252.14281730417852
 20
168.21795132041575
 11
252.17647265319843
 21
168.22573175104318
  0
LINE
  8
_0-0_
  6
CONTINUOUS
 62
    7
 10
252.17647265319843
 20
168.22573175104318
 11
252.20552455390219
 21
168.24250487373496
  0
LINE
  8
_0-0_
  6
CONTINUOUS
 62
    7
 10
252.20552455390219
 20
168.24250487373496
 11
252.22909027898788
 21
168.26776104564573
  0
LINE
  8
_0-0_
  6
CONTINUOUS
 62
    7
 10
252.22909027898788
 20
168.26776104564573
 11
252.24645379582361
 21
168.30073287077221
  0
LINE
  8
_0-0_
  6
CONTINUOUS
 62
    7
 10
252.24645379582361
 20
168.30073287077221
 11
252.25708752273667
 21
168.34041851689247
  0
LINE
  8
_0-0_
  6
CONTINUOUS
 62
    7
 10
252.25708752273667
 20
168.34041851689247
 11
252.26066835931576
 21
168.38561215573105
  0
LINE
  8
_0-0_
  6
CONTINUOUS
 62
    7
 10
252.26066835931576
 20
168.38561215573105
 11
252.26066835931576
 21
168.38561215573108
  0
LINE
  8
_0-0_
  6
CONTINUOUS
 62
    7
 10
252.02496620881644
 20
168.24952945569169
 11
251.31785959247415
 21
168.65777784132825
  0
LINE
  8
_0-0_
  6
CONTINUOUS
 62
    7
 10
252.02496598902408
 20
169.33819143669797
 11
251.31785937268174
 21
169.74643982233476
  0
LINE
  8
_0-0_
  6
CONTINUOUS
 62
    7
 10
252.26066824941958
 20
168.92994314623408
 11
252.26066824941958
 21
168.92994314623408
  0
LINE
  8
_0-0_
  6
CONTINUOUS
 62
    7
 10
252.26066824941958
 20
168.92994314623408
 11
252.25708739375722
 21
168.97927159194396
  0
LINE
  8
_0-0_
  6
CONTINUOUS
 62
    7
 10
252.25708739375722
 20
168.97927159194396
 11
252.24645364834072
 21
169.03123602466368
  0
LINE
  8
_0-0_
  6
CONTINUOUS
 62
    7
 10
252.24645364834072
 20
169.03123602466368
 11
252.22909011414362
 21
169.08425753140028
  0
LINE
  8
_0-0_
  6
CONTINUOUS
 62
    7
 10
252.22909011414362
 20
169.08425753140028
 11
252.20552437336613
 21
169.13672508050178
  0
LINE
  8
_0-0_
  6
CONTINUOUS
 62
    7
 10
252.20552437336613
 20
169.13672508050178
 11
252.17647245911692
 21
169.18704447203854
  0
LINE
  8
_0-0_
  6
CONTINUOUS
 62
    7
 10
252.17647245911692
 20
169.18704447203854
 11
252.14281709910946
 21
169.2336867767616
  0
LINE
  8
_0-0_
  6
CONTINUOUS
 62
    7
 10
252.14281709910946
 20
169.2336867767616
 11
252.10558089442719
 21
169.2752347918441
  0
LINE
  8
_0-0_
  6
CONTINUOUS
 62
    7
 10
252.10558089442719
 20
169.2752347918441
 11
252.06589524830693
 21
169.31042610187203
  0
LINE
  8
_0-0_
  6
CONTINUOUS
 62
    7
 10
252.06589524830693
 20
169.31042610187203
 11
252.02496598902411
 21
169.33819143669788
  0
LINE
  8
_0-0_
  6
CONTINUOUS
 62
    7
 10
252.02496598902411
 20
169.33819143669788
 11
252.02496598902405
 21
169.33819143669791
  0
LINE
  8
_0-0_
  6
CONTINUOUS
 62
    7
 10
250.61075451467875
 20
178.86398405602296
 11
251.03501929771616
 21
178.61903455512066
  0
LINE
  8
_0-0_
  6
CONTINUOUS
 62
    7
 10
250.61075451467872
 20
178.86398405602296
 11
250.61075451467872
 21
178.86398405602296
  0
LINE
  8
_0-0_
  6
CONTINUOUS
 62
    7
 10
250.61075451467872
 20
178.86398405602296
 11
250.56982525706547
 21
178.88347977999797
  0
LINE
  8
_0-0_
  6
CONTINUOUS
 62
    7
 10
250.56982525706547
 20
178.88347977999797
 11
250.53013961590318
 21
178.89411352541447
  0
LINE
  8
_0-0_
  6
CONTINUOUS
 62
    7
 10
250.53013961590318
 20
178.89411352541447
 11
250.49290341931666
 21
178.89556219129892
  0
LINE
  8
_0-0_
  6
CONTINUOUS
 62
    7
 10
250.49290341931666
 20
178.89556219129892
 11
250.45924807029672
 21
178.88778176067152
  0
LINE
  8
_0-0_
  6
CONTINUOUS
 62
    7
 10
250.45924807029672
 20
178.88778176067152
 11
250.44408792238721
 21
178.88049370658237
  0
LINE
  8
_0-0_
  6
CONTINUOUS
 62
    7
 10
250.44408792238718
 20
178.8804937065824
 11
242.90161558973077
 21
174.52584730532305
  0
LINE
  8
_0-0_
  6
CONTINUOUS
 62
    7
 10
259.73410513376444
 20
172.58766620639148
 11
259.73410513376444
 21
172.58766620639148
  0
LINE
  8
_0-0_
  6
CONTINUOUS
 62
    7
 10
259.73410513376444
 20
172.58766620639148
 11
259.76051444571897
 21
172.60876112055882
  0
LINE
  8
_0-0_
  6
CONTINUOUS
 62
    7
 10
259.76051444571897
 20
172.60876112055882
 11
259.78105724235456
 21
172.63798632466253
  0
LINE
  8
_0-0_
  6
CONTINUOUS
 62
    7
 10
259.78105724235456
 20
172.63798632466253
 11
259.7951093411906
 21
172.67445382566461
  0
LINE
  8
_0-0_
  6
CONTINUOUS
 62
    7
 10
259.7951093411906
 20
172.67445382566461
 11
259.80224377631464
 21
172.71705557700048
  0
LINE
  8
_0-0_
  6
CONTINUOUS
 62
    7
 10
259.80224377631464
 20
172.71705557700048
 11
259.80314069197226
 21
172.74025855699026
  0
LINE
  8
_0-0_
  6
CONTINUOUS
 62
    7
 10
259.80314058207591
 20
173.28458954749328
 11
259.80314069197215
 21
172.74025855699017
  0
LINE
  8
_0-0_
  6
CONTINUOUS
 62
    7
 10
259.80314058207591
 20
173.28458954749343
 11
259.80314058207591
 21
173.28458954749343
  0
LINE
  8
_0-0_
  6
CONTINUOUS
 62
    7
 10
259.80314058207591
 20
173.28458954749343
 11
259.79955972641358
 21
173.3339179932033
  0
LINE
  8
_0-0_
  6
CONTINUOUS
 62
    7
 10
259.79955972641358
 20
173.3339179932033
 11
259.78892598099708
 21
173.38588242592303
  0
LINE
  8
_0-0_
  6
CONTINUOUS
 62
    7
 10
259.78892598099708
 20
173.38588242592303
 11
259.77156244679998
 21
173.43890393265963
  0
LINE
  8
_0-0_
  6
CONTINUOUS
 62
    7
 10
259.77156244679998
 20
173.43890393265963
 11
259.74799670602243
 21
173.49137148176112
  0
LINE
  8
_0-0_
  6
CONTINUOUS
 62
    7
 10
259.74799670602243
 20
173.49137148176112
 11
259.71894479177325
 21
173.54169087329788
  0
LINE
  8
_0-0_
  6
CONTINUOUS
 62
    7
 10
259.71894479177325
 20
173.54169087329788
 11
259.6852894317658
 21
173.58833317802095
  0
LINE
  8
_0-0_
  6
CONTINUOUS
 62
    7
 10
259.6852894317658
 20
173.58833317802095
 11
259.64805322708355
 21
173.62988119310344
  0
LINE
  8
_0-0_
  6
CONTINUOUS
 62
    7
 10
259.64805322708355
 20
173.62988119310344
 11
259.60836758096326
 21
173.66507250313137
  0
LINE
  8
_0-0_
  6
CONTINUOUS
 62
    7
 10
259.60836758096326
 20
173.66507250313137
 11
259.56743832168047
 21
173.69283783795723
  0
LINE
  8
_0-0_
  6
CONTINUOUS
 62
    7
 10
259.56743832168047
 20
173.69283783795723
 11
259.56743832168041
 21
173.69283783795726
  0
LINE
  8
_0-0_
  6
CONTINUOUS
 62
    7
 10
259.73410513376433
 20
172.58766620639148
 11
252.19163280110794
 21
168.23301980513219
  0
LINE
  8
_0-0_
  6
CONTINUOUS
 62
    7
 10
246.30918616344317
 20
162.75859176675488
 11
247.00450788381076
 21
163.16003613635587
  0
LINE
  8
_0-0_
  6
CONTINUOUS
 62
    7
 10
251.97782330055733
 20
163.67653350245996
 11
254.80624976592625
 21
165.3095270450072
  0
LINE
  8
_0-0_
  6
CONTINUOUS
 62
    7
 10
251.50641899955863
 20
163.94869890253875
 11
251.97782330055733
 21
163.67653350245996
  0
LINE
  8
_0-0_
  6
CONTINUOUS
 62
    7
 10
247.85303525470854
 20
159.96209161473587
 11
250.68146172007758
 21
161.59508515728288
  0
LINE
  8
_0-0_
  6
CONTINUOUS
 62
    7
 10
247.38163095370996
 20
160.2342570148146
 11
247.85303525470854
 21
159.96209161473587
  0
LINE
  8
_0-0_
  6
CONTINUOUS
 62
    7
 10
247.38163095370996
 20
160.2342570148146
 11
247.38163157438098
 21
163.30852543279178
  0
LINE
  8
_0-0_
  6
CONTINUOUS
 62
    7
 10
251.15286624086858
 20
162.41158173821066
 11
251.15286677935936
 21
165.0788002421732
  0
LINE
  8
_0-0_
  6
CONTINUOUS
 62
    7
 10
250.68146172007758
 20
161.59508515728288
 11
251.15286624086858
 21
162.41158173821066
  0
LINE
  8
_0-0_
  6
CONTINUOUS
 62
    7
 10
255.27765422614974
 20
166.12602352102857
 11
255.27765449551893
 21
167.46024668330966
  0
LINE
  8
_0-0_
  6
CONTINUOUS
 62
    7
 10
254.80624976592625
 20
165.3095270450072
 11
255.27765428671736
 21
166.12602362593475
  0
LINE
  8
_0-0_
  6
CONTINUOUS
 62
    7
 10
251.50641893899106
 20
163.94869893750746
 11
251.50641920836065
 21
165.2829239902689
  0
LINE
  8
_0-0_
  6
CONTINUOUS
 62
    7
 10
246.07348401294408
 20
162.89467446679419
 11
246.07348406184175
 21
163.13687202289486
  0
LINE
  8
_0-0_
  6
CONTINUOUS
 62
    7
 10
246.07348401294396
 20
162.89467446679421
 11
246.07348401294396
 21
162.89467446679421
  0
LINE
  8
_0-0_
  6
CONTINUOUS
 62
    7
 10
246.07348401294396
 20
162.89467446679421
 11
246.07706484952305
 21
162.8494808279556
  0
LINE
  8
_0-0_
  6
CONTINUOUS
 62
    7
 10
246.07706484952305
 20
162.8494808279556
 11
246.08769857643611
 21
162.80979518183531
  0
LINE
  8
_0-0_
  6
CONTINUOUS
 62
    7
 10
246.08769857643611
 20
162.80979518183531
 11
246.10506209327184
 21
162.77682335670883
  0
LINE
  8
_0-0_
  6
CONTINUOUS
 62
    7
 10
246.10506209327184
 20
162.77682335670883
 11
246.12862781835753
 21
162.75156718479806
  0
LINE
  8
_0-0_
  6
CONTINUOUS
 62
    7
 10
246.12862781835753
 20
162.75156718479806
 11
246.15767971906129
 21
162.73479406210629
  0
LINE
  8
_0-0_
  6
CONTINUOUS
 62
    7
 10
246.15767971906129
 20
162.73479406210629
 11
246.19133506808123
 21
162.72701363147885
  0
LINE
  8
_0-0_
  6
CONTINUOUS
 62
    7
 10
246.19133506808123
 20
162.72701363147885
 11
246.22857126466775
 21
162.72846229736334
  0
LINE
  8
_0-0_
  6
CONTINUOUS
 62
    7
 10
246.22857126466775
 20
162.72846229736334
 11
246.26825690583004
 21
162.73909604277983
  0
LINE
  8
_0-0_
  6
CONTINUOUS
 62
    7
 10
246.26825690583004
 20
162.73909604277983
 11
246.30918616344326
 21
162.75859176675485
  0
LINE
  8
_0-0_
  6
CONTINUOUS
 62
    7
 10
240.22160664360555
 20
166.2014828049613
 11
240.22160477536985
 21
171.10046222707939
  0
LINE
  8
_0-0_
  6
CONTINUOUS
 62
    7
 10
261.98314954174305
 20
172.44768081690967
 11
261.98314767350735
 21
177.34666023902776
  0
LINE
  8
_0-0_
  6
CONTINUOUS
 62
    7
 10
253.55462486100137
 20
180.038138811019
 11
257.19606646384761
 21
181.63178521826489
  0
LINE
  8
_0-0_
  6
CONTINUOUS
 62
    7
 10
261.98136765850791
 20
177.42106907484566
 11
261.91011167175782
 21
178.9101312174779
  0
LINE
  8
_0-0_
  6
CONTINUOUS
 62
    7
 10
247.00450733707706
 20
160.45198933487757
 11
247.47591163807576
 21
160.17982393479889
  0
LINE
  8
_0-0_
  6
CONTINUOUS
 62
    7
 10
247.00450733707706
 20
160.45198933487757
 11
247.00450789959106
 21
163.23819855359847
  0
LINE
  8
_0-0_
  6
CONTINUOUS
 62
    7
 10
243.61039478738164
 20
162.4115802154443
 11
244.08179908838028
 21
162.13941481536557
  0
LINE
  8
_0-0_
  6
CONTINUOUS
 62
    7
 10
243.61039478738164
 20
162.4115802154443
 11
243.61039497366053
 21
163.33424519633076
  0
LINE
  8
_0-0_
  6
CONTINUOUS
 62
    7
 10
243.23327117074896
 20
162.62931253550715
 11
243.61039469946465
 21
162.4115801646854
  0
LINE
  8
_0-0_
  6
CONTINUOUS
 62
    7
 10
243.23327117074896
 20
162.62931253550715
 11
243.23327133226908
 21
163.42934365656015
  0
LINE
  8
_0-0_
  6
CONTINUOUS
 62
    7
 10
244.08179908838028
 20
162.13941481536557
 11
245.63408404190923
 21
163.03562736900358
  0
LINE
  8
_0-0_
  6
CONTINUOUS
 62
    7
 10
251.15286665297927
 20
164.15282244500895
 11
251.50641899955863
 21
163.94869890253875
  0
LINE
  8
_0-0_
  6
CONTINUOUS
 62
    7
 10
245.48351286156398
 20
163.12255963997598
 11
246.14251957115178
 21
162.74208211619538
  0
LINE
  8
_0-0_
  6
CONTINUOUS
 62
    7
 10
251.31785959247415
 20
168.65777784132825
 11
251.31785937268174
 21
169.74643982233476
  0
LINE
  8
_0-0_
  6
CONTINUOUS
 62
    7
 10
251.31785937268174
 20
169.74643982233476
 11
258.86033170533824
 21
174.101086223594
  0
TEXT
  8
_0-0_
 62
    7
 10
259.98403344057436
 20
178.82210978693524
 40
1.6970556814080773
 41
1.1547008075690151
 50
29.999988432428996
  1
+
  0
TEXT
  8
_0-0_
 62
    7
 10
258.25216602243609
 20
180.26614532781446
 40
0.8485278407040387
 41
1.1547008075690151
 50
29.999988432428502
  1
|
  0
LINE
  8
_0-0_
  6
CONTINUOUS
 62
    7
 10
251.15286624086858
 20
162.41158173821066
 11
247.38163095370996
 21
160.2342570148146
  0
LINE
  8
_0-0_
  6
CONTINUOUS
 62
    7
 10
244.88376854828513
 20
163.14676324185996
 11
243.61039478738164
 21
162.4115802154443
  0
LINE
  8
_0-0_
  6
CONTINUOUS
 62
    7
 10
255.27765428671736
 20
166.12602362593475
 11
251.50641899955863
 21
163.94869890253875
  0
LINE
  8
_0-0_
  6
CONTINUOUS
 62
    7
 10
249.51724903687418
 20
163.93325604041758
 11
249.51724903687418
 21
163.93325604041758
  0
LINE
  8
_0-0_
  6
CONTINUOUS
 62
    7
 10
249.51724903687418
 20
163.93325604041758
 11
249.47003895095136
 21
163.95174154834555
  0
LINE
  8
_0-0_
  6
CONTINUOUS
 62
    7
 10
249.47003895095136
 20
163.95174154834555
 11
249.41666719610595
 21
163.95650851163728
  0
LINE
  8
_0-0_
  6
CONTINUOUS
 62
    7
 10
249.41666719610595
 20
163.95650851163728
 11
249.35875544610153
 21
163.94741208852531
  0
LINE
  8
_0-0_
  6
CONTINUOUS
 62
    7
 10
249.35875544610153
 20
163.94741208852531
 11
249.29806332015721
 21
163.9247286692229
  0
LINE
  8
_0-0_
  6
CONTINUOUS
 62
    7
 10
249.29806332015721
 20
163.9247286692229
 11
249.23643491780811
 21
163.8891474779472
  0
LINE
  8
_0-0_
  6
CONTINUOUS
 62
    7
 10
249.23643491780811
 20
163.8891474779472
 11
249.17574278687414
 21
163.84174963119014
  0
LINE
  8
_0-0_
  6
CONTINUOUS
 62
    7
 10
249.17574278687414
 20
163.84174963119014
 11
249.11783102704203
 21
163.78397528854097
  0
LINE
  8
_0-0_
  6
CONTINUOUS
 62
    7
 10
249.11783102704203
 20
163.78397528854097
 11
249.0644592578295
 21
163.71757989416591
  0
LINE
  8
_0-0_
  6
CONTINUOUS
 62
    7
 10
249.0644592578295
 20
163.71757989416591
 11
249.01724915343667
 21
163.64458083852529
  0
LINE
  8
_0-0_
  6
CONTINUOUS
 62
    7
 10
249.01724915343667
 20
163.64458083852529
 11
248.97763516899604
 21
163.56719616098547
  0
LINE
  8
_0-0_
  6
CONTINUOUS
 62
    7
 10
248.97763516899604
 20
163.56719616098547
 11
248.9468209553792
 21
163.48777715581497
  0
LINE
  8
_0-0_
  6
CONTINUOUS
 62
    7
 10
248.9468209553792
 20
163.48777715581497
 11
248.92574278687414
 21
163.40873692929793
  0
LINE
  8
_0-0_
  6
CONTINUOUS
 62
    7
 10
248.92574278687414
 20
163.40873692929793
 11
248.91504111296484
 21
163.33247707872079
  0
LINE
  8
_0-0_
  6
CONTINUOUS
 62
    7
 10
248.91504111296484
 20
163.33247707872079
 11
248.91504109859773
 21
163.26131472105399
  0
LINE
  8
_0-0_
  6
CONTINUOUS
 62
    7
 10
248.91504109859773
 20
163.26131472105399
 11
248.92574274420932
 21
163.19741208852534
  0
LINE
  8
_0-0_
  6
CONTINUOUS
 62
    7
 10
248.92574274420932
 20
163.19741208852534
 11
248.94682088571301
 21
163.14271083028794
  0
LINE
  8
_0-0_
  6
CONTINUOUS
 62
    7
 10
248.94682088571301
 20
163.14271083028794
 11
248.97763507444526
 21
163.09887301639313
  0
LINE
  8
_0-0_
  6
CONTINUOUS
 62
    7
 10
248.97763507444526
 20
163.09887301639313
 11
249.01724903687418
 21
163.06723063663316
  0
LINE
  8
_0-0_
  6
CONTINUOUS
 62
    7
 10
249.01724903687418
 20
163.06723063663316
 11
249.06445912279699
 21
163.04874512870518
  0
LINE
  8
_0-0_
  6
CONTINUOUS
 62
    7
 10
249.06445912279699
 20
163.04874512870518
 11
249.1178308776424
 21
163.04397816541345
  0
LINE
  8
_0-0_
  6
CONTINUOUS
 62
    7
 10
249.1178308776424
 20
163.04397816541345
 11
249.17574262764683
 21
163.05307458852542
  0
LINE
  8
_0-0_
  6
CONTINUOUS
 62
    7
 10
249.17574262764683
 20
163.05307458852542
 11
249.23643475359114
 21
163.07575800782783
  0
LINE
  8
_0-0_
  6
CONTINUOUS
 62
    7
 10
249.23643475359114
 20
163.07575800782783
 11
249.29806315594024
 21
163.11133919910353
  0
LINE
  8
_0-0_
  6
CONTINUOUS
 62
    7
 10
249.29806315594024
 20
163.11133919910353
 11
249.35875528687421
 21
163.15873704586059
  0
LINE
  8
_0-0_
  6
CONTINUOUS
 62
    7
 10
249.35875528687421
 20
163.15873704586059
 11
249.41666704670632
 21
163.21651138850976
  0
LINE
  8
_0-0_
  6
CONTINUOUS
 62
    7
 10
249.41666704670632
 20
163.21651138850976
 11
249.47003881591885
 21
163.28290678288482
  0
LINE
  8
_0-0_
  6
CONTINUOUS
 62
    7
 10
249.47003881591885
 20
163.28290678288482
 11
249.51724892031169
 21
163.35590583852544
  0
LINE
  8
_0-0_
  6
CONTINUOUS
 62
    7
 10
249.51724892031169
 20
163.35590583852544
 11
249.55686290475231
 21
163.43329051606526
  0
LINE
  8
_0-0_
  6
CONTINUOUS
 62
    7
 10
249.55686290475231
 20
163.43329051606526
 11
249.58767711836916
 21
163.51270952123576
  0
LINE
  8
_0-0_
  6
CONTINUOUS
 62
    7
 10
249.58767711836916
 20
163.51270952123576
 11
249.60875528687421
 21
163.5917497477528
  0
LINE
  8
_0-0_
  6
CONTINUOUS
 62
    7
 10
249.60875528687421
 20
163.5917497477528
 11
249.61945696078351
 21
163.66800959832995
  0
LINE
  8
_0-0_
  6
CONTINUOUS
 62
    7
 10
249.61945696078351
 20
163.66800959832995
 11
249.61945697515063
 21
163.73917195599674
  0
LINE
  8
_0-0_
  6
CONTINUOUS
 62
    7
 10
249.61945697515063
 20
163.73917195599674
 11
249.60875532953904
 21
163.80307458852539
  0
LINE
  8
_0-0_
  6
CONTINUOUS
 62
    7
 10
249.60875532953904
 20
163.80307458852539
 11
249.58767718803534
 21
163.85777584676279
  0
LINE
  8
_0-0_
  6
CONTINUOUS
 62
    7
 10
249.58767718803534
 20
163.85777584676279
 11
249.55686299930309
 21
163.9016136606576
  0
LINE
  8
_0-0_
  6
CONTINUOUS
 62
    7
 10
249.55686299930309
 20
163.9016136606576
 11
249.51724903687418
 21
163.93325604041758
  0
LINE
  8
_0-0_
  6
CONTINUOUS
 62
    7
 10
249.51724903687418
 20
163.93325604041758
 11
249.51724903687418
 21
163.93325604041758
  0
LINE
  8
_0-0_
  6
CONTINUOUS
 62
    7
 10
248.91453969298266
 20
163.32479757624509
 11
248.91453969298266
 21
163.32479757624509
  0
LINE
  8
_0-0_
  6
CONTINUOUS
 62
    7
 10
248.91453969298266
 20
163.32479757624509
 11
248.97541612344628
 21
163.37102736325218
  0
LINE
  8
_0-0_
  6
CONTINUOUS
 62
    7
 10
248.97541612344628
 20
163.37102736325218
 11
249.03370104172353
 21
163.42779900019102
  0
LINE
  8
_0-0_
  6
CONTINUOUS
 62
    7
 10
249.03370104172353
 20
163.42779900019102
 11
249.08762349006611
 21
163.49338750960106
  0
LINE
  8
_0-0_
  6
CONTINUOUS
 62
    7
 10
249.08762349006611
 20
163.49338750960106
 11
249.13554506216721
 21
163.5658000178133
  0
LINE
  8
_0-0_
  6
CONTINUOUS
 62
    7
 10
249.13554506216721
 20
163.5658000178133
 11
249.17600968530806
 21
163.6428363074082
  0
LINE
  8
_0-0_
  6
CONTINUOUS
 62
    7
 10
249.17600968530806
 20
163.6428363074082
 11
249.20778786239057
 21
163.72215566970863
  0
LINE
  8
_0-0_
  6
CONTINUOUS
 62
    7
 10
249.20778786239057
 20
163.72215566970863
 11
249.22991402958465
 21
163.80134802602862
  0
LINE
  8
_0-0_
  6
CONTINUOUS
 62
    7
 10
249.22991402958465
 20
163.80134802602862
 11
249.24171589449648
 21
163.87800715669471
  0
LINE
  8
_0-0_
  6
CONTINUOUS
 62
    7
 10
249.24171589449648
 20
163.87800715669471
 11
249.24283485204961
 21
163.8934214716285
  0
LINE
  8
_0-0_
  6
CONTINUOUS
 62
    7
 10
271.18556529789851
 20
186.08190907823285
 11
260.9138918572479
 21
180.15155812274497
  0
LINE
  8
_0-0_
  6
CONTINUOUS
 62
    7
 10
269.89176626108662
 20
184.4309350206567
 11
261.52452162113656
 21
179.60010577291649
  0
LINE
  8
_0-0_
  6
CONTINUOUS
 62
    7
 10
269.89176626108662
 20
182.6132800703005
 11
261.95225705443193
 21
178.02940390333828
  0
TEXT
  8
_0-0_
 62
    4
 10
248.04454041932627
 20
173.42898592840424
 40
2
 41
1
 50
29.99998843000002
  1
DC24V　3A
  0
TEXT
  8
_0-0_
 62
    7
 10
251.83148927294178
 20
173.36690479965645
 40
1.6970556814080773
 41
1.1547008075690151
 50
29.999988429999995
  1
SRT
  0
TEXT
  8
_0-0_
 62
    4
 10
273.14935047191204
 20
88.984563802403599
 40
2.5
 41
1
 50
0
  1
DC電源レール用プラグ付きコード
  0
TEXT
  8
_0-0_
 62
    4
 10
273.19831783975206
 20
85.263043846561672
 40
2.5
 41
1
 50
0
  1
DCP　(セラタ製)
  0
TEXT
  8
_0-0_
 62
    7
 10
207.34840215178437
 20
86.384830135334312
 40
2.5
 41
1
 50
0
  1
公差
  0
TEXT
  8
_0-0_
 62
    7
 10
172.70713231051451
 20
86.384830135334312
 40
2.5
 41
1
 50
0
  1
リード線寸法公差
  0
LINE
  8
_0-0_
  6
CONTINUOUS
 62
    7
 10
199.52969665609871
 20
89.817775518701708
 11
199.52969665609871
 21
73.817775518701708
  0
LINE
  8
_0-0_
  6
CONTINUOUS
 62
    7
 10
169.52969665609871
 20
89.817775518701708
 11
169.52969665609871
 21
73.817775518701708
  0
TEXT
  8
_0-0_
 62
    3
 10
252.50035978627784
 20
86.173658361524218
 40
5
 41
1
 50
0
  1
-
  0
LINE
  8
_0-0_
  6
CONTINUOUS
 62
    5
 10
68.55540789596364
 20
159.84600418382053
 11
68.55540789596364
 21
169.13065285520941
  0
LINE
  8
_0-0_
  6
CONTINUOUS
 62
    5
 10
73.55540789596364
 20
159.84600418382053
 11
73.55540789596364
 21
169.13065285520941
  0
LINE
  8
_0-0_
  6
CONTINUOUS
 62
    5
 10
69.755407895963657
 20
168.33065285520939
 11
72.355407895963651
 21
168.33065285520939
  0
INSERT
  2
-000-_DOT
  8
_0-0_
 10
68.55540789596364
 20
168.33065285520939
 41
0.5999999999999995
 42
0.5999999999999995
 50
180
  0
INSERT
  2
-000-_DOT
  8
_0-0_
 10
73.55540789596364
 20
168.33065285520939
 41
0.5999999999999995
 42
0.5999999999999995
 50
0
  0
TEXT
  8
_0-0_
 62
    7
 10
70.18040789596364
 20
169.13065285520941
 40
3.5
 41
1
 50
0
  1
5
  0
POINT
  8
_0-0_
 62
    7
 10
68.55540789596364
 20
159.04600418382051
  0
POINT
  8
_0-0_
 62
    7
 10
73.55540789596364
 20
159.04600418382051
  0
POINT
  8
_0-0_
 62
    7
 10
73.55540789596364
 20
168.33065285520939
  0
LINE
  8
_0-0_
  6
CONTINUOUS
 62
    5
 10
146.69307740148136
 20
155.94600418382049
 11
156.21590806121267
 21
155.94600418382049
  0
LINE
  8
_0-0_
  6
CONTINUOUS
 62
    5
 10
133.49307740148137
 20
165.64600418382054
 11
156.21590806121267
 21
165.64600418382054
  0
LINE
  8
_0-0_
  6
CONTINUOUS
 62
    5
 10
155.41590806121266
 20
157.14600418382054
 11
155.41590806121266
 21
164.44600418382049
  0
INSERT
  2
-000-_DOT
  8
_0-0_
 10
155.41590806121266
 20
155.94600418382049
 41
0.5999999999999995
 42
0.5999999999999995
 50
270
  0
INSERT
  2
-000-_DOT
  8
_0-0_
 10
155.41590806121266
 20
165.64600418382054
 41
0.5999999999999995
 42
0.5999999999999995
 50
90
  0
TEXT
  8
_0-0_
 62
    7
 10
154.61590806121256
 20
158.02100418382059
 40
3.5
 41
1
 50
90
  1
9.7
  0
POINT
  8
_0-0_
 62
    7
 10
145.89307740148135
 20
155.94600418382049
  0
POINT
  8
_0-0_
 62
    7
 10
132.69307740148136
 20
165.64600418382054
  0
POINT
  8
_0-0_
 62
    7
 10
155.41590806121266
 20
165.64600418382054
  0
LINE
  8
_0-0_
  6
CONTINUOUS
 62
    5
 10
112.94307740148136
 20
164.44600418382061
 11
112.94307740148136
 21
171.70803895640751
  0
LINE
  8
_0-0_
  6
CONTINUOUS
 62
    5
 10
120.94307740148136
 20
164.44600418382072
 11
120.94307740148136
 21
171.70803895640751
  0
LINE
  8
_0-0_
  6
CONTINUOUS
 62
    5
 10
119.74307740148137
 20
170.90803895640749
 11
114.14307740148135
 21
170.90803895640749
  0
LINE
  8
_0-0_
  6
CONTINUOUS
 62
    5
 10
112.94307740148136
 20
170.90803895640749
 11
102.11160532026307
 21
170.90803895640749
  0
INSERT
  2
-000-_DOT
  8
_0-0_
 10
120.94307740148136
 20
170.90803895640749
 41
0.5999999999999995
 42
0.5999999999999995
 50
0
  0
INSERT
  2
-000-_DOT
  8
_0-0_
 10
112.94307740148136
 20
170.90803895640749
 41
0.5999999999999995
 42
0.5999999999999995
 50
180
  0
TEXT
  8
_0-0_
 62
    7
 10
109.12645303599916
 20
171.70803895640751
 40
3.5
 41
1
 50
0
  1
8
  0
TEXT
  8
_0-0_
 62
    7
 10
103.43571699538995
 20
171.70803895640751
 40
3.5
 41
1
 50
0
  1
3-
  0
POINT
  8
_0-0_
 62
    7
 10
112.94307740148136
 20
163.64600418382059
  0
POINT
  8
_0-0_
 62
    7
 10
120.94307740148136
 20
163.64600418382071
  0
POINT
  8
_0-0_
 62
    7
 10
120.94307740148136
 20
170.90803895640749
  0
LINE
  8
_0-0_
  6
CONTINUOUS
 62
    5
 10
103.89307740148135
 20
155.94600418382061
 11
98.915399756717051
 21
155.94600418382061
  0
LINE
  8
_0-0_
  6
CONTINUOUS
 62
    5
 10
135.64307740148135
 20
159.64600418382071
 11
98.915399756717051
 21
159.64600418382071
  0
LINE
  8
_0-0_
  6
CONTINUOUS
 62
    5
 10
99.715399756717062
 20
160.8460041838207
 11
99.715399756717062
 21
162.04600418382074
  0
LINE
  8
_0-0_
  6
CONTINUOUS
 62
    5
 10
99.715399756717062
 20
154.74600418382073
 11
99.715399756717062
 21
146.52722245793234
  0
LINE
  8
_0-0_
  6
CONTINUOUS
 62
    5
 10
99.715399756717062
 20
159.64600418382071
 11
99.715399756717062
 21
155.94600418382061
  0
INSERT
  2
-000-_DOT
  8
_0-0_
 10
99.715399756717062
 20
159.64600418382071
 41
0.5999999999999995
 42
0.5999999999999995
 50
270
  0
INSERT
  2
-000-_DOT
  8
_0-0_
 10
99.715399756717062
 20
155.94600418382061
 41
0.5999999999999995
 42
0.5999999999999995
 50
90
  0
TEXT
  8
_0-0_
 62
    7
 10
98.915399756716965
 20
147.41161332087643
 40
3.5
 41
1
 50
90
  1
3.7
  0
POINT
  8
_0-0_
 62
    7
 10
104.69307740148136
 20
155.94600418382061
  0
POINT
  8
_0-0_
 62
    7
 10
136.44307740148136
 20
159.64600418382071
  0
POINT
  8
_0-0_
 62
    7
 10
99.715399756717062
 20
159.64600418382071
  0
LINE
  8
_0-0_
  6
CONTINUOUS
 62
    5
 10
103.89307740148135
 20
155.94600418382061
 11
87.768470408189074
 21
155.94600418382061
  0
LINE
  8
_0-0_
  6
CONTINUOUS
 62
    5
 10
107.14307740148135
 20
143.44600418382061
 11
87.768470408189074
 21
143.44600418382061
  0
LINE
  8
_0-0_
  6
CONTINUOUS
 62
    5
 10
88.568470408189057
 20
154.74600418382073
 11
88.568470408189057
 21
144.64600418382059
  0
INSERT
  2
-000-_DOT
  8
_0-0_
 10
88.568470408189057
 20
155.94600418382061
 41
0.5999999999999995
 42
0.5999999999999995
 50
90
  0
INSERT
  2
-000-_DOT
  8
_0-0_
 10
88.568470408189057
 20
143.44600418382061
 41
0.5999999999999995
 42
0.5999999999999995
 50
270
  0
TEXT
  8
_0-0_
 62
    7
 10
87.768470408188961
 20
146.19600418382072
 40
3.5
 41
1
 50
90
  1
12.5
  0
POINT
  8
_0-0_
 62
    7
 10
104.69307740148136
 20
155.94600418382061
  0
POINT
  8
_0-0_
 62
    7
 10
107.94307740148136
 20
143.44600418382061
  0
POINT
  8
_0-0_
 62
    7
 10
88.568470408189057
 20
143.44600418382061
  0
LINE
  8
_0-0_
  6
CONTINUOUS
 62
    5
 10
103.89307740148135
 20
155.94600418382061
 11
87.768470408189074
 21
155.94600418382061
  0
LINE
  8
_0-0_
  6
CONTINUOUS
 62
    5
 10
113.14307740148135
 20
164.64600418382059
 11
87.768470408189074
 21
164.64600418382059
  0
LINE
  8
_0-0_
  6
CONTINUOUS
 62
    5
 10
88.568470408189057
 20
157.14600418382059
 11
88.568470408189057
 21
163.44600418382061
  0
INSERT
  2
-000-_DOT
  8
_0-0_
 10
88.568470408189057
 20
155.94600418382061
 41
0.5999999999999995
 42
0.5999999999999995
 50
270
  0
INSERT
  2
-000-_DOT
  8
_0-0_
 10
88.568470408189057
 20
164.64600418382059
 41
0.5999999999999995
 42
0.5999999999999995
 50
90
  0
TEXT
  8
_0-0_
 62
    7
 10
87.768470408188961
 20
157.42100418382074
 40
3.5
 41
1
 50
90
  1
8.7
  0
POINT
  8
_0-0_
 62
    7
 10
104.69307740148136
 20
155.94600418382061
  0
POINT
  8
_0-0_
 62
    7
 10
113.94307740148136
 20
164.64600418382059
  0
POINT
  8
_0-0_
 62
    7
 10
88.568470408189057
 20
164.64600418382059
  0
LINE
  8
_0-0_
  6
CONTINUOUS
 62
    5
 10
104.69307740148136
 20
144.64600418382059
 11
104.69307740148136
 21
134.67345628605722
  0
LINE
  8
_0-0_
  6
CONTINUOUS
 62
    5
 10
146.69307740148136
 20
142.64600418382054
 11
146.69307740148136
 21
134.67345628605722
  0
LINE
  8
_0-0_
  6
CONTINUOUS
 62
    5
 10
105.89307740148135
 20
135.47345628605723
 11
145.49307740148137
 21
135.47345628605723
  0
INSERT
  2
-000-_DOT
  8
_0-0_
 10
104.69307740148136
 20
135.47345628605723
 41
0.5999999999999995
 42
0.5999999999999995
 50
180
  0
INSERT
  2
-000-_DOT
  8
_0-0_
 10
146.69307740148136
 20
135.47345628605723
 41
0.5999999999999995
 42
0.5999999999999995
 50
0
  0
TEXT
  8
_0-0_
 62
    7
 10
123.94307740148136
 20
136.27345628605724
 40
3.5
 41
1
 50
0
  1
42
  0
POINT
  8
_0-0_
 62
    7
 10
104.69307740148136
 20
145.44600418382061
  0
POINT
  8
_0-0_
 62
    7
 10
146.69307740148136
 20
143.44600418382049
  0
POINT
  8
_0-0_
 62
    7
 10
146.69307740148136
 20
135.47345628605723
  0
LINE
  8
_0-0_
  6
CONTINUOUS
 62
    5
 10
135.94307740148136
 20
201.76533915960647
 11
135.94307740148136
 21
189.35805626514082
  0
LINE
  8
_0-0_
  6
CONTINUOUS
 62
    5
 10
141.94307740148136
 20
201.76533915960647
 11
141.94307740148136
 21
189.35805626514082
  0
LINE
  8
_0-0_
  6
CONTINUOUS
 62
    5
 10
137.14307740148135
 20
190.15805626514077
 11
140.74307740148137
 21
190.15805626514077
  0
LINE
  8
_0-0_
  6
CONTINUOUS
 62
    5
 10
141.94307740148136
 20
190.15805626514077
 11
146.64409262990768
 21
190.15805626514077
  0
INSERT
  2
-000-_DOT
  8
_0-0_
 10
135.94307740148136
 20
190.15805626514077
 41
0.5999999999999995
 42
0.5999999999999995
 50
180
  0
INSERT
  2
-000-_DOT
  8
_0-0_
 10
141.94307740148136
 20
190.15805626514077
 41
0.5999999999999995
 42
0.5999999999999995
 50
0
  0
TEXT
  8
_0-0_
 62
    7
 10
144.01858501569455
 20
190.95805626514061
 40
3.5
 41
1
 50
0
  1
6
  0
POINT
  8
_0-0_
 62
    7
 10
135.94307740148136
 20
202.56533915960654
  0
POINT
  8
_0-0_
 62
    7
 10
141.94307740148136
 20
202.56533915960654
  0
POINT
  8
_0-0_
 62
    7
 10
141.94307740148136
 20
190.15805626514077
  0
LINE
  8
_0-0_
  6
CONTINUOUS
 62
    5
 10
154.69307740148136
 20
207.86533915960638
 11
154.69307740148136
 21
224.50141830769894
  0
LINE
  8
_0-0_
  6
CONTINUOUS
 62
    5
 10
208.12384519804203
 20
208.06533915960654
 11
208.12384519804203
 21
224.50141830769894
  0
LINE
  8
_0-0_
  6
CONTINUOUS
 62
    5
 10
155.89307740148135
 20
223.70141830769887
 11
206.92384519804205
 21
223.70141830769887
  0
INSERT
  2
-000-_DOT
  8
_0-0_
 10
154.69307740148136
 20
223.70141830769887
 41
0.5999999999999995
 42
0.5999999999999995
 50
180
  0
INSERT
  2
-000-_DOT
  8
_0-0_
 10
208.12384519804203
 20
223.70141830769887
 41
0.5999999999999995
 42
0.5999999999999995
 50
0
  0
TEXT
  8
_0-0_
 62
    7
 10
182.11631352746429
 20
224.50141830769883
 40
3.5
 41
1
 50
0
  1
L
  0
POINT
  8
_0-0_
 62
    7
 10
154.69307740148136
 20
207.06533915960654
  0
POINT
  8
_0-0_
 62
    7
 10
208.12384519804203
 20
207.26533915960647
  0
POINT
  8
_0-0_
 62
    7
 10
208.12384519804203
 20
223.70141830769887
  0
LINE
  8
_0-0_
  6
CONTINUOUS
 62
    5
 10
104.69307740148136
 20
205.36533915960638
 11
104.69307740148136
 21
224.50141830769894
  0
LINE
  8
_0-0_
  6
CONTINUOUS
 62
    5
 10
154.69307740148136
 20
207.86533915960638
 11
154.69307740148136
 21
224.50141830769894
  0
LINE
  8
_0-0_
  6
CONTINUOUS
 62
    5
 10
105.89307740148135
 20
223.70141830769887
 11
153.49307740148137
 21
223.70141830769887
  0
INSERT
  2
-000-_DOT
  8
_0-0_
 10
104.69307740148136
 20
223.70141830769887
 41
0.5999999999999995
 42
0.5999999999999995
 50
180
  0
INSERT
  2
-000-_DOT
  8
_0-0_
 10
154.69307740148136
 20
223.70141830769887
 41
0.5999999999999995
 42
0.5999999999999995
 50
0
  0
TEXT
  8
_0-0_
 62
    7
 10
127.94307740148136
 20
224.50141830769883
 40
3.5
 41
1
 50
0
  1
50
  0
POINT
  8
_0-0_
 62
    7
 10
104.69307740148136
 20
204.56533915960642
  0
POINT
  8
_0-0_
 62
    7
 10
154.69307740148136
 20
207.06533915960654
  0
POINT
  8
_0-0_
 62
    7
 10
154.69307740148136
 20
223.70141830769887
  0
LINE
  8
_0-0_
  6
CONTINUOUS
 62
    5
 10
112.14307740148135
 20
208.16533915960645
 11
100.41888891283787
 21
208.16533915960645
  0
LINE
  8
_0-0_
  6
CONTINUOUS
 62
    5
 10
112.14307740148135
 20
208.96533915960629
 11
100.41888891283787
 21
208.96533915960629
  0
LINE
  8
_0-0_
  6
CONTINUOUS
 62
    5
 10
101.21888891283797
 20
206.9653391596064
 11
101.21888891283797
 21
205.76533915960647
  0
LINE
  8
_0-0_
  6
CONTINUOUS
 62
    5
 10
101.21888891283797
 20
210.16533915960645
 11
101.21888891283797
 21
230.10747499048375
  0
LINE
  8
_0-0_
  6
CONTINUOUS
 62
    5
 10
101.21888891283797
 20
208.16533915960645
 11
101.21888891283797
 21
208.96533915960629
  0
INSERT
  2
-000-_DOT
  8
_0-0_
 10
101.21888891283797
 20
208.16533915960645
 41
0.5999999999999995
 42
0.5999999999999995
 50
90
  0
INSERT
  2
-000-_DOT
  8
_0-0_
 10
101.21888891283797
 20
208.96533915960629
 41
0.5999999999999995
 42
0.5999999999999995
 50
270
  0
TEXT
  8
_0-0_
 62
    7
 10
100.41888891283787
 20
223.9286678838846
 40
3.5
 41
1
 50
90
  1
0.8
  0
TEXT
  8
_0-0_
 62
    7
 10
100.41888891283787
 20
216.43019072652419
 40
3.5
 41
1
 50
90
  1
3-t
  0
POINT
  8
_0-0_
 62
    7
 10
112.94307740148136
 20
208.16533915960645
  0
POINT
  8
_0-0_
 62
    7
 10
112.94307740148136
 20
208.96533915960629
  0
POINT
  8
_0-0_
 62
    7
 10
101.21888891283797
 20
208.96533915960629
  0
LINE
  8
_0-0_
  6
CONTINUOUS
 62
    5
 10
118.39307740148135
 20
194.56533915960654
 11
88.282204694477855
 21
194.56533915960654
  0
LINE
  8
_0-0_
  6
CONTINUOUS
 62
    5
 10
118.39307740148135
 20
214.56533915960654
 11
88.282204694477855
 21
214.56533915960654
  0
LINE
  8
_0-0_
  6
CONTINUOUS
 62
    5
 10
89.082204694477866
 20
195.76533915960647
 11
89.082204694477866
 21
213.36533915960649
  0
INSERT
  2
-000-_DOT
  8
_0-0_
 10
89.082204694477866
 20
194.56533915960654
 41
0.5999999999999995
 42
0.5999999999999995
 50
270
  0
INSERT
  2
-000-_DOT
  8
_0-0_
 10
89.082204694477866
 20
214.56533915960654
 41
0.5999999999999995
 42
0.5999999999999995
 50
90
  0
TEXT
  8
_0-0_
 62
    7
 10
88.28220469447777
 20
202.81533915960642
 40
3.5
 41
1
 50
90
  1
20
  0
POINT
  8
_0-0_
 62
    7
 10
119.19307740148136
 20
194.56533915960654
  0
POINT
  8
_0-0_
 62
    7
 10
119.19307740148136
 20
214.56533915960654
  0
POINT
  8
_0-0_
 62
    7
 10
89.082204694477866
 20
214.56533915960654
  0
LINE
  8
_0-0_
  6
CONTINUOUS
 62
    5
 10
124.89307740148135
 20
204.56533915960642
 11
95.275816591304874
 21
204.56533915960642
  0
LINE
  8
_0-0_
  6
CONTINUOUS
 62
    5
 10
112.14307740148135
 20
200.56533915960642
 11
95.275816591304874
 21
200.56533915960642
  0
LINE
  8
_0-0_
  6
CONTINUOUS
 62
    5
 10
96.075816591304971
 20
205.76533915960647
 11
96.075816591304971
 21
206.9653391596064
  0
LINE
  8
_0-0_
  6
CONTINUOUS
 62
    5
 10
96.075816591304971
 20
199.36533915960626
 11
96.075816591304971
 21
198.16533915960645
  0
LINE
  8
_0-0_
  6
CONTINUOUS
 62
    5
 10
96.075816591304971
 20
204.56533915960642
 11
96.075816591304971
 21
200.56533915960642
  0
INSERT
  2
-000-_DOT
  8
_0-0_
 10
96.075816591304971
 20
204.56533915960642
 41
0.5999999999999995
 42
0.5999999999999995
 50
270
  0
INSERT
  2
-000-_DOT
  8
_0-0_
 10
96.075816591304971
 20
200.56533915960642
 41
0.5999999999999995
 42
0.5999999999999995
 50
90
  0
TEXT
  8
_0-0_
 62
    7
 10
95.275816591304874
 20
201.69033915960642
 40
3.5
 41
1
 50
90
  1
4
  0
POINT
  8
_0-0_
 62
    7
 10
125.69307740148136
 20
204.56533915960642
  0
POINT
  8
_0-0_
 62
    7
 10
112.94307740148136
 20
200.56533915960642
  0
POINT
  8
_0-0_
 62
    7
 10
96.075816591304971
 20
200.56533915960642
  0
LINE
  8
_0-0_
  6
CONTINUOUS
 62
    5
 10
121.94307740148136
 20
201.64033915960647
 11
121.94307740148136
 21
187.17890701772717
  0
LINE
  8
_0-0_
  6
CONTINUOUS
 62
    5
 10
109.94307740148136
 20
201.64033915960647
 11
109.94307740148136
 21
187.17890701772717
  0
LINE
  8
_0-0_
  6
CONTINUOUS
 62
    5
 10
120.74307740148137
 20
187.97890701772724
 11
111.14307740148126
 21
187.97890701772724
  0
LINE
  8
_0-0_
  6
CONTINUOUS
 62
    5
 10
109.94307740148136
 20
187.97890701772724
 11
102.91465100554225
 21
187.97890701772724
  0
INSERT
  2
-000-_DOT
  8
_0-0_
 10
121.94307740148136
 20
187.97890701772724
 41
0.5999999999999995
 42
0.5999999999999995
 50
0
  0
INSERT
  2
-000-_DOT
  8
_0-0_
 10
109.94307740148136
 20
187.97890701772724
 41
0.5999999999999995
 42
0.5999999999999995
 50
180
  0
TEXT
  8
_0-0_
 62
    7
 10
104.07886420351176
 20
188.77890701772719
 40
3.5
 41
1
 50
0
  1
12
  0
POINT
  8
_0-0_
 62
    7
 10
121.94307740148136
 20
202.44033915960654
  0
POINT
  8
_0-0_
 62
    7
 10
109.94307740148136
 20
202.44033915960654
  0
POINT
  8
_0-0_
 62
    7
 10
109.94307740148136
 20
187.97890701772724
  0
LINE
  8
_0-0_
  6
CONTINUOUS
 62
    5
 10
115.94307740148136
 20
201.14033915960647
 11
115.94307740148136
 21
182.95980923100365
  0
LINE
  8
_0-0_
  6
CONTINUOUS
 62
    5
 10
138.94307740148136
 20
201.26533915960647
 11
138.94307740148136
 21
182.95980923100365
  0
LINE
  8
_0-0_
  6
CONTINUOUS
 62
    5
 10
117.14307740148126
 20
183.7598092310036
 11
137.74307740148137
 21
183.7598092310036
  0
INSERT
  2
-000-_DOT
  8
_0-0_
 10
115.94307740148136
 20
183.7598092310036
 41
0.5999999999999995
 42
0.5999999999999995
 50
180
  0
INSERT
  2
-000-_DOT
  8
_0-0_
 10
138.94307740148136
 20
183.7598092310036
 41
0.5999999999999995
 42
0.5999999999999995
 50
0
  0
TEXT
  8
_0-0_
 62
    7
 10
125.69307740148136
 20
184.55980923100356
 40
3.5
 41
1
 50
0
  1
23
  0
POINT
  8
_0-0_
 62
    7
 10
115.94307740148136
 20
201.94033915960642
  0
POINT
  8
_0-0_
 62
    7
 10
138.94307740148136
 20
202.06533915960654
  0
POINT
  8
_0-0_
 62
    7
 10
138.94307740148136
 20
183.7598092310036
  0
ENDSEC
  0
EOF
