  0
SECTION
  2
HEADER
  9
$ACADVER
  1
AC1009
  9
$INSBASE
 10
0
 20
0
 30
0
  9
$EXTMIN
 10
0
 20
0
  9
$EXTMAX
 10
420
 20
297
  9
$LIMMIN
 10
0
 20
0
  9
$LIMMAX
 10
420
 20
297
  9
$LTSCALE
 40
1
  0
ENDSEC
  0
SECTION
  2
TABLES
  0
TABLE
  2
LTYPE
 70
     9
  0
LTYPE
  2
CONTINUOUS
 70
    64
  3
実線
 72
    65
 73
     0
 40
0.0
  0
LTYPE
  2
DASHED1
 70
    64
  3
--  --  --  --  --  --  --  --  
 72
    65
 73
     2
 40
2.5
 49
1.25
 49
-1.25
  0
LTYPE
  2
DASHED2
 70
    64
  3
----    ----    ----    ----    
 72
    65
 73
     2
 40
5.0
 49
2.5
 49
-2.5
  0
LTYPE
  2
DASHED3
 70
    64
  3
------  ------  ------  ------  
 72
    65
 73
     2
 40
5.0
 49
3.75
 49
-1.25
  0
LTYPE
  2
CENTER1
 70
    64
  3
----- - ----- - ----- - ----- - 
 72
    65
 73
     4
 40
10.0
 49
6.25
 49
-1.25
 49
1.25
 49
-1.25
  0
LTYPE
  2
CENTER2
 70
    64
  3
----------  --  ----------  --  
 72
    65
 73
     4
 40
20.0
 49
12.5
 49
-2.5
 49
2.5
 49
-2.5
  0
LTYPE
  2
PHANTOM1
 70
    64
  3
--- - - --- - - --- - - --- - - 
 72
    65
 73
     6
 40
10.0
 49
3.25
 49
-1.25
 49
1.25
 49
-1.25
 49
1.25
 49
-1.25
  0
LTYPE
  2
PHANTOM2
 70
    64
  3
--------  -  -  --------  -  -  
 72
    65
 73
     6
 40
20.0
 49
10.0
 49
-2.5
 49
1.25
 49
-2.5
 49
1.25
 49
-2.5
  0
LTYPE
  2
DOT
 70
    64
  3
-   -   -   -   -   -   -   -   
 72
    65
 73
     2
 40
2.5
 49
0.625
 49
-1.875
  0
LTYPE
  2
DUMMY
 70
    64
  3
ダミー
 72
    65
 73
     0
 40
0.0
  0
LTYPE
  2
RAND1
 70
    64
  3
ランダム線1
 72
    65
 73
     4
 40
10.0
 49
1.0
 49
-2.0
 49
3.0
 49
-4.0
  0
LTYPE
  2
RAND2
 70
    64
  3
ランダム線2
 72
    65
 73
     4
 40
14.0
 49
2.0
 49
-3.0
 49
4.0
 49
-5.0
  0
LTYPE
  2
RAND3
 70
    64
  3
ランダム線3
 72
    65
 73
     4
 40
18.0
 49
3.0
 49
-4.0
 49
5.0
 49
-6.0
  0
LTYPE
  2
RAND4
 70
    64
  3
ランダム線4
 72
    65
 73
     4
 40
22.0
 49
4.0
 49
-5.0
 49
6.0
 49
-7.0
  0
LTYPE
  2
RAND5
 70
    64
  3
ランダム線5
 72
    65
 73
     4
 40
26.0
 49
5.0
 49
-6.0
 49
7.0
 49
-8.0
  0
LTYPE
  2
LONG1
 70
    64
  3
----------  --  ----------  --  
 72
    65
 73
     4
 40
40.0
 49
32.5
 49
-2.5
 49
2.5
 49
-2.5
  0
LTYPE
  2
LONG2
 70
    64
  3
--------  -  -  --------  -  -  
 72
    65
 73
     6
 40
40.0
 49
30.0
 49
-2.5
 49
1.25
 49
-2.5
 49
1.25
 49
-2.5
  0
LTYPE
  2
LONG3
 70
    64
  3
+++++++++++++++..+++++++++++++++
 72
    65
 73
     2
 40
40.0
 49
37.5
 49
-2.5
  0
LTYPE
  2
LONG4
 70
    64
  3
+++++++++++++++..+++++++++++++++
 72
    65
 73
     2
 40
80.0
 49
75.0
 49
-5.0
  0
LTYPE
  2
LONG5
 70
    64
  3
----------  --  ----------  --  
 72
    65
 73
     4
 40
60.0
 49
37.5
 49
-7.5
 49
7.5
 49
-7.5
  0
LTYPE
  2
dashed
 70
   64
  3
-------   -------------   ------
 72
   65
 73
    2
 40
7.5
 49
6
 49
-1.5
  0
LTYPE
  2
dashed_spaced
 70
   64
  3
----        --------        ----
 72
   65
 73
    2
 40
12
 49
6
 49
-6
  0
LTYPE
  2
long_dashed_dotted
 70
   64
  3
------------- --- --------------
 72
   65
 73
    4
 40
15.25
 49
12
 49
-1.5
 49
0.25
 49
-1.5
  0
LTYPE
  2
long_dashed_double-dotted
 70
   64
  3
----------- --- --- ------------
 72
   65
 73
    6
 40
17
 49
12
 49
-1.5
 49
0.25
 49
-1.5
 49
0.25
 49
-1.5
  0
LTYPE
  2
long_dashed_triplicate-dotted
 70
   64
  3
--------- --- --- --- ----------
 72
   65
 73
    8
 40
18.75
 49
12
 49
-1.5
 49
0.25
 49
-1.5
 49
0.25
 49
-1.5
 49
0.25
 49
-1.5
  0
LTYPE
  2
dotted
 70
   64
  3
   -       -       -       -    
 72
   65
 73
    2
 40
1.75
 49
0.25
 49
-1.5
  0
LTYPE
  2
chain
 70
   64
  3
-------------- -- --------------
 72
   65
 73
    4
 40
18.5
 49
12
 49
-1.5
 49
3.5
 49
-1.5
  0
LTYPE
  2
chain_double_dash
 70
   64
  3
------------ -- -- -------------
 72
   65
 73
    6
 40
23.5
 49
12
 49
-1.5
 49
3.5
 49
-1.5
 49
3.5
 49
-1.5
  0
LTYPE
  2
dashed_dotted
 70
   64
  3
-----------     -     ----------
 72
   65
 73
    4
 40
9.25
 49
6
 49
-1.5
 49
0.25
 49
-1.5
  0
LTYPE
  2
double-dashed_dotted
 70
   64
  3
------   -----------   -   -----
 72
   65
 73
    6
 40
16.75
 49
6
 49
-1.5
 49
6
 49
-1.5
 49
0.25
 49
-1.5
  0
LTYPE
  2
dashed_double-dotted
 70
   64
  3
---------    -    -    ---------
 72
   65
 73
    6
 40
11
 49
6
 49
-1.5
 49
0.25
 49
-1.5
 49
0.25
 49
-1.5
  0
LTYPE
  2
double-dashed_double-dotted
 70
   64
  3
-----   ---------   -   -   ----
 72
   65
 73
    8
 40
18.5
 49
6
 49
-1.5
 49
6
 49
-1.5
 49
0.25
 49
-1.5
 49
0.25
 49
-1.5
  0
LTYPE
  2
dashed_triplicate-dotted
 70
   64
  3
-------    -    -    -    ------
 72
   65
 73
    8
 40
12.75
 49
6
 49
-1.5
 49
0.25
 49
-1.5
 49
0.25
 49
-1.5
 49
0.25
 49
-1.5
  0
LTYPE
  2
double-dashed_triplicate-dotted
 70
   64
  3
-----  ---------  -  -  -  -----
 72
   65
 73
   10
 40
20.25
 49
6
 49
-1.5
 49
6
 49
-1.5
 49
0.25
 49
-1.5
 49
0.25
 49
-1.5
 49
0.25
 49
-1.5
  0
LTYPE
  2
undefined
 70
   64
  3
--------------------------------
 72
   65
 73
    0
 40
0
  0
LTYPE
  2
_
 70
   64
  3
                                
 72
   65
 73
    0
 40
0
  0
LTYPE
  2
__18
 70
   64
  3
                                
 72
   65
 73
    0
 40
0
  0
LTYPE
  2
__19
 70
   64
  3
                                
 72
   65
 73
    0
 40
0
  0
LTYPE
  2
__20
 70
   64
  3
                                
 72
   65
 73
    0
 40
0
  0
LTYPE
  2
__21
 70
   64
  3
                                
 72
   65
 73
    0
 40
0
  0
LTYPE
  2
__22
 70
   64
  3
                                
 72
   65
 73
    0
 40
0
  0
LTYPE
  2
__23
 70
   64
  3
                                
 72
   65
 73
    0
 40
0
  0
LTYPE
  2
__24
 70
   64
  3
                                
 72
   65
 73
    0
 40
0
  0
LTYPE
  2
__25
 70
   64
  3
                                
 72
   65
 73
    0
 40
0
  0
LTYPE
  2
__26
 70
   64
  3
                                
 72
   65
 73
    0
 40
0
  0
LTYPE
  2
__27
 70
   64
  3
                                
 72
   65
 73
    0
 40
0
  0
LTYPE
  2
__28
 70
   64
  3
                                
 72
   65
 73
    0
 40
0
  0
LTYPE
  2
__29
 70
   64
  3
                                
 72
   65
 73
    0
 40
0
  0
LTYPE
  2
__30
 70
   64
  3
                                
 72
   65
 73
    0
 40
0
  0
LTYPE
  2
__31
 70
   64
  3
                                
 72
   65
 73
    0
 40
0
  0
LTYPE
  2
__32
 70
   64
  3
                                
 72
   65
 73
    0
 40
0
  0
ENDTAB
  0
TABLE
  2
STYLE
  5
3
100
AcDbSymbolTable
 70
     1
  0
STYLE
  5
10
100
AcDbSymbolTableRecord
100
AcDbTextStyleTableRecord
  2
STANDARD
 70
     0
 40
0.0
 41
1.0
 50
0.0
 71
     0
 42
0.2
  3
txt
  4
bigfont.shx
  0
STYLE
  5
26
100
AcDbSymbolTableRecord
100
AcDbTextStyleTableRecord
  2
TATEGAKI
 70
    68
 40
0.0
 41
1.0
 50
0.0
 71
     0
 42
1.0
  3
txt
  4
bigfont.shx
  0
ENDTAB
  0
TABLE
  2
LAYER
 70
    4
  0
LAYER
  2
_0-0_0
 70
   64
 62
    7
  6
CONTINUOUS
  0
LAYER
  2
_0-7_7
 70
   64
 62
    7
  6
CONTINUOUS
  0
LAYER
  2
_f-a_250
 70
   64
 62
    7
  6
CONTINUOUS
  0
LAYER
  2
ADD_LINE
 70
   64
 62
    7
  6
CONTINUOUS
  0
ENDTAB
  0
ENDSEC
  0
SECTION
  2
BLOCKS
  0
ENDSEC
  0
SECTION
  2
ENTITIES
  0
LINE
  8
_f-a_250
  6
CONTINUOUS
 62
  250
 10
155.29107719052649
 20
118.58027184529585
 11
155.47510057080598
 21
118.51983273549334
  0
LINE
  8
_0-7_7
  6
CONTINUOUS
 62
    7
 10
338.89887625585658
 20
232.63559627064575
 11
338.99274165044858
 21
232.55150603779671
  0
LINE
  8
_0-0_0
  6
CONTINUOUS
 62
    7
 10
301.45721728216256
 20
213.72788238057024
 11
301.52888590704055
 21
213.75623034962524
  0
LINE
  8
_0-0_0
  6
CONTINUOUS
 62
    7
 10
301.52888590704055
 20
213.75623034962524
 11
301.55253703008708
 21
213.76755523213274
  0
LINE
  8
_0-0_0
  6
CONTINUOUS
 62
    7
 10
301.55253703008708
 20
213.76755523213274
 11
301.57647425542905
 21
213.77840327748171
  0
LINE
  8
_0-0_0
  6
CONTINUOUS
 62
    7
 10
301.57647425542905
 20
213.77840327748171
 11
301.60069758306605
 21
213.78886985310425
  0
LINE
  8
_0-0_0
  6
CONTINUOUS
 62
    7
 10
301.60069758306605
 20
213.78886985310425
 11
301.62515932928159
 21
213.79883574971072
  0
LINE
  8
_0-0_0
  6
CONTINUOUS
 62
    7
 10
301.62515932928159
 20
213.79883574971072
 11
301.64993101965007
 21
213.80832480915925
  0
LINE
  8
_0-0_0
  6
CONTINUOUS
 62
    7
 10
301.64993101965007
 20
213.80832480915925
 11
301.67494112859805
 21
213.81731318959123
  0
LINE
  8
_0-0_0
  6
CONTINUOUS
 62
    7
 10
301.67494112859805
 20
213.81731318959123
 11
301.70014197240909
 21
213.8257770491492
  0
LINE
  8
_0-0_0
  6
CONTINUOUS
 62
    7
 10
301.70014197240909
 20
213.8257770491492
 11
301.7256289185151
 21
213.83371638783325
  0
LINE
  8
_0-0_0
  6
CONTINUOUS
 62
    7
 10
301.7256289185151
 20
213.83371638783325
 11
301.75130659948405
 21
213.84108352192771
  0
LINE
  8
_0-0_0
  6
CONTINUOUS
 62
    7
 10
301.75130659948405
 20
213.84108352192771
 11
301.7771988571746
 21
213.84787845143174
  0
LINE
  8
_0-0_0
  6
CONTINUOUS
 62
    7
 10
301.7771988571746
 20
213.84787845143174
 11
302.03206831823405
 21
213.89169978627075
  0
LINE
  8
_0-0_0
  6
CONTINUOUS
 62
    7
 10
302.03206831823405
 20
213.89169978627075
 11
302.2859125794036
 21
213.88805198201072
  0
LINE
  8
_0-0_0
  6
CONTINUOUS
 62
    7
 10
302.2859125794036
 20
213.88805198201072
 11
302.53458315740659
 21
213.83972453602672
  0
LINE
  8
_0-0_0
  6
CONTINUOUS
 62
    7
 10
302.53458315740659
 20
213.83972453602672
 11
302.77395541082456
 21
213.74957847126819
  0
LINE
  8
_0-0_0
  6
CONTINUOUS
 62
    7
 10
302.77395541082456
 20
213.74957847126819
 11
302.99992854009707
 21
213.62042712696922
  0
LINE
  8
_0-0_0
  6
CONTINUOUS
 62
    7
 10
302.99992854009707
 20
213.62042712696922
 11
303.20833022008958
 21
213.45503615864624
  0
LINE
  8
_0-0_0
  6
CONTINUOUS
 62
    7
 10
303.20833022008958
 20
213.45503615864624
 11
303.39505965124204
 21
213.2562904311072
  0
LINE
  8
_0-0_0
  6
CONTINUOUS
 62
    7
 10
303.39505965124204
 20
213.2562904311072
 11
303.55596835027757
 21
213.02695559986924
  0
LINE
  8
_0-0_0
  6
CONTINUOUS
 62
    7
 10
303.55596835027757
 20
213.02695559986924
 11
303.68697935949405
 21
212.7698688460242
  0
LINE
  8
_0-0_0
  6
CONTINUOUS
 62
    7
 10
303.68697935949405
 20
212.7698688460242
 11
303.78389651189906
 21
212.48789119252075
  0
LINE
  8
_0-0_0
  6
CONTINUOUS
 62
    7
 10
303.78389651189906
 20
212.48789119252075
 11
303.83494192968453
 21
212.23988818653919
  0
LINE
  8
_0-0_0
  6
CONTINUOUS
 62
    7
 10
303.83494192968453
 20
212.23988818653919
 11
303.85599429021909
 21
211.9947223616492
  0
LINE
  8
_0-0_0
  6
CONTINUOUS
 62
    7
 10
303.85599429021909
 20
211.9947223616492
 11
303.84829337011411
 21
211.75504016407822
  0
LINE
  8
_0-0_0
  6
CONTINUOUS
 62
    7
 10
303.84829337011411
 20
211.75504016407822
 11
303.81312662969657
 21
211.52360724934474
  0
LINE
  8
_0-0_0
  6
CONTINUOUS
 62
    7
 10
303.81312662969657
 20
211.52360724934474
 11
303.75180537115159
 21
211.30311774739121
  0
LINE
  8
_0-0_0
  6
CONTINUOUS
 62
    7
 10
303.75180537115159
 20
211.30311774739121
 11
303.66556937109056
 21
211.09628963002075
  0
LINE
  8
_0-0_0
  6
CONTINUOUS
 62
    7
 10
303.66556937109056
 20
211.09628963002075
 11
303.55570608984056
 21
210.90576934346072
  0
LINE
  8
_0-0_0
  6
CONTINUOUS
 62
    7
 10
303.55570608984056
 20
210.90576934346072
 11
303.42350298772908
 21
210.7343463850867
  0
LINE
  8
_0-0_0
  6
CONTINUOUS
 62
    7
 10
303.42350298772908
 20
210.7343463850867
 11
303.27024752508254
 21
210.58473872670075
  0
LINE
  8
_0-0_0
  6
CONTINUOUS
 62
    7
 10
303.27024752508254
 20
210.58473872670075
 11
303.09722716222853
 21
210.4595689726722
  0
LINE
  8
_0-0_0
  6
CONTINUOUS
 62
    7
 10
303.09722716222853
 20
210.4595689726722
 11
303.06222731481603
 21
210.4312210036172
  0
LINE
  8
_0-7_7
  6
CONTINUOUS
 62
    7
 10
301.45721728216256
 20
213.72788238057024
 11
301.52888590704055
 21
213.75623034962524
  0
LINE
  8
_0-7_7
  6
CONTINUOUS
 62
    7
 10
301.52888590704055
 20
213.75623034962524
 11
301.55253703008708
 21
213.76755523213274
  0
LINE
  8
_0-7_7
  6
CONTINUOUS
 62
    7
 10
301.55253703008708
 20
213.76755523213274
 11
301.57647425542905
 21
213.77840327748171
  0
LINE
  8
_0-7_7
  6
CONTINUOUS
 62
    7
 10
301.57647425542905
 20
213.77840327748171
 11
301.60069758306605
 21
213.78886985310425
  0
LINE
  8
_0-7_7
  6
CONTINUOUS
 62
    7
 10
301.60069758306605
 20
213.78886985310425
 11
301.62515932928159
 21
213.79883574971072
  0
LINE
  8
_0-7_7
  6
CONTINUOUS
 62
    7
 10
301.62515932928159
 20
213.79883574971072
 11
301.64993101965007
 21
213.80832480915925
  0
LINE
  8
_0-7_7
  6
CONTINUOUS
 62
    7
 10
301.64993101965007
 20
213.80832480915925
 11
301.67494112859805
 21
213.81731318959123
  0
LINE
  8
_0-7_7
  6
CONTINUOUS
 62
    7
 10
301.67494112859805
 20
213.81731318959123
 11
301.70014197240909
 21
213.8257770491492
  0
LINE
  8
_0-7_7
  6
CONTINUOUS
 62
    7
 10
301.70014197240909
 20
213.8257770491492
 11
301.7256289185151
 21
213.83371638783325
  0
LINE
  8
_0-7_7
  6
CONTINUOUS
 62
    7
 10
301.7256289185151
 20
213.83371638783325
 11
301.75130659948405
 21
213.84108352192771
  0
LINE
  8
_0-7_7
  6
CONTINUOUS
 62
    7
 10
301.75130659948405
 20
213.84108352192771
 11
301.7771988571746
 21
213.84787845143174
  0
LINE
  8
_0-7_7
  6
CONTINUOUS
 62
    7
 10
301.7771988571746
 20
213.84787845143174
 11
302.03206831823405
 21
213.89169978627075
  0
LINE
  8
_0-7_7
  6
CONTINUOUS
 62
    7
 10
302.03206831823405
 20
213.89169978627075
 11
302.2859125794036
 21
213.88805198201072
  0
LINE
  8
_0-7_7
  6
CONTINUOUS
 62
    7
 10
302.2859125794036
 20
213.88805198201072
 11
302.53458315740659
 21
213.83972453602672
  0
LINE
  8
_0-7_7
  6
CONTINUOUS
 62
    7
 10
302.53458315740659
 20
213.83972453602672
 11
302.77395541082456
 21
213.74957847126819
  0
LINE
  8
_0-7_7
  6
CONTINUOUS
 62
    7
 10
302.77395541082456
 20
213.74957847126819
 11
302.99992854009707
 21
213.62042712696922
  0
LINE
  8
_0-7_7
  6
CONTINUOUS
 62
    7
 10
302.99992854009707
 20
213.62042712696922
 11
303.20833022008958
 21
213.45503615864624
  0
LINE
  8
_0-7_7
  6
CONTINUOUS
 62
    7
 10
303.20833022008958
 20
213.45503615864624
 11
303.39505965124204
 21
213.2562904311072
  0
LINE
  8
_0-7_7
  6
CONTINUOUS
 62
    7
 10
303.39505965124204
 20
213.2562904311072
 11
303.55596835027757
 21
213.02695559986924
  0
LINE
  8
_0-7_7
  6
CONTINUOUS
 62
    7
 10
303.55596835027757
 20
213.02695559986924
 11
303.68697935949405
 21
212.7698688460242
  0
LINE
  8
_0-7_7
  6
CONTINUOUS
 62
    7
 10
303.68697935949405
 20
212.7698688460242
 11
303.78389651189906
 21
212.48789119252075
  0
LINE
  8
_0-7_7
  6
CONTINUOUS
 62
    7
 10
303.78389651189906
 20
212.48789119252075
 11
303.83494192968453
 21
212.23988818653919
  0
LINE
  8
_0-7_7
  6
CONTINUOUS
 62
    7
 10
303.83494192968453
 20
212.23988818653919
 11
303.85599429021909
 21
211.9947223616492
  0
LINE
  8
_0-7_7
  6
CONTINUOUS
 62
    7
 10
303.85599429021909
 20
211.9947223616492
 11
303.84829337011411
 21
211.75504016407822
  0
LINE
  8
_0-7_7
  6
CONTINUOUS
 62
    7
 10
303.84829337011411
 20
211.75504016407822
 11
303.81312662969657
 21
211.52360724934474
  0
LINE
  8
_0-7_7
  6
CONTINUOUS
 62
    7
 10
303.81312662969657
 20
211.52360724934474
 11
303.75180537115159
 21
211.30311774739121
  0
LINE
  8
_0-7_7
  6
CONTINUOUS
 62
    7
 10
303.75180537115159
 20
211.30311774739121
 11
303.66556937109056
 21
211.09628963002075
  0
LINE
  8
_0-7_7
  6
CONTINUOUS
 62
    7
 10
303.66556937109056
 20
211.09628963002075
 11
303.55570608984056
 21
210.90576934346072
  0
LINE
  8
_0-7_7
  6
CONTINUOUS
 62
    7
 10
303.55570608984056
 20
210.90576934346072
 11
303.42350298772908
 21
210.7343463850867
  0
LINE
  8
_0-7_7
  6
CONTINUOUS
 62
    7
 10
303.42350298772908
 20
210.7343463850867
 11
303.27024752508254
 21
210.58473872670075
  0
LINE
  8
_0-7_7
  6
CONTINUOUS
 62
    7
 10
303.27024752508254
 20
210.58473872670075
 11
303.09722716222853
 21
210.4595689726722
  0
LINE
  8
_0-7_7
  6
CONTINUOUS
 62
    7
 10
303.09722716222853
 20
210.4595689726722
 11
303.06222731481603
 21
210.4312210036172
  0
LINE
  8
_0-7_7
  6
CONTINUOUS
 62
    7
 10
340.76223666082456
 20
234.45291804798973
 11
340.77313238988955
 21
234.45155906208871
  0
LINE
  8
_0-7_7
  6
CONTINUOUS
 62
    7
 10
340.77313238988955
 20
234.45155906208871
 11
340.80207640539254
 21
234.44626616963274
  0
LINE
  8
_0-7_7
  6
CONTINUOUS
 62
    7
 10
340.80207640539254
 20
234.44626616963274
 11
340.84334666143502
 21
234.4352035475622
  0
LINE
  8
_0-7_7
  6
CONTINUOUS
 62
    7
 10
340.84334666143502
 20
234.4352035475622
 11
340.89134032140805
 21
234.41651153096072
  0
LINE
  8
_0-7_7
  6
CONTINUOUS
 62
    7
 10
340.89134032140805
 20
234.41651153096072
 11
340.94035918127156
 21
234.38833045491072
  0
LINE
  8
_0-7_7
  6
CONTINUOUS
 62
    7
 10
340.94035918127156
 20
234.38833045491072
 11
340.98470503698411
 21
234.3488483382117
  0
LINE
  8
_0-7_7
  6
CONTINUOUS
 62
    7
 10
340.98470503698411
 20
234.3488483382117
 11
341.01872736822207
 21
234.29630088337771
  0
LINE
  8
_0-7_7
  6
CONTINUOUS
 62
    7
 10
341.01872736822207
 20
234.29630088337771
 11
341.03677565466006
 21
234.22868537434474
  0
LINE
  8
_0-7_7
  6
CONTINUOUS
 62
    7
 10
341.03677565466006
 20
234.22868537434474
 11
341.0331516922576
 21
234.14430903920075
  0
LINE
  8
_0-7_7
  6
CONTINUOUS
 62
    7
 10
341.0331516922576
 20
234.14430903920075
 11
341.00220496069056
 21
234.04126452931274
  0
LINE
  8
_0-7_7
  6
CONTINUOUS
 62
    7
 10
338.25886542211606
 20
233.28290271290672
 11
338.28196818243106
 21
233.28001784809922
  0
LINE
  8
_0-7_7
  6
CONTINUOUS
 62
    7
 10
338.28196818243106
 20
233.28001784809922
 11
338.3432417572601
 21
233.26866912373421
  0
LINE
  8
_0-7_7
  6
CONTINUOUS
 62
    7
 10
338.3432417572601
 20
233.26866912373421
 11
338.43069369207456
 21
233.2450180006872
  0
LINE
  8
_0-7_7
  6
CONTINUOUS
 62
    7
 10
338.43069369207456
 20
233.2450180006872
 11
338.53226000677205
 21
233.20508288868774
  0
LINE
  8
_0-7_7
  6
CONTINUOUS
 62
    7
 10
338.53226000677205
 20
233.20508288868774
 11
338.63594824682309
 21
233.14497756489624
  0
LINE
  8
_0-7_7
  6
CONTINUOUS
 62
    7
 10
338.63594824682309
 20
233.14497756489624
 11
338.72976595769956
 21
233.06081580647322
  0
LINE
  8
_0-7_7
  6
CONTINUOUS
 62
    7
 10
338.72976595769956
 20
233.06081580647322
 11
338.80164915929856
 21
232.94856833943223
  0
LINE
  8
_0-7_7
  6
CONTINUOUS
 62
    7
 10
338.80164915929856
 20
232.94856833943223
 11
338.83958155523362
 21
232.80442046650774
  0
LINE
  8
_0-7_7
  6
CONTINUOUS
 62
    7
 10
338.83958155523362
 20
232.80442046650774
 11
338.83154684911807
 21
232.62436675557024
  0
LINE
  8
_0-7_7
  6
CONTINUOUS
 62
    7
 10
338.83154684911807
 20
232.62436675557024
 11
338.76555258642259
 21
232.40454482563825
  0
LINE
  8
_0-7_7
  6
CONTINUOUS
 62
    7
 10
340.12055689703061
 20
234.85122012623674
 11
340.13135725866402
 21
234.84981345661973
  0
LINE
  8
_0-7_7
  6
CONTINUOUS
 62
    7
 10
340.13135725866402
 20
234.84981345661973
 11
340.16006285558763
 21
234.84437751301621
  0
LINE
  8
_0-7_7
  6
CONTINUOUS
 62
    7
 10
340.16006285558763
 20
234.84437751301621
 11
340.2009516419036
 21
234.8331241560827
  0
LINE
  8
_0-7_7
  6
CONTINUOUS
 62
    7
 10
340.2009516419036
 20
234.8331241560827
 11
340.24849230657657
 21
234.81421756276023
  0
LINE
  8
_0-7_7
  6
CONTINUOUS
 62
    7
 10
340.24849230657657
 20
234.81421756276023
 11
340.29701048742356
 21
234.78582190998924
  0
LINE
  8
_0-7_7
  6
CONTINUOUS
 62
    7
 10
340.29701048742356
 20
234.78582190998924
 11
340.34087950597859
 21
234.74610137471072
  0
LINE
  8
_0-7_7
  6
CONTINUOUS
 62
    7
 10
340.34087950597859
 20
234.74610137471072
 11
340.37444884191609
 21
234.69329165943972
  0
LINE
  8
_0-7_7
  6
CONTINUOUS
 62
    7
 10
340.37444884191609
 20
234.69329165943972
 11
340.39211565862757
 21
234.62550925740121
  0
LINE
  8
_0-7_7
  6
CONTINUOUS
 62
    7
 10
340.39211565862757
 20
234.62550925740121
 11
340.38825327764607
 21
234.5409898711097
  0
LINE
  8
_0-7_7
  6
CONTINUOUS
 62
    7
 10
340.38825327764607
 20
234.5409898711097
 11
340.35721117864705
 21
234.43792151936424
  0
LINE
  8
_0-7_7
  6
CONTINUOUS
 62
    7
 10
340.93389803777757
 20
233.8962345076452
 11
340.94474608312709
 21
233.89482783802873
  0
LINE
  8
_0-7_7
  6
CONTINUOUS
 62
    7
 10
340.94474608312709
 20
233.89482783802873
 11
340.97357088934007
 21
233.88939189442522
  0
LINE
  8
_0-7_7
  6
CONTINUOUS
 62
    7
 10
340.97357088934007
 20
233.88939189442522
 11
341.01465041051961
 21
233.87809085377572
  0
LINE
  8
_0-7_7
  6
CONTINUOUS
 62
    7
 10
341.01465041051961
 20
233.87809085377572
 11
341.06242949377156
 21
233.85908889302124
  0
LINE
  8
_0-7_7
  6
CONTINUOUS
 62
    7
 10
341.06242949377156
 20
233.85908889302124
 11
341.1111860931976
 21
233.83062171467674
  0
LINE
  8
_0-7_7
  6
CONTINUOUS
 62
    7
 10
341.1111860931976
 20
233.83062171467674
 11
341.15529353033162
 21
233.79073428639271
  0
LINE
  8
_0-7_7
  6
CONTINUOUS
 62
    7
 10
341.15529353033162
 20
233.79073428639271
 11
341.18910128484805
 21
233.73770999440072
  0
LINE
  8
_0-7_7
  6
CONTINUOUS
 62
    7
 10
341.18910128484805
 20
233.73770999440072
 11
341.20695883642259
 21
233.66966533192522
  0
LINE
  8
_0-7_7
  6
CONTINUOUS
 62
    7
 10
341.20695883642259
 20
233.66966533192522
 11
341.20321566473109
 21
233.58476447590724
  0
LINE
  8
_0-7_7
  6
CONTINUOUS
 62
    7
 10
341.20321566473109
 20
233.58476447590724
 11
341.1722212494476
 21
233.4812192870032
  0
LINE
  8
_0-7_7
  6
CONTINUOUS
 62
    7
 10
338.99274165044858
 20
232.55150603779671
 11
339.0648155869111
 21
232.43925857075573
  0
LINE
  8
_0-7_7
  6
CONTINUOUS
 62
    7
 10
339.0648155869111
 20
232.43925857075573
 11
339.10310561071458
 21
232.2950153303992
  0
LINE
  8
_0-7_7
  6
CONTINUOUS
 62
    7
 10
339.10310561071458
 20
232.2950153303992
 11
339.09569079290458
 21
232.11477088459822
  0
LINE
  8
_0-7_7
  6
CONTINUOUS
 62
    7
 10
339.09569079290458
 20
232.11477088459822
 11
339.03055483709409
 21
231.89456748494021
  0
LINE
  8
_f-a_250
  6
CONTINUOUS
 62
  250
 10
338.79521185766305
 20
232.69555854328974
 11
338.89887625585658
 21
232.63559627064575
  0
LINE
  8
_f-a_250
  6
CONTINUOUS
 62
  250
 10
338.89887625585658
 20
232.63559627064575
 11
338.99274165044858
 21
232.55150603779671
  0
LINE
  8
_f-a_250
  6
CONTINUOUS
 62
  250
 10
338.99274165044858
 20
232.55150603779671
 11
339.0648155869111
 21
232.43925857075573
  0
LINE
  8
_f-a_250
  6
CONTINUOUS
 62
  250
 10
339.0648155869111
 20
232.43925857075573
 11
339.10310561071458
 21
232.2950153303992
  0
LINE
  8
_f-a_250
  6
CONTINUOUS
 62
  250
 10
339.10310561071458
 20
232.2950153303992
 11
339.09569079290458
 21
232.11477088459822
  0
LINE
  8
_f-a_250
  6
CONTINUOUS
 62
  250
 10
339.09569079290458
 20
232.11477088459822
 11
339.03055483709409
 21
231.89456748494021
  0
LINE
  8
_f-a_250
  6
CONTINUOUS
 62
  250
 10
337.61720950018008
 20
233.6795597029577
 11
337.64028841863706
 21
233.67669868000871
  0
LINE
  8
_f-a_250
  6
CONTINUOUS
 62
  250
 10
337.64028841863706
 20
233.67669868000871
 11
337.70144278417661
 21
233.66546916493272
  0
LINE
  8
_f-a_250
  6
CONTINUOUS
 62
  250
 10
337.70144278417661
 20
233.66546916493272
 11
337.78870398412806
 21
233.64198493489121
  0
LINE
  8
_f-a_250
  6
CONTINUOUS
 62
  250
 10
337.78870398412806
 20
233.64198493489121
 11
337.89012724767758
 21
233.60224055775521
  0
LINE
  8
_f-a_250
  6
CONTINUOUS
 62
  250
 10
337.89012724767758
 20
233.60224055775521
 11
337.99367243658162
 21
233.5422544432532
  0
LINE
  8
_f-a_250
  6
CONTINUOUS
 62
  250
 10
337.99367243658162
 20
233.5422544432532
 11
338.08737093816859
 21
233.45816421040422
  0
LINE
  8
_f-a_250
  6
CONTINUOUS
 62
  250
 10
338.08737093816859
 20
233.45816421040422
 11
338.15925413976754
 21
233.3459405852212
  0
LINE
  8
_f-a_250
  6
CONTINUOUS
 62
  250
 10
282.81719977270205
 20
195.00623034962524
 11
282.73032004247762
 21
195.02754497059675
  0
LINE
  8
_f-a_250
  6
CONTINUOUS
 62
  250
 10
282.73032004247762
 20
195.02754497059675
 11
282.49447638403007
 21
195.1000719023597
  0
LINE
  8
_f-a_250
  6
CONTINUOUS
 62
  250
 10
282.49447638403007
 20
195.1000719023597
 11
282.14693362127406
 21
195.23654269703721
  0
LINE
  8
_f-a_250
  6
CONTINUOUS
 62
  250
 10
282.14693362127406
 20
195.23654269703721
 11
281.72495657812209
 21
195.44976043232774
  0
LINE
  8
_f-a_250
  6
CONTINUOUS
 62
  250
 10
281.72495657812209
 20
195.44976043232774
 11
281.26573855291457
 21
195.75248050221322
  0
LINE
  8
_f-a_250
  6
CONTINUOUS
 62
  250
 10
281.26573855291457
 20
195.75248050221322
 11
280.80661589513858
 21
196.15750598439072
  0
LINE
  8
_f-a_250
  6
CONTINUOUS
 62
  250
 10
280.80661589513858
 20
196.15750598439072
 11
280.38475806127605
 21
196.67761611470075
  0
LINE
  8
_f-a_250
  6
CONTINUOUS
 62
  250
 10
280.38475806127605
 20
196.67761611470075
 11
280.03747755895711
 21
197.32559012898324
  0
LINE
  8
_f-a_250
  6
CONTINUOUS
 62
  250
 10
280.03747755895711
 20
197.32559012898324
 11
279.80199152837855
 21
198.11418342121974
  0
LINE
  8
_f-a_250
  6
CONTINUOUS
 62
  250
 10
279.80199152837855
 20
198.11418342121974
 11
279.71554095159604
 21
199.05622291096569
  0
LINE
  8
_f-a_250
  6
CONTINUOUS
 62
  250
 10
279.71554095159604
 20
199.05622291096569
 11
279.62832743536057
 21
200.00345992573619
  0
LINE
  8
_f-a_250
  6
CONTINUOUS
 62
  250
 10
279.62832743536057
 20
200.00345992573619
 11
279.38642794500407
 21
200.80278205403224
  0
LINE
  8
_f-a_250
  6
CONTINUOUS
 62
  250
 10
279.38642794500407
 20
200.80278205403224
 11
279.02841860662556
 21
201.46549033650271
  0
LINE
  8
_f-a_250
  6
CONTINUOUS
 62
  250
 10
279.02841860662556
 20
201.46549033650271
 11
278.59289938818057
 21
202.00300502308724
  0
LINE
  8
_f-a_250
  6
CONTINUOUS
 62
  250
 10
278.59289938818057
 20
202.00300502308724
 11
278.11847025762654
 21
202.42665099629272
  0
LINE
  8
_f-a_250
  6
CONTINUOUS
 62
  250
 10
278.11847025762654
 20
202.42665099629272
 11
277.64375502477708
 21
202.7477769804847
  0
LINE
  8
_f-a_250
  6
CONTINUOUS
 62
  250
 10
277.64375502477708
 20
202.7477769804847
 11
277.20732981573207
 21
202.97777938374372
  0
LINE
  8
_f-a_250
  6
CONTINUOUS
 62
  250
 10
277.20732981573207
 20
202.97777938374372
 11
276.84781844030454
 21
203.12800693043573
  0
LINE
  8
_f-a_250
  6
CONTINUOUS
 62
  250
 10
276.84781844030454
 20
203.12800693043573
 11
276.60379702459409
 21
203.2098083449257
  0
LINE
  8
_f-a_250
  6
CONTINUOUS
 62
  250
 10
276.60379702459409
 20
203.2098083449257
 11
276.51388937841512
 21
203.23455619343622
  0
LINE
  8
_f-a_250
  6
CONTINUOUS
 62
  250
 10
277.63388449560262
 20
204.09124183186424
 11
277.72360140691859
 21
204.06637477406372
  0
LINE
  8
_f-a_250
  6
CONTINUOUS
 62
  250
 10
277.72360140691859
 20
204.06637477406372
 11
277.96716982732858
 21
203.98421573170521
  0
LINE
  8
_f-a_250
  6
CONTINUOUS
 62
  250
 10
277.96716982732858
 20
203.98421573170521
 11
278.32603747259208
 21
203.8334875059972
  0
LINE
  8
_f-a_250
  6
CONTINUOUS
 62
  250
 10
278.32603747259208
 20
203.8334875059972
 11
278.76172358404256
 21
203.60293674000621
  0
LINE
  8
_f-a_250
  6
CONTINUOUS
 62
  250
 10
278.76172358404256
 20
203.60293674000621
 11
279.23574740301206
 21
203.28123855122422
  0
LINE
  8
_f-a_250
  6
CONTINUOUS
 62
  250
 10
279.23574740301206
 20
203.28123855122422
 11
279.70965201269206
 21
202.85718726643421
  0
LINE
  8
_f-a_250
  6
CONTINUOUS
 62
  250
 10
279.70965201269206
 20
202.85718726643421
 11
280.14488512884208
 21
202.3194103194127
  0
LINE
  8
_f-a_250
  6
CONTINUOUS
 62
  250
 10
280.14488512884208
 20
202.3194103194127
 11
280.50301367651059
 21
201.65670203694222
  0
LINE
  8
_f-a_250
  6
CONTINUOUS
 62
  250
 10
280.50301367651059
 20
201.65670203694222
 11
280.74550921331507
 21
200.85771369465724
  0
LINE
  8
_f-a_250
  6
CONTINUOUS
 62
  250
 10
280.74550921331507
 20
200.85771369465724
 11
280.83391482244559
 21
199.91123961933971
  0
LINE
  8
_f-a_250
  6
CONTINUOUS
 62
  250
 10
280.83391482244559
 20
199.91123961933971
 11
280.91786200414754
 21
198.96757888325573
  0
LINE
  8
_f-a_250
  6
CONTINUOUS
 62
  250
 10
280.91786200414754
 20
198.96757888325573
 11
281.15182215581956
 21
198.17805575856073
  0
LINE
  8
_f-a_250
  6
CONTINUOUS
 62
  250
 10
281.15182215581956
 20
198.17805575856073
 11
281.49836356054408
 21
197.52970027455223
  0
LINE
  8
_f-a_250
  6
CONTINUOUS
 62
  250
 10
281.49836356054408
 20
197.52970027455223
 11
281.92005450140056
 21
197.0096378279577
  0
LINE
  8
_f-a_250
  6
CONTINUOUS
 62
  250
 10
281.92005450140056
 20
197.0096378279577
 11
282.37951094518758
 21
196.6049938155067
  0
LINE
  8
_f-a_250
  6
CONTINUOUS
 62
  250
 10
282.37951094518758
 20
196.6049938155067
 11
282.83932501684257
 21
196.30282210835321
  0
LINE
  8
_f-a_250
  6
CONTINUOUS
 62
  250
 10
282.83932501684257
 20
196.30282210835321
 11
283.26208884130557
 21
196.09029578694222
  0
LINE
  8
_f-a_250
  6
CONTINUOUS
 62
  250
 10
283.26208884130557
 20
196.09029578694222
 11
283.61037070165708
 21
195.95444488057024
  0
LINE
  8
_f-a_250
  6
CONTINUOUS
 62
  250
 10
283.61037070165708
 20
195.95444488057024
 11
283.84676272283656
 21
195.88239478596569
  0
LINE
  8
_f-a_250
  6
CONTINUOUS
 62
  250
 10
283.84676272283656
 20
195.88239478596569
 11
283.93390471349812
 21
195.86122321614121
  0
LINE
  8
_f-a_250
  6
CONTINUOUS
 62
  250
 10
277.63388449560262
 20
204.09124183186424
 11
277.72360140691859
 21
204.06637477406372
  0
LINE
  8
_f-a_250
  6
CONTINUOUS
 62
  250
 10
277.72360140691859
 20
204.06637477406372
 11
277.96716982732858
 21
203.98421573170521
  0
LINE
  8
_f-a_250
  6
CONTINUOUS
 62
  250
 10
277.96716982732858
 20
203.98421573170521
 11
278.32603747259208
 21
203.8334875059972
  0
LINE
  8
_f-a_250
  6
CONTINUOUS
 62
  250
 10
278.32603747259208
 20
203.8334875059972
 11
278.76172358404256
 21
203.60293674000621
  0
LINE
  8
_f-a_250
  6
CONTINUOUS
 62
  250
 10
278.76172358404256
 20
203.60293674000621
 11
279.23574740301206
 21
203.28123855122422
  0
LINE
  8
_f-a_250
  6
CONTINUOUS
 62
  250
 10
279.23574740301206
 20
203.28123855122422
 11
279.70965201269206
 21
202.85718726643421
  0
LINE
  8
_f-a_250
  6
CONTINUOUS
 62
  250
 10
279.70965201269206
 20
202.85718726643421
 11
280.14488512884208
 21
202.3194103194127
  0
LINE
  8
_f-a_250
  6
CONTINUOUS
 62
  250
 10
280.14488512884208
 20
202.3194103194127
 11
280.50301367651059
 21
201.65670203694222
  0
LINE
  8
_f-a_250
  6
CONTINUOUS
 62
  250
 10
280.50301367651059
 20
201.65670203694222
 11
280.74550921331507
 21
200.85771369465724
  0
LINE
  8
_f-a_250
  6
CONTINUOUS
 62
  250
 10
280.74550921331507
 20
200.85771369465724
 11
280.83391482244559
 21
199.91123961933971
  0
LINE
  8
_f-a_250
  6
CONTINUOUS
 62
  250
 10
280.83391482244559
 20
199.91123961933971
 11
280.91786200414754
 21
198.96757888325573
  0
LINE
  8
_f-a_250
  6
CONTINUOUS
 62
  250
 10
280.91786200414754
 20
198.96757888325573
 11
281.15182215581956
 21
198.17805575856073
  0
LINE
  8
_f-a_250
  6
CONTINUOUS
 62
  250
 10
281.15182215581956
 20
198.17805575856073
 11
281.49836356054408
 21
197.52970027455223
  0
LINE
  8
_f-a_250
  6
CONTINUOUS
 62
  250
 10
281.49836356054408
 20
197.52970027455223
 11
281.92005450140056
 21
197.0096378279577
  0
LINE
  8
_f-a_250
  6
CONTINUOUS
 62
  250
 10
281.92005450140056
 20
197.0096378279577
 11
282.37951094518758
 21
196.6049938155067
  0
LINE
  8
_f-a_250
  6
CONTINUOUS
 62
  250
 10
282.37951094518758
 20
196.6049938155067
 11
282.83932501684257
 21
196.30282210835321
  0
LINE
  8
_f-a_250
  6
CONTINUOUS
 62
  250
 10
282.83932501684257
 20
196.30282210835321
 11
283.26208884130557
 21
196.09029578694222
  0
LINE
  8
_f-a_250
  6
CONTINUOUS
 62
  250
 10
283.26208884130557
 20
196.09029578694222
 11
283.61037070165708
 21
195.95444488057024
  0
LINE
  8
_f-a_250
  6
CONTINUOUS
 62
  250
 10
283.61037070165708
 20
195.95444488057024
 11
283.84676272283656
 21
195.88239478596569
  0
LINE
  8
_f-a_250
  6
CONTINUOUS
 62
  250
 10
283.84676272283656
 20
195.88239478596569
 11
283.93390471349812
 21
195.86122321614121
  0
LINE
  8
_f-a_250
  6
CONTINUOUS
 62
  250
 10
276.51388937841512
 20
203.23455619343622
 11
276.60379702459409
 21
203.2098083449257
  0
LINE
  8
_f-a_250
  6
CONTINUOUS
 62
  250
 10
276.60379702459409
 20
203.2098083449257
 11
276.84781844030454
 21
203.12800693043573
  0
LINE
  8
_f-a_250
  6
CONTINUOUS
 62
  250
 10
276.84781844030454
 20
203.12800693043573
 11
277.20732981573207
 21
202.97777938374372
  0
LINE
  8
_f-a_250
  6
CONTINUOUS
 62
  250
 10
277.20732981573207
 20
202.97777938374372
 11
277.64375502477708
 21
202.7477769804847
  0
LINE
  8
_f-a_250
  6
CONTINUOUS
 62
  250
 10
277.64375502477708
 20
202.7477769804847
 11
278.11847025762654
 21
202.42665099629272
  0
LINE
  8
_f-a_250
  6
CONTINUOUS
 62
  250
 10
278.11847025762654
 20
202.42665099629272
 11
278.59289938818057
 21
202.00300502308724
  0
LINE
  8
_f-a_250
  6
CONTINUOUS
 62
  250
 10
278.59289938818057
 20
202.00300502308724
 11
279.02841860662556
 21
201.46549033650271
  0
LINE
  8
_f-a_250
  6
CONTINUOUS
 62
  250
 10
279.02841860662556
 20
201.46549033650271
 11
279.38642794500407
 21
200.80278205403224
  0
LINE
  8
_f-a_250
  6
CONTINUOUS
 62
  250
 10
279.38642794500407
 20
200.80278205403224
 11
279.62832743536057
 21
200.00345992573619
  0
LINE
  8
_f-a_250
  6
CONTINUOUS
 62
  250
 10
279.62832743536057
 20
200.00345992573619
 11
279.71554095159604
 21
199.05622291096569
  0
LINE
  8
_f-a_250
  6
CONTINUOUS
 62
  250
 10
279.71554095159604
 20
199.05622291096569
 11
279.80199152837855
 21
198.11418342121974
  0
LINE
  8
_f-a_250
  6
CONTINUOUS
 62
  250
 10
279.80199152837855
 20
198.11418342121974
 11
280.03747755895711
 21
197.32559012898324
  0
LINE
  8
_f-a_250
  6
CONTINUOUS
 62
  250
 10
280.03747755895711
 20
197.32559012898324
 11
280.38475806127605
 21
196.67761611470075
  0
LINE
  8
_f-a_250
  6
CONTINUOUS
 62
  250
 10
280.38475806127605
 20
196.67761611470075
 11
280.80661589513858
 21
196.15750598439072
  0
LINE
  8
_f-a_250
  6
CONTINUOUS
 62
  250
 10
280.80661589513858
 20
196.15750598439072
 11
281.26573855291457
 21
195.75248050221322
  0
LINE
  8
_f-a_250
  6
CONTINUOUS
 62
  250
 10
281.26573855291457
 20
195.75248050221322
 11
281.72495657812209
 21
195.44976043232774
  0
LINE
  8
_f-a_250
  6
CONTINUOUS
 62
  250
 10
281.72495657812209
 20
195.44976043232774
 11
282.14693362127406
 21
195.23654269703721
  0
LINE
  8
_f-a_250
  6
CONTINUOUS
 62
  250
 10
282.14693362127406
 20
195.23654269703721
 11
282.49447638403007
 21
195.1000719023597
  0
LINE
  8
_f-a_250
  6
CONTINUOUS
 62
  250
 10
282.49447638403007
 20
195.1000719023597
 11
282.73032004247762
 21
195.02754497059675
  0
LINE
  8
_f-a_250
  6
CONTINUOUS
 62
  250
 10
282.73032004247762
 20
195.02754497059675
 11
282.81719977270205
 21
195.00623034962524
  0
LINE
  8
_f-a_250
  6
CONTINUOUS
 62
  250
 10
181.30221659551708
 20
110.9562425566567
 11
279.33223540197457
 21
167.55457210072373
  0
LINE
  8
_f-a_250
  6
CONTINUOUS
 62
  250
 10
279.32222182165208
 20
164.6945743513952
 11
280.05388075719907
 21
165.11624145039423
  0
LINE
  8
_f-a_250
  6
CONTINUOUS
 62
  250
 10
180.69387967001057
 20
129.77290439137323
 11
279.98221213232108
 21
187.09624099263073
  0
LINE
  8
_f-a_250
  6
CONTINUOUS
 62
  250
 10
179.01855999837957
 20
131.56791018971322
 11
277.06721121679408
 21
188.17622947224473
  0
LINE
  8
_f-a_250
  6
CONTINUOUS
 62
  250
 10
181.3705592812166
 20
120.59457587727421
 11
279.54223448644711
 21
177.27456378468372
  0
LINE
  8
_f-a_250
  6
CONTINUOUS
 62
  250
 10
181.3705592812166
 20
123.13123034962524
 11
279.47223479162312
 21
179.7712116194617
  0
LINE
  8
_f-a_250
  6
CONTINUOUS
 62
  250
 10
181.3705592812166
 20
123.51124572285522
 11
279.50887972723109
 21
180.17123031147821
  0
LINE
  8
_f-a_250
  6
CONTINUOUS
 62
  250
 10
181.3705592812166
 20
125.66790866383423
 11
279.51555544744559
 21
182.33290004261823
  0
LINE
  8
_f-a_250
  6
CONTINUOUS
 62
  250
 10
181.3705592812166
 20
126.0479001952062
 11
279.51221758733806
 21
182.70955371388322
  0
LINE
  8
_f-a_250
  6
CONTINUOUS
 62
  250
 10
181.3705592812166
 20
118.05792140492322
 11
279.53222090612508
 21
174.73123359211775
  0
LINE
  8
_f-a_250
  6
CONTINUOUS
 62
  250
 10
181.3705592812166
 20
115.52121924885623
 11
279.51555544744559
 21
172.18623446949823
  0
LINE
  8
_f-a_250
  6
CONTINUOUS
 62
  250
 10
181.3705592812166
 20
115.13955878743023
 11
279.52721411596355
 21
171.8112258864297
  0
LINE
  8
_f-a_250
  6
CONTINUOUS
 62
  250
 10
150.77371889959406
 20
147.07958983906624
 11
250.06223017583909
 21
204.40457152851923
  0
LINE
  8
_f-a_250
  6
CONTINUOUS
 62
  250
 10
154.63972384344157
 20
145.57457255848772
 11
252.77555281530456
 21
202.23291205891474
  0
LINE
  8
_f-a_250
  6
CONTINUOUS
 62
  250
 10
155.84138924490057
 20
144.87955855854869
 11
253.7455588043791
 21
201.40455054768421
  0
LINE
  8
_f-a_250
  6
CONTINUOUS
 62
  250
 10
156.55172163854658
 20
144.65456294545075
 11
254.61223418127159
 21
201.27122687825073
  0
LINE
  8
_f-a_250
  6
CONTINUOUS
 62
  250
 10
177.67355734716509
 20
132.33790683277971
 11
275.87223345647908
 21
189.0345840407262
  0
LINE
  8
_f-a_250
  6
CONTINUOUS
 62
  250
 10
176.7282157600981
 20
132.7729015303502
 11
274.85223109136655
 21
189.42623424061671
  0
LINE
  8
_f-a_250
  6
CONTINUOUS
 62
  250
 10
173.68455225835859
 20
109.1178922606362
 11
180.69387967001057
 21
105.06956862934922
  0
LINE
  8
_f-a_250
  6
CONTINUOUS
 62
  250
 10
151.62072474371058
 20
147.31622027882472
 11
181.19721705328055
 21
130.23958491810671
  0
LINE
  8
_f-a_250
  6
CONTINUOUS
 62
  250
 10
150.84855849157407
 20
147.07958983906624
 11
180.42555148016058
 21
130.00290679463274
  0
LINE
  8
_f-a_250
  6
CONTINUOUS
 62
  250
 10
250.1038819016081
 20
204.44622325428821
 11
280.25219733129558
 21
187.0395688963782
  0
LINE
  8
_f-a_250
  6
CONTINUOUS
 62
  250
 10
249.32556445013108
 20
204.19290351399275
 11
279.47223479162312
 21
186.7862491560827
  0
LINE
  8
_f-a_250
  6
CONTINUOUS
 62
  250
 10
277.06721121679408
 20
166.11790942677371
 11
279.38223177801206
 21
164.77957057484522
  0
LINE
  8
_f-a_250
  6
CONTINUOUS
 62
  250
 10
180.81888253103358
 20
105.2879123640907
 11
180.5688768089876
 21
129.77290439137323
  0
LINE
  8
_f-a_250
  6
CONTINUOUS
 62
  250
 10
181.3272147835356
 20
105.2879123640907
 11
181.3272147835356
 21
130.07958220967171
  0
LINE
  8
_f-a_250
  6
CONTINUOUS
 62
  250
 10
280.05388075719907
 20
165.11624145039423
 11
280.05388075719907
 21
187.13624763020371
  0
LINE
  8
_f-a_250
  6
CONTINUOUS
 62
  250
 10
279.5372276962861
 20
164.74626349934474
 11
279.5372276962861
 21
186.7862491560827
  0
LINE
  8
_f-a_250
  6
CONTINUOUS
 62
  250
 10
180.46555811773359
 20
129.14293097981323
 11
180.50937945257257
 21
128.9170055342567
  0
LINE
  8
_f-a_250
  6
CONTINUOUS
 62
  250
 10
180.50937945257257
 20
128.9170055342567
 11
180.52095467458807
 21
128.69456099995475
  0
LINE
  8
_f-a_250
  6
CONTINUOUS
 62
  250
 10
180.52095467458807
 20
128.69456099995475
 11
180.50192887197559
 21
128.47912597187874
  0
LINE
  8
_f-a_250
  6
CONTINUOUS
 62
  250
 10
180.50192887197559
 20
128.47912597187874
 11
180.45395905386059
 21
128.27413367756722
  0
LINE
  8
_f-a_250
  6
CONTINUOUS
 62
  250
 10
180.45395905386059
 20
128.27413367756722
 11
180.37870222936709
 21
128.08311271199122
  0
LINE
  8
_f-a_250
  6
CONTINUOUS
 62
  250
 10
180.37870222936709
 20
128.08311271199122
 11
180.27777964483357
 21
127.90954398640524
  0
LINE
  8
_f-a_250
  6
CONTINUOUS
 62
  250
 10
180.27777964483357
 20
127.90954398640524
 11
180.15288407217108
 21
127.75690841206421
  0
LINE
  8
_f-a_250
  6
CONTINUOUS
 62
  250
 10
180.15288407217108
 20
127.75690841206421
 11
180.00563675771809
 21
127.6286869002232
  0
LINE
  8
_f-a_250
  6
CONTINUOUS
 62
  250
 10
180.00563675771809
 20
127.6286869002232
 11
179.8377066315276
 21
127.52843188771122
  0
LINE
  8
_f-a_250
  6
CONTINUOUS
 62
  250
 10
179.8377066315276
 20
127.52843188771122
 11
179.65072686086756
 21
127.45955276020874
  0
LINE
  8
_f-a_250
  6
CONTINUOUS
 62
  250
 10
179.65072686086756
 20
127.45955276020874
 11
179.45448452840907
 21
127.42560195454472
  0
LINE
  8
_f-a_250
  6
CONTINUOUS
 62
  250
 10
179.45448452840907
 20
127.42560195454472
 11
179.25890976797209
 21
127.42829608448874
  0
LINE
  8
_f-a_250
  6
CONTINUOUS
 62
  250
 10
179.25890976797209
 20
127.42829608448874
 11
179.06719738851609
 21
127.46544169911272
  0
LINE
  8
_f-a_250
  6
CONTINUOUS
 62
  250
 10
179.06719738851609
 20
127.46544169911272
 11
178.88256604086007
 21
127.53494071492074
  0
LINE
  8
_f-a_250
  6
CONTINUOUS
 62
  250
 10
178.88256604086007
 20
127.53494071492074
 11
178.70821053396307
 21
127.63457583912724
  0
LINE
  8
_f-a_250
  6
CONTINUOUS
 62
  250
 10
178.70821053396307
 20
127.63457583912724
 11
178.54731375585658
 21
127.7622013045202
  0
LINE
  8
_f-a_250
  6
CONTINUOUS
 62
  250
 10
178.54731375585658
 20
127.7622013045202
 11
178.40309435735807
 21
127.9156951857457
  0
LINE
  8
_f-a_250
  6
CONTINUOUS
 62
  250
 10
178.40309435735807
 20
127.9156951857457
 11
178.27877098928508
 21
128.09286403187622
  0
LINE
  8
_f-a_250
  6
CONTINUOUS
 62
  250
 10
178.27877098928508
 20
128.09286403187622
 11
178.17750269781209
 21
128.29153823384172
  0
LINE
  8
_f-a_250
  6
CONTINUOUS
 62
  250
 10
178.17750269781209
 20
128.29153823384172
 11
178.10254389654258
 21
128.5095720244297
  0
LINE
  8
_f-a_250
  6
CONTINUOUS
 62
  250
 10
178.10254389654258
 20
128.5095720244297
 11
178.05851990591108
 21
128.73595046528672
  0
LINE
  8
_f-a_250
  6
CONTINUOUS
 62
  250
 10
178.05851990591108
 20
128.73595046528672
 11
178.04681355367759
 21
128.95875262745722
  0
LINE
  8
_f-a_250
  6
CONTINUOUS
 62
  250
 10
178.04681355367759
 20
128.95875262745722
 11
178.06575590978707
 21
129.17449759968622
  0
LINE
  8
_f-a_250
  6
CONTINUOUS
 62
  250
 10
178.06575590978707
 20
129.17449759968622
 11
178.11370188604457
 21
129.37975215443473
  0
LINE
  8
_f-a_250
  6
CONTINUOUS
 62
  250
 10
178.11370188604457
 20
129.37975215443473
 11
178.18898255239557
 21
129.57103538044822
  0
LINE
  8
_f-a_250
  6
CONTINUOUS
 62
  250
 10
178.18898255239557
 20
129.57103538044822
 11
178.28994089971607
 21
129.7448663664712
  0
LINE
  8
_f-a_250
  6
CONTINUOUS
 62
  250
 10
178.28994089971607
 20
129.7448663664712
 11
178.4148722351656
 21
129.89774035939072
  0
LINE
  8
_f-a_250
  6
CONTINUOUS
 62
  250
 10
178.4148722351656
 20
129.89774035939072
 11
178.56215531240559
 21
130.02624797352672
  0
LINE
  8
_f-a_250
  6
CONTINUOUS
 62
  250
 10
178.56215531240559
 20
130.02624797352672
 11
178.73010928045358
 21
130.12693213948123
  0
LINE
  8
_f-a_250
  6
CONTINUOUS
 62
  250
 10
178.73010928045358
 20
130.12693213948123
 11
178.91706520925609
 21
130.19624042042625
  0
LINE
  8
_f-a_250
  6
CONTINUOUS
 62
  250
 10
178.91706520925609
 20
130.19624042042625
 11
179.11365324865409
 21
130.2292613936317
  0
LINE
  8
_f-a_250
  6
CONTINUOUS
 62
  250
 10
179.11365324865409
 20
130.2292613936317
 11
179.30950219045707
 21
130.22573279866072
  0
LINE
  8
_f-a_250
  6
CONTINUOUS
 62
  250
 10
179.30950219045707
 20
130.22573279866072
 11
179.5013933838471
 21
130.18784808644173
  0
LINE
  8
_f-a_250
  6
CONTINUOUS
 62
  250
 10
179.5013933838471
 20
130.18784808644173
 11
179.68614394079307
 21
130.11777686604373
  0
LINE
  8
_f-a_250
  6
CONTINUOUS
 62
  250
 10
179.68614394079307
 20
130.11777686604373
 11
179.86054713140555
 21
130.01768874653672
  0
LINE
  8
_f-a_250
  6
CONTINUOUS
 62
  250
 10
179.86054713140555
 20
130.01768874653672
 11
180.02143198858357
 21
129.88975333699122
  0
LINE
  8
_f-a_250
  6
CONTINUOUS
 62
  250
 10
180.02143198858357
 20
129.88975333699122
 11
180.1655560196501
 21
129.73614024647574
  0
LINE
  8
_f-a_250
  6
CONTINUOUS
 62
  250
 10
180.1655560196501
 20
129.73614024647574
 11
180.28976017843308
 21
129.55901908406122
  0
LINE
  8
_f-a_250
  6
CONTINUOUS
 62
  250
 10
180.28976017843308
 20
129.55901908406122
 11
180.39082581411458
 21
129.36055945881722
  0
LINE
  8
_f-a_250
  6
CONTINUOUS
 62
  250
 10
180.39082581411458
 20
129.36055945881722
 11
180.46555811773359
 21
129.14293097981323
  0
LINE
  8
_f-a_250
  6
CONTINUOUS
 62
  250
 10
179.39621502767659
 20
129.89290046223522
 11
179.47703892599208
 21
129.83866023548973
  0
LINE
  8
_f-a_250
  6
CONTINUOUS
 62
  250
 10
179.47703892599208
 20
129.83866023548973
 11
179.55401236425459
 21
129.77805423268174
  0
LINE
  8
_f-a_250
  6
CONTINUOUS
 62
  250
 10
179.55401236425459
 20
129.77805423268174
 11
179.62673003088059
 21
129.71132087239121
  0
LINE
  8
_f-a_250
  6
CONTINUOUS
 62
  250
 10
179.62673003088059
 20
129.71132087239121
 11
179.69478661428508
 21
129.63877009877075
  0
LINE
  8
_f-a_250
  6
CONTINUOUS
 62
  250
 10
179.69478661428508
 20
129.63877009877075
 11
179.7577648819551
 21
129.5606164885412
  0
LINE
  8
_f-a_250
  6
CONTINUOUS
 62
  250
 10
179.7577648819551
 20
129.5606164885412
 11
179.81524760137657
 21
129.47709846028224
  0
LINE
  8
_f-a_250
  6
CONTINUOUS
 62
  250
 10
179.81524760137657
 20
129.47709846028224
 11
179.86684138189409
 21
129.3885021162877
  0
LINE
  8
_f-a_250
  6
CONTINUOUS
 62
  250
 10
179.86684138189409
 20
129.3885021162877
 11
179.91210514913658
 21
129.29504203328025
  0
LINE
  8
_f-a_250
  6
CONTINUOUS
 62
  250
 10
179.91210514913658
 20
129.29504203328025
 11
179.95064551244806
 21
129.19698047169572
  0
LINE
  8
_f-a_250
  6
CONTINUOUS
 62
  250
 10
179.95064551244806
 20
129.19698047169572
 11
179.98204523931608
 21
129.09457969197175
  0
LINE
  8
_f-a_250
  6
CONTINUOUS
 62
  250
 10
179.98204523931608
 20
129.09457969197175
 11
180.01551920782157
 21
128.93257426747175
  0
LINE
  8
_f-a_250
  6
CONTINUOUS
 62
  250
 10
180.01551920782157
 20
128.93257426747175
 11
180.0293713272676
 21
128.77164172657822
  0
LINE
  8
_f-a_250
  6
CONTINUOUS
 62
  250
 10
180.0293713272676
 20
128.77164172657822
 11
180.02442414175107
 21
128.61328410633922
  0
LINE
  8
_f-a_250
  6
CONTINUOUS
 62
  250
 10
180.02442414175107
 20
128.61328410633922
 11
180.00148827444158
 21
128.45909881123421
  0
LINE
  8
_f-a_250
  6
CONTINUOUS
 62
  250
 10
180.00148827444158
 20
128.45909881123421
 11
179.96136242757859
 21
128.3106117201697
  0
LINE
  8
_f-a_250
  6
CONTINUOUS
 62
  250
 10
179.96136242757859
 20
128.3106117201697
 11
179.90488106618957
 21
128.16937255390974
  0
LINE
  8
_f-a_250
  6
CONTINUOUS
 62
  250
 10
179.90488106618957
 20
128.16937255390974
 11
179.83284289251409
 21
128.03690719136119
  0
LINE
  8
_f-a_250
  6
CONTINUOUS
 62
  250
 10
179.83284289251409
 20
128.03690719136119
 11
179.74607045065008
 21
127.91481303700321
  0
LINE
  8
_f-a_250
  6
CONTINUOUS
 62
  250
 10
179.74607045065008
 20
127.91481303700321
 11
179.64536244283758
 21
127.8046398116002
  0
LINE
  8
_f-a_250
  6
CONTINUOUS
 62
  250
 10
179.64536244283758
 20
127.8046398116002
 11
179.53154141317458
 21
127.70788955220074
  0
LINE
  8
_f-a_250
  6
CONTINUOUS
 62
  250
 10
178.09405619512657
 20
128.78792571553123
 11
178.11467940221857
 21
128.78201293476923
  0
LINE
  8
_f-a_250
  6
CONTINUOUS
 62
  250
 10
178.11467940221857
 20
128.78201293476923
 11
178.13556486974809
 21
128.7762908888707
  0
LINE
  8
_f-a_250
  6
CONTINUOUS
 62
  250
 10
178.13556486974809
 20
128.7762908888707
 11
178.15666491399861
 21
128.77073573597772
  0
LINE
  8
_f-a_250
  6
CONTINUOUS
 62
  250
 10
178.15666491399861
 20
128.77073573597772
 11
178.17794377218308
 21
128.76529979237421
  0
LINE
  8
_f-a_250
  6
CONTINUOUS
 62
  250
 10
178.17794377218308
 20
128.76529979237421
 11
178.19936568151559
 21
128.75998305806021
  0
LINE
  8
_f-a_250
  6
CONTINUOUS
 62
  250
 10
178.19936568151559
 20
128.75998305806021
 11
178.22089487920857
 21
128.75478553303572
  0
LINE
  8
_f-a_250
  6
CONTINUOUS
 62
  250
 10
178.22089487920857
 20
128.75478553303572
 11
178.24253136526207
 21
128.74965953358523
  0
LINE
  8
_f-a_250
  6
CONTINUOUS
 62
  250
 10
178.24253136526207
 20
128.74965953358523
 11
178.2641916931731
 21
128.74460505970825
  0
LINE
  8
_f-a_250
  6
CONTINUOUS
 62
  250
 10
178.2641916931731
 20
128.74460505970825
 11
178.28587586294256
 21
128.73957442768921
  0
LINE
  8
_f-a_250
  6
CONTINUOUS
 62
  250
 10
178.28587586294256
 20
128.73957442768921
 11
178.30754811178306
 21
128.73456763752819
  0
LINE
  8
_f-a_250
  6
CONTINUOUS
 62
  250
 10
178.30754811178306
 20
128.73456763752819
 11
178.37788159261808
 21
128.76792239674424
  0
LINE
  8
_f-a_250
  6
CONTINUOUS
 62
  250
 10
178.37788159261808
 20
128.76792239674424
 11
178.36944157491757
 21
128.86672305592424
  0
LINE
  8
_f-a_250
  6
CONTINUOUS
 62
  250
 10
178.36944157491757
 20
128.86672305592424
 11
178.36625868688657
 21
128.96497535237174
  0
LINE
  8
_f-a_250
  6
CONTINUOUS
 62
  250
 10
178.36625868688657
 20
128.96497535237174
 11
178.36827332388006
 21
129.06239318379272
  0
LINE
  8
_f-a_250
  6
CONTINUOUS
 62
  250
 10
178.36827332388006
 20
129.06239318379272
 11
178.37539011846607
 21
129.15873813160769
  0
LINE
  8
_f-a_250
  6
CONTINUOUS
 62
  250
 10
178.37539011846607
 20
129.15873813160769
 11
178.38754946600059
 21
129.25374793537972
  0
LINE
  8
_f-a_250
  6
CONTINUOUS
 62
  250
 10
178.38754946600059
 20
129.25374793537972
 11
178.40466791998008
 21
129.34713649281372
  0
LINE
  8
_f-a_250
  6
CONTINUOUS
 62
  250
 10
178.40466791998008
 20
129.34713649281372
 11
178.4266739548311
 21
129.43868922718872
  0
LINE
  8
_f-a_250
  6
CONTINUOUS
 62
  250
 10
178.4266739548311
 20
129.43868922718872
 11
178.4534841240511
 21
129.52812003620971
  0
LINE
  8
_f-a_250
  6
CONTINUOUS
 62
  250
 10
178.4534841240511
 20
129.52812003620971
 11
178.4850269020661
 21
129.61516665943972
  0
LINE
  8
_f-a_250
  6
CONTINUOUS
 62
  250
 10
178.4850269020661
 20
129.61516665943972
 11
178.52121884237357
 21
129.69956683644173
  0
LINE
  8
_f-a_250
  6
CONTINUOUS
 62
  250
 10
178.52121884237357
 20
129.69956683644173
 11
178.79921490560608
 21
129.6878843260657
  0
LINE
  8
_f-a_250
  6
CONTINUOUS
 62
  250
 10
178.79921490560608
 20
129.6878843260657
 11
178.75749165426356
 21
129.60834788807722
  0
LINE
  8
_f-a_250
  6
CONTINUOUS
 62
  250
 10
178.75749165426356
 20
129.60834788807722
 11
178.72106129537659
 21
129.52502059468122
  0
LINE
  8
_f-a_250
  6
CONTINUOUS
 62
  250
 10
178.72106129537659
 20
129.52502059468122
 11
178.69001919637759
 21
129.43826007374625
  0
LINE
  8
_f-a_250
  6
CONTINUOUS
 62
  250
 10
178.69001919637759
 20
129.43826007374625
 11
178.6644964874846
 21
129.34847163685671
  0
LINE
  8
_f-a_250
  6
CONTINUOUS
 62
  250
 10
178.6644964874846
 20
129.34847163685671
 11
178.64457661520106
 21
129.25603675373924
  0
LINE
  8
_f-a_250
  6
CONTINUOUS
 62
  250
 10
178.64457661520106
 20
129.25603675373924
 11
178.6303549469576
 21
129.16136073597772
  0
LINE
  8
_f-a_250
  6
CONTINUOUS
 62
  250
 10
178.6303549469576
 20
129.16136073597772
 11
178.62193877111508
 21
129.06480121144173
  0
LINE
  8
_f-a_250
  6
CONTINUOUS
 62
  250
 10
178.62193877111508
 20
129.06480121144173
 11
178.6194353760346
 21
128.96678733357322
  0
LINE
  8
_f-a_250
  6
CONTINUOUS
 62
  250
 10
178.6194353760346
 20
128.96678733357322
 11
178.62294012914757
 21
128.86770057209822
  0
LINE
  8
_f-a_250
  6
CONTINUOUS
 62
  250
 10
178.62294012914757
 20
128.86770057209822
 11
178.63254839788507
 21
128.76792239674424
  0
LINE
  8
_f-a_250
  6
CONTINUOUS
 62
  250
 10
178.63254839788507
 20
128.76792239674424
 11
178.70089108358457
 21
128.69456099995475
  0
LINE
  8
_f-a_250
  6
CONTINUOUS
 62
  250
 10
178.70089108358457
 20
128.69456099995475
 11
178.80784565816958
 21
128.69460868367074
  0
LINE
  8
_f-a_250
  6
CONTINUOUS
 62
  250
 10
178.80784565816958
 20
128.69460868367074
 11
178.91331011663507
 21
128.69968699940574
  0
LINE
  8
_f-a_250
  6
CONTINUOUS
 62
  250
 10
178.91331011663507
 20
128.69968699940574
 11
179.01702219854457
 21
128.70977210530174
  0
LINE
  8
_f-a_250
  6
CONTINUOUS
 62
  250
 10
179.01702219854457
 20
128.70977210530174
 11
179.11874348531808
 21
128.72472095021121
  0
LINE
  8
_f-a_250
  6
CONTINUOUS
 62
  250
 10
179.11874348531808
 20
128.72472095021121
 11
179.21815211187459
 21
128.7445812178502
  0
LINE
  8
_f-a_250
  6
CONTINUOUS
 62
  250
 10
179.21815211187459
 20
128.7445812178502
 11
179.31502158056358
 21
128.7692336989297
  0
LINE
  8
_f-a_250
  6
CONTINUOUS
 62
  250
 10
179.31502158056358
 20
128.7692336989297
 11
179.40906578909008
 21
128.7986068678747
  0
LINE
  8
_f-a_250
  6
CONTINUOUS
 62
  250
 10
179.40906578909008
 20
128.7986068678747
 11
179.50001055608809
 21
128.83265304097071
  0
LINE
  8
_f-a_250
  6
CONTINUOUS
 62
  250
 10
179.50001055608809
 20
128.83265304097071
 11
179.58760554205008
 21
128.87134837635872
  0
LINE
  8
_f-a_250
  6
CONTINUOUS
 62
  250
 10
179.58760554205008
 20
128.87134837635872
 11
179.67155272375206
 21
128.91459750660769
  0
LINE
  8
_f-a_250
  6
CONTINUOUS
 62
  250
 10
179.67155272375206
 20
128.91459750660769
 11
179.69105536352257
 21
128.63958167561424
  0
LINE
  8
_f-a_250
  6
CONTINUOUS
 62
  250
 10
179.69105536352257
 20
128.63958167561424
 11
179.60667902837858
 21
128.60198306568972
  0
LINE
  8
_f-a_250
  6
CONTINUOUS
 62
  250
 10
179.60667902837858
 20
128.60198306568972
 11
179.51968008886408
 21
128.56822299488874
  0
LINE
  8
_f-a_250
  6
CONTINUOUS
 62
  250
 10
179.51968008886408
 20
128.56822299488874
 11
179.43023735891407
 21
128.5383014632117
  0
LINE
  8
_f-a_250
  6
CONTINUOUS
 62
  250
 10
179.43023735891407
 20
128.5383014632117
 11
179.33851773153407
 21
128.51228999623171
  0
LINE
  8
_f-a_250
  6
CONTINUOUS
 62
  250
 10
179.33851773153407
 20
128.51228999623171
 11
179.24474770437308
 21
128.49021243580674
  0
LINE
  8
_f-a_250
  6
CONTINUOUS
 62
  250
 10
179.24474770437308
 20
128.49021243580674
 11
179.14905840765059
 21
128.4720449400792
  0
LINE
  8
_f-a_250
  6
CONTINUOUS
 62
  250
 10
179.14905840765059
 20
128.4720449400792
 11
179.0516644180876
 21
128.45788287648071
  0
LINE
  8
_f-a_250
  6
CONTINUOUS
 62
  250
 10
179.0516644180876
 20
128.45788287648071
 11
178.95274454961859
 21
128.44772624501121
  0
LINE
  8
_f-a_250
  6
CONTINUOUS
 62
  250
 10
178.95274454961859
 20
128.44772624501121
 11
178.85247761617759
 21
128.44159888752819
  0
LINE
  8
_f-a_250
  6
CONTINUOUS
 62
  250
 10
178.85247761617759
 20
128.44159888752819
 11
178.75104243169858
 21
128.43957232960571
  0
LINE
  8
_f-a_250
  6
CONTINUOUS
 62
  250
 10
178.75104243169858
 20
128.43957232960571
 11
178.72822577367859
 21
128.38623809346072
  0
LINE
  8
_f-a_250
  6
CONTINUOUS
 62
  250
 10
178.72822577367859
 20
128.38623809346072
 11
178.75054175268258
 21
128.32887458332871
  0
LINE
  8
_f-a_250
  6
CONTINUOUS
 62
  250
 10
178.75054175268258
 20
128.32887458332871
 11
178.77487236868006
 21
128.27287005909773
  0
LINE
  8
_f-a_250
  6
CONTINUOUS
 62
  250
 10
178.77487236868006
 20
128.27287005909773
 11
178.80113417516807
 21
128.21824836262573
  0
LINE
  8
_f-a_250
  6
CONTINUOUS
 62
  250
 10
178.80113417516807
 20
128.21824836262573
 11
178.82930333028858
 21
128.1650571776282
  0
LINE
  8
_f-a_250
  6
CONTINUOUS
 62
  250
 10
178.82930333028858
 20
128.1650571776282
 11
178.85929638753959
 21
128.11332034596322
  0
LINE
  8
_f-a_250
  6
CONTINUOUS
 62
  250
 10
178.85929638753959
 20
128.11332034596322
 11
178.89108950506309
 21
128.06306170948875
  0
LINE
  8
_f-a_250
  6
CONTINUOUS
 62
  250
 10
178.89108950506309
 20
128.06306170948875
 11
178.92458731542658
 21
128.01435279377819
  0
LINE
  8
_f-a_250
  6
CONTINUOUS
 62
  250
 10
178.92458731542658
 20
128.01435279377819
 11
178.9597659767731
 21
127.96724128254773
  0
LINE
  8
_f-a_250
  6
CONTINUOUS
 62
  250
 10
178.9597659767731
 20
127.96724128254773
 11
178.99654204259957
 21
127.92175101765524
  0
LINE
  8
_f-a_250
  6
CONTINUOUS
 62
  250
 10
178.99654204259957
 20
127.92175101765524
 11
179.03487975011907
 21
127.87790584095825
  0
LINE
  8
_f-a_250
  6
CONTINUOUS
 62
  250
 10
179.03487975011907
 20
127.87790584095825
 11
178.72689062963556
 21
127.85456466206421
  0
LINE
  8
_f-a_250
  6
CONTINUOUS
 62
  250
 10
178.72689062963556
 20
127.85456466206421
 11
178.69063908468308
 21
127.90630149372925
  0
LINE
  8
_f-a_250
  6
CONTINUOUS
 62
  250
 10
178.69063908468308
 20
127.90630149372925
 11
178.65609223257161
 21
127.95951652058471
  0
LINE
  8
_f-a_250
  6
CONTINUOUS
 62
  250
 10
178.65609223257161
 20
127.95951652058471
 11
178.62328583608709
 21
128.01413821705674
  0
LINE
  8
_f-a_250
  6
CONTINUOUS
 62
  250
 10
178.62328583608709
 20
128.01413821705674
 11
178.59225565801708
 21
128.0701427412877
  0
LINE
  8
_f-a_250
  6
CONTINUOUS
 62
  250
 10
178.59225565801708
 20
128.0701427412877
 11
178.5630374611481
 21
128.12748240956171
  0
LINE
  8
_f-a_250
  6
CONTINUOUS
 62
  250
 10
178.5630374611481
 20
128.12748240956171
 11
178.53564316640959
 21
128.18613338002075
  0
LINE
  8
_f-a_250
  6
CONTINUOUS
 62
  250
 10
178.53564316640959
 20
128.18613338002075
 11
178.51012045751659
 21
128.24604796894923
  0
LINE
  8
_f-a_250
  6
CONTINUOUS
 62
  250
 10
178.51012045751659
 20
128.24604796894923
 11
178.48649317632757
 21
128.30715465077273
  0
LINE
  8
_f-a_250
  6
CONTINUOUS
 62
  250
 10
178.48649317632757
 20
128.30715465077273
 11
178.46479708562907
 21
128.36947726734971
  0
LINE
  8
_f-a_250
  6
CONTINUOUS
 62
  250
 10
178.46479708562907
 20
128.36947726734971
 11
178.44505602727958
 21
128.43292045124872
  0
LINE
  8
_f-a_250
  6
CONTINUOUS
 62
  250
 10
178.44505602727958
 20
128.43292045124872
 11
178.38055188070359
 21
128.46792029866072
  0
LINE
  8
_f-a_250
  6
CONTINUOUS
 62
  250
 10
178.38055188070359
 20
128.46792029866072
 11
178.35722262273856
 21
128.4710435820472
  0
LINE
  8
_f-a_250
  6
CONTINUOUS
 62
  250
 10
178.35722262273856
 20
128.4710435820472
 11
178.33410794149458
 21
128.47447680958621
  0
LINE
  8
_f-a_250
  6
CONTINUOUS
 62
  250
 10
178.33410794149458
 20
128.47447680958621
 11
178.31119591604309
 21
128.4781722975622
  0
LINE
  8
_f-a_250
  6
CONTINUOUS
 62
  250
 10
178.31119591604309
 20
128.4781722975622
 11
178.28845078359709
 21
128.48208236225975
  0
LINE
  8
_f-a_250
  6
CONTINUOUS
 62
  250
 10
178.28845078359709
 20
128.48208236225975
 11
178.26587254415608
 21
128.48623084553572
  0
LINE
  8
_f-a_250
  6
CONTINUOUS
 62
  250
 10
178.26587254415608
 20
128.48623084553572
 11
178.24341351400457
 21
128.4905939055337
  0
LINE
  8
_f-a_250
  6
CONTINUOUS
 62
  250
 10
178.24341351400457
 20
128.4905939055337
 11
178.22108561407157
 21
128.49512385853623
  0
LINE
  8
_f-a_250
  6
CONTINUOUS
 62
  250
 10
178.22108561407157
 20
128.49512385853623
 11
178.19884116064159
 21
128.49979686268671
  0
LINE
  8
_f-a_250
  6
CONTINUOUS
 62
  250
 10
178.19884116064159
 20
128.49979686268671
 11
178.17666823278509
 21
128.50463675984275
  0
LINE
  8
_f-a_250
  6
CONTINUOUS
 62
  250
 10
178.17666823278509
 20
128.50463675984275
 11
178.15455490957359
 21
128.5095720244297
  0
LINE
  8
_f-a_250
  6
CONTINUOUS
 62
  250
 10
178.09405619512657
 20
113.80791949757472
 11
178.11467940221857
 21
113.80200671681274
  0
LINE
  8
_f-a_250
  6
CONTINUOUS
 62
  250
 10
178.11467940221857
 20
113.80200671681274
 11
178.13556486974809
 21
113.79630851277221
  0
LINE
  8
_f-a_250
  6
CONTINUOUS
 62
  250
 10
178.13556486974809
 20
113.79630851277221
 11
178.15666491399861
 21
113.79077720173723
  0
LINE
  8
_f-a_250
  6
CONTINUOUS
 62
  250
 10
178.15666491399861
 20
113.79077720173723
 11
178.17794377218308
 21
113.78541278370722
  0
LINE
  8
_f-a_250
  6
CONTINUOUS
 62
  250
 10
178.17794377218308
 20
113.78541278370722
 11
178.19936568151559
 21
113.7801914168252
  0
LINE
  8
_f-a_250
  6
CONTINUOUS
 62
  250
 10
178.19936568151559
 20
113.7801914168252
 11
178.22089487920857
 21
113.77516078480572
  0
LINE
  8
_f-a_250
  6
CONTINUOUS
 62
  250
 10
178.22089487920857
 20
113.77516078480572
 11
178.24253136526207
 21
113.77024936207623
  0
LINE
  8
_f-a_250
  6
CONTINUOUS
 62
  250
 10
178.24253136526207
 20
113.77024936207623
 11
178.2641916931731
 21
113.76545714863673
  0
LINE
  8
_f-a_250
  6
CONTINUOUS
 62
  250
 10
178.2641916931731
 20
113.76545714863673
 11
178.28587586294256
 21
113.76078414448621
  0
LINE
  8
_f-a_250
  6
CONTINUOUS
 62
  250
 10
178.28587586294256
 20
113.76078414448621
 11
178.30754811178306
 21
113.75623034962524
  0
LINE
  8
_f-a_250
  6
CONTINUOUS
 62
  250
 10
178.30754811178306
 20
113.75623034962524
 11
178.37788159261808
 21
113.7879161787877
  0
LINE
  8
_f-a_250
  6
CONTINUOUS
 62
  250
 10
178.37788159261808
 20
113.7879161787877
 11
178.36944157491757
 21
113.88671683796774
  0
LINE
  8
_f-a_250
  6
CONTINUOUS
 62
  250
 10
178.36944157491757
 20
113.88671683796774
 11
178.36625868688657
 21
113.98496913441522
  0
LINE
  8
_f-a_250
  6
CONTINUOUS
 62
  250
 10
178.36625868688657
 20
113.98496913441522
 11
178.36827332388006
 21
114.08238696583621
  0
LINE
  8
_f-a_250
  6
CONTINUOUS
 62
  250
 10
178.36827332388006
 20
114.08238696583621
 11
178.37539011846607
 21
114.17873191365121
  0
LINE
  8
_f-a_250
  6
CONTINUOUS
 62
  250
 10
178.37539011846607
 20
114.17873191365121
 11
178.38754946600059
 21
114.27374171742322
  0
LINE
  8
_f-a_250
  6
CONTINUOUS
 62
  250
 10
178.38754946600059
 20
114.27374171742322
 11
178.40466791998008
 21
114.3671302748572
  0
LINE
  8
_f-a_250
  6
CONTINUOUS
 62
  250
 10
178.40466791998008
 20
114.3671302748572
 11
178.4266739548311
 21
114.4586830092322
  0
LINE
  8
_f-a_250
  6
CONTINUOUS
 62
  250
 10
178.4266739548311
 20
114.4586830092322
 11
178.4534841240511
 21
114.5481138182532
  0
LINE
  8
_f-a_250
  6
CONTINUOUS
 62
  250
 10
178.4534841240511
 20
114.5481138182532
 11
178.4850269020661
 21
114.63516044148324
  0
LINE
  8
_f-a_250
  6
CONTINUOUS
 62
  250
 10
178.4850269020661
 20
114.63516044148324
 11
178.52121884237357
 21
114.71956061848523
  0
LINE
  8
_f-a_250
  6
CONTINUOUS
 62
  250
 10
178.52121884237357
 20
114.71956061848523
 11
178.79921490560608
 21
114.70458793171774
  0
LINE
  8
_f-a_250
  6
CONTINUOUS
 62
  250
 10
178.79921490560608
 20
114.70458793171774
 11
178.75749165426356
 21
114.62595748432975
  0
LINE
  8
_f-a_250
  6
CONTINUOUS
 62
  250
 10
178.75749165426356
 20
114.62595748432975
 11
178.72106129537659
 21
114.54332160481323
  0
LINE
  8
_f-a_250
  6
CONTINUOUS
 62
  250
 10
178.72106129537659
 20
114.54332160481323
 11
178.69001919637759
 21
114.45710944661023
  0
LINE
  8
_f-a_250
  6
CONTINUOUS
 62
  250
 10
178.69001919637759
 20
114.45710944661023
 11
178.6644964874846
 21
114.3677501631627
  0
LINE
  8
_f-a_250
  6
CONTINUOUS
 62
  250
 10
178.6644964874846
 20
114.3677501631627
 11
178.64457661520106
 21
114.27562522419821
  0
LINE
  8
_f-a_250
  6
CONTINUOUS
 62
  250
 10
178.64457661520106
 20
114.27562522419821
 11
178.6303549469576
 21
114.18111609944222
  0
LINE
  8
_f-a_250
  6
CONTINUOUS
 62
  250
 10
178.6303549469576
 20
114.18111609944222
 11
178.62193877111508
 21
114.08472346791123
  0
LINE
  8
_f-a_250
  6
CONTINUOUS
 62
  250
 10
178.62193877111508
 20
114.08472346791123
 11
178.6194353760346
 21
113.98675727375871
  0
LINE
  8
_f-a_250
  6
CONTINUOUS
 62
  250
 10
178.6194353760346
 20
113.98675727375871
 11
178.62294012914757
 21
113.8876943541417
  0
LINE
  8
_f-a_250
  6
CONTINUOUS
 62
  250
 10
178.62294012914757
 20
113.8876943541417
 11
178.63254839788507
 21
113.7879161787877
  0
LINE
  8
_f-a_250
  6
CONTINUOUS
 62
  250
 10
178.63254839788507
 20
113.7879161787877
 11
178.70089108358457
 21
113.71457862385623
  0
LINE
  8
_f-a_250
  6
CONTINUOUS
 62
  250
 10
178.70089108358457
 20
113.71457862385623
 11
178.80784565816958
 21
113.71460246571424
  0
LINE
  8
_f-a_250
  6
CONTINUOUS
 62
  250
 10
178.80784565816958
 20
113.71460246571424
 11
178.91331011663507
 21
113.71970462330674
  0
LINE
  8
_f-a_250
  6
CONTINUOUS
 62
  250
 10
178.91331011663507
 20
113.71970462330674
 11
179.01702219854457
 21
113.72974204548723
  0
LINE
  8
_f-a_250
  6
CONTINUOUS
 62
  250
 10
179.01702219854457
 20
113.72974204548723
 11
179.11874348531808
 21
113.74471473225472
  0
LINE
  8
_f-a_250
  6
CONTINUOUS
 62
  250
 10
179.11874348531808
 20
113.74471473225472
 11
179.21815211187459
 21
113.76457499989371
  0
LINE
  8
_f-a_250
  6
CONTINUOUS
 62
  250
 10
179.21815211187459
 20
113.76457499989371
 11
179.31502158056358
 21
113.7892036391152
  0
LINE
  8
_f-a_250
  6
CONTINUOUS
 62
  250
 10
179.31502158056358
 20
113.7892036391152
 11
179.40906578909008
 21
113.81860064991821
  0
LINE
  8
_f-a_250
  6
CONTINUOUS
 62
  250
 10
179.40906578909008
 20
113.81860064991821
 11
179.50001055608809
 21
113.85267066487174
  0
LINE
  8
_f-a_250
  6
CONTINUOUS
 62
  250
 10
179.50001055608809
 20
113.85267066487174
 11
179.58760554205008
 21
113.89134215840222
  0
LINE
  8
_f-a_250
  6
CONTINUOUS
 62
  250
 10
179.58760554205008
 20
113.89134215840222
 11
179.67155272375206
 21
113.93456744679321
  0
LINE
  8
_f-a_250
  6
CONTINUOUS
 62
  250
 10
179.67155272375206
 20
113.93456744679321
 11
179.69105536352257
 21
113.66124438771121
  0
LINE
  8
_f-a_250
  6
CONTINUOUS
 62
  250
 10
179.69105536352257
 20
113.66124438771121
 11
179.60667902837858
 21
113.62321662434474
  0
LINE
  8
_f-a_250
  6
CONTINUOUS
 62
  250
 10
179.60667902837858
 20
113.62321662434474
 11
179.51968008886408
 21
113.58907508381722
  0
LINE
  8
_f-a_250
  6
CONTINUOUS
 62
  250
 10
179.51968008886408
 20
113.58907508381722
 11
179.43023735891407
 21
113.55889129170274
  0
LINE
  8
_f-a_250
  6
CONTINUOUS
 62
  250
 10
179.43023735891407
 20
113.55889129170274
 11
179.33851773153407
 21
113.53264140614371
  0
LINE
  8
_f-a_250
  6
CONTINUOUS
 62
  250
 10
179.33851773153407
 20
113.53264140614371
 11
179.24474770437308
 21
113.51039695271371
  0
LINE
  8
_f-a_250
  6
CONTINUOUS
 62
  250
 10
179.24474770437308
 20
113.51039695271371
 11
179.14905840765059
 21
113.49215793141221
  0
LINE
  8
_f-a_250
  6
CONTINUOUS
 62
  250
 10
179.14905840765059
 20
113.49215793141221
 11
179.0516644180876
 21
113.4779005003822
  0
LINE
  8
_f-a_250
  6
CONTINUOUS
 62
  250
 10
179.0516644180876
 20
113.4779005003822
 11
178.95274454961859
 21
113.46774386891221
  0
LINE
  8
_f-a_250
  6
CONTINUOUS
 62
  250
 10
178.95274454961859
 20
113.46774386891221
 11
178.85247761617759
 21
113.4616165114297
  0
LINE
  8
_f-a_250
  6
CONTINUOUS
 62
  250
 10
178.85247761617759
 20
113.4616165114297
 11
178.75104243169858
 21
113.4595661116492
  0
LINE
  8
_f-a_250
  6
CONTINUOUS
 62
  250
 10
178.75104243169858
 20
113.4595661116492
 11
178.72822577367859
 21
113.40623187550423
  0
LINE
  8
_f-a_250
  6
CONTINUOUS
 62
  250
 10
178.72822577367859
 20
113.40623187550423
 11
178.75054175268258
 21
113.34889220723022
  0
LINE
  8
_f-a_250
  6
CONTINUOUS
 62
  250
 10
178.75054175268258
 20
113.34889220723022
 11
178.77487236868006
 21
113.29286384114121
  0
LINE
  8
_f-a_250
  6
CONTINUOUS
 62
  250
 10
178.77487236868006
 20
113.29286384114121
 11
178.80113417516807
 21
113.23826598652722
  0
LINE
  8
_f-a_250
  6
CONTINUOUS
 62
  250
 10
178.80113417516807
 20
113.23826598652722
 11
178.82930333028858
 21
113.18507480152971
  0
LINE
  8
_f-a_250
  6
CONTINUOUS
 62
  250
 10
178.82930333028858
 20
113.18507480152971
 11
178.85929638753959
 21
113.13331412800672
  0
LINE
  8
_f-a_250
  6
CONTINUOUS
 62
  250
 10
178.85929638753959
 20
113.13331412800672
 11
178.89108950506309
 21
113.08305549153224
  0
LINE
  8
_f-a_250
  6
CONTINUOUS
 62
  250
 10
178.89108950506309
 20
113.08305549153224
 11
178.92458731542658
 21
113.0343704176797
  0
LINE
  8
_f-a_250
  6
CONTINUOUS
 62
  250
 10
178.92458731542658
 20
113.0343704176797
 11
178.9597659767731
 21
112.98725890644923
  0
LINE
  8
_f-a_250
  6
CONTINUOUS
 62
  250
 10
178.9597659767731
 20
112.98725890644923
 11
178.99654204259957
 21
112.9417447996987
  0
LINE
  8
_f-a_250
  6
CONTINUOUS
 62
  250
 10
178.99654204259957
 20
112.9417447996987
 11
179.03487975011907
 21
112.89789962300171
  0
LINE
  8
_f-a_250
  6
CONTINUOUS
 62
  250
 10
179.03487975011907
 20
112.89789962300171
 11
178.72689062963556
 21
112.8745822859657
  0
LINE
  8
_f-a_250
  6
CONTINUOUS
 62
  250
 10
178.72689062963556
 20
112.8745822859657
 11
178.69063908468308
 21
112.92636680134675
  0
LINE
  8
_f-a_250
  6
CONTINUOUS
 62
  250
 10
178.69063908468308
 20
112.92636680134675
 11
178.65609223257161
 21
112.97967719563371
  0
LINE
  8
_f-a_250
  6
CONTINUOUS
 62
  250
 10
178.65609223257161
 20
112.97967719563371
 11
178.62328583608709
 21
113.0344419432532
  0
LINE
  8
_f-a_250
  6
CONTINUOUS
 62
  250
 10
178.62328583608709
 20
113.0344419432532
 11
178.59225565801708
 21
113.09063720234722
  0
LINE
  8
_f-a_250
  6
CONTINUOUS
 62
  250
 10
178.59225565801708
 20
113.09063720234722
 11
178.5630374611481
 21
113.1480960799107
  0
LINE
  8
_f-a_250
  6
CONTINUOUS
 62
  250
 10
178.5630374611481
 20
113.1480960799107
 11
178.53564316640959
 21
113.20684241780172
  0
LINE
  8
_f-a_250
  6
CONTINUOUS
 62
  250
 10
178.53564316640959
 20
113.20684241780172
 11
178.51012045751659
 21
113.26675700672973
  0
LINE
  8
_f-a_250
  6
CONTINUOUS
 62
  250
 10
178.51012045751659
 20
113.26675700672973
 11
178.48649317632757
 21
113.32779216297973
  0
LINE
  8
_f-a_250
  6
CONTINUOUS
 62
  250
 10
178.48649317632757
 20
113.32779216297973
 11
178.46479708562907
 21
113.38987636097772
  0
LINE
  8
_f-a_250
  6
CONTINUOUS
 62
  250
 10
178.46479708562907
 20
113.38987636097772
 11
178.44505602727958
 21
113.45289039143424
  0
LINE
  8
_f-a_250
  6
CONTINUOUS
 62
  250
 10
178.44505602727958
 20
113.45289039143424
 11
178.38055188070359
 21
113.48624515065072
  0
LINE
  8
_f-a_250
  6
CONTINUOUS
 62
  250
 10
178.38055188070359
 20
113.48624515065072
 11
178.35722262273856
 21
113.48984527119524
  0
LINE
  8
_f-a_250
  6
CONTINUOUS
 62
  250
 10
178.35722262273856
 20
113.48984527119524
 11
178.33410794149458
 21
113.49363612660272
  0
LINE
  8
_f-a_250
  6
CONTINUOUS
 62
  250
 10
178.33410794149458
 20
113.49363612660272
 11
178.31119591604309
 21
113.49759387501572
  0
LINE
  8
_f-a_250
  6
CONTINUOUS
 62
  250
 10
178.31119591604309
 20
113.49759387501572
 11
178.28845078359709
 21
113.50174235829223
  0
LINE
  8
_f-a_250
  6
CONTINUOUS
 62
  250
 10
178.28845078359709
 20
113.50174235829223
 11
178.26587254415608
 21
113.50603389271623
  0
LINE
  8
_f-a_250
  6
CONTINUOUS
 62
  250
 10
178.26587254415608
 20
113.50603389271623
 11
178.24341351400457
 21
113.5104923201452
  0
LINE
  8
_f-a_250
  6
CONTINUOUS
 62
  250
 10
178.24341351400457
 20
113.5104923201452
 11
178.22108561407157
 21
113.51506995686422
  0
LINE
  8
_f-a_250
  6
CONTINUOUS
 62
  250
 10
178.22108561407157
 20
113.51506995686422
 11
178.19884116064159
 21
113.51979064473022
  0
LINE
  8
_f-a_250
  6
CONTINUOUS
 62
  250
 10
178.19884116064159
 20
113.51979064473022
 11
178.17666823278509
 21
113.5246305418862
  0
LINE
  8
_f-a_250
  6
CONTINUOUS
 62
  250
 10
178.17666823278509
 20
113.5246305418862
 11
178.15455490957359
 21
113.5295658064732
  0
LINE
  8
_f-a_250
  6
CONTINUOUS
 62
  250
 10
151.05572039495559
 20
144.27957820423973
 11
151.07629591833211
 21
144.27368926533575
  0
LINE
  8
_f-a_250
  6
CONTINUOUS
 62
  250
 10
151.07629591833211
 20
144.27368926533575
 11
151.0970383347136
 21
144.26799106129522
  0
LINE
  8
_f-a_250
  6
CONTINUOUS
 62
  250
 10
151.0970383347136
 20
144.26799106129522
 11
151.11792380224307
 21
144.26248359211772
  0
LINE
  8
_f-a_250
  6
CONTINUOUS
 62
  250
 10
151.11792380224307
 20
144.26248359211772
 11
151.1389403999911
 21
144.25716685780421
  0
LINE
  8
_f-a_250
  6
CONTINUOUS
 62
  250
 10
151.1389403999911
 20
144.25716685780421
 11
151.16011196981509
 21
144.25206470021124
  0
LINE
  8
_f-a_250
  6
CONTINUOUS
 62
  250
 10
151.16011196981509
 20
144.25206470021124
 11
151.1814265907866
 21
144.24717711933971
  0
LINE
  8
_f-a_250
  6
CONTINUOUS
 62
  250
 10
151.1814265907866
 20
144.24717711933971
 11
151.2028485001191
 21
144.24245643147319
  0
LINE
  8
_f-a_250
  6
CONTINUOUS
 62
  250
 10
151.2028485001191
 20
144.24245643147319
 11
151.22441346059858
 21
144.23797416218622
  0
LINE
  8
_f-a_250
  6
CONTINUOUS
 62
  250
 10
151.22441346059858
 20
144.23797416218622
 11
151.24609763036807
 21
144.2336826277627
  0
LINE
  8
_f-a_250
  6
CONTINUOUS
 62
  250
 10
151.24609763036807
 20
144.2336826277627
 11
151.26788908849809
 21
144.22955798634422
  0
LINE
  8
_f-a_250
  6
CONTINUOUS
 62
  250
 10
151.26788908849809
 20
144.22955798634422
 11
151.3375549973116
 21
144.25957488545274
  0
LINE
  8
_f-a_250
  6
CONTINUOUS
 62
  250
 10
151.3375549973116
 20
144.25957488545274
 11
151.32943684469308
 21
144.35837554463274
  0
LINE
  8
_f-a_250
  6
CONTINUOUS
 62
  250
 10
151.32943684469308
 20
144.35837554463274
 11
151.32651621709908
 21
144.45660399922221
  0
LINE
  8
_f-a_250
  6
CONTINUOUS
 62
  250
 10
151.32651621709908
 20
144.45660399922221
 11
151.32870966802659
 21
144.5539979887852
  0
LINE
  8
_f-a_250
  6
CONTINUOUS
 62
  250
 10
151.32870966802659
 20
144.5539979887852
 11
151.33594567190258
 21
144.65027141102672
  0
LINE
  8
_f-a_250
  6
CONTINUOUS
 62
  250
 10
151.33594567190258
 20
144.65027141102672
 11
151.3481407822236
 21
144.74520968922471
  0
LINE
  8
_f-a_250
  6
CONTINUOUS
 62
  250
 10
151.3481407822236
 20
144.74520968922471
 11
151.36522347341608
 21
144.83845519551173
  0
LINE
  8
_f-a_250
  6
CONTINUOUS
 62
  250
 10
151.36522347341608
 20
144.83845519551173
 11
151.38708645711958
 21
144.92979335316522
  0
LINE
  8
_f-a_250
  6
CONTINUOUS
 62
  250
 10
151.38708645711958
 20
144.92979335316522
 11
151.41368204961856
 21
145.01893805989121
  0
LINE
  8
_f-a_250
  6
CONTINUOUS
 62
  250
 10
151.41368204961856
 20
145.01893805989121
 11
151.44492680441007
 21
145.10562705525274
  0
LINE
  8
_f-a_250
  6
CONTINUOUS
 62
  250
 10
151.44492680441007
 20
145.10562705525274
 11
151.48072535406209
 21
145.1895742369542
  0
LINE
  8
_f-a_250
  6
CONTINUOUS
 62
  250
 10
151.48072535406209
 20
145.1895742369542
 11
151.75938898931608
 21
145.17791556843622
  0
LINE
  8
_f-a_250
  6
CONTINUOUS
 62
  250
 10
151.75938898931608
 20
145.17791556843622
 11
151.71799952398359
 21
145.09885596760626
  0
LINE
  8
_f-a_250
  6
CONTINUOUS
 62
  250
 10
151.71799952398359
 20
145.09885596760626
 11
151.68179566274711
 21
145.01600551136821
  0
LINE
  8
_f-a_250
  6
CONTINUOUS
 62
  250
 10
151.68179566274711
 20
145.01600551136821
 11
151.65092045675357
 21
144.92969798573372
  0
LINE
  8
_f-a_250
  6
CONTINUOUS
 62
  250
 10
151.65092045675357
 20
144.92969798573372
 11
151.6254811943636
 21
144.84036254414423
  0
LINE
  8
_f-a_250
  6
CONTINUOUS
 62
  250
 10
151.6254811943636
 20
144.84036254414423
 11
151.60557324300859
 21
144.74830913075323
  0
LINE
  8
_f-a_250
  6
CONTINUOUS
 62
  250
 10
151.60557324300859
 20
144.74830913075323
 11
151.59133965383609
 21
144.65399074086071
  0
LINE
  8
_f-a_250
  6
CONTINUOUS
 62
  250
 10
151.59133965383609
 20
144.65399074086071
 11
151.5828757942781
 21
144.55774116047724
  0
LINE
  8
_f-a_250
  6
CONTINUOUS
 62
  250
 10
151.5828757942781
 20
144.55774116047724
 11
151.58032471548159
 21
144.45991801747172
  0
LINE
  8
_f-a_250
  6
CONTINUOUS
 62
  250
 10
151.58032471548159
 20
144.45991801747172
 11
151.58379370580758
 21
144.36097430714472
  0
LINE
  8
_f-a_250
  6
CONTINUOUS
 62
  250
 10
151.58379370580758
 20
144.36097430714472
 11
151.59339005361659
 21
144.2612438155067
  0
LINE
  8
_f-a_250
  6
CONTINUOUS
 62
  250
 10
151.59339005361659
 20
144.2612438155067
 11
151.66106516729457
 21
144.18621348866321
  0
LINE
  8
_f-a_250
  6
CONTINUOUS
 62
  250
 10
151.66106516729457
 20
144.18621348866321
 11
151.76823431860058
 21
144.18626117237923
  0
LINE
  8
_f-a_250
  6
CONTINUOUS
 62
  250
 10
151.76823431860058
 20
144.18626117237923
 11
151.87388951192958
 21
144.19133948811424
  0
LINE
  8
_f-a_250
  6
CONTINUOUS
 62
  250
 10
151.87388951192958
 20
144.19133948811424
 11
151.97776848684407
 21
144.20142459401023
  0
LINE
  8
_f-a_250
  6
CONTINUOUS
 62
  250
 10
151.97776848684407
 20
144.20142459401023
 11
152.07959706197806
 21
144.2163972807777
  0
LINE
  8
_f-a_250
  6
CONTINUOUS
 62
  250
 10
152.07959706197806
 20
144.2163972807777
 11
152.17911297689506
 21
144.23623370655872
  0
LINE
  8
_f-a_250
  6
CONTINUOUS
 62
  250
 10
152.17911297689506
 20
144.23623370655872
 11
152.2760778130156
 21
144.26088618763825
  0
LINE
  8
_f-a_250
  6
CONTINUOUS
 62
  250
 10
152.2760778130156
 20
144.26088618763825
 11
152.37021738897408
 21
144.29025935658325
  0
LINE
  8
_f-a_250
  6
CONTINUOUS
 62
  250
 10
152.37021738897408
 20
144.29025935658325
 11
152.46126944433308
 21
144.32430552967921
  0
LINE
  8
_f-a_250
  6
CONTINUOUS
 62
  250
 10
152.46126944433308
 20
144.32430552967921
 11
152.54895979772658
 21
144.36300086506722
  0
LINE
  8
_f-a_250
  6
CONTINUOUS
 62
  250
 10
152.54895979772658
 20
144.36300086506722
 11
152.63305003057559
 21
144.40624999531624
  0
LINE
  8
_f-a_250
  6
CONTINUOUS
 62
  250
 10
152.63305003057559
 20
144.40624999531624
 11
152.6520519913301
 21
144.13123416432273
  0
LINE
  8
_f-a_250
  6
CONTINUOUS
 62
  250
 10
152.6520519913301
 20
144.13123416432273
 11
152.56769949804408
 21
144.09363555439825
  0
LINE
  8
_f-a_250
  6
CONTINUOUS
 62
  250
 10
152.56769949804408
 20
144.09363555439825
 11
152.48073632131656
 21
144.05987548359721
  0
LINE
  8
_f-a_250
  6
CONTINUOUS
 62
  250
 10
152.48073632131656
 20
144.05987548359721
 11
152.3913412750826
 21
144.02997779377819
  0
LINE
  8
_f-a_250
  6
CONTINUOUS
 62
  250
 10
152.3913412750826
 20
144.02997779377819
 11
152.29970509420457
 21
144.00396632679821
  0
LINE
  8
_f-a_250
  6
CONTINUOUS
 62
  250
 10
152.29970509420457
 20
144.00396632679821
 11
152.2059946716891
 21
143.98186492451524
  0
LINE
  8
_f-a_250
  6
CONTINUOUS
 62
  250
 10
152.2059946716891
 20
143.98186492451524
 11
152.11038882146906
 21
143.96372127064575
  0
LINE
  8
_f-a_250
  6
CONTINUOUS
 62
  250
 10
152.11038882146906
 20
143.96372127064575
 11
152.01306635748006
 21
143.9495592070472
  0
LINE
  8
_f-a_250
  6
CONTINUOUS
 62
  250
 10
152.01306635748006
 20
143.9495592070472
 11
151.91419417272658
 21
143.93940257557719
  0
LINE
  8
_f-a_250
  6
CONTINUOUS
 62
  250
 10
151.91419417272658
 20
143.93940257557719
 11
151.81396300207206
 21
143.93327521809474
  0
LINE
  8
_f-a_250
  6
CONTINUOUS
 62
  250
 10
151.81396300207206
 20
143.93327521809474
 11
151.71255165945158
 21
143.9312486601722
  0
LINE
  8
_f-a_250
  6
CONTINUOUS
 62
  250
 10
151.71255165945158
 20
143.9312486601722
 11
151.68788725744309
 21
143.87789058216924
  0
LINE
  8
_f-a_250
  6
CONTINUOUS
 62
  250
 10
151.68788725744309
 20
143.87789058216924
 11
151.71071583639207
 21
143.8205509138952
  0
LINE
  8
_f-a_250
  6
CONTINUOUS
 62
  250
 10
151.71071583639207
 20
143.8205509138952
 11
151.73545176397408
 21
143.76454638966419
  0
LINE
  8
_f-a_250
  6
CONTINUOUS
 62
  250
 10
151.73545176397408
 20
143.76454638966419
 11
151.76204735647258
 21
143.70992469319222
  0
LINE
  8
_f-a_250
  6
CONTINUOUS
 62
  250
 10
151.76204735647258
 20
143.70992469319222
 11
151.79045493017259
 21
143.65673350819472
  0
LINE
  8
_f-a_250
  6
CONTINUOUS
 62
  250
 10
151.79045493017259
 20
143.65673350819472
 11
151.82063872228707
 21
143.60499667652971
  0
LINE
  8
_f-a_250
  6
CONTINUOUS
 62
  250
 10
151.82063872228707
 20
143.60499667652971
 11
151.85253912817058
 21
143.5547380400547
  0
LINE
  8
_f-a_250
  6
CONTINUOUS
 62
  250
 10
151.85253912817058
 20
143.5547380400547
 11
151.88612038503709
 21
143.50602912434474
  0
LINE
  8
_f-a_250
  6
CONTINUOUS
 62
  250
 10
151.88612038503709
 20
143.50602912434474
 11
151.92131096731256
 21
143.45891761311424
  0
LINE
  8
_f-a_250
  6
CONTINUOUS
 62
  250
 10
151.92131096731256
 20
143.45891761311424
 11
151.95808703313907
 21
143.41342734822175
  0
LINE
  8
_f-a_250
  6
CONTINUOUS
 62
  250
 10
151.95808703313907
 20
143.41342734822175
 11
151.99637705694261
 21
143.36958217152474
  0
LINE
  8
_f-a_250
  6
CONTINUOUS
 62
  250
 10
151.99637705694261
 20
143.36958217152474
 11
151.6865521134001
 21
143.34790992268421
  0
LINE
  8
_f-a_250
  6
CONTINUOUS
 62
  250
 10
151.6865521134001
 20
143.34790992268421
 11
151.65047938238212
 21
143.39924144276469
  0
LINE
  8
_f-a_250
  6
CONTINUOUS
 62
  250
 10
151.65047938238212
 20
143.39924144276469
 11
151.61606366048909
 21
143.4522180510412
  0
LINE
  8
_f-a_250
  6
CONTINUOUS
 62
  250
 10
151.61606366048909
 20
143.4522180510412
 11
151.58336455236508
 21
143.50669669636622
  0
LINE
  8
_f-a_250
  6
CONTINUOUS
 62
  250
 10
151.58336455236508
 20
143.50669669636622
 11
151.5524297417266
 21
143.56267737873924
  0
LINE
  8
_f-a_250
  6
CONTINUOUS
 62
  250
 10
151.5524297417266
 20
143.56267737873924
 11
151.5232830704316
 21
143.61999320515525
  0
LINE
  8
_f-a_250
  6
CONTINUOUS
 62
  250
 10
151.5232830704316
 20
143.61999320515525
 11
151.4959722221956
 21
143.67864417561424
  0
LINE
  8
_f-a_250
  6
CONTINUOUS
 62
  250
 10
151.4959722221956
 20
143.67864417561424
 11
151.47053295980558
 21
143.73848723896873
  0
LINE
  8
_f-a_250
  6
CONTINUOUS
 62
  250
 10
151.47053295980558
 20
143.73848723896873
 11
151.4470129669771
 21
143.79947471150274
  0
LINE
  8
_f-a_250
  6
CONTINUOUS
 62
  250
 10
151.4470129669771
 20
143.79947471150274
 11
151.42544800649711
 21
143.86153506764271
  0
LINE
  8
_f-a_250
  6
CONTINUOUS
 62
  250
 10
151.42544800649711
 20
143.86153506764271
 11
151.40588576208211
 21
143.92457293995722
  0
LINE
  8
_f-a_250
  6
CONTINUOUS
 62
  250
 10
151.40588576208211
 20
143.92457293995722
 11
151.34022528539759
 21
143.9578800154577
  0
LINE
  8
_f-a_250
  6
CONTINUOUS
 62
  250
 10
151.34022528539759
 20
143.9578800154577
 11
151.31739670644856
 21
143.96150397786022
  0
LINE
  8
_f-a_250
  6
CONTINUOUS
 62
  250
 10
151.31739670644856
 20
143.96150397786022
 11
151.29460389028608
 21
143.96529483326771
  0
LINE
  8
_f-a_250
  6
CONTINUOUS
 62
  250
 10
151.29460389028608
 20
143.96529483326771
 11
151.27187067876909
 21
143.96925258168071
  0
LINE
  8
_f-a_250
  6
CONTINUOUS
 62
  250
 10
151.27187067876909
 20
143.96925258168071
 11
151.24917323003859
 21
143.97340106495722
  0
LINE
  8
_f-a_250
  6
CONTINUOUS
 62
  250
 10
151.24917323003859
 20
143.97340106495722
 11
151.22653538595259
 21
143.97769259938121
  0
LINE
  8
_f-a_250
  6
CONTINUOUS
 62
  250
 10
151.22653538595259
 20
143.97769259938121
 11
151.2039571465121
 21
143.98212718495219
  0
LINE
  8
_f-a_250
  6
CONTINUOUS
 62
  250
 10
151.2039571465121
 20
143.98212718495219
 11
151.1814265907866
 21
143.98672866352922
  0
LINE
  8
_f-a_250
  6
CONTINUOUS
 62
  250
 10
151.1814265907866
 20
143.98672866352922
 11
151.15895563970659
 21
143.9914493513952
  0
LINE
  8
_f-a_250
  6
CONTINUOUS
 62
  250
 10
151.15895563970659
 20
143.9914493513952
 11
151.13655621420008
 21
143.99628924855125
  0
LINE
  8
_f-a_250
  6
CONTINUOUS
 62
  250
 10
151.13655621420008
 20
143.99628924855125
 11
151.11422831426708
 21
144.00122451313823
  0
LINE
  8
_f-a_250
  6
CONTINUOUS
 62
  250
 10
180.46555811773359
 20
114.14125251301621
 11
180.50937945257257
 21
113.91532706745971
  0
LINE
  8
_f-a_250
  6
CONTINUOUS
 62
  250
 10
180.50937945257257
 20
113.91532706745971
 11
180.52095467458807
 21
113.69285869130022
  0
LINE
  8
_f-a_250
  6
CONTINUOUS
 62
  250
 10
180.52095467458807
 20
113.69285869130022
 11
180.50192887197559
 21
113.47735213765023
  0
LINE
  8
_f-a_250
  6
CONTINUOUS
 62
  250
 10
180.50192887197559
 20
113.47735213765023
 11
180.45395905386059
 21
113.27226447590724
  0
LINE
  8
_f-a_250
  6
CONTINUOUS
 62
  250
 10
180.45395905386059
 20
113.27226447590724
 11
180.37870222936709
 21
113.0810289336097
  0
LINE
  8
_f-a_250
  6
CONTINUOUS
 62
  250
 10
180.37870222936709
 20
113.0810289336097
 11
180.27777964483357
 21
112.9071741057287
  0
LINE
  8
_f-a_250
  6
CONTINUOUS
 62
  250
 10
180.27777964483357
 20
112.9071741057287
 11
180.15288407217108
 21
112.75410937794572
  0
LINE
  8
_f-a_250
  6
CONTINUOUS
 62
  250
 10
180.15288407217108
 20
112.75410937794572
 11
180.00563675771809
 21
112.62533950337271
  0
LINE
  8
_f-a_250
  6
CONTINUOUS
 62
  250
 10
180.00563675771809
 20
112.62533950337271
 11
179.8377066315276
 21
112.52434539326524
  0
LINE
  8
_f-a_250
  6
CONTINUOUS
 62
  250
 10
179.8377066315276
 20
112.52434539326524
 11
179.65072686086756
 21
112.4545841170202
  0
LINE
  8
_f-a_250
  6
CONTINUOUS
 62
  250
 10
179.65072686086756
 20
112.4545841170202
 11
179.45448452840907
 21
112.42115783223022
  0
LINE
  8
_f-a_250
  6
CONTINUOUS
 62
  250
 10
179.45448452840907
 20
112.42115783223022
 11
179.25890976797209
 21
112.42444800862174
  0
LINE
  8
_f-a_250
  6
CONTINUOUS
 62
  250
 10
179.25890976797209
 20
112.42444800862174
 11
179.06719738851609
 21
112.46221351155172
  0
LINE
  8
_f-a_250
  6
CONTINUOUS
 62
  250
 10
179.06719738851609
 20
112.46221351155172
 11
178.88256604086007
 21
112.53230857380723
  0
LINE
  8
_f-a_250
  6
CONTINUOUS
 62
  250
 10
178.88256604086007
 20
112.53230857380723
 11
178.70821053396307
 21
112.6324920607457
  0
LINE
  8
_f-a_250
  6
CONTINUOUS
 62
  250
 10
178.70821053396307
 20
112.6324920607457
 11
178.54731375585658
 21
112.76057052143921
  0
LINE
  8
_f-a_250
  6
CONTINUOUS
 62
  250
 10
178.54731375585658
 20
112.76057052143921
 11
178.40309435735807
 21
112.91435050495971
  0
LINE
  8
_f-a_250
  6
CONTINUOUS
 62
  250
 10
178.40309435735807
 20
112.91435050495971
 11
178.27877098928508
 21
113.09163856037972
  0
LINE
  8
_f-a_250
  6
CONTINUOUS
 62
  250
 10
178.27877098928508
 20
113.09163856037972
 11
178.17750269781209
 21
113.29021739491324
  0
LINE
  8
_f-a_250
  6
CONTINUOUS
 62
  250
 10
178.17750269781209
 20
113.29021739491324
 11
178.10254389654258
 21
113.50789355763322
  0
LINE
  8
_f-a_250
  6
CONTINUOUS
 62
  250
 10
178.10254389654258
 20
113.50789355763322
 11
178.05851990591108
 21
113.7342243147742
  0
LINE
  8
_f-a_250
  6
CONTINUOUS
 62
  250
 10
178.05851990591108
 20
113.7342243147742
 11
178.04681355367759
 21
113.95690726765524
  0
LINE
  8
_f-a_250
  6
CONTINUOUS
 62
  250
 10
178.04681355367759
 20
113.95690726765524
 11
178.06575590978707
 21
114.17248534687874
  0
LINE
  8
_f-a_250
  6
CONTINUOUS
 62
  250
 10
178.06575590978707
 20
114.17248534687874
 11
178.11370188604457
 21
114.37752532490622
  0
LINE
  8
_f-a_250
  6
CONTINUOUS
 62
  250
 10
178.11370188604457
 20
114.37752532490622
 11
178.18898255239557
 21
114.5685462904822
  0
LINE
  8
_f-a_250
  6
CONTINUOUS
 62
  250
 10
178.18898255239557
 20
114.5685462904822
 11
178.28994089971607
 21
114.74211501606824
  0
LINE
  8
_f-a_250
  6
CONTINUOUS
 62
  250
 10
178.28994089971607
 20
114.74211501606824
 11
178.4148722351656
 21
114.8947982741247
  0
LINE
  8
_f-a_250
  6
CONTINUOUS
 62
  250
 10
178.4148722351656
 20
114.8947982741247
 11
178.56215531240559
 21
115.02311515339721
  0
LINE
  8
_f-a_250
  6
CONTINUOUS
 62
  250
 10
178.56215531240559
 20
115.02311515339721
 11
178.73010928045358
 21
115.12363242634675
  0
LINE
  8
_f-a_250
  6
CONTINUOUS
 62
  250
 10
178.73010928045358
 20
115.12363242634675
 11
178.91706520925609
 21
115.1929168654332
  0
LINE
  8
_f-a_250
  6
CONTINUOUS
 62
  250
 10
178.91706520925609
 20
115.1929168654332
 11
179.11365324865409
 21
115.22681998738172
  0
LINE
  8
_f-a_250
  6
CONTINUOUS
 62
  250
 10
179.11365324865409
 20
115.22681998738172
 11
179.30950219045707
 21
115.22403049000623
  0
LINE
  8
_f-a_250
  6
CONTINUOUS
 62
  250
 10
179.30950219045707
 20
115.22403049000623
 11
179.5013933838471
 21
115.1866702986607
  0
LINE
  8
_f-a_250
  6
CONTINUOUS
 62
  250
 10
179.5013933838471
 20
115.1866702986607
 11
179.68614394079307
 21
115.11695670613172
  0
LINE
  8
_f-a_250
  6
CONTINUOUS
 62
  250
 10
179.68614394079307
 20
115.11695670613172
 11
179.86054713140555
 21
115.0170831633462
  0
LINE
  8
_f-a_250
  6
CONTINUOUS
 62
  250
 10
179.86054713140555
 20
115.0170831633462
 11
180.02143198858357
 21
114.88919543751572
  0
LINE
  8
_f-a_250
  6
CONTINUOUS
 62
  250
 10
180.02143198858357
 20
114.88919543751572
 11
180.1655560196501
 21
114.73548697956922
  0
LINE
  8
_f-a_250
  6
CONTINUOUS
 62
  250
 10
180.1655560196501
 20
114.73548697956922
 11
180.28976017843308
 21
114.55812739857575
  0
LINE
  8
_f-a_250
  6
CONTINUOUS
 62
  250
 10
180.28976017843308
 20
114.55812739857575
 11
180.39082581411458
 21
114.35933398732072
  0
LINE
  8
_f-a_250
  6
CONTINUOUS
 62
  250
 10
180.39082581411458
 20
114.35933398732072
 11
180.46555811773359
 21
114.14125251301621
  0
LINE
  8
_f-a_250
  6
CONTINUOUS
 62
  250
 10
179.39621502767659
 20
114.8895769072422
 11
179.47703892599208
 21
114.83536052235473
  0
LINE
  8
_f-a_250
  6
CONTINUOUS
 62
  250
 10
179.47703892599208
 20
114.83536052235473
 11
179.55401236425459
 21
114.7748737288367
  0
LINE
  8
_f-a_250
  6
CONTINUOUS
 62
  250
 10
179.55401236425459
 20
114.7748737288367
 11
179.62673003088059
 21
114.70835494526725
  0
LINE
  8
_f-a_250
  6
CONTINUOUS
 62
  250
 10
179.62673003088059
 20
114.70835494526725
 11
179.69478661428508
 21
114.63601874836773
  0
LINE
  8
_f-a_250
  6
CONTINUOUS
 62
  250
 10
179.69478661428508
 20
114.63601874836773
 11
179.7577648819551
 21
114.55810355671774
  0
LINE
  8
_f-a_250
  6
CONTINUOUS
 62
  250
 10
179.7577648819551
 20
114.55810355671774
 11
179.81524760137657
 21
114.4748477888952
  0
LINE
  8
_f-a_250
  6
CONTINUOUS
 62
  250
 10
179.81524760137657
 20
114.4748477888952
 11
179.86684138189409
 21
114.38646602162223
  0
LINE
  8
_f-a_250
  6
CONTINUOUS
 62
  250
 10
179.86684138189409
 20
114.38646602162223
 11
179.91210514913658
 21
114.29319667347772
  0
LINE
  8
_f-a_250
  6
CONTINUOUS
 62
  250
 10
179.91210514913658
 20
114.29319667347772
 11
179.95064551244806
 21
114.19525432118272
  0
LINE
  8
_f-a_250
  6
CONTINUOUS
 62
  250
 10
179.95064551244806
 20
114.19525432118272
 11
179.98204523931608
 21
114.09290122517473
  0
LINE
  8
_f-a_250
  6
CONTINUOUS
 62
  250
 10
179.98204523931608
 20
114.09290122517473
 11
180.01551920782157
 21
113.9304904890907
  0
LINE
  8
_f-a_250
  6
CONTINUOUS
 62
  250
 10
180.01551920782157
 20
113.9304904890907
 11
180.0293713272676
 21
113.76931952961773
  0
LINE
  8
_f-a_250
  6
CONTINUOUS
 62
  250
 10
180.0293713272676
 20
113.76931952961773
 11
180.02442414175107
 21
113.61084270008924
  0
LINE
  8
_f-a_250
  6
CONTINUOUS
 62
  250
 10
180.02442414175107
 20
113.61084270008924
 11
180.00148827444158
 21
113.45660972126822
  0
LINE
  8
_f-a_250
  6
CONTINUOUS
 62
  250
 10
180.00148827444158
 20
113.45660972126822
 11
179.96136242757859
 21
113.30812263020371
  0
LINE
  8
_f-a_250
  6
CONTINUOUS
 62
  250
 10
179.96136242757859
 20
113.30812263020371
 11
179.90488106618957
 21
113.16685962208621
  0
LINE
  8
_f-a_250
  6
CONTINUOUS
 62
  250
 10
179.90488106618957
 20
113.16685962208621
 11
179.83284289251409
 21
113.03439425953721
  0
LINE
  8
_f-a_250
  6
CONTINUOUS
 62
  250
 10
179.83284289251409
 20
113.03439425953721
 11
179.74607045065008
 21
112.91215705403224
  0
LINE
  8
_f-a_250
  6
CONTINUOUS
 62
  250
 10
179.74607045065008
 20
112.91215705403224
 11
179.64536244283758
 21
112.80172156819222
  0
LINE
  8
_f-a_250
  6
CONTINUOUS
 62
  250
 10
179.64536244283758
 20
112.80172156819222
 11
179.53154141317458
 21
112.70458983906624
  0
LINE
  8
_f-a_250
  6
CONTINUOUS
 62
  250
 10
153.40456063161909
 20
144.65623187550423
 11
153.44872767339805
 21
144.43033027180522
  0
LINE
  8
_f-a_250
  6
CONTINUOUS
 62
  250
 10
153.44872767339805
 20
144.43033027180522
 11
153.46050555120559
 21
144.20788573750374
  0
LINE
  8
_f-a_250
  6
CONTINUOUS
 62
  250
 10
153.46050555120559
 20
144.20788573750374
 11
153.4415512741671
 21
143.99240302571172
  0
LINE
  8
_f-a_250
  6
CONTINUOUS
 62
  250
 10
153.4415512741671
 20
143.99240302571172
 11
153.3935456932646
 21
143.78736304768421
  0
LINE
  8
_f-a_250
  6
CONTINUOUS
 62
  250
 10
153.3935456932646
 20
143.78736304768421
 11
153.31820542226859
 21
143.59624671467674
  0
LINE
  8
_f-a_250
  6
CONTINUOUS
 62
  250
 10
153.31820542226859
 20
143.59624671467674
 11
153.21718747030357
 21
143.42251109608526
  0
LINE
  8
_f-a_250
  6
CONTINUOUS
 62
  250
 10
153.21718747030357
 20
143.42251109608526
 11
153.09219653020958
 21
143.26968478688124
  0
LINE
  8
_f-a_250
  6
CONTINUOUS
 62
  250
 10
153.09219653020958
 20
143.26968478688124
 11
152.94491345296959
 21
143.14120101460321
  0
LINE
  8
_f-a_250
  6
CONTINUOUS
 62
  250
 10
152.94491345296959
 20
143.14120101460321
 11
152.77703101049508
 21
143.04056453236473
  0
LINE
  8
_f-a_250
  6
CONTINUOUS
 62
  250
 10
152.77703101049508
 20
143.04056453236473
 11
152.59023005376909
 21
142.97123240956171
  0
LINE
  8
_f-a_250
  6
CONTINUOUS
 62
  250
 10
152.59023005376909
 20
142.97123240956171
 11
152.39363009344157
 21
142.9377822829137
  0
LINE
  8
_f-a_250
  6
CONTINUOUS
 62
  250
 10
152.39363009344157
 20
142.9377822829137
 11
152.19776923071009
 21
142.94092940815821
  0
LINE
  8
_f-a_250
  6
CONTINUOUS
 62
  250
 10
152.19776923071009
 20
142.94092940815821
 11
152.00583035360407
 21
142.97852801808222
  0
LINE
  8
_f-a_250
  6
CONTINUOUS
 62
  250
 10
152.00583035360407
 20
142.97852801808222
 11
151.82102019201358
 21
143.0483846617592
  0
LINE
  8
_f-a_250
  6
CONTINUOUS
 62
  250
 10
151.82102019201358
 20
143.0483846617592
 11
151.6465335548981
 21
143.14832973011821
  0
LINE
  8
_f-a_250
  6
CONTINUOUS
 62
  250
 10
151.6465335548981
 20
143.14832973011821
 11
151.48556525121757
 21
143.27616977223272
  0
LINE
  8
_f-a_250
  6
CONTINUOUS
 62
  250
 10
151.48556525121757
 20
143.27616977223272
 11
151.34129816900358
 21
143.42971133717424
  0
LINE
  8
_f-a_250
  6
CONTINUOUS
 62
  250
 10
151.34129816900358
 20
143.42971133717424
 11
151.21693903814409
 21
143.60680865773071
  0
LINE
  8
_f-a_250
  6
CONTINUOUS
 62
  250
 10
151.21693903814409
 20
143.60680865773071
 11
151.11568266759957
 21
143.80526828297471
  0
LINE
  8
_f-a_250
  6
CONTINUOUS
 62
  250
 10
151.11568266759957
 20
143.80526828297471
 11
151.0407238663301
 21
144.0228967619787
  0
LINE
  8
_f-a_250
  6
CONTINUOUS
 62
  250
 10
151.0407238663301
 20
144.0228967619787
 11
150.99673563848557
 21
144.24927520283575
  0
LINE
  8
_f-a_250
  6
CONTINUOUS
 62
  250
 10
150.99673563848557
 20
144.24927520283575
 11
150.98510081182559
 21
144.47207736500621
  0
LINE
  8
_f-a_250
  6
CONTINUOUS
 62
  250
 10
150.98510081182559
 20
144.47207736500621
 11
151.00419814001157
 21
144.68782233723522
  0
LINE
  8
_f-a_250
  6
CONTINUOUS
 62
  250
 10
151.00419814001157
 20
144.68782233723522
 11
151.05233485113212
 21
144.89307689198372
  0
LINE
  8
_f-a_250
  6
CONTINUOUS
 62
  250
 10
151.05233485113212
 20
144.89307689198372
 11
151.12781817327559
 21
145.08436011799671
  0
LINE
  8
_f-a_250
  6
CONTINUOUS
 62
  250
 10
151.12781817327559
 20
145.08436011799671
 11
151.22899109731759
 21
145.25816726216172
  0
LINE
  8
_f-a_250
  6
CONTINUOUS
 62
  250
 10
151.22899109731759
 20
145.25816726216172
 11
151.35417277227458
 21
145.41108893879772
  0
LINE
  8
_f-a_250
  6
CONTINUOUS
 62
  250
 10
151.35417277227458
 20
145.41108893879772
 11
151.50170618902308
 21
145.5395965529332
  0
LINE
  8
_f-a_250
  6
CONTINUOUS
 62
  250
 10
151.50170618902308
 20
145.5395965529332
 11
151.6698866547211
 21
145.6402330351722
  0
LINE
  8
_f-a_250
  6
CONTINUOUS
 62
  250
 10
151.6698866547211
 20
145.6402330351722
 11
151.85704523931608
 21
145.70956515797471
  0
LINE
  8
_f-a_250
  6
CONTINUOUS
 62
  250
 10
151.85704523931608
 20
145.70956515797471
 11
152.05312067876909
 21
145.74301528462269
  0
LINE
  8
_f-a_250
  6
CONTINUOUS
 62
  250
 10
152.05312067876909
 20
145.74301528462269
 11
152.24860007177458
 21
145.73986815937874
  0
LINE
  8
_f-a_250
  6
CONTINUOUS
 62
  250
 10
152.24860007177458
 20
145.73986815937874
 11
152.44025284658508
 21
145.70222186573875
  0
LINE
  8
_f-a_250
  6
CONTINUOUS
 62
  250
 10
152.44025284658508
 20
145.70222186573875
 11
152.62487227331258
 21
145.6323175383462
  0
LINE
  8
_f-a_250
  6
CONTINUOUS
 62
  250
 10
152.62487227331258
 20
145.6323175383462
 11
152.79923970113856
 21
145.5322771025547
  0
LINE
  8
_f-a_250
  6
CONTINUOUS
 62
  250
 10
152.79923970113856
 20
145.5322771025547
 11
152.96013647924508
 21
145.40429400929321
  0
LINE
  8
_f-a_250
  6
CONTINUOUS
 62
  250
 10
152.96013647924508
 20
145.40429400929321
 11
153.10433203588556
 21
145.25051402577276
  0
LINE
  8
_f-a_250
  6
CONTINUOUS
 62
  250
 10
153.10433203588556
 20
145.25051402577276
 11
153.22861964117109
 21
145.07313060292122
  0
LINE
  8
_f-a_250
  6
CONTINUOUS
 62
  250
 10
153.22861964117109
 20
145.07313060292122
 11
153.32975680242606
 21
144.8743371916662
  0
LINE
  8
_f-a_250
  6
CONTINUOUS
 62
  250
 10
153.32975680242606
 20
144.8743371916662
 11
153.40456063161909
 21
144.65623187550423
  0
LINE
  8
_f-a_250
  6
CONTINUOUS
 62
  250
 10
152.33488375555106
 20
145.40789412983773
 11
152.41587454687209
 21
145.35320090779175
  0
LINE
  8
_f-a_250
  6
CONTINUOUS
 62
  250
 10
152.41587454687209
 20
145.35320090779175
 11
152.49288374792158
 21
145.29223727711573
  0
LINE
  8
_f-a_250
  6
CONTINUOUS
 62
  250
 10
152.49288374792158
 20
145.29223727711573
 11
152.5655418099031
 21
145.22524165638825
  0
LINE
  8
_f-a_250
  6
CONTINUOUS
 62
  250
 10
152.5655418099031
 20
145.22524165638825
 11
152.6334911049471
 21
145.15245246418823
  0
LINE
  8
_f-a_250
  6
CONTINUOUS
 62
  250
 10
152.6334911049471
 20
145.15245246418823
 11
152.69632632146906
 21
145.07415580281122
  0
LINE
  8
_f-a_250
  6
CONTINUOUS
 62
  250
 10
152.69632632146906
 20
145.07415580281122
 11
152.75368983160109
 21
144.99054240712022
  0
LINE
  8
_f-a_250
  6
CONTINUOUS
 62
  250
 10
152.75368983160109
 20
144.99054240712022
 11
152.80520016561607
 21
144.90187453755271
  0
LINE
  8
_f-a_250
  6
CONTINUOUS
 62
  250
 10
152.80520016561607
 20
144.90187453755271
 11
152.85048777471607
 21
144.80836677082871
  0
LINE
  8
_f-a_250
  6
CONTINUOUS
 62
  250
 10
152.85048777471607
 20
144.80836677082871
 11
152.88917118917561
 21
144.71030520924424
  0
LINE
  8
_f-a_250
  6
CONTINUOUS
 62
  250
 10
152.88917118917561
 20
144.71030520924424
 11
152.92088086019609
 21
144.6079044295202
  0
LINE
  8
_f-a_250
  6
CONTINUOUS
 62
  250
 10
152.92088086019609
 20
144.6079044295202
 11
152.95435482870158
 21
144.44597053059474
  0
LINE
  8
_f-a_250
  6
CONTINUOUS
 62
  250
 10
152.95435482870158
 20
144.44597053059474
 11
152.96820694814758
 21
144.28513335713274
  0
LINE
  8
_f-a_250
  6
CONTINUOUS
 62
  250
 10
152.96820694814758
 20
144.28513335713274
 11
152.96323592077357
 21
144.12699031361473
  0
LINE
  8
_f-a_250
  6
CONTINUOUS
 62
  250
 10
152.96323592077357
 20
144.12699031361473
 11
152.94027621160606
 21
143.97301959523071
  0
LINE
  8
_f-a_250
  6
CONTINUOUS
 62
  250
 10
152.94027621160606
 20
143.97301959523071
 11
152.90011460195609
 21
143.82477092274522
  0
LINE
  8
_f-a_250
  6
CONTINUOUS
 62
  250
 10
152.90011460195609
 20
143.82477092274522
 11
152.8435736359221
 21
143.68379401692275
  0
LINE
  8
_f-a_250
  6
CONTINUOUS
 62
  250
 10
152.8435736359221
 20
143.68379401692275
 11
152.77145201574407
 21
143.55156707295274
  0
LINE
  8
_f-a_250
  6
CONTINUOUS
 62
  250
 10
152.77145201574407
 20
143.55156707295274
 11
152.6845603645906
 21
143.42966365345825
  0
LINE
  8
_f-a_250
  6
CONTINUOUS
 62
  250
 10
152.6845603645906
 20
143.42966365345825
 11
152.58372122655959
 21
143.31960963734522
  0
LINE
  8
_f-a_250
  6
CONTINUOUS
 62
  250
 10
152.58372122655959
 20
143.31960963734522
 11
152.46972138296206
 21
143.22290706166123
  0
LINE
  8
_f-a_250
  6
CONTINUOUS
 62
  250
 10
151.05572039495559
 20
129.3295888853917
 11
151.07629591833211
 21
129.32322310932975
  0
LINE
  8
_f-a_250
  6
CONTINUOUS
 62
  250
 10
151.07629591833211
 20
129.32322310932975
 11
151.0970383347136
 21
129.31714343556274
  0
LINE
  8
_f-a_250
  6
CONTINUOUS
 62
  250
 10
151.0970383347136
 20
129.31714343556274
 11
151.11792380224307
 21
129.31134986409069
  0
LINE
  8
_f-a_250
  6
CONTINUOUS
 62
  250
 10
151.11792380224307
 20
129.31134986409069
 11
151.1389403999911
 21
129.30577086933971
  0
LINE
  8
_f-a_250
  6
CONTINUOUS
 62
  250
 10
151.1389403999911
 20
129.30577086933971
 11
151.16011196981509
 21
129.30040645130973
  0
LINE
  8
_f-a_250
  6
CONTINUOUS
 62
  250
 10
151.16011196981509
 20
129.30040645130973
 11
151.1814265907866
 21
129.29525661000122
  0
LINE
  8
_f-a_250
  6
CONTINUOUS
 62
  250
 10
151.1814265907866
 20
129.29525661000122
 11
151.2028485001191
 21
129.29027366169822
  0
LINE
  8
_f-a_250
  6
CONTINUOUS
 62
  250
 10
151.2028485001191
 20
129.29027366169822
 11
151.22441346059858
 21
129.28545760640023
  0
LINE
  8
_f-a_250
  6
CONTINUOUS
 62
  250
 10
151.22441346059858
 20
129.28545760640023
 11
151.24609763036807
 21
129.28080844410769
  0
LINE
  8
_f-a_250
  6
CONTINUOUS
 62
  250
 10
151.24609763036807
 20
129.28080844410769
 11
151.26788908849809
 21
129.27625464924674
  0
LINE
  8
_f-a_250
  6
CONTINUOUS
 62
  250
 10
151.26788908849809
 20
129.27625464924674
 11
151.3375549973116
 21
129.30791663655174
  0
LINE
  8
_f-a_250
  6
CONTINUOUS
 62
  250
 10
151.3375549973116
 20
129.30791663655174
 11
151.32943684469308
 21
129.40717029103172
  0
LINE
  8
_f-a_250
  6
CONTINUOUS
 62
  250
 10
151.32943684469308
 20
129.40717029103172
 11
151.32651621709908
 21
129.50575637349021
  0
LINE
  8
_f-a_250
  6
CONTINUOUS
 62
  250
 10
151.32651621709908
 20
129.50575637349021
 11
151.32870966802659
 21
129.60343646534773
  0
LINE
  8
_f-a_250
  6
CONTINUOUS
 62
  250
 10
151.32870966802659
 20
129.60343646534773
 11
151.33594567190258
 21
129.69992446431021
  0
LINE
  8
_f-a_250
  6
CONTINUOUS
 62
  250
 10
151.33594567190258
 20
129.69992446431021
 11
151.3481407822236
 21
129.79498195179821
  0
LINE
  8
_f-a_250
  6
CONTINUOUS
 62
  250
 10
151.3481407822236
 20
129.79498195179821
 11
151.36522347341608
 21
129.88834666737421
  0
LINE
  8
_f-a_250
  6
CONTINUOUS
 62
  250
 10
151.36522347341608
 20
129.88834666737421
 11
151.38708645711958
 21
129.97973250874372
  0
LINE
  8
_f-a_250
  6
CONTINUOUS
 62
  250
 10
151.38708645711958
 20
129.97973250874372
 11
151.41368204961856
 21
130.06892489918573
  0
LINE
  8
_f-a_250
  6
CONTINUOUS
 62
  250
 10
151.41368204961856
 20
130.06892489918573
 11
151.44492680441007
 21
130.1556138945472
  0
LINE
  8
_f-a_250
  6
CONTINUOUS
 62
  250
 10
151.44492680441007
 20
130.1556138945472
 11
151.48072535406209
 21
130.23958491810671
  0
LINE
  8
_f-a_250
  6
CONTINUOUS
 62
  250
 10
151.48072535406209
 20
130.23958491810671
 11
151.75938898931608
 21
130.22625731953474
  0
LINE
  8
_f-a_250
  6
CONTINUOUS
 62
  250
 10
151.75938898931608
 20
130.22625731953474
 11
151.71799952398359
 21
130.14762687214721
  0
LINE
  8
_f-a_250
  6
CONTINUOUS
 62
  250
 10
151.71799952398359
 20
130.14762687214721
 11
151.68179566274711
 21
130.06499099263073
  0
LINE
  8
_f-a_250
  6
CONTINUOUS
 62
  250
 10
151.68179566274711
 20
130.06499099263073
 11
151.65092045675357
 21
129.97877883442771
  0
LINE
  8
_f-a_250
  6
CONTINUOUS
 62
  250
 10
151.65092045675357
 20
129.97877883442771
 11
151.6254811943636
 21
129.88941955098022
  0
LINE
  8
_f-a_250
  6
CONTINUOUS
 62
  250
 10
151.6254811943636
 20
129.88941955098022
 11
151.60557324300859
 21
129.79729461201524
  0
LINE
  8
_f-a_250
  6
CONTINUOUS
 62
  250
 10
151.60557324300859
 20
129.79729461201524
 11
151.59133965383609
 21
129.7028093291172
  0
LINE
  8
_f-a_250
  6
CONTINUOUS
 62
  250
 10
151.59133965383609
 20
129.7028093291172
 11
151.5828757942781
 21
129.6063928557287
  0
LINE
  8
_f-a_250
  6
CONTINUOUS
 62
  250
 10
151.5828757942781
 20
129.6063928557287
 11
151.58032471548159
 21
129.50842666157575
  0
LINE
  8
_f-a_250
  6
CONTINUOUS
 62
  250
 10
151.58032471548159
 20
129.50842666157575
 11
151.58379370580758
 21
129.40936374195923
  0
LINE
  8
_f-a_250
  6
CONTINUOUS
 62
  250
 10
151.58379370580758
 20
129.40936374195923
 11
151.59339005361659
 21
129.30958556660522
  0
LINE
  8
_f-a_250
  6
CONTINUOUS
 62
  250
 10
151.59339005361659
 20
129.30958556660522
 11
151.66106516729457
 21
129.23455523976222
  0
LINE
  8
_f-a_250
  6
CONTINUOUS
 62
  250
 10
151.66106516729457
 20
129.23455523976222
 11
151.76823431860058
 21
129.23460292347772
  0
LINE
  8
_f-a_250
  6
CONTINUOUS
 62
  250
 10
151.34022528539759
 20
129.00789069661022
 11
151.31739670644856
 21
129.01146697529671
  0
LINE
  8
_f-a_250
  6
CONTINUOUS
 62
  250
 10
151.31739670644856
 20
129.01146697529671
 11
151.29460389028608
 21
129.01513862141474
  0
LINE
  8
_f-a_250
  6
CONTINUOUS
 62
  250
 10
151.29460389028608
 20
129.01513862141474
 11
151.27187067876909
 21
129.01895331868025
  0
LINE
  8
_f-a_250
  6
CONTINUOUS
 62
  250
 10
151.27187067876909
 20
129.01895331868025
 11
151.24917323003859
 21
129.02291106709373
  0
LINE
  8
_f-a_250
  6
CONTINUOUS
 62
  250
 10
151.24917323003859
 20
129.02291106709373
 11
151.22653538595259
 21
129.02705955036973
  0
LINE
  8
_f-a_250
  6
CONTINUOUS
 62
  250
 10
151.22653538595259
 20
129.02705955036973
 11
151.2039571465121
 21
129.0314226103672
  0
LINE
  8
_f-a_250
  6
CONTINUOUS
 62
  250
 10
151.2039571465121
 20
129.0314226103672
 11
151.1814265907866
 21
129.03600024708621
  0
LINE
  8
_f-a_250
  6
CONTINUOUS
 62
  250
 10
151.1814265907866
 20
129.03600024708621
 11
151.15895563970659
 21
129.0408163023842
  0
LINE
  8
_f-a_250
  6
CONTINUOUS
 62
  250
 10
151.15895563970659
 20
129.0408163023842
 11
151.13655621420008
 21
129.04587077626121
  0
LINE
  8
_f-a_250
  6
CONTINUOUS
 62
  250
 10
151.13655621420008
 20
129.04587077626121
 11
151.11422831426708
 21
129.05123519429071
  0
LINE
  8
_f-a_250
  6
CONTINUOUS
 62
  250
 10
151.11568266759957
 20
128.85480212696922
 11
151.0407238663301
 21
129.07290744313121
  0
LINE
  8
_f-a_250
  6
CONTINUOUS
 62
  250
 10
151.0407238663301
 20
129.07290744313121
 11
150.99673563848557
 21
129.2992858839882
  0
LINE
  8
_f-a_250
  6
CONTINUOUS
 62
  250
 10
150.99673563848557
 20
129.2992858839882
 11
150.98510081182559
 21
129.5220642043007
  0
LINE
  8
_f-a_250
  6
CONTINUOUS
 62
  250
 10
150.98510081182559
 20
129.5220642043007
 11
151.00419814001157
 21
129.73780917652971
  0
LINE
  8
_f-a_250
  6
CONTINUOUS
 62
  250
 10
151.00419814001157
 20
129.73780917652971
 11
151.05233485113212
 21
129.9429922057042
  0
LINE
  8
_f-a_250
  6
CONTINUOUS
 62
  250
 10
151.05233485113212
 20
129.9429922057042
 11
151.12781817327559
 21
130.13415622242823
  0
LINE
  8
_f-a_250
  6
CONTINUOUS
 62
  250
 10
151.12781817327559
 20
130.13415622242823
 11
151.22899109731759
 21
130.30782031544572
  0
LINE
  8
_f-a_250
  6
CONTINUOUS
 62
  250
 10
151.22899109731759
 20
130.30782031544572
 11
151.35417277227458
 21
130.46052741536022
  0
LINE
  8
_f-a_250
  6
CONTINUOUS
 62
  250
 10
151.35417277227458
 20
130.46052741536022
 11
151.50170618902308
 21
130.58872508534324
  0
LINE
  8
_f-a_250
  6
CONTINUOUS
 62
  250
 10
151.50170618902308
 20
130.58872508534324
 11
151.6698866547211
 21
130.68902778157121
  0
LINE
  8
_f-a_250
  6
CONTINUOUS
 62
  250
 10
151.6698866547211
 20
130.68902778157121
 11
151.85704523931608
 21
130.75788306721569
  0
LINE
  8
_f-a_250
  6
CONTINUOUS
 62
  250
 10
151.85704523931608
 20
130.75788306721569
 11
152.05312067876909
 21
130.79176234730573
  0
LINE
  8
_f-a_250
  6
CONTINUOUS
 62
  250
 10
152.05312067876909
 20
130.79176234730573
 11
152.24860007177458
 21
130.78885364064072
  0
LINE
  8
_f-a_250
  6
CONTINUOUS
 62
  250
 10
152.24860007177458
 20
130.78885364064072
 11
152.44025284658508
 21
130.75135039814822
  0
LINE
  8
_f-a_250
  6
CONTINUOUS
 62
  250
 10
152.44025284658508
 20
130.75135039814822
 11
152.62487227331258
 21
130.68146991261375
  0
LINE
  8
_f-a_250
  6
CONTINUOUS
 62
  250
 10
152.62487227331258
 20
130.68146991261375
 11
152.79923970113856
 21
130.58145331868025
  0
LINE
  8
_f-a_250
  6
CONTINUOUS
 62
  250
 10
152.79923970113856
 20
130.58145331868025
 11
152.96013647924508
 21
130.45347022541873
  0
LINE
  8
_f-a_250
  6
CONTINUOUS
 62
  250
 10
152.96013647924508
 20
130.45347022541873
 11
153.10433203588556
 21
130.29973792561424
  0
LINE
  8
_f-a_250
  6
CONTINUOUS
 62
  250
 10
153.10433203588556
 20
130.29973792561424
 11
153.22861964117109
 21
130.12249755390974
  0
LINE
  8
_f-a_250
  6
CONTINUOUS
 62
  250
 10
152.33488375555106
 20
130.45625972279421
 11
152.41587454687209
 21
130.4019956541907
  0
LINE
  8
_f-a_250
  6
CONTINUOUS
 62
  250
 10
152.41587454687209
 20
130.4019956541907
 11
152.49288374792158
 21
130.34138965138322
  0
LINE
  8
_f-a_250
  6
CONTINUOUS
 62
  250
 10
152.49288374792158
 20
130.34138965138322
 11
152.5655418099031
 21
130.27468013295075
  0
LINE
  8
_f-a_250
  6
CONTINUOUS
 62
  250
 10
152.5655418099031
 20
130.27468013295075
 11
152.6334911049471
 21
130.20210551747175
  0
LINE
  8
_f-a_250
  6
CONTINUOUS
 62
  250
 10
152.6334911049471
 20
130.20210551747175
 11
152.69632632146906
 21
130.1239519072422
  0
LINE
  8
_f-a_250
  6
CONTINUOUS
 62
  250
 10
152.69632632146906
 20
130.1239519072422
 11
152.75368983160109
 21
130.04043387898324
  0
LINE
  8
_f-a_250
  6
CONTINUOUS
 62
  250
 10
152.75368983160109
 20
130.04043387898324
 11
152.80520016561607
 21
129.95183753498924
  0
LINE
  8
_f-a_250
  6
CONTINUOUS
 62
  250
 10
152.80520016561607
 20
129.95183753498924
 11
152.85048777471607
 21
129.85837745198123
  0
LINE
  8
_f-a_250
  6
CONTINUOUS
 62
  250
 10
279.98221213232108
 20
169.00623130329973
 11
285.62388712774356
 21
172.26457881459123
  0
LINE
  8
_f-a_250
  6
CONTINUOUS
 62
  250
 10
279.98221213232108
 20
168.38290977009675
 11
285.62388712774356
 21
171.64125728138825
  0
LINE
  8
_f-a_250
  6
CONTINUOUS
 62
  250
 10
285.62388712774356
 20
171.61624717244021
 11
285.62388712774356
 21
172.24958228596569
  0
LINE
  8
_f-a_250
  6
CONTINUOUS
 62
  250
 10
285.56387717138358
 20
172.29287909993025
 11
282.03387553106404
 21
174.33290767201325
  0
LINE
  8
_f-a_250
  6
CONTINUOUS
 62
  250
 10
282.03387553106404
 20
174.31123542317272
 11
280.0922184647186
 21
173.18954753407371
  0
LINE
  8
_f-a_250
  6
CONTINUOUS
 62
  250
 10
167.01588923345659
 20
105.83124446400521
 11
173.68971402059657
 21
109.6845655394447
  0
LINE
  8
_f-a_250
  6
CONTINUOUS
 62
  250
 10
167.01588923345659
 20
105.2879123640907
 11
173.68971402059657
 21
109.13958835133423
  0
LINE
  8
_f-a_250
  6
CONTINUOUS
 62
  250
 10
164.86938292394706
 20
106.5695791197667
 11
167.01473290334758
 21
105.32791900166373
  0
LINE
  8
_f-a_250
  6
CONTINUOUS
 62
  250
 10
164.88771731268008
 20
107.05957698353623
 11
167.01588923345659
 21
105.83124446400521
  0
LINE
  8
_f-a_250
  6
CONTINUOUS
 62
  250
 10
162.7678900421721
 20
107.76956367024273
 11
162.7678900421721
 21
108.26793002613873
  0
LINE
  8
_f-a_250
  6
CONTINUOUS
 62
  250
 10
162.7678900421721
 20
108.30290603169324
 11
167.19556147466758
 21
110.85956382283072
  0
LINE
  8
_f-a_250
  6
CONTINUOUS
 62
  250
 10
167.19556147466758
 20
110.85956382283072
 11
167.22488695989708
 21
110.87124633320673
  0
LINE
  8
_f-a_250
  6
CONTINUOUS
 62
  250
 10
167.22488695989708
 20
110.87124633320673
 11
167.29228789220909
 21
110.91058539875871
  0
LINE
  8
_f-a_250
  6
CONTINUOUS
 62
  250
 10
167.29228789220909
 20
110.91058539875871
 11
167.36306244741507
 21
110.94644355305523
  0
LINE
  8
_f-a_250
  6
CONTINUOUS
 62
  250
 10
167.36306244741507
 20
110.94644355305523
 11
167.43697220693656
 21
110.9786777449502
  0
LINE
  8
_f-a_250
  6
CONTINUOUS
 62
  250
 10
167.43697220693656
 20
110.9786777449502
 11
167.51379067312308
 21
111.00712108143671
  0
LINE
  8
_f-a_250
  6
CONTINUOUS
 62
  250
 10
167.51379067312308
 20
111.00712108143671
 11
167.59327942739557
 21
111.03165435322623
  0
LINE
  8
_f-a_250
  6
CONTINUOUS
 62
  250
 10
167.59327942739557
 20
111.03165435322623
 11
167.67523581396208
 21
111.05208682545523
  0
LINE
  8
_f-a_250
  6
CONTINUOUS
 62
  250
 10
167.67523581396208
 20
111.05208682545523
 11
167.75942141424258
 21
111.06825160511822
  0
LINE
  8
_f-a_250
  6
CONTINUOUS
 62
  250
 10
167.75942141424258
 20
111.06825160511822
 11
167.84559780965907
 21
111.07998179921023
  0
LINE
  8
_f-a_250
  6
CONTINUOUS
 62
  250
 10
167.84559780965907
 20
111.07998179921023
 11
167.93355042348958
 21
111.08715819844124
  0
LINE
  8
_f-a_250
  6
CONTINUOUS
 62
  250
 10
167.93355042348958
 20
111.08715819844124
 11
168.02306467901309
 21
111.08956622609021
  0
LINE
  8
_f-a_250
  6
CONTINUOUS
 62
  250
 10
168.02306467901309
 20
111.08956622609021
 11
168.23140675436107
 21
111.07652472981323
  0
LINE
  8
_f-a_250
  6
CONTINUOUS
 62
  250
 10
168.23140675436107
 20
111.07652472981323
 11
168.4289007843596
 21
111.03873538502572
  0
LINE
  8
_f-a_250
  6
CONTINUOUS
 62
  250
 10
168.4289007843596
 20
111.03873538502572
 11
168.61292416463908
 21
110.9782962752232
  0
LINE
  8
_f-a_250
  6
CONTINUOUS
 62
  250
 10
168.61292416463908
 20
110.9782962752232
 11
168.78090197454557
 21
110.89723395832871
  0
LINE
  8
_f-a_250
  6
CONTINUOUS
 62
  250
 10
168.78090197454557
 20
110.89723395832871
 11
168.93018776784959
 21
110.79769420155421
  0
LINE
  8
_f-a_250
  6
CONTINUOUS
 62
  250
 10
168.93018776784959
 20
110.79769420155421
 11
169.0581827820406
 21
110.68170356282121
  0
LINE
  8
_f-a_250
  6
CONTINUOUS
 62
  250
 10
169.0581827820406
 20
110.68170356282121
 11
169.16227633367606
 21
110.55131244191021
  0
LINE
  8
_f-a_250
  6
CONTINUOUS
 62
  250
 10
169.16227633367606
 20
110.55131244191021
 11
169.23985773931608
 21
110.40859508046023
  0
LINE
  8
_f-a_250
  6
CONTINUOUS
 62
  250
 10
169.23985773931608
 20
110.40859508046023
 11
169.28832823644706
 21
110.25567340382472
  0
LINE
  8
_f-a_250
  6
CONTINUOUS
 62
  250
 10
169.28832823644706
 20
110.25567340382472
 11
169.30506522070007
 21
110.0945739699257
  0
LINE
  8
_f-a_250
  6
CONTINUOUS
 62
  250
 10
169.30506522070007
 20
110.0945739699257
 11
169.29921204458307
 21
109.99872970112671
  0
LINE
  8
_f-a_250
  6
CONTINUOUS
 62
  250
 10
169.29921204458307
 20
109.99872970112671
 11
169.28201014410109
 21
109.90550803669821
  0
LINE
  8
_f-a_250
  6
CONTINUOUS
 62
  250
 10
169.28201014410109
 20
109.90550803669821
 11
169.25399596105657
 21
109.81531428822373
  0
LINE
  8
_f-a_250
  6
CONTINUOUS
 62
  250
 10
169.25399596105657
 20
109.81531428822373
 11
169.21569401632408
 21
109.72855376728873
  0
LINE
  8
_f-a_250
  6
CONTINUOUS
 62
  250
 10
169.21569401632408
 20
109.72855376728873
 11
169.1676407517061
 21
109.64563178547724
  0
LINE
  8
_f-a_250
  6
CONTINUOUS
 62
  250
 10
169.1676407517061
 20
109.64563178547724
 11
169.11036068807658
 21
109.56692981251572
  0
LINE
  8
_f-a_250
  6
CONTINUOUS
 62
  250
 10
169.11036068807658
 20
109.56692981251572
 11
169.04440218816856
 21
109.49290084370475
  0
LINE
  8
_f-a_250
  6
CONTINUOUS
 62
  250
 10
169.04440218816856
 20
109.49290084370475
 11
168.97028977285458
 21
109.42397403248674
  0
LINE
  8
_f-a_250
  6
CONTINUOUS
 62
  250
 10
168.97028977285458
 20
109.42397403248674
 11
168.88854796300956
 21
109.36048316487174
  0
LINE
  8
_f-a_250
  6
CONTINUOUS
 62
  250
 10
168.88854796300956
 20
109.36048316487174
 11
168.79972512136558
 21
109.30290507801871
  0
LINE
  8
_f-a_250
  6
CONTINUOUS
 62
  250
 10
168.79972512136558
 20
109.30290507801871
 11
168.76988703619108
 21
109.2845706892857
  0
LINE
  8
_f-a_250
  6
CONTINUOUS
 62
  250
 10
168.76988703619108
 20
109.2845706892857
 11
164.90140253912057
 21
107.04956340321424
  0
LINE
  8
_f-a_250
  6
CONTINUOUS
 62
  250
 10
162.80571514974659
 20
107.76956367024273
 11
167.37855965505659
 21
110.40790366658072
  0
LINE
  8
_f-a_250
  6
CONTINUOUS
 62
  250
 10
167.37855965505659
 20
110.40790366658072
 11
167.40654999624309
 21
110.41956233509873
  0
LINE
  8
_f-a_250
  6
CONTINUOUS
 62
  250
 10
167.40654999624309
 20
110.41956233509873
 11
167.47411782156058
 21
110.4584245634922
  0
LINE
  8
_f-a_250
  6
CONTINUOUS
 62
  250
 10
167.47411782156058
 20
110.4584245634922
 11
167.54497582326957
 21
110.49394893177873
  0
LINE
  8
_f-a_250
  6
CONTINUOUS
 62
  250
 10
167.54497582326957
 20
110.49394893177873
 11
167.6189094246491
 21
110.5258970213782
  0
LINE
  8
_f-a_250
  6
CONTINUOUS
 62
  250
 10
167.6189094246491
 20
110.5258970213782
 11
167.69573981176458
 21
110.55414962300171
  0
LINE
  8
_f-a_250
  6
CONTINUOUS
 62
  250
 10
167.69573981176458
 20
110.55414962300171
 11
167.77521664510809
 21
110.5785160017857
  0
LINE
  8
_f-a_250
  6
CONTINUOUS
 62
  250
 10
167.77521664510809
 20
110.5785160017857
 11
167.8571611107451
 21
110.59885310658325
  0
LINE
  8
_f-a_250
  6
CONTINUOUS
 62
  250
 10
167.8571611107451
 20
110.59885310658325
 11
167.9413586319551
 21
110.61494636067273
  0
LINE
  8
_f-a_250
  6
CONTINUOUS
 62
  250
 10
167.9413586319551
 20
110.61494636067273
 11
168.02760655294509
 21
110.6266527129067
  0
LINE
  8
_f-a_250
  6
CONTINUOUS
 62
  250
 10
168.02760655294509
 20
110.6266527129067
 11
168.11567837606509
 21
110.6338291121377
  0
LINE
  8
_f-a_250
  6
CONTINUOUS
 62
  250
 10
168.11567837606509
 20
110.6338291121377
 11
168.20539528738109
 21
110.63623713978623
  0
LINE
  8
_f-a_250
  6
CONTINUOUS
 62
  250
 10
168.20539528738109
 20
110.63623713978623
 11
168.3365016640291
 21
110.63106345661973
  0
LINE
  8
_f-a_250
  6
CONTINUOUS
 62
  250
 10
168.3365016640291
 20
110.63106345661973
 11
168.4638052643401
 21
110.61590003498922
  0
LINE
  8
_f-a_250
  6
CONTINUOUS
 62
  250
 10
168.4638052643401
 20
110.61590003498922
 11
168.58667427908009
 21
110.59129523762573
  0
LINE
  8
_f-a_250
  6
CONTINUOUS
 62
  250
 10
168.58667427908009
 20
110.59129523762573
 11
168.70442921529857
 21
110.55767821797222
  0
LINE
  8
_f-a_250
  6
CONTINUOUS
 62
  250
 10
168.70442921529857
 20
110.55767821797222
 11
168.81645018468956
 21
110.5155973387612
  0
LINE
  8
_f-a_250
  6
CONTINUOUS
 62
  250
 10
168.81645018468956
 20
110.5155973387612
 11
168.92209345708909
 21
110.4656009627232
  0
LINE
  8
_f-a_250
  6
CONTINUOUS
 62
  250
 10
168.92209345708909
 20
110.4656009627232
 11
169.02070338140555
 21
110.40814208515972
  0
LINE
  8
_f-a_250
  6
CONTINUOUS
 62
  250
 10
169.02070338140555
 20
110.40814208515972
 11
169.11162430654608
 21
110.3437452269447
  0
LINE
  8
_f-a_250
  6
CONTINUOUS
 62
  250
 10
169.11162430654608
 20
110.3437452269447
 11
169.19424826513358
 21
110.27295875080924
  0
LINE
  8
_f-a_250
  6
CONTINUOUS
 62
  250
 10
169.19424826513358
 20
110.27295875080924
 11
169.26789576421805
 21
110.1962356520547
  0
LINE
  8
_f-a_250
  6
CONTINUOUS
 62
  250
 10
157.58688742529009
 20
112.66291427143921
 11
160.34739310155959
 21
114.25454902180523
  0
LINE
  8
_f-a_250
  6
CONTINUOUS
 62
  250
 10
160.34739310155959
 20
114.25454902180523
 11
160.3760510147676
 21
114.26623153218121
  0
LINE
  8
_f-a_250
  6
CONTINUOUS
 62
  250
 10
160.3760510147676
 20
114.26623153218121
 11
160.44340426336356
 21
114.3050937605752
  0
LINE
  8
_f-a_250
  6
CONTINUOUS
 62
  250
 10
160.44340426336356
 20
114.3050937605752
 11
160.51409537206709
 21
114.3405942870032
  0
LINE
  8
_f-a_250
  6
CONTINUOUS
 62
  250
 10
160.51409537206709
 20
114.3405942870032
 11
160.58793360601507
 21
114.37256621846072
  0
LINE
  8
_f-a_250
  6
CONTINUOUS
 62
  250
 10
160.58793360601507
 20
114.37256621846072
 11
160.66471630941459
 21
114.40081882008423
  0
LINE
  8
_f-a_250
  6
CONTINUOUS
 62
  250
 10
160.66471630941459
 20
114.40081882008423
 11
160.7442289055451
 21
114.42518519886822
  0
LINE
  8
_f-a_250
  6
CONTINUOUS
 62
  250
 10
160.7442289055451
 20
114.42518519886822
 11
160.82625681768511
 21
114.44549846180772
  0
LINE
  8
_f-a_250
  6
CONTINUOUS
 62
  250
 10
160.82625681768511
 20
114.44549846180772
 11
160.91058546911307
 21
114.46161555775521
  0
LINE
  8
_f-a_250
  6
CONTINUOUS
 62
  250
 10
160.91058546911307
 20
114.46161555775521
 11
160.99703604589558
 21
114.47332190998922
  0
LINE
  8
_f-a_250
  6
CONTINUOUS
 62
  250
 10
160.99703604589558
 20
114.47332190998922
 11
161.08537012945257
 21
114.48047446736223
  0
LINE
  8
_f-a_250
  6
CONTINUOUS
 62
  250
 10
161.08537012945257
 20
114.48047446736223
 11
161.17539698492109
 21
114.4828824950112
  0
LINE
  8
_f-a_250
  6
CONTINUOUS
 62
  250
 10
161.17539698492109
 20
114.4828824950112
 11
161.30637223135059
 21
114.47778033741821
  0
LINE
  8
_f-a_250
  6
CONTINUOUS
 62
  250
 10
161.30637223135059
 20
114.47778033741821
 11
161.43355662237261
 21
114.46273612507672
  0
LINE
  8
_f-a_250
  6
CONTINUOUS
 62
  250
 10
161.43355662237261
 20
114.46273612507672
 11
161.55633026968059
 21
114.4382982207192
  0
LINE
  8
_f-a_250
  6
CONTINUOUS
 62
  250
 10
161.55633026968059
 20
114.4382982207192
 11
161.67402560125407
 21
114.40491961964472
  0
LINE
  8
_f-a_250
  6
CONTINUOUS
 62
  250
 10
161.67402560125407
 20
114.40491961964472
 11
161.78599888692958
 21
114.36310100087022
  0
LINE
  8
_f-a_250
  6
CONTINUOUS
 62
  250
 10
161.78599888692958
 20
114.36310100087022
 11
161.89158255468459
 21
114.31334304341172
  0
LINE
  8
_f-a_250
  6
CONTINUOUS
 62
  250
 10
161.89158255468459
 20
114.31334304341172
 11
161.99014479528509
 21
114.2560987425697
  0
LINE
  8
_f-a_250
  6
CONTINUOUS
 62
  250
 10
161.99014479528509
 20
114.2560987425697
 11
162.08104187856756
 21
114.19191646107575
  0
LINE
  8
_f-a_250
  6
CONTINUOUS
 62
  250
 10
162.08104187856756
 20
114.19191646107575
 11
162.16360623251057
 21
114.12122535237174
  0
LINE
  8
_f-a_250
  6
CONTINUOUS
 62
  250
 10
162.16360623251057
 20
114.12122535237174
 11
162.23721796880807
 21
114.0445499373327
  0
LINE
  8
_f-a_250
  6
CONTINUOUS
 62
  250
 10
159.90205103765555
 20
112.0679168654332
 11
159.65456063161909
 21
111.9245557738197
  0
LINE
  8
_f-a_250
  6
CONTINUOUS
 62
  250
 10
159.65456063161909
 20
111.9245557738197
 11
159.62472254644459
 21
111.91289710530172
  0
LINE
  8
_f-a_250
  6
CONTINUOUS
 62
  250
 10
159.62472254644459
 20
111.91289710530172
 11
159.55750042806707
 21
111.87358188160769
  0
LINE
  8
_f-a_250
  6
CONTINUOUS
 62
  250
 10
159.55750042806707
 20
111.87358188160769
 11
159.4869285286531
 21
111.83772372731073
  0
LINE
  8
_f-a_250
  6
CONTINUOUS
 62
  250
 10
159.4869285286531
 20
111.83772372731073
 11
159.41319758306608
 21
111.8054895354162
  0
LINE
  8
_f-a_250
  6
CONTINUOUS
 62
  250
 10
159.41319758306608
 20
111.8054895354162
 11
159.33653408895557
 21
111.7770223570717
  0
LINE
  8
_f-a_250
  6
CONTINUOUS
 62
  250
 10
159.33653408895557
 20
111.7770223570717
 11
159.25715262304408
 21
111.75248908528224
  0
LINE
  8
_f-a_250
  6
CONTINUOUS
 62
  250
 10
159.25715262304408
 20
111.75248908528224
 11
159.17527968298057
 21
111.7320804549107
  0
LINE
  8
_f-a_250
  6
CONTINUOUS
 62
  250
 10
159.17527968298057
 20
111.7320804549107
 11
159.0911417664156
 21
111.7158918333897
  0
LINE
  8
_f-a_250
  6
CONTINUOUS
 62
  250
 10
159.0911417664156
 20
111.7158918333897
 11
159.00492960821208
 21
111.70416163929822
  0
LINE
  8
_f-a_250
  6
CONTINUOUS
 62
  250
 10
159.00492960821208
 20
111.70416163929822
 11
158.91689354787908
 21
111.69698524006722
  0
LINE
  8
_f-a_250
  6
CONTINUOUS
 62
  250
 10
158.91689354787908
 20
111.69698524006722
 11
158.8272243202791
 21
111.69457721241821
  0
LINE
  8
_f-a_250
  6
CONTINUOUS
 62
  250
 10
158.8272243202791
 20
111.69457721241821
 11
158.61920411001307
 21
111.70759486683724
  0
LINE
  8
_f-a_250
  6
CONTINUOUS
 62
  250
 10
158.61920411001307
 20
111.70759486683724
 11
158.42188889394859
 21
111.74524116047724
  0
LINE
  8
_f-a_250
  6
CONTINUOUS
 62
  250
 10
158.42188889394859
 20
111.74524116047724
 11
158.23793703924258
 21
111.8055372191322
  0
LINE
  8
_f-a_250
  6
CONTINUOUS
 62
  250
 10
158.23793703924258
 20
111.8055372191322
 11
158.06994730840759
 21
111.88640880116324
  0
LINE
  8
_f-a_250
  6
CONTINUOUS
 62
  250
 10
158.06994730840759
 20
111.88640880116324
 11
157.92060191045857
 21
111.98582934864871
  0
LINE
  8
_f-a_250
  6
CONTINUOUS
 62
  250
 10
157.92060191045857
 20
111.98582934864871
 11
157.79248768697806
 21
112.1017246199502
  0
LINE
  8
_f-a_250
  6
CONTINUOUS
 62
  250
 10
157.79248768697806
 20
112.1017246199502
 11
157.6882630051241
 21
112.23211574086072
  0
LINE
  8
_f-a_250
  6
CONTINUOUS
 62
  250
 10
157.6882630051241
 20
112.23211574086072
 11
157.6105504692656
 21
112.37488078602674
  0
LINE
  8
_f-a_250
  6
CONTINUOUS
 62
  250
 10
157.6105504692656
 20
112.37488078602674
 11
157.5619965256316
 21
112.52804088124171
  0
LINE
  8
_f-a_250
  6
CONTINUOUS
 62
  250
 10
157.5619965256316
 20
112.52804088124171
 11
157.54522377859209
 21
112.6895694685827
  0
LINE
  8
_f-a_250
  6
CONTINUOUS
 62
  250
 10
157.54522377859209
 20
112.6895694685827
 11
157.55106503378011
 21
112.78538989552371
  0
LINE
  8
_f-a_250
  6
CONTINUOUS
 62
  250
 10
157.55106503378011
 20
112.78538989552371
 11
157.56826693426208
 21
112.87863540181021
  0
LINE
  8
_f-a_250
  6
CONTINUOUS
 62
  250
 10
157.56826693426208
 20
112.87863540181021
 11
157.59628111730657
 21
112.96887683400024
  0
LINE
  8
_f-a_250
  6
CONTINUOUS
 62
  250
 10
157.59628111730657
 20
112.96887683400024
 11
157.63458306203907
 21
113.0557088805092
  0
LINE
  8
_f-a_250
  6
CONTINUOUS
 62
  250
 10
157.63458306203907
 20
113.0557088805092
 11
157.68261248479908
 21
113.13875007161023
  0
LINE
  8
_f-a_250
  6
CONTINUOUS
 62
  250
 10
157.68261248479908
 20
113.13875007161023
 11
157.73988062749959
 21
113.21757125386121
  0
LINE
  8
_f-a_250
  6
CONTINUOUS
 62
  250
 10
157.73988062749959
 20
113.21757125386121
 11
157.8058152855501
 21
113.29181479939322
  0
LINE
  8
_f-a_250
  6
CONTINUOUS
 62
  250
 10
157.8058152855501
 20
113.29181479939322
 11
157.87990385900559
 21
113.36105155476422
  0
LINE
  8
_f-a_250
  6
CONTINUOUS
 62
  250
 10
157.87990385900559
 20
113.36105155476422
 11
157.96160990606407
 21
113.4248762083897
  0
LINE
  8
_f-a_250
  6
CONTINUOUS
 62
  250
 10
157.96160990606407
 20
113.4248762083897
 11
158.05039698492109
 21
113.48290729054321
  0
LINE
  8
_f-a_250
  6
CONTINUOUS
 62
  250
 10
158.05039698492109
 20
113.48290729054321
 11
158.0803900421721
 21
113.49957274922222
  0
LINE
  8
_f-a_250
  6
CONTINUOUS
 62
  250
 10
158.0803900421721
 20
113.49957274922222
 11
158.35255677114557
 21
113.6579065276037
  0
LINE
  8
_f-a_250
  6
CONTINUOUS
 62
  250
 10
158.35255677114557
 20
113.6579065276037
 11
158.38705593954157
 21
113.68124770649771
  0
LINE
  8
_f-a_250
  6
CONTINUOUS
 62
  250
 10
158.38705593954157
 20
113.68124770649771
 11
160.16506249319158
 21
114.70623301991324
  0
LINE
  8
_f-a_250
  6
CONTINUOUS
 62
  250
 10
160.16506249319158
 20
114.70623301991324
 11
160.19372040639959
 21
114.71956061848523
  0
LINE
  8
_f-a_250
  6
CONTINUOUS
 62
  250
 10
160.19372040639959
 20
114.71956061848523
 11
160.26120478521409
 21
114.75885200032121
  0
LINE
  8
_f-a_250
  6
CONTINUOUS
 62
  250
 10
160.26120478521409
 20
114.75885200032121
 11
160.33195549856256
 21
114.79456710347071
  0
LINE
  8
_f-a_250
  6
CONTINUOUS
 62
  250
 10
160.33195549856256
 20
114.79456710347071
 11
160.40575796972357
 21
114.8266344023597
  0
LINE
  8
_f-a_250
  6
CONTINUOUS
 62
  250
 10
160.40575796972357
 20
114.8266344023597
 11
160.48244530569158
 21
114.85486316212524
  0
LINE
  8
_f-a_250
  6
CONTINUOUS
 62
  250
 10
160.48244530569158
 20
114.85486316212524
 11
160.56181485067458
 21
114.87915801533572
  0
LINE
  8
_f-a_250
  6
CONTINUOUS
 62
  250
 10
160.56181485067458
 20
114.87915801533572
 11
160.64371163259608
 21
114.89932822712771
  0
LINE
  8
_f-a_250
  6
CONTINUOUS
 62
  250
 10
160.64371163259608
 20
114.89932822712771
 11
160.7279091538056
 21
114.9152545882117
  0
LINE
  8
_f-a_250
  6
CONTINUOUS
 62
  250
 10
160.7279091538056
 20
114.9152545882117
 11
160.8142405212981
 21
114.92681788929822
  0
LINE
  8
_f-a_250
  6
CONTINUOUS
 62
  250
 10
160.8142405212981
 20
114.92681788929822
 11
160.90252692113958
 21
114.93385123738172
  0
LINE
  8
_f-a_250
  6
CONTINUOUS
 62
  250
 10
160.90252692113958
 20
114.93385123738172
 11
160.99256569753709
 21
114.93623542317273
  0
LINE
  8
_f-a_250
  6
CONTINUOUS
 62
  250
 10
160.99256569753709
 20
114.93623542317273
 11
161.20040709386907
 21
114.92321776875374
  0
LINE
  8
_f-a_250
  6
CONTINUOUS
 62
  250
 10
161.20040709386907
 20
114.92321776875374
 11
161.39760310064409
 21
114.88554763325574
  0
LINE
  8
_f-a_250
  6
CONTINUOUS
 62
  250
 10
161.39760310064409
 20
114.88554763325574
 11
161.58150727163411
 21
114.82529925831673
  0
LINE
  8
_f-a_250
  6
CONTINUOUS
 62
  250
 10
161.58150727163411
 20
114.82529925831673
 11
161.74947316061107
 21
114.74449920185921
  0
LINE
  8
_f-a_250
  6
CONTINUOUS
 62
  250
 10
161.74947316061107
 20
114.74449920185921
 11
161.8988543213471
 21
114.64517402180523
  0
LINE
  8
_f-a_250
  6
CONTINUOUS
 62
  250
 10
161.8988543213471
 20
114.64517402180523
 11
162.02699238668509
 21
114.52942180165174
  0
LINE
  8
_f-a_250
  6
CONTINUOUS
 62
  250
 10
162.02699238668509
 20
114.52942180165174
 11
162.13126475225511
 21
114.39929294117823
  0
LINE
  8
_f-a_250
  6
CONTINUOUS
 62
  250
 10
162.13126475225511
 20
114.39929294117823
 11
162.20900112997157
 21
114.25676631459123
  0
LINE
  8
_f-a_250
  6
CONTINUOUS
 62
  250
 10
162.20900112997157
 20
114.25676631459123
 11
162.25760275732108
 21
114.10396384724473
  0
LINE
  8
_f-a_250
  6
CONTINUOUS
 62
  250
 10
162.25760275732108
 20
114.10396384724473
 11
162.27438742529009
 21
113.94288825520371
  0
LINE
  8
_f-a_250
  6
CONTINUOUS
 62
  250
 10
162.27438742529009
 20
113.94288825520371
 11
162.26851040731509
 21
113.84706782826325
  0
LINE
  8
_f-a_250
  6
CONTINUOUS
 62
  250
 10
162.26851040731509
 20
113.84706782826325
 11
162.25127274404608
 21
113.75384616383423
  0
LINE
  8
_f-a_250
  6
CONTINUOUS
 62
  250
 10
162.25127274404608
 20
113.75384616383423
 11
162.2231751144991
 21
113.66360473164423
  0
LINE
  8
_f-a_250
  6
CONTINUOUS
 62
  250
 10
162.2231751144991
 20
113.66360473164423
 11
162.18476588140555
 21
113.57677268513571
  0
LINE
  8
_f-a_250
  6
CONTINUOUS
 62
  250
 10
162.18476588140555
 20
113.57677268513571
 11
162.13655764471159
 21
113.49373149403424
  0
LINE
  8
_f-a_250
  6
CONTINUOUS
 62
  250
 10
162.13655764471159
 20
113.49373149403424
 11
162.07909876714805
 21
113.4149103117837
  0
LINE
  8
_f-a_250
  6
CONTINUOUS
 62
  250
 10
162.07909876714805
 20
113.4149103117837
 11
162.01290184866008
 21
113.34066676625122
  0
LINE
  8
_f-a_250
  6
CONTINUOUS
 62
  250
 10
162.01290184866008
 20
113.34066676625122
 11
161.93850333105158
 21
113.27143001088021
  0
LINE
  8
_f-a_250
  6
CONTINUOUS
 62
  250
 10
161.93850333105158
 20
113.27143001088021
 11
161.85642773519609
 21
113.20760535725472
  0
LINE
  8
_f-a_250
  6
CONTINUOUS
 62
  250
 10
161.85642773519609
 20
113.20760535725472
 11
161.76722342382507
 21
113.14957427510123
  0
LINE
  8
_f-a_250
  6
CONTINUOUS
 62
  250
 10
161.76722342382507
 20
113.14957427510123
 11
161.73854166875907
 21
113.1329088164222
  0
LINE
  8
_f-a_250
  6
CONTINUOUS
 62
  250
 10
161.73854166875907
 20
113.1329088164222
 11
159.93455941091608
 21
112.08956527241571
  0
LINE
  8
_f-a_250
  6
CONTINUOUS
 62
  250
 10
159.93455941091608
 20
112.08956527241571
 11
159.90205103765555
 21
112.0679168654332
  0
LINE
  8
_f-a_250
  6
CONTINUOUS
 62
  250
 10
279.50887972723109
 20
174.71289920338523
 11
279.4320374191866
 21
174.72915935047973
  0
LINE
  8
_f-a_250
  6
CONTINUOUS
 62
  250
 10
279.4320374191866
 20
174.72915935047973
 11
279.35917670141311
 21
174.77624701985224
  0
LINE
  8
_f-a_250
  6
CONTINUOUS
 62
  250
 10
279.35917670141311
 20
174.77624701985224
 11
279.29125124822707
 21
174.85161113270618
  0
LINE
  8
_f-a_250
  6
CONTINUOUS
 62
  250
 10
279.29125124822707
 20
174.85161113270618
 11
279.22923857580258
 21
174.9526767683877
  0
LINE
  8
_f-a_250
  6
CONTINUOUS
 62
  250
 10
279.22923857580258
 20
174.9526767683877
 11
279.17409235845662
 21
175.07684516438371
  0
LINE
  8
_f-a_250
  6
CONTINUOUS
 62
  250
 10
279.17409235845662
 20
175.07684516438371
 11
279.12681395422055
 21
175.22158908375621
  0
LINE
  8
_f-a_250
  6
CONTINUOUS
 62
  250
 10
279.12681395422055
 20
175.22158908375621
 11
279.08833319555356
 21
175.38428592213523
  0
LINE
  8
_f-a_250
  6
CONTINUOUS
 62
  250
 10
279.08833319555356
 20
175.38428592213523
 11
279.05967528234555
 21
175.56240844258173
  0
LINE
  8
_f-a_250
  6
CONTINUOUS
 62
  250
 10
279.05967528234555
 20
175.56240844258173
 11
279.04174620519711
 21
175.75335788258423
  0
LINE
  8
_f-a_250
  6
CONTINUOUS
 62
  250
 10
279.04174620519711
 20
175.75335788258423
 11
279.03554732214059
 21
175.9545831633462
  0
LINE
  8
_f-a_250
  6
CONTINUOUS
 62
  250
 10
279.03554732214059
 20
175.9545831633462
 11
279.04174620519711
 21
176.1557607603917
  0
LINE
  8
_f-a_250
  6
CONTINUOUS
 62
  250
 10
279.04174620519711
 20
176.1557607603917
 11
279.05967528234555
 21
176.34656714924671
  0
LINE
  8
_f-a_250
  6
CONTINUOUS
 62
  250
 10
279.05967528234555
 20
176.34656714924671
 11
279.08833319555356
 21
176.52449893483021
  0
LINE
  8
_f-a_250
  6
CONTINUOUS
 62
  250
 10
279.08833319555356
 20
176.52449893483021
 11
279.12681395422055
 21
176.6869811964882
  0
LINE
  8
_f-a_250
  6
CONTINUOUS
 62
  250
 10
279.12681395422055
 20
176.6869811964882
 11
279.17409235845662
 21
176.8314390135657
  0
LINE
  8
_f-a_250
  6
CONTINUOUS
 62
  250
 10
279.17409235845662
 20
176.8314390135657
 11
279.22923857580258
 21
176.95536899098269
  0
LINE
  8
_f-a_250
  6
CONTINUOUS
 62
  250
 10
279.22923857580258
 20
176.95536899098269
 11
279.29125124822707
 21
177.05619620808471
  0
LINE
  8
_f-a_250
  6
CONTINUOUS
 62
  250
 10
279.29125124822707
 20
177.05619620808471
 11
279.35917670141311
 21
177.13136958607575
  0
LINE
  8
_f-a_250
  6
CONTINUOUS
 62
  250
 10
279.35917670141311
 20
177.13136958607575
 11
279.4320374191866
 21
177.1783380461587
  0
LINE
  8
_f-a_250
  6
CONTINUOUS
 62
  250
 10
279.4320374191866
 20
177.1783380461587
 11
279.50887972723109
 21
177.1945743513952
  0
LINE
  8
_f-a_250
  6
CONTINUOUS
 62
  250
 10
181.40888506780706
 20
105.54788398274273
 11
180.5688768089876
 21
105.02622413166873
  0
LINE
  8
_f-a_250
  6
CONTINUOUS
 62
  250
 10
173.75622088323658
 20
109.6845655394447
 11
173.75622088323658
 21
109.13789557942273
  0
LINE
  8
_f-a_250
  6
CONTINUOUS
 62
  250
 10
164.88771731268008
 20
107.09290790089472
 11
164.88771731268008
 21
106.54623794087271
  0
LINE
  8
_f-a_250
  6
CONTINUOUS
 62
  250
 10
150.77371889959406
 20
128.63904929212256
 11
150.77371889959406
 21
147.07958983906624
  0
LINE
  8
_f-a_250
  6
CONTINUOUS
 62
  250
 10
151.76823431860058
 20
129.23460292347772
 11
151.80825630726457
 21
129.23652657993392
  0
LINE
  8
_f-a_250
  6
CONTINUOUS
 62
  250
 10
151.38196658494081
 20
128.98565595208208
 11
151.34022528539759
 21
129.00789069661022
  0
LINE
  8
_0-7_7
  6
CONTINUOUS
 62
    7
 10
337.9304499661543
 20
233.58729203894808
 11
340.12055689703061
 21
234.85122012623674
  0
LINE
  8
_0-7_7
  6
CONTINUOUS
 62
    7
 10
340.35721117864705
 20
234.43792151936424
 11
338.33749807727122
 21
233.27140815856615
  0
LINE
  8
_0-7_7
  6
CONTINUOUS
 62
    7
 10
338.58542126460191
 20
233.19666061081182
 11
340.76223666082456
 21
234.45291804798973
  0
LINE
  8
_0-7_7
  6
CONTINUOUS
 62
    7
 10
341.00220496069056
 20
234.04126452931274
 11
338.84879194623551
 21
232.79845006091386
  0
LINE
  8
_0-7_7
  6
CONTINUOUS
 62
    7
 10
338.8505286328849
 20
232.6915213441485
 11
340.93389803777757
 21
233.8962345076452
  0
LINE
  8
_0-7_7
  6
CONTINUOUS
 62
    7
 10
341.1722212494476
 20
233.4812192870032
 11
339.11427741330198
 21
232.29265953394224
  0
LINE
  8
_f-a_250
  6
CONTINUOUS
 62
  250
 10
338.15925413976754
 20
233.3459405852212
 11
338.18401286699435
 21
233.25196925540746
  0
LINE
  8
_0-7_7
  6
CONTINUOUS
 62
    7
 10
338.8328526737007
 20
232.67378608415117
 11
338.89887625585658
 21
232.63559627064575
  0
LINE
  8
_f-a_250
  6
CONTINUOUS
 62
  250
 10
302.98348685826875
 20
213.68341547855448
 11
337.61720950018008
 21
233.6795597029577
  0
LINE
  8
_0-7_7
  6
CONTINUOUS
 62
    7
 10
303.45772313321623
 20
213.18822906091697
 11
338.25886542211606
 21
233.28290271290672
  0
LINE
  8
_0-7_7
  6
CONTINUOUS
 62
    7
 10
338.76555258642259
 20
232.40454482563825
 11
303.84182914652519
 21
212.24350595714114
  0
LINE
  8
_0-7_7
  6
CONTINUOUS
 62
    7
 10
339.03055483709409
 20
231.89456748494021
 11
303.87621228782609
 21
211.60129431717033
  0
LINE
  8
_f-a_250
  6
CONTINUOUS
 62
  250
 10
339.03055483709409
 20
231.89456748494021
 11
303.89219346687719
 21
211.61051964776982
  0
LINE
  8
_0-7_7
  6
CONTINUOUS
 62
    7
 10
267.50057036291207
 20
194.12291335591172
 11
279.31044569174918
 21
200.94137928270121
  0
LINE
  8
_0-7_7
  6
CONTINUOUS
 62
    7
 10
280.52484023117933
 20
201.6425135079343
 11
301.45721728216256
 21
213.72788238057024
  0
LINE
  8
_0-7_7
  6
CONTINUOUS
 62
    7
 10
303.06222731481603
 20
210.4312210036172
 11
281.32654207440902
 21
197.88420161450034
  0
LINE
  8
_0-7_7
  6
CONTINUOUS
 62
    7
 10
280.09371014069592
 20
197.17254398766534
 11
271.18723685155959
 21
192.0312433195962
  0
LINE
  8
_f-a_250
  6
CONTINUOUS
 62
  250
 10
156.86949580445813
 20
132.34174212741081
 11
156.9616445852806
 21
132.7823396615903
  0
LINE
  8
_f-a_250
  6
CONTINUOUS
 62
  250
 10
123.2237109495691
 20
108.40713938998377
 11
123.19989293351659
 21
108.39583834933427
  0
LINE
  8
_f-a_250
  6
CONTINUOUS
 62
  250
 10
123.19989293351659
 20
108.39583834933427
 11
123.17572921052508
 21
108.38494262026929
  0
LINE
  8
_f-a_250
  6
CONTINUOUS
 62
  250
 10
123.17572921052508
 20
108.38494262026929
 11
123.15124362245109
 21
108.37447604464677
  0
LINE
  8
_f-a_250
  6
CONTINUOUS
 62
  250
 10
123.15124362245109
 20
108.37447604464677
 11
123.12643616929557
 21
108.36443862246676
  0
LINE
  8
_f-a_250
  6
CONTINUOUS
 62
  250
 10
123.12643616929557
 20
108.36443862246676
 11
123.10133069291609
 21
108.3548303537288
  0
LINE
  8
_f-a_250
  6
CONTINUOUS
 62
  250
 10
123.10133069291609
 20
108.3548303537288
 11
123.07595103517107
 21
108.3456750802913
  0
LINE
  8
_f-a_250
  6
CONTINUOUS
 62
  250
 10
123.07595103517107
 20
108.3456750802913
 11
123.05027335420158
 21
108.33699664401227
  0
LINE
  8
_f-a_250
  6
CONTINUOUS
 62
  250
 10
123.05027335420158
 20
108.33699664401227
 11
123.02433341279558
 21
108.32877120303331
  0
LINE
  8
_f-a_250
  6
CONTINUOUS
 62
  250
 10
123.02433341279558
 20
108.32877120303331
 11
122.99814313188111
 21
108.32102259921228
  0
LINE
  8
_f-a_250
  6
CONTINUOUS
 62
  250
 10
122.99814313188111
 20
108.32102259921228
 11
122.97171443238759
 21
108.31377467440778
  0
LINE
  8
_f-a_250
  6
CONTINUOUS
 62
  250
 10
122.97171443238759
 20
108.31377467440778
 11
122.71623700395159
 21
108.27004870700029
  0
LINE
  8
_f-a_250
  6
CONTINUOUS
 62
  250
 10
122.71623700395159
 20
108.27004870700029
 11
122.46162980332861
 21
108.27400645541377
  0
LINE
  8
_f-a_250
  6
CONTINUOUS
 62
  250
 10
122.46162980332861
 20
108.27400645541377
 11
122.21204131379659
 21
108.32273921298179
  0
LINE
  8
_f-a_250
  6
CONTINUOUS
 62
  250
 10
122.21204131379659
 20
108.32273921298179
 11
121.97164386048811
 21
108.41348132418779
  0
LINE
  8
_f-a_250
  6
CONTINUOUS
 62
  250
 10
121.97164386048811
 20
108.41348132418779
 11
121.74462168946761
 21
108.54337176608227
  0
LINE
  8
_f-a_250
  6
CONTINUOUS
 62
  250
 10
120.88403790727162
 20
110.17627677249128
 11
120.8921679808191
 21
110.41700801180981
  0
LINE
  8
_f-a_250
  6
CONTINUOUS
 62
  250
 10
120.8921679808191
 20
110.41700801180981
 11
120.92797845140007
 21
110.6493707590023
  0
LINE
  8
_f-a_250
  6
CONTINUOUS
 62
  250
 10
120.92797845140007
 20
110.6493707590023
 11
120.99009841218509
 21
110.87067088412431
  0
LINE
  8
_f-a_250
  6
CONTINUOUS
 62
  250
 10
120.99009841218509
 20
110.87067088412431
 11
121.07725232377561
 21
111.0782380990903
  0
LINE
  8
_f-a_250
  6
CONTINUOUS
 62
  250
 10
121.07725232377561
 20
111.0782380990903
 11
121.1880931212001
 21
111.2693305902403
  0
LINE
  8
_f-a_250
  6
CONTINUOUS
 62
  250
 10
121.1880931212001
 20
111.2693305902403
 11
121.3213095022731
 21
111.4413019113463
  0
LINE
  8
_f-a_250
  6
CONTINUOUS
 62
  250
 10
121.3213095022731
 20
111.4413019113463
 11
121.47556632295158
 21
111.59148177432229
  0
LINE
  8
_f-a_250
  6
CONTINUOUS
 62
  250
 10
121.47556632295158
 20
111.59148177432229
 11
121.6495403601221
 21
111.71712836550881
  0
LINE
  8
_f-a_250
  6
CONTINUOUS
 62
  250
 10
121.6495403601221
 20
111.71712836550881
 11
121.69054835572763
 21
111.73877677249128
  0
LINE
  8
_f-a_250
  6
CONTINUOUS
 62
  250
 10
157.4275383307031
 20
132.37211665438829
 11
157.49837249055409
 21
132.4004646234433
  0
LINE
  8
_f-a_250
  6
CONTINUOUS
 62
  250
 10
157.49837249055409
 20
132.4004646234433
 11
157.52252429261708
 21
132.4117418222348
  0
LINE
  8
_f-a_250
  6
CONTINUOUS
 62
  250
 10
157.52252429261708
 20
132.4117418222348
 11
157.5468668295436
 21
132.42263755129977
  0
LINE
  8
_f-a_250
  6
CONTINUOUS
 62
  250
 10
157.5468668295436
 20
132.42263755129977
 11
157.57140010133313
 21
132.4331041269223
  0
LINE
  8
_f-a_250
  6
CONTINUOUS
 62
  250
 10
157.57140010133313
 20
132.4331041269223
 11
157.59613602891463
 21
132.44314154910231
  0
LINE
  8
_f-a_250
  6
CONTINUOUS
 62
  250
 10
157.59613602891463
 20
132.44314154910231
 11
157.62108653321761
 21
132.4527498178403
  0
LINE
  8
_f-a_250
  6
CONTINUOUS
 62
  250
 10
157.62108653321761
 20
132.4527498178403
 11
157.64623969331311
 21
132.4619050912778
  0
LINE
  8
_f-a_250
  6
CONTINUOUS
 62
  250
 10
157.64623969331311
 20
132.4619050912778
 11
157.6716193510581
 21
132.4705835275573
  0
LINE
  8
_f-a_250
  6
CONTINUOUS
 62
  250
 10
157.6716193510581
 20
132.4705835275573
 11
157.69718974366711
 21
132.4788089685363
  0
LINE
  8
_f-a_250
  6
CONTINUOUS
 62
  250
 10
157.69718974366711
 20
132.4788089685363
 11
157.72301047578358
 21
132.48653373049879
  0
LINE
  8
_f-a_250
  6
CONTINUOUS
 62
  250
 10
157.72301047578358
 20
132.48653373049879
 11
157.74904578462159
 21
132.49378165530376
  0
LINE
  8
_f-a_250
  6
CONTINUOUS
 62
  250
 10
157.74904578462159
 20
132.49378165530376
 11
158.0033549620201
 21
132.5371738367003
  0
LINE
  8
_f-a_250
  6
CONTINUOUS
 62
  250
 10
158.0033549620201
 20
132.5371738367003
 11
158.2568058325341
 21
132.53314456271332
  0
LINE
  8
_f-a_250
  6
CONTINUOUS
 62
  250
 10
158.2568058325341
 20
132.53314456271332
 11
158.50524991288711
 21
132.48453101443482
  0
LINE
  8
_f-a_250
  6
CONTINUOUS
 62
  250
 10
158.50524991288711
 20
132.48453101443482
 11
158.74452679887312
 21
132.39417037295527
  0
LINE
  8
_f-a_250
  6
CONTINUOUS
 62
  250
 10
158.74452679887312
 20
132.39417037295527
 11
158.97045224443011
 21
132.26485213565027
  0
LINE
  8
_f-a_250
  6
CONTINUOUS
 62
  250
 10
158.97045224443011
 20
132.26485213565027
 11
159.17888968720962
 21
132.09934195803828
  0
LINE
  8
_f-a_250
  6
CONTINUOUS
 62
  250
 10
159.17888968720962
 20
132.09934195803828
 11
159.3656548811486
 21
131.90052470492532
  0
LINE
  8
_f-a_250
  6
CONTINUOUS
 62
  250
 10
159.3656548811486
 20
131.90052470492532
 11
159.52661126390009
 21
131.67116603182978
  0
LINE
  8
_f-a_250
  6
CONTINUOUS
 62
  250
 10
159.52661126390009
 20
131.67116603182978
 11
159.6575626684716
 21
131.41410311984231
  0
LINE
  8
_f-a_250
  6
CONTINUOUS
 62
  250
 10
159.6575626684716
 20
131.41410311984231
 11
159.7543725325161
 21
131.13210162448081
  0
LINE
  8
_f-a_250
  6
CONTINUOUS
 62
  250
 10
159.7543725325161
 20
131.13210162448081
 11
159.80558484330709
 21
130.8841463022153
  0
LINE
  8
_f-a_250
  6
CONTINUOUS
 62
  250
 10
159.80558484330709
 20
130.8841463022153
 11
159.82660144105458
 21
130.63909968661483
  0
LINE
  8
_f-a_250
  6
CONTINUOUS
 62
  250
 10
159.82660144105458
 20
130.63909968661483
 11
159.81873362794411
 21
130.39963206576527
  0
LINE
  8
_f-a_250
  6
CONTINUOUS
 62
  250
 10
159.81873362794411
 20
130.39963206576527
 11
159.78328078523211
 21
130.1684137277523
  0
LINE
  8
_f-a_250
  6
CONTINUOUS
 62
  250
 10
159.78328078523211
 20
130.1684137277523
 11
159.7215542151026
 21
129.9481626443783
  0
LINE
  8
_f-a_250
  6
CONTINUOUS
 62
  250
 10
159.7215542151026
 20
129.9481626443783
 11
159.6348890615991
 21
129.7415491037288
  0
LINE
  8
_f-a_250
  6
CONTINUOUS
 62
  250
 10
159.6348890615991
 20
129.7415491037288
 11
159.5245727850486
 21
129.55129107760581
  0
LINE
  8
_f-a_250
  6
CONTINUOUS
 62
  250
 10
159.5245727850486
 20
129.55129107760581
 11
159.39192860856559
 21
129.3800588540953
  0
LINE
  8
_f-a_250
  6
CONTINUOUS
 62
  250
 10
159.39192860856559
 20
129.3800588540953
 11
159.2382559134056
 21
129.23054656314076
  0
LINE
  8
_f-a_250
  6
CONTINUOUS
 62
  250
 10
159.2382559134056
 20
129.23054656314076
 11
159.06487792268311
 21
129.10544833468578
  0
LINE
  8
_f-a_250
  6
CONTINUOUS
 62
  250
 10
159.06487792268311
 20
129.10544833468578
 11
159.0310463263086
 21
129.07712420748879
  0
LINE
  8
_f-a_250
  6
CONTINUOUS
 62
  250
 10
123.25753062501457
 20
108.42211207675132
 11
123.2237109495691
 21
108.40713938998377
  0
LINE
  8
_0-7_7
  6
CONTINUOUS
 62
    7
 10
123.2237109495691
 20
108.40713938998377
 11
123.19989293351659
 21
108.39583834933427
  0
LINE
  8
_0-7_7
  6
CONTINUOUS
 62
    7
 10
123.19989293351659
 20
108.39583834933427
 11
123.17572921052508
 21
108.38494262026929
  0
LINE
  8
_0-7_7
  6
CONTINUOUS
 62
    7
 10
123.17572921052508
 20
108.38494262026929
 11
123.15124362245109
 21
108.37447604464677
  0
LINE
  8
_0-7_7
  6
CONTINUOUS
 62
    7
 10
123.15124362245109
 20
108.37447604464677
 11
123.12643616929557
 21
108.36443862246676
  0
LINE
  8
_0-7_7
  6
CONTINUOUS
 62
    7
 10
123.12643616929557
 20
108.36443862246676
 11
123.10133069291609
 21
108.3548303537288
  0
LINE
  8
_0-7_7
  6
CONTINUOUS
 62
    7
 10
123.10133069291609
 20
108.3548303537288
 11
123.07595103517107
 21
108.3456750802913
  0
LINE
  8
_0-7_7
  6
CONTINUOUS
 62
    7
 10
123.07595103517107
 20
108.3456750802913
 11
123.05027335420158
 21
108.33699664401227
  0
LINE
  8
_0-7_7
  6
CONTINUOUS
 62
    7
 10
123.05027335420158
 20
108.33699664401227
 11
123.02433341279558
 21
108.32877120303331
  0
LINE
  8
_0-7_7
  6
CONTINUOUS
 62
    7
 10
123.02433341279558
 20
108.32877120303331
 11
122.99814313188111
 21
108.32102259921228
  0
LINE
  8
_0-7_7
  6
CONTINUOUS
 62
    7
 10
122.99814313188111
 20
108.32102259921228
 11
122.97171443238759
 21
108.31377467440778
  0
LINE
  8
_0-7_7
  6
CONTINUOUS
 62
    7
 10
122.97171443238759
 20
108.31377467440778
 11
122.71623700395159
 21
108.27004870700029
  0
LINE
  8
_0-7_7
  6
CONTINUOUS
 62
    7
 10
122.71623700395159
 20
108.27004870700029
 11
122.46162980332861
 21
108.27400645541377
  0
LINE
  8
_0-7_7
  6
CONTINUOUS
 62
    7
 10
122.46162980332861
 20
108.27400645541377
 11
122.21204131379659
 21
108.32273921298179
  0
LINE
  8
_0-7_7
  6
CONTINUOUS
 62
    7
 10
120.88403790727162
 20
110.17627677249128
 11
120.8921679808191
 21
110.41700801180981
  0
LINE
  8
_0-7_7
  6
CONTINUOUS
 62
    7
 10
120.8921679808191
 20
110.41700801180981
 11
120.92797845140007
 21
110.6493707590023
  0
LINE
  8
_0-7_7
  6
CONTINUOUS
 62
    7
 10
120.92797845140007
 20
110.6493707590023
 11
120.99009841218509
 21
110.87067088412431
  0
LINE
  8
_0-7_7
  6
CONTINUOUS
 62
    7
 10
120.99009841218509
 20
110.87067088412431
 11
121.07725232377561
 21
111.0782380990903
  0
LINE
  8
_0-7_7
  6
CONTINUOUS
 62
    7
 10
121.07725232377561
 20
111.0782380990903
 11
121.1880931212001
 21
111.2693305902403
  0
LINE
  8
_0-7_7
  6
CONTINUOUS
 62
    7
 10
121.1880931212001
 20
111.2693305902403
 11
121.3213095022731
 21
111.4413019113463
  0
LINE
  8
_0-7_7
  6
CONTINUOUS
 62
    7
 10
121.3213095022731
 20
111.4413019113463
 11
121.47556632295158
 21
111.59148177432229
  0
LINE
  8
_0-7_7
  6
CONTINUOUS
 62
    7
 10
121.47556632295158
 20
111.59148177432229
 11
121.6495403601221
 21
111.71712836550881
  0
LINE
  8
_0-7_7
  6
CONTINUOUS
 62
    7
 10
121.6495403601221
 20
111.71712836550881
 11
121.69054835572763
 21
111.73877677249128
  0
LINE
  8
_0-7_7
  6
CONTINUOUS
 62
    7
 10
157.4275383307031
 20
132.37211665438829
 11
157.49837249055409
 21
132.4004646234433
  0
LINE
  8
_0-7_7
  6
CONTINUOUS
 62
    7
 10
157.49837249055409
 20
132.4004646234433
 11
157.52252429261708
 21
132.4117418222348
  0
LINE
  8
_0-7_7
  6
CONTINUOUS
 62
    7
 10
157.52252429261708
 20
132.4117418222348
 11
157.5468668295436
 21
132.42263755129977
  0
LINE
  8
_0-7_7
  6
CONTINUOUS
 62
    7
 10
157.5468668295436
 20
132.42263755129977
 11
157.57140010133313
 21
132.4331041269223
  0
LINE
  8
_0-7_7
  6
CONTINUOUS
 62
    7
 10
157.57140010133313
 20
132.4331041269223
 11
157.59613602891463
 21
132.44314154910231
  0
LINE
  8
_0-7_7
  6
CONTINUOUS
 62
    7
 10
157.59613602891463
 20
132.44314154910231
 11
157.62108653321761
 21
132.4527498178403
  0
LINE
  8
_0-7_7
  6
CONTINUOUS
 62
    7
 10
157.62108653321761
 20
132.4527498178403
 11
157.64623969331311
 21
132.4619050912778
  0
LINE
  8
_0-7_7
  6
CONTINUOUS
 62
    7
 10
157.64623969331311
 20
132.4619050912778
 11
157.6716193510581
 21
132.4705835275573
  0
LINE
  8
_0-7_7
  6
CONTINUOUS
 62
    7
 10
157.6716193510581
 20
132.4705835275573
 11
157.69718974366711
 21
132.4788089685363
  0
LINE
  8
_0-7_7
  6
CONTINUOUS
 62
    7
 10
157.69718974366711
 20
132.4788089685363
 11
157.72301047578358
 21
132.48653373049879
  0
LINE
  8
_0-7_7
  6
CONTINUOUS
 62
    7
 10
157.72301047578358
 20
132.48653373049879
 11
157.74904578462159
 21
132.49378165530376
  0
LINE
  8
_0-7_7
  6
CONTINUOUS
 62
    7
 10
157.74904578462159
 20
132.49378165530376
 11
158.0033549620201
 21
132.5371738367003
  0
LINE
  8
_0-7_7
  6
CONTINUOUS
 62
    7
 10
158.0033549620201
 20
132.5371738367003
 11
158.2568058325341
 21
132.53314456271332
  0
LINE
  8
_0-7_7
  6
CONTINUOUS
 62
    7
 10
158.2568058325341
 20
132.53314456271332
 11
158.50524991288711
 21
132.48453101443482
  0
LINE
  8
_0-7_7
  6
CONTINUOUS
 62
    7
 10
158.50524991288711
 20
132.48453101443482
 11
158.74452679887312
 21
132.39417037295527
  0
LINE
  8
_0-7_7
  6
CONTINUOUS
 62
    7
 10
158.74452679887312
 20
132.39417037295527
 11
158.97045224443011
 21
132.26485213565027
  0
LINE
  8
_0-7_7
  6
CONTINUOUS
 62
    7
 10
158.97045224443011
 20
132.26485213565027
 11
159.17888968720962
 21
132.09934195803828
  0
LINE
  8
_0-7_7
  6
CONTINUOUS
 62
    7
 10
159.17888968720962
 20
132.09934195803828
 11
159.3656548811486
 21
131.90052470492532
  0
LINE
  8
_0-7_7
  6
CONTINUOUS
 62
    7
 10
159.3656548811486
 20
131.90052470492532
 11
159.52661126390009
 21
131.67116603182978
  0
LINE
  8
_0-7_7
  6
CONTINUOUS
 62
    7
 10
159.52661126390009
 20
131.67116603182978
 11
159.6575626684716
 21
131.41410311984231
  0
LINE
  8
_0-7_7
  6
CONTINUOUS
 62
    7
 10
159.6575626684716
 20
131.41410311984231
 11
159.7543725325161
 21
131.13210162448081
  0
LINE
  8
_0-7_7
  6
CONTINUOUS
 62
    7
 10
159.7543725325161
 20
131.13210162448081
 11
159.80558484330709
 21
130.8841463022153
  0
LINE
  8
_0-7_7
  6
CONTINUOUS
 62
    7
 10
159.80558484330709
 20
130.8841463022153
 11
159.82660144105458
 21
130.63909968661483
  0
LINE
  8
_0-7_7
  6
CONTINUOUS
 62
    7
 10
159.82660144105458
 20
130.63909968661483
 11
159.81873362794411
 21
130.39963206576527
  0
LINE
  8
_0-7_7
  6
CONTINUOUS
 62
    7
 10
159.81873362794411
 20
130.39963206576527
 11
159.78328078523211
 21
130.1684137277523
  0
LINE
  8
_0-7_7
  6
CONTINUOUS
 62
    7
 10
159.78328078523211
 20
130.1684137277523
 11
159.7215542151026
 21
129.9481626443783
  0
LINE
  8
_0-7_7
  6
CONTINUOUS
 62
    7
 10
159.7215542151026
 20
129.9481626443783
 11
159.6348890615991
 21
129.7415491037288
  0
LINE
  8
_0-7_7
  6
CONTINUOUS
 62
    7
 10
159.6348890615991
 20
129.7415491037288
 11
159.5245727850486
 21
129.55129107760581
  0
LINE
  8
_0-7_7
  6
CONTINUOUS
 62
    7
 10
159.5245727850486
 20
129.55129107760581
 11
159.39192860856559
 21
129.3800588540953
  0
LINE
  8
_0-7_7
  6
CONTINUOUS
 62
    7
 10
159.39192860856559
 20
129.3800588540953
 11
159.2382559134056
 21
129.23054656314076
  0
LINE
  8
_0-7_7
  6
CONTINUOUS
 62
    7
 10
159.2382559134056
 20
129.23054656314076
 11
159.06487792268311
 21
129.10544833468578
  0
LINE
  8
_0-7_7
  6
CONTINUOUS
 62
    7
 10
159.06487792268311
 20
129.10544833468578
 11
159.0310463263086
 21
129.07712420748879
  0
LINE
  8
_0-7_7
  6
CONTINUOUS
 62
    7
 10
123.25753062501457
 20
108.42211207675132
 11
123.2237109495691
 21
108.40713938998377
  0
LINE
  8
_0-7_7
  6
CONTINUOUS
 62
    7
 10
121.6748842550806
 20
111.73877677249128
 11
121.69830888047713
 21
111.75007781314078
  0
LINE
  8
_0-7_7
  6
CONTINUOUS
 62
    7
 10
121.69830888047713
 20
111.75007781314078
 11
121.7220672918846
 21
111.76097354220582
  0
LINE
  8
_0-7_7
  6
CONTINUOUS
 62
    7
 10
121.7220672918846
 20
111.76097354220582
 11
121.74617141023211
 21
111.77144011782828
  0
LINE
  8
_0-7_7
  6
CONTINUOUS
 62
    7
 10
121.74617141023211
 20
111.77144011782828
 11
121.77059739366109
 21
111.78147754000827
  0
LINE
  8
_0-7_7
  6
CONTINUOUS
 62
    7
 10
121.77059739366109
 20
111.78147754000827
 11
121.79534524217161
 21
111.79106196688829
  0
LINE
  8
_0-7_7
  6
CONTINUOUS
 62
    7
 10
121.79534524217161
 20
111.79106196688829
 11
121.82039111390611
 21
111.80021724032579
  0
LINE
  8
_0-7_7
  6
CONTINUOUS
 62
    7
 10
121.82039111390611
 20
111.80021724032579
 11
121.84574692979359
 21
111.80891951846277
  0
LINE
  8
_0-7_7
  6
CONTINUOUS
 62
    7
 10
121.84574692979359
 20
111.80891951846277
 11
121.87140076890512
 21
111.81714495944178
  0
LINE
  8
_0-7_7
  6
CONTINUOUS
 62
    7
 10
121.87140076890512
 20
111.81714495944178
 11
121.89732878938207
 21
111.82486972140481
  0
LINE
  8
_0-7_7
  6
CONTINUOUS
 62
    7
 10
121.89732878938207
 20
111.82486972140481
 11
121.92354291215463
 21
111.83211764620927
  0
LINE
  8
_0-7_7
  6
CONTINUOUS
 62
    7
 10
121.92354291215463
 20
111.83211764620927
 11
122.1780189825586
 21
111.87539061831629
  0
LINE
  8
_0-7_7
  6
CONTINUOUS
 62
    7
 10
122.1780189825586
 20
111.87539061831629
 11
122.43166058793562
 21
111.87107524203478
  0
LINE
  8
_0-7_7
  6
CONTINUOUS
 62
    7
 10
122.43166058793562
 20
111.87107524203478
 11
122.6803192450096
 21
111.82200869845582
  0
LINE
  8
_0-7_7
  6
CONTINUOUS
 62
    7
 10
122.6803192450096
 20
111.82200869845582
 11
122.91983454957509
 21
111.73098048495478
  0
LINE
  8
_0-7_7
  6
CONTINUOUS
 62
    7
 10
122.91983454957509
 20
111.73098048495478
 11
123.14604609742659
 21
111.60085162448081
  0
LINE
  8
_0-7_7
  6
CONTINUOUS
 62
    7
 10
123.14604609742659
 20
111.60085162448081
 11
123.35480540528809
 21
111.43443545626832
  0
LINE
  8
_0-7_7
  6
CONTINUOUS
 62
    7
 10
123.35480540528809
 20
111.43443545626832
 11
123.54192822709609
 21
111.23452147769129
  0
LINE
  8
_0-7_7
  6
CONTINUOUS
 62
    7
 10
123.54192822709609
 20
111.23452147769129
 11
123.70328992143209
 21
111.00394686984231
  0
LINE
  8
_0-7_7
  6
CONTINUOUS
 62
    7
 10
123.70328992143209
 20
111.00394686984231
 11
123.8347181631616
 21
110.74554881381181
  0
LINE
  8
_0-7_7
  6
CONTINUOUS
 62
    7
 10
123.8347181631616
 20
110.74554881381181
 11
123.93205254807958
 21
110.46211680697627
  0
LINE
  8
_0-7_7
  6
CONTINUOUS
 62
    7
 10
123.93205254807958
 20
110.46211680697627
 11
123.98347943559213
 21
110.21401843356279
  0
LINE
  8
_0-7_7
  6
CONTINUOUS
 62
    7
 10
123.98347943559213
 20
110.21401843356279
 11
124.00466292634511
 21
109.96859034823578
  0
LINE
  8
_0-7_7
  6
CONTINUOUS
 62
    7
 10
124.00466292634511
 20
109.96859034823578
 11
123.99691432252459
 21
109.72855052279627
  0
LINE
  8
_0-7_7
  6
CONTINUOUS
 62
    7
 10
123.99691432252459
 20
109.72855052279627
 11
123.96154492631459
 21
109.49666461276227
  0
LINE
  8
_0-7_7
  6
CONTINUOUS
 62
    7
 10
123.96154492631459
 20
109.49666461276227
 11
123.89987796083008
 21
109.27567443179282
  0
LINE
  8
_0-7_7
  6
CONTINUOUS
 62
    7
 10
123.89987796083008
 20
109.27567443179282
 11
123.8132366491846
 21
109.06832179354828
  0
LINE
  8
_0-7_7
  6
CONTINUOUS
 62
    7
 10
123.8132366491846
 20
109.06832179354828
 11
123.70292037263411
 21
108.87737235354578
  0
LINE
  8
_0-7_7
  6
CONTINUOUS
 62
    7
 10
123.70292037263411
 20
108.87737235354578
 11
123.5702761961511
 21
108.70559176730329
  0
LINE
  8
_0-7_7
  6
CONTINUOUS
 62
    7
 10
123.5702761961511
 20
108.70559176730329
 11
123.4166035009911
 21
108.55572184847978
  0
LINE
  8
_0-7_7
  6
CONTINUOUS
 62
    7
 10
123.4166035009911
 20
108.55572184847978
 11
123.2432135893396
 21
108.43045672701977
  0
LINE
  8
_0-7_7
  6
CONTINUOUS
 62
    7
 10
138.5987171484521
 20
113.6504646234433
 11
138.5118374182276
 21
113.67177924441479
  0
LINE
  8
_0-7_7
  6
CONTINUOUS
 62
    7
 10
138.5118374182276
 20
113.67177924441479
 11
138.27604144349613
 21
113.7443061761778
  0
LINE
  8
_0-7_7
  6
CONTINUOUS
 62
    7
 10
138.27604144349613
 20
113.7443061761778
 11
137.92857020631362
 21
113.88075312899731
  0
LINE
  8
_0-7_7
  6
CONTINUOUS
 62
    7
 10
137.92857020631362
 20
113.88075312899731
 11
137.5066646887351
 21
114.09397086428828
  0
LINE
  8
_0-7_7
  6
CONTINUOUS
 62
    7
 10
137.5066646887351
 20
114.09397086428828
 11
137.04760163560411
 21
114.39671477603127
  0
LINE
  8
_0-7_7
  6
CONTINUOUS
 62
    7
 10
137.04760163560411
 20
114.39671477603127
 11
136.58861010804711
 21
114.80174025820878
  0
LINE
  8
_0-7_7
  6
CONTINUOUS
 62
    7
 10
136.58861010804711
 20
114.80174025820878
 11
136.1669430090476
 21
115.3218503885188
  0
LINE
  8
_0-7_7
  6
CONTINUOUS
 62
    7
 10
136.1669430090476
 20
115.3218503885188
 11
135.8198532415916
 21
115.96982440280129
  0
LINE
  8
_0-7_7
  6
CONTINUOUS
 62
    7
 10
135.8198532415916
 20
115.96982440280129
 11
135.58456986680562
 21
116.75841769503779
  0
LINE
  8
_0-7_7
  6
CONTINUOUS
 62
    7
 10
135.58456986680562
 20
116.75841769503779
 11
135.49836962953111
 21
117.7004571847838
  0
LINE
  8
_0-7_7
  6
CONTINUOUS
 62
    7
 10
135.49836962953111
 20
117.7004571847838
 11
135.4111561132961
 21
118.6477180414123
  0
LINE
  8
_0-7_7
  6
CONTINUOUS
 62
    7
 10
135.4111561132961
 20
118.6477180414123
 11
135.16930430665514
 21
119.44701632785029
  0
LINE
  8
_0-7_7
  6
CONTINUOUS
 62
    7
 10
135.16930430665514
 20
119.44701632785029
 11
134.81140225663711
 21
120.10972461032077
  0
LINE
  8
_0-7_7
  6
CONTINUOUS
 62
    7
 10
134.81140225663711
 20
120.10972461032077
 11
134.37603801026859
 21
120.6472154550473
  0
LINE
  8
_0-7_7
  6
CONTINUOUS
 62
    7
 10
134.37603801026859
 20
120.6472154550473
 11
133.90181153550662
 21
121.07086142825277
  0
LINE
  8
_0-7_7
  6
CONTINUOUS
 62
    7
 10
133.90181153550662
 20
121.07086142825277
 11
133.42728703752061
 21
121.3920112543028
  0
LINE
  8
_0-7_7
  6
CONTINUOUS
 62
    7
 10
133.42728703752061
 20
121.3920112543028
 11
132.99104064240959
 21
121.62201365756181
  0
LINE
  8
_0-7_7
  6
CONTINUOUS
 62
    7
 10
132.99104064240959
 20
121.62201365756181
 11
132.63167231813009
 21
121.77224120425379
  0
LINE
  8
_0-7_7
  6
CONTINUOUS
 62
    7
 10
132.63167231813009
 20
121.77224120425379
 11
132.38774626985111
 21
121.85401877688581
  0
LINE
  8
_0-7_7
  6
CONTINUOUS
 62
    7
 10
132.38774626985111
 20
121.85401877688581
 11
132.2978743864586
 21
121.87879046725428
  0
LINE
  8
_0-7_7
  6
CONTINUOUS
 62
    7
 10
133.41503232255511
 20
122.73545226382429
 11
133.5048088385156
 21
122.71060904788182
  0
LINE
  8
_0-7_7
  6
CONTINUOUS
 62
    7
 10
133.5048088385156
 20
122.71060904788182
 11
133.74846070542858
 21
122.62856921481279
  0
LINE
  8
_0-7_7
  6
CONTINUOUS
 62
    7
 10
133.74846070542858
 20
122.62856921481279
 11
134.10748332276859
 21
122.47800788211029
  0
LINE
  8
_0-7_7
  6
CONTINUOUS
 62
    7
 10
134.10748332276859
 20
122.47800788211029
 11
134.5433363272241
 21
122.24762400912431
  0
LINE
  8
_0-7_7
  6
CONTINUOUS
 62
    7
 10
134.5433363272241
 20
122.24762400912431
 11
135.01753896012809
 21
121.9260927133483
  0
LINE
  8
_0-7_7
  6
CONTINUOUS
 62
    7
 10
135.01753896012809
 20
121.9260927133483
 11
135.49155085816909
 21
121.50208911227381
  0
LINE
  8
_0-7_7
  6
CONTINUOUS
 62
    7
 10
135.49155085816909
 20
121.50208911227381
 11
135.92687934175061
 21
120.96435984896829
  0
LINE
  8
_0-7_7
  6
CONTINUOUS
 62
    7
 10
135.92687934175061
 20
120.96435984896829
 11
136.28499596849011
 21
120.3015323572078
  0
LINE
  8
_0-7_7
  6
CONTINUOUS
 62
    7
 10
136.28499596849011
 20
120.3015323572078
 11
136.52738421693363
 21
119.50235328005982
  0
LINE
  8
_0-7_7
  6
CONTINUOUS
 62
    7
 10
136.52738421693363
 20
119.50235328005982
 11
136.6155394865566
 21
118.55545005129977
  0
LINE
  8
_0-7_7
  6
CONTINUOUS
 62
    7
 10
136.6155394865566
 20
118.55545005129977
 11
136.6996893240501
 21
117.6118131570738
  0
LINE
  8
_0-7_7
  6
CONTINUOUS
 62
    7
 10
136.6996893240501
 20
117.6118131570738
 11
136.93381636872812
 21
116.82226619052079
  0
LINE
  8
_0-7_7
  6
CONTINUOUS
 62
    7
 10
136.93381636872812
 20
116.82226619052079
 11
137.2805127455286
 21
116.17391070651227
  0
LINE
  8
_0-7_7
  6
CONTINUOUS
 62
    7
 10
137.2805127455286
 20
116.17391070651227
 11
137.70234673753311
 21
115.65387210177582
  0
LINE
  8
_0-7_7
  6
CONTINUOUS
 62
    7
 10
137.70234673753311
 20
115.65387210177582
 11
138.16192239060911
 21
115.24922808932477
  0
LINE
  8
_0-7_7
  6
CONTINUOUS
 62
    7
 10
138.16192239060911
 20
115.24922808932477
 11
138.62181990876712
 21
114.94705638217127
  0
LINE
  8
_0-7_7
  6
CONTINUOUS
 62
    7
 10
138.62181990876712
 20
114.94705638217127
 11
139.04465525880357
 21
114.73450621890228
  0
LINE
  8
_0-7_7
  6
CONTINUOUS
 62
    7
 10
139.04465525880357
 20
114.73450621890228
 11
139.39298480287113
 21
114.5986553125303
  0
LINE
  8
_0-7_7
  6
CONTINUOUS
 62
    7
 10
139.39298480287113
 20
114.5986553125303
 11
139.62942450776609
 21
114.52660521792581
  0
LINE
  8
_0-7_7
  6
CONTINUOUS
 62
    7
 10
139.62942450776609
 20
114.52660521792581
 11
139.7165426565696
 21
114.50545748995927
  0
LINE
  8
_f-a_250
  6
CONTINUOUS
 62
  250
 10
133.41503232255511
 20
122.73545226382429
 11
133.5048088385156
 21
122.71060904788182
  0
LINE
  8
_f-a_250
  6
CONTINUOUS
 62
  250
 10
133.5048088385156
 20
122.71060904788182
 11
133.74846070542858
 21
122.62856921481279
  0
LINE
  8
_f-a_250
  6
CONTINUOUS
 62
  250
 10
133.74846070542858
 20
122.62856921481279
 11
134.10748332276859
 21
122.47800788211029
  0
LINE
  8
_f-a_250
  6
CONTINUOUS
 62
  250
 10
134.10748332276859
 20
122.47800788211029
 11
134.5433363272241
 21
122.24762400912431
  0
LINE
  8
_f-a_250
  6
CONTINUOUS
 62
  250
 10
134.5433363272241
 20
122.24762400912431
 11
135.01753896012809
 21
121.9260927133483
  0
LINE
  8
_f-a_250
  6
CONTINUOUS
 62
  250
 10
135.01753896012809
 20
121.9260927133483
 11
135.49155085816909
 21
121.50208911227381
  0
LINE
  8
_f-a_250
  6
CONTINUOUS
 62
  250
 10
135.49155085816909
 20
121.50208911227381
 11
135.92687934175061
 21
120.96435984896829
  0
LINE
  8
_f-a_250
  6
CONTINUOUS
 62
  250
 10
135.92687934175061
 20
120.96435984896829
 11
136.28499596849011
 21
120.3015323572078
  0
LINE
  8
_f-a_250
  6
CONTINUOUS
 62
  250
 10
136.28499596849011
 20
120.3015323572078
 11
136.52738421693363
 21
119.50235328005982
  0
LINE
  8
_f-a_250
  6
CONTINUOUS
 62
  250
 10
136.52738421693363
 20
119.50235328005982
 11
136.6155394865566
 21
118.55545005129977
  0
LINE
  8
_f-a_250
  6
CONTINUOUS
 62
  250
 10
136.6155394865566
 20
118.55545005129977
 11
136.6996893240501
 21
117.6118131570738
  0
LINE
  8
_f-a_250
  6
CONTINUOUS
 62
  250
 10
136.6996893240501
 20
117.6118131570738
 11
136.93381636872812
 21
116.82226619052079
  0
LINE
  8
_f-a_250
  6
CONTINUOUS
 62
  250
 10
136.93381636872812
 20
116.82226619052079
 11
137.2805127455286
 21
116.17391070651227
  0
LINE
  8
_f-a_250
  6
CONTINUOUS
 62
  250
 10
137.2805127455286
 20
116.17391070651227
 11
137.70234673753311
 21
115.65387210177582
  0
LINE
  8
_f-a_250
  6
CONTINUOUS
 62
  250
 10
137.70234673753311
 20
115.65387210177582
 11
138.16192239060911
 21
115.24922808932477
  0
LINE
  8
_f-a_250
  6
CONTINUOUS
 62
  250
 10
138.16192239060911
 20
115.24922808932477
 11
138.62181990876712
 21
114.94705638217127
  0
LINE
  8
_f-a_250
  6
CONTINUOUS
 62
  250
 10
138.62181990876712
 20
114.94705638217127
 11
139.04465525880357
 21
114.73450621890228
  0
LINE
  8
_f-a_250
  6
CONTINUOUS
 62
  250
 10
139.04465525880357
 20
114.73450621890228
 11
139.39298480287113
 21
114.5986553125303
  0
LINE
  8
_f-a_250
  6
CONTINUOUS
 62
  250
 10
139.39298480287113
 20
114.5986553125303
 11
139.62942450776609
 21
114.52660521792581
  0
LINE
  8
_f-a_250
  6
CONTINUOUS
 62
  250
 10
139.62942450776609
 20
114.52660521792581
 11
139.7165426565696
 21
114.50545748995927
  0
LINE
  8
_f-a_250
  6
CONTINUOUS
 62
  250
 10
132.2978743864586
 20
121.87879046725428
 11
132.38774626985111
 21
121.85401877688581
  0
LINE
  8
_f-a_250
  6
CONTINUOUS
 62
  250
 10
132.38774626985111
 20
121.85401877688581
 11
132.63167231813009
 21
121.77224120425379
  0
LINE
  8
_f-a_250
  6
CONTINUOUS
 62
  250
 10
132.63167231813009
 20
121.77224120425379
 11
132.99104064240959
 21
121.62201365756181
  0
LINE
  8
_f-a_250
  6
CONTINUOUS
 62
  250
 10
132.99104064240959
 20
121.62201365756181
 11
133.42728703752061
 21
121.3920112543028
  0
LINE
  8
_f-a_250
  6
CONTINUOUS
 62
  250
 10
133.42728703752061
 20
121.3920112543028
 11
133.90181153550662
 21
121.07086142825277
  0
LINE
  8
_f-a_250
  6
CONTINUOUS
 62
  250
 10
133.90181153550662
 20
121.07086142825277
 11
134.37603801026859
 21
120.6472154550473
  0
LINE
  8
_f-a_250
  6
CONTINUOUS
 62
  250
 10
134.37603801026859
 20
120.6472154550473
 11
134.81140225663711
 21
120.10972461032077
  0
LINE
  8
_f-a_250
  6
CONTINUOUS
 62
  250
 10
134.81140225663711
 20
120.10972461032077
 11
135.16930430665514
 21
119.44701632785029
  0
LINE
  8
_f-a_250
  6
CONTINUOUS
 62
  250
 10
135.16930430665514
 20
119.44701632785029
 11
135.4111561132961
 21
118.6477180414123
  0
LINE
  8
_f-a_250
  6
CONTINUOUS
 62
  250
 10
135.4111561132961
 20
118.6477180414123
 11
135.49836962953111
 21
117.7004571847838
  0
LINE
  8
_f-a_250
  6
CONTINUOUS
 62
  250
 10
135.49836962953111
 20
117.7004571847838
 11
135.58456986680562
 21
116.75841769503779
  0
LINE
  8
_f-a_250
  6
CONTINUOUS
 62
  250
 10
135.58456986680562
 20
116.75841769503779
 11
135.8198532415916
 21
115.96982440280129
  0
LINE
  8
_f-a_250
  6
CONTINUOUS
 62
  250
 10
135.8198532415916
 20
115.96982440280129
 11
136.1669430090476
 21
115.3218503885188
  0
LINE
  8
_f-a_250
  6
CONTINUOUS
 62
  250
 10
136.1669430090476
 20
115.3218503885188
 11
136.58861010804711
 21
114.80174025820878
  0
LINE
  8
_f-a_250
  6
CONTINUOUS
 62
  250
 10
136.58861010804711
 20
114.80174025820878
 11
137.04760163560411
 21
114.39671477603127
  0
LINE
  8
_f-a_250
  6
CONTINUOUS
 62
  250
 10
137.04760163560411
 20
114.39671477603127
 11
137.5066646887351
 21
114.09397086428828
  0
LINE
  8
_f-a_250
  6
CONTINUOUS
 62
  250
 10
137.5066646887351
 20
114.09397086428828
 11
137.92857020631362
 21
113.88075312899731
  0
LINE
  8
_f-a_250
  6
CONTINUOUS
 62
  250
 10
137.92857020631362
 20
113.88075312899731
 11
138.27604144349613
 21
113.7443061761778
  0
LINE
  8
_f-a_250
  6
CONTINUOUS
 62
  250
 10
138.27604144349613
 20
113.7443061761778
 11
138.5118374182276
 21
113.67177924441479
  0
LINE
  8
_f-a_250
  6
CONTINUOUS
 62
  250
 10
138.5118374182276
 20
113.67177924441479
 11
138.5987171484521
 21
113.6504646234433
  0
LINE
  8
_0-7_7
  6
CONTINUOUS
 62
    7
 10
122.51087516084212
 20
108.79044493960532
 11
122.35653489366109
 21
108.8045831613463
  0
LINE
  8
_0-7_7
  6
CONTINUOUS
 62
    7
 10
122.35653489366109
 20
108.8045831613463
 11
122.2070226027061
 21
108.84566268252527
  0
LINE
  8
_0-7_7
  6
CONTINUOUS
 62
    7
 10
121.4301833464196
 20
110.51900347994977
 11
121.48573487535009
 21
110.70044001864579
  0
LINE
  8
_0-7_7
  6
CONTINUOUS
 62
    7
 10
121.48573487535009
 20
110.70044001864579
 11
121.56342356935059
 21
110.8664985589903
  0
LINE
  8
_0-7_7
  6
CONTINUOUS
 62
    7
 10
121.56342356935059
 20
110.8664985589903
 11
121.66153281465108
 21
111.0141988687438
  0
LINE
  8
_0-7_7
  6
CONTINUOUS
 62
    7
 10
121.66153281465108
 20
111.0141988687438
 11
121.7783698393396
 21
111.14058455752527
  0
LINE
  8
_0-7_7
  6
CONTINUOUS
 62
    7
 10
121.7783698393396
 20
111.14058455752527
 11
121.91225379243409
 21
111.24267539309679
  0
LINE
  8
_0-7_7
  6
CONTINUOUS
 62
    7
 10
121.91225379243409
 20
111.24267539309679
 11
122.0614919020226
 21
111.31751498507681
  0
LINE
  8
_0-7_7
  6
CONTINUOUS
 62
    7
 10
122.0614919020226
 20
111.31751498507681
 11
122.2243794752651
 21
111.36212310122627
  0
LINE
  8
_0-7_7
  6
CONTINUOUS
 62
    7
 10
122.2243794752651
 20
111.36212310122627
 11
122.2376593901206
 21
111.36403044985931
  0
LINE
  8
_0-7_7
  6
CONTINUOUS
 62
    7
 10
122.2376593901206
 20
111.36403044985931
 11
122.25097506776359
 21
111.36572322177079
  0
LINE
  8
_0-7_7
  6
CONTINUOUS
 62
    7
 10
122.25097506776359
 20
111.36572322177079
 11
122.26432650819362
 21
111.3672252588193
  0
LINE
  8
_0-7_7
  6
CONTINUOUS
 62
    7
 10
122.26432650819362
 20
111.3672252588193
 11
122.27772563233913
 21
111.36853656100428
  0
LINE
  8
_0-7_7
  6
CONTINUOUS
 62
    7
 10
122.27772563233913
 20
111.36853656100428
 11
122.29114859834212
 21
111.36963328646829
  0
LINE
  8
_0-7_7
  6
CONTINUOUS
 62
    7
 10
122.29114859834212
 20
111.36963328646829
 11
122.30459540620362
 21
111.37051543521079
  0
LINE
  8
_0-7_7
  6
CONTINUOUS
 62
    7
 10
122.30459540620362
 20
111.37051543521079
 11
122.3180660559226
 21
111.3712068490903
  0
LINE
  8
_0-7_7
  6
CONTINUOUS
 62
    7
 10
122.3180660559226
 20
111.3712068490903
 11
122.33154862657113
 21
111.3717075281063
  0
LINE
  8
_0-7_7
  6
CONTINUOUS
 62
    7
 10
122.33154862657113
 20
111.3717075281063
 11
122.34504311814808
 21
111.37199363040131
  0
LINE
  8
_0-7_7
  6
CONTINUOUS
 62
    7
 10
122.34504311814808
 20
111.37199363040131
 11
122.35853760972509
 21
111.3721128396908
  0
LINE
  8
_0-7_7
  6
CONTINUOUS
 62
    7
 10
122.35853760972509
 20
111.3721128396908
 11
122.5133427931361
 21
111.35792693423431
  0
LINE
  8
_0-7_7
  6
CONTINUOUS
 62
    7
 10
122.5133427931361
 20
111.35792693423431
 11
122.66327231660412
 21
111.31672820376578
  0
LINE
  8
_0-7_7
  6
CONTINUOUS
 62
    7
 10
122.66327231660412
 20
111.31672820376578
 11
122.8064069105676
 21
111.25044783877527
  0
LINE
  8
_0-7_7
  6
CONTINUOUS
 62
    7
 10
122.8064069105676
 20
111.25044783877527
 11
122.94083922639413
 21
111.16101702975428
  0
LINE
  8
_0-7_7
  6
CONTINUOUS
 62
    7
 10
122.94083922639413
 20
111.16101702975428
 11
123.0646499945216
 21
111.05043849276728
  0
LINE
  8
_0-7_7
  6
CONTINUOUS
 62
    7
 10
123.0646499945216
 20
111.05043849276728
 11
123.1759199453881
 21
110.92069110201977
  0
LINE
  8
_0-7_7
  6
CONTINUOUS
 62
    7
 10
123.1759199453881
 20
110.92069110201977
 11
123.27275365129012
 21
110.77365836428828
  0
LINE
  8
_0-7_7
  6
CONTINUOUS
 62
    7
 10
123.27275365129012
 20
110.77365836428828
 11
123.35320800080811
 21
110.6113668374938
  0
LINE
  8
_0-7_7
  6
CONTINUOUS
 62
    7
 10
123.35320800080811
 20
110.6113668374938
 11
123.41538756623763
 21
110.4357477121273
  0
LINE
  8
_0-7_7
  6
CONTINUOUS
 62
    7
 10
123.41538756623763
 20
110.4357477121273
 11
123.45737307801758
 21
110.24877986239579
  0
LINE
  8
_0-7_7
  6
CONTINUOUS
 62
    7
 10
123.45737307801758
 20
110.24877986239579
 11
123.47126096025011
 21
110.14211139010581
  0
LINE
  8
_0-7_7
  6
CONTINUOUS
 62
    7
 10
123.47126096025011
 20
110.14211139010581
 11
123.47813933625707
 21
110.0362535409848
  0
LINE
  8
_0-7_7
  6
CONTINUOUS
 62
    7
 10
123.47813933625707
 20
110.0362535409848
 11
123.4780678106836
 21
109.9316116266173
  0
LINE
  8
_0-7_7
  6
CONTINUOUS
 62
    7
 10
123.4780678106836
 20
109.9316116266173
 11
123.47105830445813
 21
109.82851943301378
  0
LINE
  8
_0-7_7
  6
CONTINUOUS
 62
    7
 10
123.47105830445813
 20
109.82851943301378
 11
123.45714658036761
 21
109.72731074618481
  0
LINE
  8
_0-7_7
  6
CONTINUOUS
 62
    7
 10
123.45714658036761
 20
109.72731074618481
 11
123.43639224305662
 21
109.62839087771579
  0
LINE
  8
_0-7_7
  6
CONTINUOUS
 62
    7
 10
123.43639224305662
 20
109.62839087771579
 11
123.40880721345459
 21
109.53204592990082
  0
LINE
  8
_0-7_7
  6
CONTINUOUS
 62
    7
 10
123.40880721345459
 20
109.53204592990082
 11
123.37445109620609
 21
109.43868121432477
  0
LINE
  8
_0-7_7
  6
CONTINUOUS
 62
    7
 10
123.37445109620609
 20
109.43868121432477
 11
123.33334773316909
 21
109.34858283328229
  0
LINE
  8
_0-7_7
  6
CONTINUOUS
 62
    7
 10
123.33334773316909
 20
109.34858283328229
 11
123.28554480805909
 21
109.2621322564998
  0
LINE
  8
_0-7_7
  6
CONTINUOUS
 62
    7
 10
123.28554480805909
 20
109.2621322564998
 11
123.23693125978011
 21
109.18841323184176
  0
LINE
  8
_0-7_7
  6
CONTINUOUS
 62
    7
 10
123.23693125978011
 20
109.18841323184176
 11
123.18428843751457
 21
109.12036856936628
  0
LINE
  8
_0-7_7
  6
CONTINUOUS
 62
    7
 10
123.18428843751457
 20
109.12036856936628
 11
123.12783091798357
 21
109.05818900393628
  0
LINE
  8
_0-7_7
  6
CONTINUOUS
 62
    7
 10
123.12783091798357
 20
109.05818900393628
 11
123.0677971197656
 21
109.0020414285583
  0
LINE
  8
_0-7_7
  6
CONTINUOUS
 62
    7
 10
123.0677971197656
 20
109.0020414285583
 11
123.00443738236959
 21
108.95211657809431
  0
LINE
  8
_0-7_7
  6
CONTINUOUS
 62
    7
 10
123.00443738236959
 20
108.95211657809431
 11
122.9380020453026
 21
108.90860518740831
  0
LINE
  8
_0-7_7
  6
CONTINUOUS
 62
    7
 10
122.9380020453026
 20
108.90860518740831
 11
122.86871760621563
 21
108.87165030764731
  0
LINE
  8
_0-7_7
  6
CONTINUOUS
 62
    7
 10
122.86871760621563
 20
108.87165030764731
 11
122.79682248368761
 21
108.84149035739131
  0
LINE
  8
_0-7_7
  6
CONTINUOUS
 62
    7
 10
122.79682248368761
 20
108.84149035739131
 11
122.72257893815561
 21
108.81824454592878
  0
LINE
  8
_0-7_7
  6
CONTINUOUS
 62
    7
 10
122.72257893815561
 20
108.81824454592878
 11
122.64621346726912
 21
108.8021274499813
  0
LINE
  8
_0-7_7
  6
CONTINUOUS
 62
    7
 10
122.64621346726912
 20
108.8021274499813
 11
122.6322063757471
 21
108.79976710604828
  0
LINE
  8
_0-7_7
  6
CONTINUOUS
 62
    7
 10
122.6322063757471
 20
108.79976710604828
 11
122.61833041444362
 21
108.79769286441031
  0
LINE
  8
_0-7_7
  6
CONTINUOUS
 62
    7
 10
122.61833041444362
 20
108.79769286441031
 11
122.60454982057112
 21
108.79590472506678
  0
LINE
  8
_0-7_7
  6
CONTINUOUS
 62
    7
 10
122.60454982057112
 20
108.79590472506678
 11
122.59086459413112
 21
108.79440268801831
  0
LINE
  8
_0-7_7
  6
CONTINUOUS
 62
    7
 10
122.59086459413112
 20
108.79440268801831
 11
122.57728665605111
 21
108.79316291140729
  0
LINE
  8
_0-7_7
  6
CONTINUOUS
 62
    7
 10
122.57728665605111
 20
108.79316291140729
 11
122.56381600633162
 21
108.79213771151728
  0
LINE
  8
_0-7_7
  6
CONTINUOUS
 62
    7
 10
122.56381600633162
 20
108.79213771151728
 11
122.55044072404408
 21
108.79139861392181
  0
LINE
  8
_0-7_7
  6
CONTINUOUS
 62
    7
 10
122.55044072404408
 20
108.79139861392181
 11
122.53714888825911
 21
108.7908502511898
  0
LINE
  8
_0-7_7
  6
CONTINUOUS
 62
    7
 10
122.53714888825911
 20
108.7908502511898
 11
122.52396434083511
 21
108.79056414889477
  0
LINE
  8
_0-7_7
  6
CONTINUOUS
 62
    7
 10
122.52396434083511
 20
108.79056414889477
 11
122.51087516084212
 21
108.79044493960532
  0
LINE
  8
_f-a_250
  6
CONTINUOUS
 62
  250
 10
102.33704536691209
 20
101.40044650363129
 11
109.94703858628759
 21
105.93213996218827
  0
LINE
  8
_f-a_250
  6
CONTINUOUS
 62
  250
 10
109.94703858628759
 20
105.93213996218827
 11
109.99016850724712
 21
105.9551711969298
  0
LINE
  8
_f-a_250
  6
CONTINUOUS
 62
  250
 10
109.99016850724712
 20
105.9551711969298
 11
110.10786383882061
 21
106.01279696749829
  0
LINE
  8
_f-a_250
  6
CONTINUOUS
 62
  250
 10
110.10786383882061
 20
106.01279696749829
 11
110.2942952467491
 21
106.09531363772578
  0
LINE
  8
_f-a_250
  6
CONTINUOUS
 62
  250
 10
110.2942952467491
 20
106.09531363772578
 11
110.5436333967736
 21
106.1930414132993
  0
LINE
  8
_f-a_250
  6
CONTINUOUS
 62
  250
 10
110.5436333967736
 20
106.1930414132993
 11
110.85008471742213
 21
106.29630049990831
  0
LINE
  8
_f-a_250
  6
CONTINUOUS
 62
  250
 10
110.85008471742213
 20
106.29630049990831
 11
111.20779603257708
 21
106.39531573580928
  0
LINE
  8
_f-a_250
  6
CONTINUOUS
 62
  250
 10
111.20779603257708
 20
106.39531573580928
 11
111.61096184983757
 21
106.48045501040627
  0
LINE
  8
_f-a_250
  6
CONTINUOUS
 62
  250
 10
111.61096184983757
 20
106.48045501040627
 11
112.05374091401612
 21
106.5419908456723
  0
LINE
  8
_f-a_250
  6
CONTINUOUS
 62
  250
 10
112.05374091401612
 20
106.5419908456723
 11
112.53031581178212
 21
106.57021960543779
  0
LINE
  8
_f-a_250
  6
CONTINUOUS
 62
  250
 10
112.53031581178212
 20
106.57021960543779
 11
113.03486912980608
 21
106.5554614953918
  0
LINE
  8
_f-a_250
  6
CONTINUOUS
 62
  250
 10
113.03486912980608
 20
106.5554614953918
 11
113.20922463670308
 21
106.54227694796731
  0
LINE
  8
_f-a_250
  6
CONTINUOUS
 62
  250
 10
113.20922463670308
 20
106.54227694796731
 11
113.53066056504761
 21
106.54418429660029
  0
LINE
  8
_f-a_250
  6
CONTINUOUS
 62
  250
 10
113.53066056504761
 20
106.54418429660029
 11
114.00910704865959
 21
106.58435782717878
  0
LINE
  8
_f-a_250
  6
CONTINUOUS
 62
  250
 10
114.00910704865959
 20
106.58435782717878
 11
114.65445845857161
 21
106.68599566744977
  0
LINE
  8
_f-a_250
  6
CONTINUOUS
 62
  250
 10
114.65445845857161
 20
106.68599566744977
 11
115.47662108674561
 21
106.87234362887529
  0
LINE
  8
_f-a_250
  6
CONTINUOUS
 62
  250
 10
115.47662108674561
 20
106.87234362887529
 11
116.48551314607161
 21
107.16648062991328
  0
LINE
  8
_f-a_250
  6
CONTINUOUS
 62
  250
 10
116.48551314607161
 20
107.16648062991328
 11
117.69102900758313
 21
107.59170016574079
  0
LINE
  8
_f-a_250
  6
CONTINUOUS
 62
  250
 10
117.69102900758313
 20
107.59170016574079
 11
119.1030630423121
 21
108.17112883853127
  0
LINE
  8
_f-a_250
  6
CONTINUOUS
 62
  250
 10
122.70834534898307
 20
110.3143688135068
 11
122.6797947241356
 21
110.46428641604578
  0
LINE
  8
_f-a_250
  6
CONTINUOUS
 62
  250
 10
122.6797947241356
 20
110.46428641604578
 11
122.61005728974862
 21
110.57791671084581
  0
LINE
  8
_f-a_250
  6
CONTINUOUS
 62
  250
 10
122.61005728974862
 20
110.57791671084581
 11
122.51298516526708
 21
110.66026648806732
  0
LINE
  8
_f-a_250
  6
CONTINUOUS
 62
  250
 10
122.51298516526708
 20
110.66026648806732
 11
122.4024543119956
 21
110.71634253787232
  0
LINE
  8
_f-a_250
  6
CONTINUOUS
 62
  250
 10
122.4024543119956
 20
110.71634253787232
 11
122.29234069123763
 21
110.75119933413679
  0
LINE
  8
_f-a_250
  6
CONTINUOUS
 62
  250
 10
122.29234069123763
 20
110.75119933413679
 11
122.19650834336809
 21
110.76989135073831
  0
LINE
  8
_f-a_250
  6
CONTINUOUS
 62
  250
 10
122.19650834336809
 20
110.76989135073831
 11
122.1288570715476
 21
110.77740153597978
  0
LINE
  8
_f-a_250
  6
CONTINUOUS
 62
  250
 10
122.1288570715476
 20
110.77740153597978
 11
122.10320323243661
 21
110.77878436373879
  0
LINE
  8
_f-a_250
  6
CONTINUOUS
 62
  250
 10
122.10320323243661
 20
110.77878436373879
 11
120.27176707521011
 21
109.83364543246429
  0
LINE
  8
_f-a_250
  6
CONTINUOUS
 62
  250
 10
120.27176707521011
 20
109.83364543246429
 11
118.6767229391626
 21
109.09273585604828
  0
LINE
  8
_f-a_250
  6
CONTINUOUS
 62
  250
 10
118.6767229391626
 20
109.09273585604828
 11
117.30767577424561
 21
108.53147467898529
  0
LINE
  8
_f-a_250
  6
CONTINUOUS
 62
  250
 10
117.30767577424561
 20
108.53147467898529
 11
116.15421860948109
 21
108.12516173648032
  0
LINE
  8
_f-a_250
  6
CONTINUOUS
 62
  250
 10
116.15421860948109
 20
108.12516173648032
 11
115.20595639482059
 21
107.84921607302829
  0
LINE
  8
_f-a_250
  6
CONTINUOUS
 62
  250
 10
115.20595639482059
 20
107.84921607302829
 11
114.4525060011436
 21
107.67896136569178
  0
LINE
  8
_f-a_250
  6
CONTINUOUS
 62
  250
 10
114.4525060011436
 20
107.67896136569178
 11
113.88344853654408
 21
107.58974513339228
  0
LINE
  8
_f-a_250
  6
CONTINUOUS
 62
  250
 10
113.88344853654408
 20
107.58974513339228
 11
113.48838895097307
 21
107.55698642062329
  0
LINE
  8
_f-a_250
  6
CONTINUOUS
 62
  250
 10
113.48838895097307
 20
107.55698642062329
 11
113.25694411531009
 21
107.55596122073328
  0
LINE
  8
_f-a_250
  6
CONTINUOUS
 62
  250
 10
113.25694411531009
 20
107.55596122073328
 11
113.17871897950658
 21
107.56211242007429
  0
LINE
  8
_f-a_250
  6
CONTINUOUS
 62
  250
 10
113.17871897950658
 20
107.56211242007429
 11
113.1280431105186
 21
107.56711921023529
  0
LINE
  8
_f-a_250
  6
CONTINUOUS
 62
  250
 10
113.1280431105186
 20
107.56711921023529
 11
112.5326999975731
 21
107.58557280825779
  0
LINE
  8
_f-a_250
  6
CONTINUOUS
 62
  250
 10
112.5326999975731
 20
107.58557280825779
 11
111.97090237870711
 21
107.5533863000793
  0
LINE
  8
_f-a_250
  6
CONTINUOUS
 62
  250
 10
111.97090237870711
 20
107.5533863000793
 11
111.44893258348011
 21
107.48169383334329
  0
LINE
  8
_f-a_250
  6
CONTINUOUS
 62
  250
 10
111.44893258348011
 20
107.48169383334329
 11
110.97306102052261
 21
107.38165339755231
  0
LINE
  8
_f-a_250
  6
CONTINUOUS
 62
  250
 10
110.97306102052261
 20
107.38165339755231
 11
110.54960578218009
 21
107.2644229822078
  0
LINE
  8
_f-a_250
  6
CONTINUOUS
 62
  250
 10
110.54960578218009
 20
107.2644229822078
 11
110.18484919801259
 21
107.14111289309679
  0
LINE
  8
_f-a_250
  6
CONTINUOUS
 62
  250
 10
110.18484919801259
 20
107.14111289309679
 11
109.88506167665059
 21
107.02292880343579
  0
LINE
  8
_f-a_250
  6
CONTINUOUS
 62
  250
 10
109.88506167665059
 20
107.02292880343579
 11
109.6565613104396
 21
106.92098101901227
  0
LINE
  8
_f-a_250
  6
CONTINUOUS
 62
  250
 10
109.6565613104396
 20
106.92098101901227
 11
109.5056304289391
 21
106.8464275293273
  0
LINE
  8
_f-a_250
  6
CONTINUOUS
 62
  250
 10
109.5056304289391
 20
106.8464275293273
 11
109.4385513617091
 21
106.81045016574079
  0
LINE
  8
_f-a_250
  6
CONTINUOUS
 62
  250
 10
102.33704536691209
 20
101.40044650363129
 11
109.94703858628759
 21
105.93213996218827
  0
LINE
  8
_f-a_250
  6
CONTINUOUS
 62
  250
 10
109.94703858628759
 20
105.93213996218827
 11
109.99016850724712
 21
105.9551711969298
  0
LINE
  8
_f-a_250
  6
CONTINUOUS
 62
  250
 10
109.99016850724712
 20
105.9551711969298
 11
110.10786383882061
 21
106.01279696749829
  0
LINE
  8
_f-a_250
  6
CONTINUOUS
 62
  250
 10
110.10786383882061
 20
106.01279696749829
 11
110.2942952467491
 21
106.09531363772578
  0
LINE
  8
_f-a_250
  6
CONTINUOUS
 62
  250
 10
110.2942952467491
 20
106.09531363772578
 11
110.5436333967736
 21
106.1930414132993
  0
LINE
  8
_f-a_250
  6
CONTINUOUS
 62
  250
 10
110.5436333967736
 20
106.1930414132993
 11
110.85008471742213
 21
106.29630049990831
  0
LINE
  8
_f-a_250
  6
CONTINUOUS
 62
  250
 10
110.85008471742213
 20
106.29630049990831
 11
111.20779603257708
 21
106.39531573580928
  0
LINE
  8
_f-a_250
  6
CONTINUOUS
 62
  250
 10
111.20779603257708
 20
106.39531573580928
 11
111.61096184983757
 21
106.48045501040627
  0
LINE
  8
_f-a_250
  6
CONTINUOUS
 62
  250
 10
111.61096184983757
 20
106.48045501040627
 11
112.05374091401612
 21
106.5419908456723
  0
LINE
  8
_f-a_250
  6
CONTINUOUS
 62
  250
 10
112.05374091401612
 20
106.5419908456723
 11
112.53031581178212
 21
106.57021960543779
  0
LINE
  8
_f-a_250
  6
CONTINUOUS
 62
  250
 10
112.53031581178212
 20
106.57021960543779
 11
113.03486912980608
 21
106.5554614953918
  0
LINE
  8
_f-a_250
  6
CONTINUOUS
 62
  250
 10
113.03486912980608
 20
106.5554614953918
 11
113.20922463670308
 21
106.54227694796731
  0
LINE
  8
_f-a_250
  6
CONTINUOUS
 62
  250
 10
113.20922463670308
 20
106.54227694796731
 11
113.53066056504761
 21
106.54418429660029
  0
LINE
  8
_f-a_250
  6
CONTINUOUS
 62
  250
 10
113.53066056504761
 20
106.54418429660029
 11
114.00910704865959
 21
106.58435782717878
  0
LINE
  8
_f-a_250
  6
CONTINUOUS
 62
  250
 10
114.00910704865959
 20
106.58435782717878
 11
114.65445845857161
 21
106.68599566744977
  0
LINE
  8
_f-a_250
  6
CONTINUOUS
 62
  250
 10
114.65445845857161
 20
106.68599566744977
 11
115.47662108674561
 21
106.87234362887529
  0
LINE
  8
_f-a_250
  6
CONTINUOUS
 62
  250
 10
115.47662108674561
 20
106.87234362887529
 11
116.48551314607161
 21
107.16648062991328
  0
LINE
  8
_f-a_250
  6
CONTINUOUS
 62
  250
 10
116.48551314607161
 20
107.16648062991328
 11
117.69102900758313
 21
107.59170016574079
  0
LINE
  8
_f-a_250
  6
CONTINUOUS
 62
  250
 10
117.69102900758313
 20
107.59170016574079
 11
119.1030630423121
 21
108.17112883853127
  0
LINE
  8
_f-a_250
  6
CONTINUOUS
 62
  250
 10
122.70834534898307
 20
110.3143688135068
 11
122.6797947241356
 21
110.46428641604578
  0
LINE
  8
_f-a_250
  6
CONTINUOUS
 62
  250
 10
122.6797947241356
 20
110.46428641604578
 11
122.61005728974862
 21
110.57791671084581
  0
LINE
  8
_f-a_250
  6
CONTINUOUS
 62
  250
 10
122.61005728974862
 20
110.57791671084581
 11
122.51298516526708
 21
110.66026648806732
  0
LINE
  8
_f-a_250
  6
CONTINUOUS
 62
  250
 10
122.51298516526708
 20
110.66026648806732
 11
122.4024543119956
 21
110.71634253787232
  0
LINE
  8
_f-a_250
  6
CONTINUOUS
 62
  250
 10
122.4024543119956
 20
110.71634253787232
 11
122.29234069123763
 21
110.75119933413679
  0
LINE
  8
_f-a_250
  6
CONTINUOUS
 62
  250
 10
122.29234069123763
 20
110.75119933413679
 11
122.19650834336809
 21
110.76989135073831
  0
LINE
  8
_f-a_250
  6
CONTINUOUS
 62
  250
 10
122.19650834336809
 20
110.76989135073831
 11
122.1288570715476
 21
110.77740153597978
  0
LINE
  8
_f-a_250
  6
CONTINUOUS
 62
  250
 10
122.1288570715476
 20
110.77740153597978
 11
122.10320323243661
 21
110.77878436373879
  0
LINE
  8
_f-a_250
  6
CONTINUOUS
 62
  250
 10
122.10320323243661
 20
110.77878436373879
 11
120.27176707521011
 21
109.83364543246429
  0
LINE
  8
_f-a_250
  6
CONTINUOUS
 62
  250
 10
120.27176707521011
 20
109.83364543246429
 11
118.6767229391626
 21
109.09273585604828
  0
LINE
  8
_f-a_250
  6
CONTINUOUS
 62
  250
 10
118.6767229391626
 20
109.09273585604828
 11
117.30767577424561
 21
108.53147467898529
  0
LINE
  8
_f-a_250
  6
CONTINUOUS
 62
  250
 10
117.30767577424561
 20
108.53147467898529
 11
116.15421860948109
 21
108.12516173648032
  0
LINE
  8
_f-a_250
  6
CONTINUOUS
 62
  250
 10
116.15421860948109
 20
108.12516173648032
 11
115.20595639482059
 21
107.84921607302829
  0
LINE
  8
_f-a_250
  6
CONTINUOUS
 62
  250
 10
115.20595639482059
 20
107.84921607302829
 11
114.4525060011436
 21
107.67896136569178
  0
LINE
  8
_f-a_250
  6
CONTINUOUS
 62
  250
 10
114.4525060011436
 20
107.67896136569178
 11
113.88344853654408
 21
107.58974513339228
  0
LINE
  8
_f-a_250
  6
CONTINUOUS
 62
  250
 10
113.88344853654408
 20
107.58974513339228
 11
113.48838895097307
 21
107.55698642062329
  0
LINE
  8
_f-a_250
  6
CONTINUOUS
 62
  250
 10
113.48838895097307
 20
107.55698642062329
 11
113.25694411531009
 21
107.55596122073328
  0
LINE
  8
_f-a_250
  6
CONTINUOUS
 62
  250
 10
113.25694411531009
 20
107.55596122073328
 11
113.17871897950658
 21
107.56211242007429
  0
LINE
  8
_f-a_250
  6
CONTINUOUS
 62
  250
 10
113.17871897950658
 20
107.56211242007429
 11
113.1280431105186
 21
107.56711921023529
  0
LINE
  8
_f-a_250
  6
CONTINUOUS
 62
  250
 10
113.1280431105186
 20
107.56711921023529
 11
112.5326999975731
 21
107.58557280825779
  0
LINE
  8
_f-a_250
  6
CONTINUOUS
 62
  250
 10
112.5326999975731
 20
107.58557280825779
 11
111.97090237870711
 21
107.5533863000793
  0
LINE
  8
_f-a_250
  6
CONTINUOUS
 62
  250
 10
111.97090237870711
 20
107.5533863000793
 11
111.44893258348011
 21
107.48169383334329
  0
LINE
  8
_f-a_250
  6
CONTINUOUS
 62
  250
 10
111.44893258348011
 20
107.48169383334329
 11
110.97306102052261
 21
107.38165339755231
  0
LINE
  8
_f-a_250
  6
CONTINUOUS
 62
  250
 10
110.97306102052261
 20
107.38165339755231
 11
110.54960578218009
 21
107.2644229822078
  0
LINE
  8
_f-a_250
  6
CONTINUOUS
 62
  250
 10
110.54960578218009
 20
107.2644229822078
 11
110.18484919801259
 21
107.14111289309679
  0
LINE
  8
_f-a_250
  6
CONTINUOUS
 62
  250
 10
110.18484919801259
 20
107.14111289309679
 11
109.88506167665059
 21
107.02292880343579
  0
LINE
  8
_f-a_250
  6
CONTINUOUS
 62
  250
 10
109.88506167665059
 20
107.02292880343579
 11
109.6565613104396
 21
106.92098101901227
  0
LINE
  8
_f-a_250
  6
CONTINUOUS
 62
  250
 10
109.6565613104396
 20
106.92098101901227
 11
109.5056304289391
 21
106.8464275293273
  0
LINE
  8
_f-a_250
  6
CONTINUOUS
 62
  250
 10
109.5056304289391
 20
106.8464275293273
 11
109.4385513617091
 21
106.81045016574079
  0
LINE
  8
_f-a_250
  6
CONTINUOUS
 62
  250
 10
114.90920871034163
 20
102.38711795138528
 11
115.00955909028556
 21
102.45666465090929
  0
LINE
  8
_f-a_250
  6
CONTINUOUS
 62
  250
 10
115.00955909028556
 20
102.45666465090929
 11
115.23003667130962
 21
102.61304339694178
  0
LINE
  8
_f-a_250
  6
CONTINUOUS
 62
  250
 10
115.23003667130962
 20
102.61304339694178
 11
115.54590552583261
 21
102.84371337222281
  0
LINE
  8
_f-a_250
  6
CONTINUOUS
 62
  250
 10
115.54590552583261
 20
102.84371337222281
 11
115.93245356813009
 21
103.1361814432063
  0
LINE
  8
_f-a_250
  6
CONTINUOUS
 62
  250
 10
115.93245356813009
 20
103.1361814432063
 11
116.3649806334071
 21
103.47795447634878
  0
LINE
  8
_f-a_250
  6
CONTINUOUS
 62
  250
 10
116.3649806334071
 20
103.47795447634878
 11
116.81875079408212
 21
103.85651549624629
  0
LINE
  8
_f-a_250
  6
CONTINUOUS
 62
  250
 10
116.81875079408212
 20
103.85651549624629
 11
117.2690281225731
 21
104.2593713693538
  0
LINE
  8
_f-a_250
  6
CONTINUOUS
 62
  250
 10
117.2690281225731
 20
104.2593713693538
 11
117.69113629594361
 21
104.67405280398529
  0
LINE
  8
_f-a_250
  6
CONTINUOUS
 62
  250
 10
117.69113629594361
 20
104.67405280398529
 11
118.06031554475359
 21
105.08801898287928
  0
LINE
  8
_f-a_250
  6
CONTINUOUS
 62
  250
 10
118.06031554475359
 20
105.08801898287928
 11
118.35187762513661
 21
105.48877677249128
  0
LINE
  8
_f-a_250
  6
CONTINUOUS
 62
  250
 10
118.35187762513661
 20
105.48877677249128
 11
118.40438931718359
 21
105.55906256961029
  0
LINE
  8
_f-a_250
  6
CONTINUOUS
 62
  250
 10
118.40438931718359
 20
105.55906256961029
 11
118.55362742677261
 21
105.74591121005231
  0
LINE
  8
_f-a_250
  6
CONTINUOUS
 62
  250
 10
118.55362742677261
 20
105.74591121005231
 11
118.80058139100612
 21
106.03299102114828
  0
LINE
  8
_f-a_250
  6
CONTINUOUS
 62
  250
 10
118.80058139100612
 20
106.03299102114828
 11
119.14627640977409
 21
106.40387496279881
  0
LINE
  8
_f-a_250
  6
CONTINUOUS
 62
  250
 10
119.14627640977409
 20
106.40387496279881
 11
119.59172576203861
 21
106.8421359949033
  0
LINE
  8
_f-a_250
  6
CONTINUOUS
 62
  250
 10
119.59172576203861
 20
106.8421359949033
 11
120.13794272676009
 21
107.33139476107779
  0
LINE
  8
_f-a_250
  6
CONTINUOUS
 62
  250
 10
120.13794272676009
 20
107.33139476107779
 11
120.78592866197161
 21
107.85524806307978
  0
LINE
  8
_f-a_250
  6
CONTINUOUS
 62
  250
 10
120.78592866197161
 20
107.85524806307978
 11
121.5367206884911
 21
108.39731654452478
  0
LINE
  8
_f-a_250
  6
CONTINUOUS
 62
  250
 10
121.5367206884911
 20
108.39731654452478
 11
122.3913082434226
 21
108.94119700717127
  0
LINE
  8
_f-a_250
  6
CONTINUOUS
 62
  250
 10
122.3913082434226
 20
108.94119700717127
 11
123.35070460572763
 21
109.4704624109188
  0
LINE
  8
_f-a_250
  6
CONTINUOUS
 62
  250
 10
123.35070460572763
 20
109.4704624109188
 11
123.37571471467513
 21
109.70594844149731
  0
LINE
  8
_f-a_250
  6
CONTINUOUS
 62
  250
 10
123.37571471467513
 20
109.70594844149731
 11
123.3626016928246
 21
109.89656409548928
  0
LINE
  8
_f-a_250
  6
CONTINUOUS
 62
  250
 10
123.3626016928246
 20
109.89656409548928
 11
123.31971019044408
 21
110.04703006076028
  0
LINE
  8
_f-a_250
  6
CONTINUOUS
 62
  250
 10
123.31971019044408
 20
110.04703006076028
 11
123.25543254151859
 21
110.16211470889277
  0
LINE
  8
_f-a_250
  6
CONTINUOUS
 62
  250
 10
123.25543254151859
 20
110.16211470889277
 11
123.17810147538711
 21
110.24649104403677
  0
LINE
  8
_f-a_250
  6
CONTINUOUS
 62
  250
 10
123.17810147538711
 20
110.24649104403677
 11
123.0960974051051
 21
110.3049274377743
  0
LINE
  8
_f-a_250
  6
CONTINUOUS
 62
  250
 10
123.0960974051051
 20
110.3049274377743
 11
123.01776498094108
 21
110.34214457797228
  0
LINE
  8
_f-a_250
  6
CONTINUOUS
 62
  250
 10
123.01776498094108
 20
110.34214457797228
 11
122.95144885316409
 21
110.36286315249629
  0
LINE
  8
_f-a_250
  6
CONTINUOUS
 62
  250
 10
122.95144885316409
 20
110.36286315249629
 11
122.90554135575809
 21
110.37185153292829
  0
LINE
  8
_f-a_250
  6
CONTINUOUS
 62
  250
 10
122.90554135575809
 20
110.37185153292829
 11
122.88837521806261
 21
110.3737827234188
  0
LINE
  8
_f-a_250
  6
CONTINUOUS
 62
  250
 10
122.88837521806261
 20
110.3737827234188
 11
121.86259120240712
 21
109.80844458865329
  0
LINE
  8
_f-a_250
  6
CONTINUOUS
 62
  250
 10
121.86259120240712
 20
109.80844458865329
 11
120.95033019319109
 21
109.22849139498879
  0
LINE
  8
_f-a_250
  6
CONTINUOUS
 62
  250
 10
120.95033019319109
 20
109.22849139498879
 11
120.14967292085214
 21
108.65044554995679
  0
LINE
  8
_f-a_250
  6
CONTINUOUS
 62
  250
 10
120.14967292085214
 20
108.65044554995679
 11
119.45866435304211
 21
108.09094867037928
  0
LINE
  8
_f-a_250
  6
CONTINUOUS
 62
  250
 10
119.45866435304211
 20
108.09094867037928
 11
118.87538522019909
 21
107.5664993219298
  0
LINE
  8
_f-a_250
  6
CONTINUOUS
 62
  250
 10
118.87538522019909
 20
107.5664993219298
 11
118.39788048997463
 21
107.09371527957131
  0
LINE
  8
_f-a_250
  6
CONTINUOUS
 62
  250
 10
118.39788048997463
 20
107.09371527957131
 11
118.0242070509486
 21
106.68914279269379
  0
LINE
  8
_f-a_250
  6
CONTINUOUS
 62
  250
 10
118.0242070509486
 20
106.68914279269379
 11
117.7524456335596
 21
106.36937579440281
  0
LINE
  8
_f-a_250
  6
CONTINUOUS
 62
  250
 10
117.7524456335596
 20
106.36937579440281
 11
117.58065312638811
 21
106.15096053408777
  0
LINE
  8
_f-a_250
  6
CONTINUOUS
 62
  250
 10
117.58065312638811
 20
106.15096053408777
 11
117.50687449708511
 21
106.05046710299678
  0
LINE
  8
_f-a_250
  6
CONTINUOUS
 62
  250
 10
117.50687449708511
 20
106.05046710299678
 11
117.2918090178066
 21
105.75308760928331
  0
LINE
  8
_f-a_250
  6
CONTINUOUS
 62
  250
 10
117.2918090178066
 20
105.75308760928331
 11
117.0141348196556
 21
105.43668231295727
  0
LINE
  8
_f-a_250
  6
CONTINUOUS
 62
  250
 10
117.0141348196556
 20
105.43668231295727
 11
116.68917029634008
 21
105.1097627572933
  0
LINE
  8
_f-a_250
  6
CONTINUOUS
 62
  250
 10
116.68917029634008
 20
105.1097627572933
 11
116.33215039506459
 21
104.78095969485429
  0
LINE
  8
_f-a_250
  6
CONTINUOUS
 62
  250
 10
116.33215039506459
 20
104.78095969485429
 11
115.9583577467491
 21
104.4587846689143
  0
LINE
  8
_f-a_250
  6
CONTINUOUS
 62
  250
 10
115.9583577467491
 20
104.4587846689143
 11
115.58306306138562
 21
104.15182074832131
  0
LINE
  8
_f-a_250
  6
CONTINUOUS
 62
  250
 10
115.58306306138562
 20
104.15182074832131
 11
115.22153704896459
 21
103.8686033182063
  0
LINE
  8
_f-a_250
  6
CONTINUOUS
 62
  250
 10
115.22153704896459
 20
103.8686033182063
 11
114.88903849854961
 21
103.61769160555981
  0
LINE
  8
_f-a_250
  6
CONTINUOUS
 62
  250
 10
114.88903849854961
 20
103.61769160555981
 11
114.60083812013158
 21
103.40769252108728
  0
LINE
  8
_f-a_250
  6
CONTINUOUS
 62
  250
 10
114.60083812013158
 20
103.40769252108728
 11
114.3722185446311
 21
103.2471176080623
  0
LINE
  8
_0-7_7
  6
CONTINUOUS
 62
    7
 10
114.90920871034163
 20
102.38711795138528
 11
115.00955909028556
 21
102.45666465090929
  0
LINE
  8
_0-7_7
  6
CONTINUOUS
 62
    7
 10
115.00955909028556
 20
102.45666465090929
 11
115.23003667130962
 21
102.61304339694178
  0
LINE
  8
_0-7_7
  6
CONTINUOUS
 62
    7
 10
115.23003667130962
 20
102.61304339694178
 11
115.54590552583261
 21
102.84371337222281
  0
LINE
  8
_0-7_7
  6
CONTINUOUS
 62
    7
 10
115.54590552583261
 20
102.84371337222281
 11
115.93245356813009
 21
103.1361814432063
  0
LINE
  8
_0-7_7
  6
CONTINUOUS
 62
    7
 10
115.93245356813009
 20
103.1361814432063
 11
116.3649806334071
 21
103.47795447634878
  0
LINE
  8
_0-7_7
  6
CONTINUOUS
 62
    7
 10
116.3649806334071
 20
103.47795447634878
 11
116.81875079408212
 21
103.85651549624629
  0
LINE
  8
_0-7_7
  6
CONTINUOUS
 62
    7
 10
116.81875079408212
 20
103.85651549624629
 11
117.2690281225731
 21
104.2593713693538
  0
LINE
  8
_0-7_7
  6
CONTINUOUS
 62
    7
 10
117.2690281225731
 20
104.2593713693538
 11
117.69113629594361
 21
104.67405280398529
  0
LINE
  8
_0-7_7
  6
CONTINUOUS
 62
    7
 10
117.69113629594361
 20
104.67405280398529
 11
118.06031554475359
 21
105.08801898287928
  0
LINE
  8
_0-7_7
  6
CONTINUOUS
 62
    7
 10
118.06031554475359
 20
105.08801898287928
 11
118.35187762513661
 21
105.48877677249128
  0
LINE
  8
_0-7_7
  6
CONTINUOUS
 62
    7
 10
118.35187762513661
 20
105.48877677249128
 11
118.40438931718359
 21
105.55906256961029
  0
LINE
  8
_0-7_7
  6
CONTINUOUS
 62
    7
 10
118.40438931718359
 20
105.55906256961029
 11
118.55362742677261
 21
105.74591121005231
  0
LINE
  8
_0-7_7
  6
CONTINUOUS
 62
    7
 10
118.55362742677261
 20
105.74591121005231
 11
118.80058139100612
 21
106.03299102114828
  0
LINE
  8
_0-7_7
  6
CONTINUOUS
 62
    7
 10
118.80058139100612
 20
106.03299102114828
 11
119.14627640977409
 21
106.40387496279881
  0
LINE
  8
_0-7_7
  6
CONTINUOUS
 62
    7
 10
119.14627640977409
 20
106.40387496279881
 11
119.59172576203861
 21
106.8421359949033
  0
LINE
  8
_0-7_7
  6
CONTINUOUS
 62
    7
 10
119.59172576203861
 20
106.8421359949033
 11
120.13794272676009
 21
107.33139476107779
  0
LINE
  8
_0-7_7
  6
CONTINUOUS
 62
    7
 10
120.13794272676009
 20
107.33139476107779
 11
120.78592866197161
 21
107.85524806307978
  0
LINE
  8
_0-7_7
  6
CONTINUOUS
 62
    7
 10
120.78592866197161
 20
107.85524806307978
 11
121.5367206884911
 21
108.39731654452478
  0
LINE
  8
_0-7_7
  6
CONTINUOUS
 62
    7
 10
121.5367206884911
 20
108.39731654452478
 11
122.3913082434226
 21
108.94119700717127
  0
LINE
  8
_0-7_7
  6
CONTINUOUS
 62
    7
 10
122.3913082434226
 20
108.94119700717127
 11
123.35070460572763
 21
109.4704624109188
  0
LINE
  8
_0-7_7
  6
CONTINUOUS
 62
    7
 10
123.35070460572763
 20
109.4704624109188
 11
123.37571471467513
 21
109.70594844149731
  0
LINE
  8
_0-7_7
  6
CONTINUOUS
 62
    7
 10
123.37571471467513
 20
109.70594844149731
 11
123.3626016928246
 21
109.89656409548928
  0
LINE
  8
_0-7_7
  6
CONTINUOUS
 62
    7
 10
123.3626016928246
 20
109.89656409548928
 11
123.31971019044408
 21
110.04703006076028
  0
LINE
  8
_0-7_7
  6
CONTINUOUS
 62
    7
 10
123.31971019044408
 20
110.04703006076028
 11
123.25543254151859
 21
110.16211470889277
  0
LINE
  8
_0-7_7
  6
CONTINUOUS
 62
    7
 10
123.25543254151859
 20
110.16211470889277
 11
123.17810147538711
 21
110.24649104403677
  0
LINE
  8
_0-7_7
  6
CONTINUOUS
 62
    7
 10
123.17810147538711
 20
110.24649104403677
 11
123.0960974051051
 21
110.3049274377743
  0
LINE
  8
_0-7_7
  6
CONTINUOUS
 62
    7
 10
123.0960974051051
 20
110.3049274377743
 11
123.01776498094108
 21
110.34214457797228
  0
LINE
  8
_0-7_7
  6
CONTINUOUS
 62
    7
 10
123.01776498094108
 20
110.34214457797228
 11
122.95144885316409
 21
110.36286315249629
  0
LINE
  8
_0-7_7
  6
CONTINUOUS
 62
    7
 10
122.95144885316409
 20
110.36286315249629
 11
122.90554135575809
 21
110.37185153292829
  0
LINE
  8
_0-7_7
  6
CONTINUOUS
 62
    7
 10
122.90554135575809
 20
110.37185153292829
 11
122.88837521806261
 21
110.3737827234188
  0
LINE
  8
_0-7_7
  6
CONTINUOUS
 62
    7
 10
122.88837521806261
 20
110.3737827234188
 11
121.86259120240712
 21
109.80844458865329
  0
LINE
  8
_0-7_7
  6
CONTINUOUS
 62
    7
 10
120.95033019319109
 20
109.22849139498879
 11
120.14967292085214
 21
108.65044554995679
  0
LINE
  8
_0-7_7
  6
CONTINUOUS
 62
    7
 10
120.14967292085214
 20
108.65044554995679
 11
119.45866435304211
 21
108.09094867037928
  0
LINE
  8
_0-7_7
  6
CONTINUOUS
 62
    7
 10
119.45866435304211
 20
108.09094867037928
 11
118.87538522019909
 21
107.5664993219298
  0
LINE
  8
_0-7_7
  6
CONTINUOUS
 62
    7
 10
118.87538522019909
 20
107.5664993219298
 11
118.39788048997463
 21
107.09371527957131
  0
LINE
  8
_0-7_7
  6
CONTINUOUS
 62
    7
 10
118.39788048997463
 20
107.09371527957131
 11
118.0242070509486
 21
106.68914279269379
  0
LINE
  8
_0-7_7
  6
CONTINUOUS
 62
    7
 10
118.0242070509486
 20
106.68914279269379
 11
117.7524456335596
 21
106.36937579440281
  0
LINE
  8
_0-7_7
  6
CONTINUOUS
 62
    7
 10
117.7524456335596
 20
106.36937579440281
 11
117.58065312638811
 21
106.15096053408777
  0
LINE
  8
_0-7_7
  6
CONTINUOUS
 62
    7
 10
117.58065312638811
 20
106.15096053408777
 11
117.50687449708511
 21
106.05046710299678
  0
LINE
  8
_0-7_7
  6
CONTINUOUS
 62
    7
 10
117.50687449708511
 20
106.05046710299678
 11
117.2918090178066
 21
105.75308760928331
  0
LINE
  8
_0-7_7
  6
CONTINUOUS
 62
    7
 10
117.2918090178066
 20
105.75308760928331
 11
117.0141348196556
 21
105.43668231295727
  0
LINE
  8
_0-7_7
  6
CONTINUOUS
 62
    7
 10
117.0141348196556
 20
105.43668231295727
 11
116.68917029634008
 21
105.1097627572933
  0
LINE
  8
_0-7_7
  6
CONTINUOUS
 62
    7
 10
116.68917029634008
 20
105.1097627572933
 11
116.33215039506459
 21
104.78095969485429
  0
LINE
  8
_0-7_7
  6
CONTINUOUS
 62
    7
 10
116.33215039506459
 20
104.78095969485429
 11
115.9583577467491
 21
104.4587846689143
  0
LINE
  8
_0-7_7
  6
CONTINUOUS
 62
    7
 10
115.9583577467491
 20
104.4587846689143
 11
115.58306306138562
 21
104.15182074832131
  0
LINE
  8
_0-7_7
  6
CONTINUOUS
 62
    7
 10
115.58306306138562
 20
104.15182074832131
 11
115.22153704896459
 21
103.8686033182063
  0
LINE
  8
_0-7_7
  6
CONTINUOUS
 62
    7
 10
115.22153704896459
 20
103.8686033182063
 11
114.88903849854961
 21
103.61769160555981
  0
LINE
  8
_0-7_7
  6
CONTINUOUS
 62
    7
 10
114.88903849854961
 20
103.61769160555981
 11
114.60083812013158
 21
103.40769252108728
  0
LINE
  8
_0-7_7
  6
CONTINUOUS
 62
    7
 10
114.60083812013158
 20
103.40769252108728
 11
114.3722185446311
 21
103.2471176080623
  0
LINE
  8
_f-a_250
  6
CONTINUOUS
 62
  250
 10
104.2486318899681
 20
103.71949633883631
 11
104.31286781564259
 21
103.78501376437329
  0
LINE
  8
_f-a_250
  6
CONTINUOUS
 62
  250
 10
104.2486318899681
 20
103.71949633883631
 11
104.31286781564259
 21
103.78501376437329
  0
LINE
  8
_f-a_250
  6
CONTINUOUS
 62
  250
 10
161.3845476461936
 20
131.7721124582213
 11
161.52787297502061
 21
131.24923667239329
  0
LINE
  8
_f-a_250
  6
CONTINUOUS
 62
  250
 10
161.52787297502061
 20
131.24923667239329
 11
161.60895913377308
 21
130.73499163912928
  0
LINE
  8
_f-a_250
  6
CONTINUOUS
 62
  250
 10
161.60895913377308
 20
130.73499163912928
 11
161.63004725709459
 21
130.23726901339677
  0
LINE
  8
_f-a_250
  6
CONTINUOUS
 62
  250
 10
161.63004725709459
 20
130.23726901339677
 11
161.59341424241561
 21
129.7641511850278
  0
LINE
  8
_f-a_250
  6
CONTINUOUS
 62
  250
 10
161.59341424241561
 20
129.7641511850278
 11
161.50130122438009
 21
129.32357749270579
  0
LINE
  8
_f-a_250
  6
CONTINUOUS
 62
  250
 10
161.50130122438009
 20
129.32357749270579
 11
161.3559612585596
 21
128.9235826425473
  0
LINE
  8
_f-a_250
  6
CONTINUOUS
 62
  250
 10
161.3559612585596
 20
128.9235826425473
 11
161.1596593214561
 21
128.57208213137778
  0
LINE
  8
_f-a_250
  6
CONTINUOUS
 62
  250
 10
161.1596593214561
 20
128.57208213137778
 11
160.91466038957159
 21
128.27713450717127
  0
LINE
  8
_f-a_250
  6
CONTINUOUS
 62
  250
 10
160.91466038957159
 20
128.27713450717127
 11
160.6231936766201
 21
128.04672679232777
  0
LINE
  8
_f-a_250
  6
CONTINUOUS
 62
  250
 10
160.6231936766201
 20
128.04672679232777
 11
160.28754800096058
 21
127.88879832553079
  0
LINE
  8
_f-a_250
  6
CONTINUOUS
 62
  250
 10
160.28754800096058
 20
127.88879832553079
 11
159.92471068635513
 21
127.81369647311379
  0
LINE
  8
_f-a_250
  6
CONTINUOUS
 62
  250
 10
159.92471068635513
 20
127.81369647311379
 11
159.5535525633386
 21
127.8230663232723
  0
LINE
  8
_f-a_250
  6
CONTINUOUS
 62
  250
 10
159.5535525633386
 20
127.8230663232723
 11
159.18066590562361
 21
127.91187724398782
  0
LINE
  8
_f-a_250
  6
CONTINUOUS
 62
  250
 10
159.18066590562361
 20
127.91187724398782
 11
158.8126906706386
 21
128.07502707766679
  0
LINE
  8
_f-a_250
  6
CONTINUOUS
 62
  250
 10
158.8126906706386
 20
128.07502707766679
 11
158.45621913209459
 21
128.3075328760068
  0
LINE
  8
_f-a_250
  6
CONTINUOUS
 62
  250
 10
158.45621913209459
 20
128.3075328760068
 11
158.1179150892786
 21
128.60434016513031
  0
LINE
  8
_f-a_250
  6
CONTINUOUS
 62
  250
 10
156.9616445852806
 20
132.7823396615903
 11
157.10700839295913
 21
133.18233451174879
  0
LINE
  8
_f-a_250
  6
CONTINUOUS
 62
  250
 10
157.10700839295913
 20
133.18233451174879
 11
157.30329840913311
 21
133.53383502291831
  0
LINE
  8
_f-a_250
  6
CONTINUOUS
 62
  250
 10
157.30329840913311
 20
133.53383502291831
 11
157.54822581544411
 21
133.8287826471248
  0
LINE
  8
_f-a_250
  6
CONTINUOUS
 62
  250
 10
157.54822581544411
 20
133.8287826471248
 11
157.83950179353258
 21
134.05919036196877
  0
LINE
  8
_f-a_250
  6
CONTINUOUS
 62
  250
 10
157.83950179353258
 20
134.05919036196877
 11
158.17488520875509
 21
134.21711882876579
  0
LINE
  8
_f-a_250
  6
CONTINUOUS
 62
  250
 10
158.17488520875509
 20
134.21711882876579
 11
158.53804438844259
 21
134.29219683932476
  0
LINE
  8
_f-a_250
  6
CONTINUOUS
 62
  250
 10
158.53804438844259
 20
134.29219683932476
 11
158.90945285096663
 21
134.28285083102381
  0
LINE
  8
_f-a_250
  6
CONTINUOUS
 62
  250
 10
158.90945285096663
 20
134.28285083102381
 11
159.28248255982911
 21
134.19403991030879
  0
LINE
  8
_f-a_250
  6
CONTINUOUS
 62
  250
 10
159.28248255982911
 20
134.19403991030879
 11
159.65054124131711
 21
134.03089007662928
  0
LINE
  8
_f-a_250
  6
CONTINUOUS
 62
  250
 10
159.65054124131711
 20
134.03089007662928
 11
160.00702470078963
 21
133.79838427828932
  0
LINE
  8
_f-a_250
  6
CONTINUOUS
 62
  250
 10
160.00702470078963
 20
133.79838427828932
 11
160.34531682267712
 21
133.5015531473083
  0
LINE
  8
_f-a_250
  6
CONTINUOUS
 62
  250
 10
160.34531682267712
 20
133.5015531473083
 11
160.65882533326661
 21
133.1454988412778
  0
LINE
  8
_f-a_250
  6
CONTINUOUS
 62
  250
 10
160.65882533326661
 20
133.1454988412778
 11
160.9409221960596
 21
132.73520430850181
  0
LINE
  8
_f-a_250
  6
CONTINUOUS
 62
  250
 10
160.9409221960596
 20
132.73520430850181
 11
161.18503897920161
 21
132.2757240228573
  0
LINE
  8
_f-a_250
  6
CONTINUOUS
 62
  250
 10
161.18503897920161
 20
132.2757240228573
 11
161.3845476461936
 21
131.7721124582213
  0
LINE
  8
_f-a_250
  6
CONTINUOUS
 62
  250
 10
121.69054835572763
 20
111.73877677249128
 11
135.18262050621286
 21
119.52864689269381
  0
LINE
  8
_f-a_250
  6
CONTINUOUS
 62
  250
 10
136.31168033538796
 20
120.18052818484179
 11
157.4275383307031
 21
132.37211665438829
  0
LINE
  8
_f-a_250
  6
CONTINUOUS
 62
  250
 10
159.0310463263086
 20
129.07712420748879
 11
137.08388561301763
 21
116.40521142839697
  0
LINE
  8
_f-a_250
  6
CONTINUOUS
 62
  250
 10
135.95483348426919
 20
115.75331616570433
 11
123.25753062501457
 21
108.42211207675132
  0
LINE
  8
_f-a_250
  6
CONTINUOUS
 62
  250
 10
156.84695288897493
 20
132.05088281996854
 11
156.86949580445813
 21
132.34174212741081
  0
LINE
  8
_f-a_250
  6
CONTINUOUS
 62
  250
 10
119.1030630423121
 20
108.17112883853127
 11
120.08377262419782
 21
108.62692723359103
  0
LINE
  8
_f-a_250
  6
CONTINUOUS
 62
  250
 10
122.70247598031979
 20
110.27202174085781
 11
122.70834534898307
 21
110.3143688135068
  0
LINE
  8
_f-a_250
  6
CONTINUOUS
 62
  250
 10
119.1030630423121
 20
108.17112883853127
 11
120.1493250693963
 21
108.65739364267439
  0
LINE
  8
_0-7_7
  6
CONTINUOUS
 62
    7
 10
121.41451705245966
 20
110.42334672449067
 11
121.4301833464196
 21
110.51900347994977
  0
LINE
  8
_f-a_250
  6
CONTINUOUS
 62
  250
 10
122.70213622472333
 20
110.26957042867227
 11
122.70834534898307
 21
110.3143688135068
  0
LINE
  8
_0-7_7
  6
CONTINUOUS
 62
    7
 10
113.63357872937519
 20
101.65607484020285
 11
114.90920871034163
 21
102.38711795138528
  0
LINE
  8
_f-a_250
  6
CONTINUOUS
 62
  250
 10
150.77371889959406
 20
122.34516900463146
 11
150.77371889959406
 21
124.32330676890361
  0
LINE
  8
_f-a_250
  6
CONTINUOUS
 62
  250
 10
138.77504747830321
 20
108.391357093946
 11
138.83027714215169
 21
108.52363172163203
  0
LINE
  8
_f-a_250
  6
CONTINUOUS
 62
  250
 10
138.83027714215169
 20
108.52363172163203
 11
138.90739363156214
 21
108.64975514997653
  0
LINE
  8
_f-a_250
  6
CONTINUOUS
 62
  250
 10
139.58621900998017
 20
107.85164895643399
 11
138.96790426693818
 21
107.40675988783048
  0
LINE
  8
_f-a_250
  6
CONTINUOUS
 62
  250
 10
140.92275780163666
 20
107.275558143751
 11
140.90323132000813
 21
107.26604524244453
  0
LINE
  8
_f-a_250
  6
CONTINUOUS
 62
  250
 10
140.90323132000813
 20
107.26604524244453
 11
140.88338297329815
 21
107.25658002485451
  0
LINE
  8
_f-a_250
  6
CONTINUOUS
 62
  250
 10
140.88338297329815
 20
107.25658002485451
 11
140.86321276150616
 21
107.24716249098
  0
LINE
  8
_f-a_250
  6
CONTINUOUS
 62
  250
 10
140.86321276150616
 20
107.24716249098
 11
140.8427683683482
 21
107.23786416639498
  0
LINE
  8
_f-a_250
  6
CONTINUOUS
 62
  250
 10
140.8427683683482
 20
107.23786416639498
 11
140.82203787289515
 21
107.22866120924149
  0
LINE
  8
_f-a_250
  6
CONTINUOUS
 62
  250
 10
140.82203787289515
 20
107.22866120924149
 11
140.80106895886317
 21
107.21962514509349
  0
LINE
  8
_f-a_250
  6
CONTINUOUS
 62
  250
 10
140.80106895886317
 20
107.21962514509349
 11
140.77987354718121
 21
107.210755973951
  0
LINE
  8
_f-a_250
  6
CONTINUOUS
 62
  250
 10
140.77987354718121
 20
107.210755973951
 11
140.75846355877766
 21
107.20210137952952
  0
LINE
  8
_f-a_250
  6
CONTINUOUS
 62
  250
 10
140.75846355877766
 20
107.20210137952952
 11
140.73686283551118
 21
107.19368520368752
  0
LINE
  8
_f-a_250
  6
CONTINUOUS
 62
  250
 10
140.73686283551118
 20
107.19368520368752
 11
140.71508329831013
 21
107.18553128828202
  0
LINE
  8
_f-a_250
  6
CONTINUOUS
 62
  250
 10
140.71508329831013
 20
107.18553128828202
 11
140.49999397717366
 21
107.1252113877695
  0
LINE
  8
_f-a_250
  6
CONTINUOUS
 62
  250
 10
140.49999397717366
 20
107.1252113877695
 11
140.28116148434518
 21
107.0925242005745
  0
LINE
  8
_f-a_250
  6
CONTINUOUS
 62
  250
 10
140.28116148434518
 20
107.0925242005745
 11
140.06247204266467
 21
107.0864206849495
  0
LINE
  8
_f-a_250
  6
CONTINUOUS
 62
  250
 10
138.90739363156214
 20
108.64975514997653
 11
139.00550287686266
 21
108.76798692335299
  0
LINE
  8
_f-a_250
  6
CONTINUOUS
 62
  250
 10
139.00550287686266
 20
108.76798692335299
 11
139.1237465711682
 21
108.87661042799149
  0
LINE
  8
_f-a_250
  6
CONTINUOUS
 62
  250
 10
139.1237465711682
 20
108.87661042799149
 11
139.26125448666463
 21
108.97386136640702
  0
LINE
  8
_f-a_250
  6
CONTINUOUS
 62
  250
 10
139.26125448666463
 20
108.97386136640702
 11
139.29508608303914
 21
108.99052682508653
  0
LINE
  8
_f-a_250
  6
CONTINUOUS
 62
  250
 10
168.0204121442882
 20
125.89719358076252
 11
168.07892006359967
 21
125.92384877790599
  0
LINE
  8
_f-a_250
  6
CONTINUOUS
 62
  250
 10
168.07892006359967
 20
125.92384877790599
 11
168.09823196850667
 21
125.93374314893902
  0
LINE
  8
_f-a_250
  6
CONTINUOUS
 62
  250
 10
168.09823196850667
 20
125.93374314893902
 11
168.11788958035365
 21
125.94344678510851
  0
LINE
  8
_f-a_250
  6
CONTINUOUS
 62
  250
 10
168.11788958035365
 20
125.94344678510851
 11
168.13783329449566
 21
125.95291200269853
  0
LINE
  8
_f-a_250
  6
CONTINUOUS
 62
  250
 10
168.13783329449566
 20
125.95291200269853
 11
168.15807503186116
 21
125.96216264356801
  0
LINE
  8
_f-a_250
  6
CONTINUOUS
 62
  250
 10
168.15807503186116
 20
125.96216264356801
 11
168.17855518780615
 21
125.97115102399999
  0
LINE
  8
_f-a_250
  6
CONTINUOUS
 62
  250
 10
168.17855518780615
 20
125.97115102399999
 11
168.19928568325915
 21
125.97990098585299
  0
LINE
  8
_f-a_250
  6
CONTINUOUS
 62
  250
 10
168.19928568325915
 20
125.97990098585299
 11
168.22021883450415
 21
125.98838868726901
  0
LINE
  8
_f-a_250
  6
CONTINUOUS
 62
  250
 10
168.22021883450415
 20
125.98838868726901
 11
168.24135464154168
 21
125.99659028639002
  0
LINE
  8
_f-a_250
  6
CONTINUOUS
 62
  250
 10
168.24135464154168
 20
125.99659028639002
 11
168.26264542065516
 21
126.00455346693201
  0
LINE
  8
_f-a_250
  6
CONTINUOUS
 62
  250
 10
168.26264542065516
 20
126.00455346693201
 11
168.28409117184518
 21
126.012206703321
  0
LINE
  8
_f-a_250
  6
CONTINUOUS
 62
  250
 10
168.28409117184518
 20
126.012206703321
 11
168.49850100003167
 21
126.07257428754951
  0
LINE
  8
_f-a_250
  6
CONTINUOUS
 62
  250
 10
168.49850100003167
 20
126.07257428754951
 11
168.71658247433564
 21
126.105404525892
  0
LINE
  8
_f-a_250
  6
CONTINUOUS
 62
  250
 10
168.71658247433564
 20
126.105404525892
 11
168.93450897656365
 21
126.11172261823802
  0
LINE
  8
_f-a_250
  6
CONTINUOUS
 62
  250
 10
168.93450897656365
 20
126.11172261823802
 11
169.14841812573317
 21
126.09260144819453
  0
LINE
  8
_f-a_250
  6
CONTINUOUS
 62
  250
 10
169.14841812573317
 20
126.09260144819453
 11
169.35449522457967
 21
126.0490662156505
  0
LINE
  8
_f-a_250
  6
CONTINUOUS
 62
  250
 10
169.35449522457967
 20
126.0490662156505
 11
169.54890173397919
 21
125.98218980421251
  0
LINE
  8
_f-a_250
  6
CONTINUOUS
 62
  250
 10
169.54890173397919
 20
125.98218980421251
 11
169.72776335202119
 21
125.8929974137705
  0
LINE
  8
_f-a_250
  6
CONTINUOUS
 62
  250
 10
169.72776335202119
 20
125.8929974137705
 11
169.88730114422717
 21
125.78258576978848
  0
LINE
  8
_f-a_250
  6
CONTINUOUS
 62
  250
 10
169.88730114422717
 20
125.78258576978848
 11
170.02361696682814
 21
125.65195623029854
  0
LINE
  8
_f-a_250
  6
CONTINUOUS
 62
  250
 10
170.02361696682814
 20
125.65195623029854
 11
170.13290804348864
 21
125.50218167890702
  0
LINE
  8
_f-a_250
  6
CONTINUOUS
 62
  250
 10
170.13290804348864
 20
125.50218167890702
 11
170.20002287350567
 21
125.36583009351901
  0
LINE
  8
_f-a_250
  6
CONTINUOUS
 62
  250
 10
170.20002287350567
 20
125.36583009351901
 11
170.24093550167916
 21
125.22692742933452
  0
LINE
  8
_f-a_250
  6
CONTINUOUS
 62
  250
 10
170.24093550167916
 20
125.22692742933452
 11
170.25653999768164
 21
125.08721414198101
  0
LINE
  8
_f-a_250
  6
CONTINUOUS
 62
  250
 10
170.25653999768164
 20
125.08721414198101
 11
170.2477065893257
 21
124.9484783708015
  0
LINE
  8
_f-a_250
  6
CONTINUOUS
 62
  250
 10
170.2477065893257
 20
124.9484783708015
 11
170.21534126721266
 21
124.81238904585049
  0
LINE
  8
_f-a_250
  6
CONTINUOUS
 62
  250
 10
170.21534126721266
 20
124.81238904585049
 11
170.16030233822713
 21
124.68078199018649
  0
LINE
  8
_f-a_250
  6
CONTINUOUS
 62
  250
 10
170.16030233822713
 20
124.68078199018649
 11
170.08349579296967
 21
124.55537381757901
  0
LINE
  8
_f-a_250
  6
CONTINUOUS
 62
  250
 10
170.08349579296967
 20
124.55537381757901
 11
169.98579185925368
 21
124.4379288255135
  0
LINE
  8
_f-a_250
  6
CONTINUOUS
 62
  250
 10
169.98579185925368
 20
124.4379288255135
 11
169.86808460675118
 21
124.3301636277595
  0
LINE
  8
_f-a_250
  6
CONTINUOUS
 62
  250
 10
169.86808460675118
 20
124.3301636277595
 11
169.73125618420519
 21
124.23386636366052
  0
LINE
  8
_f-a_250
  6
CONTINUOUS
 62
  250
 10
169.73125618420519
 20
124.23386636366052
 11
169.70458906613268
 21
124.21221795667802
  0
LINE
  8
_f-a_250
  6
CONTINUOUS
 62
  250
 10
140.94874542675868
 20
107.29053083051852
 11
140.92275780163666
 21
107.275558143751
  0
LINE
  8
_0-7_7
  6
CONTINUOUS
 62
    7
 10
140.92275780163666
 20
107.275558143751
 11
140.90323132000813
 21
107.26604524244453
  0
LINE
  8
_0-7_7
  6
CONTINUOUS
 62
    7
 10
140.90323132000813
 20
107.26604524244453
 11
140.88338297329815
 21
107.25658002485451
  0
LINE
  8
_0-7_7
  6
CONTINUOUS
 62
    7
 10
140.88338297329815
 20
107.25658002485451
 11
140.86321276150616
 21
107.24716249098
  0
LINE
  8
_0-7_7
  6
CONTINUOUS
 62
    7
 10
140.86321276150616
 20
107.24716249098
 11
140.8427683683482
 21
107.23786416639498
  0
LINE
  8
_0-7_7
  6
CONTINUOUS
 62
    7
 10
140.8427683683482
 20
107.23786416639498
 11
140.82203787289515
 21
107.22866120924149
  0
LINE
  8
_0-7_7
  6
CONTINUOUS
 62
    7
 10
140.82203787289515
 20
107.22866120924149
 11
140.80106895886317
 21
107.21962514509349
  0
LINE
  8
_0-7_7
  6
CONTINUOUS
 62
    7
 10
140.80106895886317
 20
107.21962514509349
 11
140.77987354718121
 21
107.210755973951
  0
LINE
  8
_0-7_7
  6
CONTINUOUS
 62
    7
 10
140.77987354718121
 20
107.210755973951
 11
140.75846355877766
 21
107.20210137952952
  0
LINE
  8
_0-7_7
  6
CONTINUOUS
 62
    7
 10
140.75846355877766
 20
107.20210137952952
 11
140.73686283551118
 21
107.19368520368752
  0
LINE
  8
_0-7_7
  6
CONTINUOUS
 62
    7
 10
140.73686283551118
 20
107.19368520368752
 11
140.71508329831013
 21
107.18553128828202
  0
LINE
  8
_0-7_7
  6
CONTINUOUS
 62
    7
 10
140.71508329831013
 20
107.18553128828202
 11
140.49999397717366
 21
107.1252113877695
  0
LINE
  8
_0-7_7
  6
CONTINUOUS
 62
    7
 10
140.49999397717366
 20
107.1252113877695
 11
140.28116148434518
 21
107.0925242005745
  0
LINE
  8
_0-7_7
  6
CONTINUOUS
 62
    7
 10
140.28116148434518
 20
107.0925242005745
 11
140.06247204266467
 21
107.0864206849495
  0
LINE
  8
_0-7_7
  6
CONTINUOUS
 62
    7
 10
140.06247204266467
 20
107.0864206849495
 11
139.84771650753865
 21
107.10582795728848
  0
LINE
  8
_0-7_7
  6
CONTINUOUS
 62
    7
 10
138.77504747830321
 20
108.391357093946
 11
138.83027714215169
 21
108.52363172163203
  0
LINE
  8
_0-7_7
  6
CONTINUOUS
 62
    7
 10
138.83027714215169
 20
108.52363172163203
 11
138.90739363156214
 21
108.64975514997653
  0
LINE
  8
_0-7_7
  6
CONTINUOUS
 62
    7
 10
138.90739363156214
 20
108.64975514997653
 11
139.00550287686266
 21
108.76798692335299
  0
LINE
  8
_0-7_7
  6
CONTINUOUS
 62
    7
 10
139.00550287686266
 20
108.76798692335299
 11
139.1237465711682
 21
108.87661042799149
  0
LINE
  8
_0-7_7
  6
CONTINUOUS
 62
    7
 10
139.1237465711682
 20
108.87661042799149
 11
139.26125448666463
 21
108.97386136640702
  0
LINE
  8
_0-7_7
  6
CONTINUOUS
 62
    7
 10
139.26125448666463
 20
108.97386136640702
 11
139.29508608303914
 21
108.99052682508653
  0
LINE
  8
_0-7_7
  6
CONTINUOUS
 62
    7
 10
168.0204121442882
 20
125.89719358076252
 11
168.07892006359967
 21
125.92384877790599
  0
LINE
  8
_0-7_7
  6
CONTINUOUS
 62
    7
 10
168.07892006359967
 20
125.92384877790599
 11
168.09823196850667
 21
125.93374314893902
  0
LINE
  8
_0-7_7
  6
CONTINUOUS
 62
    7
 10
168.09823196850667
 20
125.93374314893902
 11
168.11788958035365
 21
125.94344678510851
  0
LINE
  8
_0-7_7
  6
CONTINUOUS
 62
    7
 10
168.11788958035365
 20
125.94344678510851
 11
168.13783329449566
 21
125.95291200269853
  0
LINE
  8
_0-7_7
  6
CONTINUOUS
 62
    7
 10
168.13783329449566
 20
125.95291200269853
 11
168.15807503186116
 21
125.96216264356801
  0
LINE
  8
_0-7_7
  6
CONTINUOUS
 62
    7
 10
168.15807503186116
 20
125.96216264356801
 11
168.17855518780615
 21
125.97115102399999
  0
LINE
  8
_0-7_7
  6
CONTINUOUS
 62
    7
 10
168.17855518780615
 20
125.97115102399999
 11
168.19928568325915
 21
125.97990098585299
  0
LINE
  8
_0-7_7
  6
CONTINUOUS
 62
    7
 10
168.19928568325915
 20
125.97990098585299
 11
168.22021883450415
 21
125.98838868726901
  0
LINE
  8
_0-7_7
  6
CONTINUOUS
 62
    7
 10
168.22021883450415
 20
125.98838868726901
 11
168.24135464154168
 21
125.99659028639002
  0
LINE
  8
_0-7_7
  6
CONTINUOUS
 62
    7
 10
168.24135464154168
 20
125.99659028639002
 11
168.26264542065516
 21
126.00455346693201
  0
LINE
  8
_0-7_7
  6
CONTINUOUS
 62
    7
 10
168.26264542065516
 20
126.00455346693201
 11
168.28409117184518
 21
126.012206703321
  0
LINE
  8
_0-7_7
  6
CONTINUOUS
 62
    7
 10
168.28409117184518
 20
126.012206703321
 11
168.49850100003167
 21
126.07257428754951
  0
LINE
  8
_0-7_7
  6
CONTINUOUS
 62
    7
 10
168.49850100003167
 20
126.07257428754951
 11
168.71658247433564
 21
126.105404525892
  0
LINE
  8
_0-7_7
  6
CONTINUOUS
 62
    7
 10
168.71658247433564
 20
126.105404525892
 11
168.93450897656365
 21
126.11172261823802
  0
LINE
  8
_0-7_7
  6
CONTINUOUS
 62
    7
 10
168.93450897656365
 20
126.11172261823802
 11
169.14841812573317
 21
126.09260144819453
  0
LINE
  8
_0-7_7
  6
CONTINUOUS
 62
    7
 10
169.14841812573317
 20
126.09260144819453
 11
169.35449522457967
 21
126.0490662156505
  0
LINE
  8
_0-7_7
  6
CONTINUOUS
 62
    7
 10
169.35449522457967
 20
126.0490662156505
 11
169.54890173397919
 21
125.98218980421251
  0
LINE
  8
_0-7_7
  6
CONTINUOUS
 62
    7
 10
169.54890173397919
 20
125.98218980421251
 11
169.72776335202119
 21
125.8929974137705
  0
LINE
  8
_0-7_7
  6
CONTINUOUS
 62
    7
 10
169.72776335202119
 20
125.8929974137705
 11
169.88730114422717
 21
125.78258576978848
  0
LINE
  8
_0-7_7
  6
CONTINUOUS
 62
    7
 10
169.88730114422717
 20
125.78258576978848
 11
170.02361696682814
 21
125.65195623029854
  0
LINE
  8
_0-7_7
  6
CONTINUOUS
 62
    7
 10
170.02361696682814
 20
125.65195623029854
 11
170.13290804348864
 21
125.50218167890702
  0
LINE
  8
_0-7_7
  6
CONTINUOUS
 62
    7
 10
170.13290804348864
 20
125.50218167890702
 11
170.20002287350567
 21
125.36583009351901
  0
LINE
  8
_0-7_7
  6
CONTINUOUS
 62
    7
 10
170.20002287350567
 20
125.36583009351901
 11
170.24093550167916
 21
125.22692742933452
  0
LINE
  8
_0-7_7
  6
CONTINUOUS
 62
    7
 10
170.24093550167916
 20
125.22692742933452
 11
170.25653999768164
 21
125.08721414198101
  0
LINE
  8
_0-7_7
  6
CONTINUOUS
 62
    7
 10
170.25653999768164
 20
125.08721414198101
 11
170.2477065893257
 21
124.9484783708015
  0
LINE
  8
_0-7_7
  6
CONTINUOUS
 62
    7
 10
170.2477065893257
 20
124.9484783708015
 11
170.21534126721266
 21
124.81238904585049
  0
LINE
  8
_0-7_7
  6
CONTINUOUS
 62
    7
 10
170.21534126721266
 20
124.81238904585049
 11
170.16030233822713
 21
124.68078199018649
  0
LINE
  8
_0-7_7
  6
CONTINUOUS
 62
    7
 10
170.16030233822713
 20
124.68078199018649
 11
170.08349579296967
 21
124.55537381757901
  0
LINE
  8
_0-7_7
  6
CONTINUOUS
 62
    7
 10
170.08349579296967
 20
124.55537381757901
 11
169.98579185925368
 21
124.4379288255135
  0
LINE
  8
_0-7_7
  6
CONTINUOUS
 62
    7
 10
169.98579185925368
 20
124.4379288255135
 11
169.86808460675118
 21
124.3301636277595
  0
LINE
  8
_0-7_7
  6
CONTINUOUS
 62
    7
 10
169.86808460675118
 20
124.3301636277595
 11
169.73125618420519
 21
124.23386636366052
  0
LINE
  8
_0-7_7
  6
CONTINUOUS
 62
    7
 10
169.73125618420519
 20
124.23386636366052
 11
169.70458906613268
 21
124.21221795667802
  0
LINE
  8
_0-7_7
  6
CONTINUOUS
 62
    7
 10
140.94874542675868
 20
107.29053083051852
 11
140.92275780163666
 21
107.275558143751
  0
LINE
  8
_0-7_7
  6
CONTINUOUS
 62
    7
 10
139.28008955441365
 20
108.98885789503251
 11
139.29940145932116
 21
108.99875226606554
  0
LINE
  8
_0-7_7
  6
CONTINUOUS
 62
    7
 10
139.29940145932116
 20
108.99875226606554
 11
139.3190590711682
 21
109.008432060377
  0
LINE
  8
_0-7_7
  6
CONTINUOUS
 62
    7
 10
139.3190590711682
 20
109.008432060377
 11
139.33901470623866
 21
109.01792111982502
  0
LINE
  8
_0-7_7
  6
CONTINUOUS
 62
    7
 10
139.33901470623866
 20
109.01792111982502
 11
139.35924452267565
 21
109.02714791883653
  0
LINE
  8
_0-7_7
  6
CONTINUOUS
 62
    7
 10
139.35924452267565
 20
109.02714791883653
 11
139.37973659954915
 21
109.03616014112652
  0
LINE
  8
_0-7_7
  6
CONTINUOUS
 62
    7
 10
139.37973659954915
 20
109.03616014112652
 11
139.40045517407319
 21
109.04491010297951
  0
LINE
  8
_0-7_7
  6
CONTINUOUS
 62
    7
 10
139.40045517407319
 20
109.04491010297951
 11
139.42140024624715
 21
109.05339780439553
  0
LINE
  8
_0-7_7
  6
CONTINUOUS
 62
    7
 10
139.42140024624715
 20
109.05339780439553
 11
139.44252413235566
 21
109.06159940351651
  0
LINE
  8
_0-7_7
  6
CONTINUOUS
 62
    7
 10
139.44252413235566
 20
109.06159940351651
 11
139.46381491146971
 21
109.06953874220051
  0
LINE
  8
_0-7_7
  6
CONTINUOUS
 62
    7
 10
139.46381491146971
 20
109.06953874220051
 11
139.48524874173066
 21
109.07719197858998
  0
LINE
  8
_0-7_7
  6
CONTINUOUS
 62
    7
 10
139.48524874173066
 20
109.07719197858998
 11
139.69951551876918
 21
109.1375118791025
  0
LINE
  8
_0-7_7
  6
CONTINUOUS
 62
    7
 10
139.69951551876918
 20
109.1375118791025
 11
139.91752546749964
 21
109.1701990662975
  0
LINE
  8
_0-7_7
  6
CONTINUOUS
 62
    7
 10
139.91752546749964
 20
109.1701990662975
 11
140.13546389065667
 21
109.1763025819225
  0
LINE
  8
_0-7_7
  6
CONTINUOUS
 62
    7
 10
140.13546389065667
 20
109.1763025819225
 11
140.34951609097365
 21
109.15689530958352
  0
LINE
  8
_0-7_7
  6
CONTINUOUS
 62
    7
 10
140.34951609097365
 20
109.15689530958352
 11
140.55583160839919
 21
109.11302629102852
  0
LINE
  8
_0-7_7
  6
CONTINUOUS
 62
    7
 10
140.55583160839919
 20
109.11302629102852
 11
140.75058382473864
 21
109.045768409864
  0
LINE
  8
_0-7_7
  6
CONTINUOUS
 62
    7
 10
140.75058382473864
 20
109.045768409864
 11
140.92995804272564
 21
108.95612302412198
  0
LINE
  8
_0-7_7
  6
CONTINUOUS
 62
    7
 10
140.92995804272564
 20
108.95612302412198
 11
141.09010380230816
 21
108.84525838483998
  0
LINE
  8
_0-7_7
  6
CONTINUOUS
 62
    7
 10
141.09010380230816
 20
108.84525838483998
 11
141.22720640622018
 21
108.71412816633401
  0
LINE
  8
_0-7_7
  6
CONTINUOUS
 62
    7
 10
141.22720640622018
 20
108.71412816633401
 11
141.33741539441021
 21
108.563876777784
  0
LINE
  8
_0-7_7
  6
CONTINUOUS
 62
    7
 10
141.33741539441021
 20
108.563876777784
 11
141.40453022442719
 21
108.4270483552375
  0
LINE
  8
_0-7_7
  6
CONTINUOUS
 62
    7
 10
141.40453022442719
 20
108.4270483552375
 11
141.44555014096167
 21
108.28778806318448
  0
LINE
  8
_0-7_7
  6
CONTINUOUS
 62
    7
 10
141.44555014096167
 20
108.28778806318448
 11
141.46133345089814
 21
108.14776483167802
  0
LINE
  8
_0-7_7
  6
CONTINUOUS
 62
    7
 10
141.46133345089814
 20
108.14776483167802
 11
141.45270269833466
 21
108.00871911634601
  0
LINE
  8
_0-7_7
  6
CONTINUOUS
 62
    7
 10
141.45270269833466
 20
108.00871911634601
 11
141.42054003201369
 21
107.87239137281603
  0
LINE
  8
_0-7_7
  6
CONTINUOUS
 62
    7
 10
141.42054003201369
 20
107.87239137281603
 11
141.3656799169627
 21
107.74054589857249
  0
LINE
  8
_0-7_7
  6
CONTINUOUS
 62
    7
 10
141.3656799169627
 20
107.74054589857249
 11
141.28900450192364
 21
107.61487546552803
  0
LINE
  8
_0-7_7
  6
CONTINUOUS
 62
    7
 10
141.28900450192364
 20
107.61487546552803
 11
141.19132441006568
 21
107.49709668745203
  0
LINE
  8
_0-7_7
  6
CONTINUOUS
 62
    7
 10
141.19132441006568
 20
107.49709668745203
 11
141.0735098692027
 21
107.3889738618295
  0
LINE
  8
_0-7_7
  6
CONTINUOUS
 62
    7
 10
141.0735098692027
 20
107.3889738618295
 11
140.93643110714814
 21
107.292199760572
  0
LINE
  8
_0-7_7
  6
CONTINUOUS
 62
    7
 10
157.47475307904168
 20
112.05718579878001
 11
157.38786142788766
 21
112.078500419752
  0
LINE
  8
_0-7_7
  6
CONTINUOUS
 62
    7
 10
157.38786142788766
 20
112.078500419752
 11
157.15200584851166
 21
112.15102735151453
  0
LINE
  8
_0-7_7
  6
CONTINUOUS
 62
    7
 10
157.15200584851166
 20
112.15102735151453
 11
156.8044630857552
 21
112.28749814619252
  0
LINE
  8
_0-7_7
  6
CONTINUOUS
 62
    7
 10
156.8044630857552
 20
112.28749814619252
 11
156.38248604260369
 21
112.50071588148302
  0
LINE
  8
_0-7_7
  6
CONTINUOUS
 62
    7
 10
156.38248604260369
 20
112.50071588148302
 11
155.92332762204066
 21
112.80343595136799
  0
LINE
  8
_0-7_7
  6
CONTINUOUS
 62
    7
 10
155.92332762204066
 20
112.80343595136799
 11
155.46425264798066
 21
113.20846143354601
  0
LINE
  8
_0-7_7
  6
CONTINUOUS
 62
    7
 10
155.46425264798066
 20
113.20846143354601
 11
155.04251402340768
 21
113.72857156385601
  0
LINE
  8
_0-7_7
  6
CONTINUOUS
 62
    7
 10
155.04251402340768
 20
113.72857156385601
 11
154.6953765722362
 21
114.37656941999603
  0
LINE
  8
_0-7_7
  6
CONTINUOUS
 62
    7
 10
154.6953765722362
 20
114.37656941999603
 11
154.46009319744965
 21
115.16516271223253
  0
LINE
  8
_0-7_7
  6
CONTINUOUS
 62
    7
 10
154.46009319744965
 20
115.16516271223253
 11
154.37391680203316
 21
116.10720220197854
  0
LINE
  8
_0-7_7
  6
CONTINUOUS
 62
    7
 10
154.37391680203316
 20
116.10720220197854
 11
154.28665560208216
 21
117.05451074232249
  0
LINE
  8
_0-7_7
  6
CONTINUOUS
 62
    7
 10
154.28665560208216
 20
117.05451074232249
 11
154.04477995358369
 21
117.85390439619252
  0
LINE
  8
_0-7_7
  6
CONTINUOUS
 62
    7
 10
154.04477995358369
 20
117.85390439619252
 11
153.68686598263665
 21
118.51682725538402
  0
LINE
  8
_0-7_7
  6
CONTINUOUS
 62
    7
 10
153.68686598263665
 20
118.51682725538402
 11
153.25151365719719
 21
119.05458036054799
  0
LINE
  8
_0-7_7
  6
CONTINUOUS
 62
    7
 10
153.25151365719719
 20
119.05458036054799
 11
152.77728718243517
 21
119.47844091047449
  0
LINE
  8
_0-7_7
  6
CONTINUOUS
 62
    7
 10
152.77728718243517
 20
119.47844091047449
 11
152.30278652630719
 21
119.79982915510354
  0
LINE
  8
_0-7_7
  6
CONTINUOUS
 62
    7
 10
152.30278652630719
 20
119.79982915510354
 11
151.86655205212517
 21
120.030069976942
  0
LINE
  8
_0-7_7
  6
CONTINUOUS
 62
    7
 10
151.86655205212517
 20
120.030069976942
 11
151.50719564877417
 21
120.18048825849701
  0
LINE
  8
_0-7_7
  6
CONTINUOUS
 62
    7
 10
151.50719564877417
 20
120.18048825849701
 11
151.26329344235316
 21
120.2624088822765
  0
LINE
  8
_0-7_7
  6
CONTINUOUS
 62
    7
 10
152.28992384396466
 20
121.14052835096498
 11
152.37968843899617
 21
121.11573281873851
  0
LINE
  8
_0-7_7
  6
CONTINUOUS
 62
    7
 10
152.37968843899617
 20
121.11573281873851
 11
152.62332838498017
 21
121.03383603681752
  0
LINE
  8
_0-7_7
  6
CONTINUOUS
 62
    7
 10
152.62332838498017
 20
121.03383603681752
 11
152.98232716046218
 21
120.88344159712
  0
LINE
  8
_0-7_7
  6
CONTINUOUS
 62
    7
 10
152.98232716046218
 20
120.88344159712
 11
153.41816824398919
 21
120.65329614271351
  0
LINE
  8
_0-7_7
  6
CONTINUOUS
 62
    7
 10
153.41816824398919
 20
120.65329614271351
 11
153.89235895596417
 21
120.331979423658
  0
LINE
  8
_0-7_7
  6
CONTINUOUS
 62
    7
 10
153.89235895596417
 20
120.331979423658
 11
154.3663589330757
 21
119.90826192487901
  0
LINE
  8
_0-7_7
  6
CONTINUOUS
 62
    7
 10
154.3663589330757
 20
119.90826192487901
 11
154.80168741665764
 21
119.37074723829448
  0
LINE
  8
_0-7_7
  6
CONTINUOUS
 62
    7
 10
154.80168741665764
 20
119.37074723829448
 11
155.15980404339714
 21
118.70811048139751
  0
LINE
  8
_0-7_7
  6
CONTINUOUS
 62
    7
 10
155.15980404339714
 20
118.70811048139751
 11
155.40222805462716
 21
117.90902677168049
  0
LINE
  8
_0-7_7
  6
CONTINUOUS
 62
    7
 10
155.40222805462716
 20
117.90902677168049
 11
155.49041908703717
 21
116.9622189103525
  0
LINE
  8
_0-7_7
  6
CONTINUOUS
 62
    7
 10
155.49041908703717
 20
116.9622189103525
 11
155.57475965939418
 21
116.01855817426852
  0
LINE
  8
_0-7_7
  6
CONTINUOUS
 62
    7
 10
155.57475965939418
 20
116.01855817426852
 11
155.80900591336169
 21
115.22901120771553
  0
LINE
  8
_0-7_7
  6
CONTINUOUS
 62
    7
 10
155.80900591336169
 20
115.22901120771553
 11
156.15578573666463
 21
114.580655723707
  0
LINE
  8
_0-7_7
  6
CONTINUOUS
 62
    7
 10
156.15578573666463
 20
114.580655723707
 11
156.57767933331368
 21
114.0605932771125
  0
LINE
  8
_0-7_7
  6
CONTINUOUS
 62
    7
 10
156.57767933331368
 20
114.0605932771125
 11
157.03730267010567
 21
113.6559492646615
  0
LINE
  8
_f-a_250
  6
CONTINUOUS
 62
  250
 10
152.28992384396466
 20
121.14052835096498
 11
152.37968843899617
 21
121.11573281873851
  0
LINE
  8
_f-a_250
  6
CONTINUOUS
 62
  250
 10
152.37968843899617
 20
121.11573281873851
 11
152.62332838498017
 21
121.03383603681752
  0
LINE
  8
_f-a_250
  6
CONTINUOUS
 62
  250
 10
152.62332838498017
 20
121.03383603681752
 11
152.98232716046218
 21
120.88344159712
  0
LINE
  8
_f-a_250
  6
CONTINUOUS
 62
  250
 10
152.98232716046218
 20
120.88344159712
 11
153.41816824398919
 21
120.65329614271351
  0
LINE
  8
_f-a_250
  6
CONTINUOUS
 62
  250
 10
153.41816824398919
 20
120.65329614271351
 11
153.89235895596417
 21
120.331979423658
  0
LINE
  8
_f-a_250
  6
CONTINUOUS
 62
  250
 10
153.89235895596417
 20
120.331979423658
 11
154.3663589330757
 21
119.90826192487901
  0
LINE
  8
_f-a_250
  6
CONTINUOUS
 62
  250
 10
154.3663589330757
 20
119.90826192487901
 11
154.80168741665764
 21
119.37074723829448
  0
LINE
  8
_f-a_250
  6
CONTINUOUS
 62
  250
 10
154.80168741665764
 20
119.37074723829448
 11
155.15980404339714
 21
118.70811048139751
  0
LINE
  8
_f-a_250
  6
CONTINUOUS
 62
  250
 10
155.15980404339714
 20
118.70811048139751
 11
155.40222805462716
 21
117.90902677168049
  0
LINE
  8
_f-a_250
  6
CONTINUOUS
 62
  250
 10
155.40222805462716
 20
117.90902677168049
 11
155.49041908703717
 21
116.9622189103525
  0
LINE
  8
_f-a_250
  6
CONTINUOUS
 62
  250
 10
155.49041908703717
 20
116.9622189103525
 11
155.57475965939418
 21
116.01855817426852
  0
LINE
  8
_f-a_250
  6
CONTINUOUS
 62
  250
 10
155.57475965939418
 20
116.01855817426852
 11
155.80900591336169
 21
115.22901120771553
  0
LINE
  8
_f-a_250
  6
CONTINUOUS
 62
  250
 10
155.80900591336169
 20
115.22901120771553
 11
156.15578573666463
 21
114.580655723707
  0
LINE
  8
_f-a_250
  6
CONTINUOUS
 62
  250
 10
156.15578573666463
 20
114.580655723707
 11
156.57767933331368
 21
114.0605932771125
  0
LINE
  8
_f-a_250
  6
CONTINUOUS
 62
  250
 10
156.57767933331368
 20
114.0605932771125
 11
157.03730267010567
 21
113.6559492646615
  0
LINE
  8
_f-a_250
  6
CONTINUOUS
 62
  250
 10
157.03730267010567
 20
113.6559492646615
 11
157.49722403012166
 21
113.35380139936601
  0
LINE
  8
_f-a_250
  6
CONTINUOUS
 62
  250
 10
151.26329344235316
 20
120.2624088822765
 11
151.50719564877417
 21
120.18048825849701
  0
LINE
  8
_f-a_250
  6
CONTINUOUS
 62
  250
 10
151.50719564877417
 20
120.18048825849701
 11
151.86655205212517
 21
120.030069976942
  0
LINE
  8
_f-a_250
  6
CONTINUOUS
 62
  250
 10
151.86655205212517
 20
120.030069976942
 11
152.30278652630719
 21
119.79982915510354
  0
LINE
  8
_f-a_250
  6
CONTINUOUS
 62
  250
 10
152.30278652630719
 20
119.79982915510354
 11
152.77728718243517
 21
119.47844091047449
  0
LINE
  8
_f-a_250
  6
CONTINUOUS
 62
  250
 10
152.77728718243517
 20
119.47844091047449
 11
153.25151365719719
 21
119.05458036054799
  0
LINE
  8
_f-a_250
  6
CONTINUOUS
 62
  250
 10
153.25151365719719
 20
119.05458036054799
 11
153.68686598263665
 21
118.51682725538402
  0
LINE
  8
_f-a_250
  6
CONTINUOUS
 62
  250
 10
153.68686598263665
 20
118.51682725538402
 11
154.04477995358369
 21
117.85390439619252
  0
LINE
  8
_f-a_250
  6
CONTINUOUS
 62
  250
 10
154.04477995358369
 20
117.85390439619252
 11
154.28665560208216
 21
117.05451074232249
  0
LINE
  8
_f-a_250
  6
CONTINUOUS
 62
  250
 10
154.28665560208216
 20
117.05451074232249
 11
154.37391680203316
 21
116.10720220197854
  0
LINE
  8
_f-a_250
  6
CONTINUOUS
 62
  250
 10
154.37391680203316
 20
116.10720220197854
 11
154.46009319744965
 21
115.16516271223253
  0
LINE
  8
_f-a_250
  6
CONTINUOUS
 62
  250
 10
154.46009319744965
 20
115.16516271223253
 11
154.6953765722362
 21
114.37656941999603
  0
LINE
  8
_f-a_250
  6
CONTINUOUS
 62
  250
 10
154.6953765722362
 20
114.37656941999603
 11
155.04251402340768
 21
113.72857156385601
  0
LINE
  8
_f-a_250
  6
CONTINUOUS
 62
  250
 10
155.04251402340768
 20
113.72857156385601
 11
155.46425264798066
 21
113.20846143354601
  0
LINE
  8
_f-a_250
  6
CONTINUOUS
 62
  250
 10
155.46425264798066
 20
113.20846143354601
 11
155.92332762204066
 21
112.80343595136799
  0
LINE
  8
_f-a_250
  6
CONTINUOUS
 62
  250
 10
155.92332762204066
 20
112.80343595136799
 11
156.38248604260369
 21
112.50071588148302
  0
LINE
  8
_f-a_250
  6
CONTINUOUS
 62
  250
 10
156.38248604260369
 20
112.50071588148302
 11
156.8044630857552
 21
112.28749814619252
  0
LINE
  8
_f-a_250
  6
CONTINUOUS
 62
  250
 10
156.8044630857552
 20
112.28749814619252
 11
157.15200584851166
 21
112.15102735151453
  0
LINE
  8
_f-a_250
  6
CONTINUOUS
 62
  250
 10
157.15200584851166
 20
112.15102735151453
 11
157.38786142788766
 21
112.078500419752
  0
LINE
  8
_f-a_250
  6
CONTINUOUS
 62
  250
 10
157.38786142788766
 20
112.078500419752
 11
157.47475307904168
 21
112.05718579878001
  0
LINE
  8
_0-7_7
  6
CONTINUOUS
 62
    7
 10
140.27558248959471
 20
107.39886823286201
 11
140.14161508999715
 21
107.38537374128498
  0
LINE
  8
_0-7_7
  6
CONTINUOUS
 62
    7
 10
140.14161508999715
 20
107.38537374128498
 11
140.00929277859566
 21
107.38828244795002
  0
LINE
  8
_0-7_7
  6
CONTINUOUS
 62
    7
 10
139.33797758541968
 20
108.56740537275502
 11
139.42645472012416
 21
108.6568600236335
  0
LINE
  8
_0-7_7
  6
CONTINUOUS
 62
    7
 10
139.42645472012416
 20
108.6568600236335
 11
139.53182381115815
 21
108.73463216413651
  0
LINE
  8
_0-7_7
  6
CONTINUOUS
 62
    7
 10
139.53182381115815
 20
108.73463216413651
 11
139.65292852841267
 21
108.79874292005701
  0
LINE
  8
_0-7_7
  6
CONTINUOUS
 62
    7
 10
139.65292852841267
 20
108.79874292005701
 11
139.78858869992169
 21
108.8472134171885
  0
LINE
  8
_0-7_7
  6
CONTINUOUS
 62
    7
 10
139.78858869992169
 20
108.8472134171885
 11
139.79959171734717
 21
108.849740654127
  0
LINE
  8
_0-7_7
  6
CONTINUOUS
 62
    7
 10
139.79959171734717
 20
108.849740654127
 11
139.81070202313313
 21
108.85236325849698
  0
LINE
  8
_0-7_7
  6
CONTINUOUS
 62
    7
 10
139.81070202313313
 20
108.85236325849698
 11
139.82191961728014
 21
108.85498586286701
  0
LINE
  8
_0-7_7
  6
CONTINUOUS
 62
    7
 10
139.82191961728014
 20
108.85498586286701
 11
139.83324449978718
 21
108.85756078352151
  0
LINE
  8
_0-7_7
  6
CONTINUOUS
 62
    7
 10
139.83324449978718
 20
108.85756078352151
 11
139.84466474972615
 21
108.86011186231801
  0
LINE
  8
_0-7_7
  6
CONTINUOUS
 62
    7
 10
139.84466474972615
 20
108.86011186231801
 11
139.85619228802565
 21
108.8625675736825
  0
LINE
  8
_0-7_7
  6
CONTINUOUS
 62
    7
 10
139.85619228802565
 20
108.8625675736825
 11
139.86781519375714
 21
108.86485639204201
  0
LINE
  8
_0-7_7
  6
CONTINUOUS
 62
    7
 10
139.86781519375714
 20
108.86485639204201
 11
139.8795334669197
 21
108.86700215925401
  0
LINE
  8
_0-7_7
  6
CONTINUOUS
 62
    7
 10
139.8795334669197
 20
108.86700215925401
 11
139.89134710751418
 21
108.86888566602852
  0
LINE
  8
_0-7_7
  6
CONTINUOUS
 62
    7
 10
139.89134710751418
 20
108.86888566602852
 11
139.90324419461169
 21
108.87053075422449
  0
LINE
  8
_0-7_7
  6
CONTINUOUS
 62
    7
 10
139.90324419461169
 20
108.87053075422449
 11
140.03715198956368
 21
108.88407292951749
  0
LINE
  8
_0-7_7
  6
CONTINUOUS
 62
    7
 10
140.03715198956368
 20
108.88407292951749
 11
140.16937893353364
 21
108.88130727400002
  0
LINE
  8
_0-7_7
  6
CONTINUOUS
 62
    7
 10
140.16937893353364
 20
108.88130727400002
 11
140.29810112439068
 21
108.86304441084053
  0
LINE
  8
_0-7_7
  6
CONTINUOUS
 62
    7
 10
140.29810112439068
 20
108.86304441084053
 11
140.42153042279168
 21
108.8302141724985
  0
LINE
  8
_0-7_7
  6
CONTINUOUS
 62
    7
 10
140.42153042279168
 20
108.8302141724985
 11
140.53783100567719
 21
108.78367486585802
  0
LINE
  8
_0-7_7
  6
CONTINUOUS
 62
    7
 10
140.53783100567719
 20
108.78367486585802
 11
140.64522665463366
 21
108.72426095594551
  0
LINE
  8
_0-7_7
  6
CONTINUOUS
 62
    7
 10
140.64522665463366
 20
108.72426095594551
 11
140.74188154660115
 21
108.65285459150502
  0
LINE
  8
_0-7_7
  6
CONTINUOUS
 62
    7
 10
140.74188154660115
 20
108.65285459150502
 11
140.82600754223714
 21
108.57038560499353
  0
LINE
  8
_0-7_7
  6
CONTINUOUS
 62
    7
 10
140.82600754223714
 20
108.57038560499353
 11
140.89580458126918
 21
108.47764077772302
  0
LINE
  8
_0-7_7
  6
CONTINUOUS
 62
    7
 10
140.89580458126918
 20
108.47764077772302
 11
140.94942491970917
 21
108.375526100294
  0
LINE
  8
_0-7_7
  6
CONTINUOUS
 62
    7
 10
140.94942491970917
 20
108.375526100294
 11
140.97139519177315
 21
108.31525388349698
  0
LINE
  8
_0-7_7
  6
CONTINUOUS
 62
    7
 10
140.97139519177315
 20
108.31525388349698
 11
140.98729771099963
 21
108.25460019697351
  0
LINE
  8
_0-7_7
  6
CONTINUOUS
 62
    7
 10
140.98729771099963
 20
108.25460019697351
 11
140.99713247738717
 21
108.19373193372903
  0
LINE
  8
_0-7_7
  6
CONTINUOUS
 62
    7
 10
140.99713247738717
 20
108.19373193372903
 11
141.00088757000813
 21
108.13286367048451
  0
LINE
  8
_0-7_7
  6
CONTINUOUS
 62
    7
 10
141.00088757000813
 20
108.13286367048451
 11
140.99855106793316
 21
108.07218614210299
  0
LINE
  8
_0-7_7
  6
CONTINUOUS
 62
    7
 10
140.99855106793316
 20
108.07218614210299
 11
140.99012297116164
 21
108.01191392530603
  0
LINE
  8
_0-7_7
  6
CONTINUOUS
 62
    7
 10
140.99012297116164
 20
108.01191392530603
 11
140.97561520062365
 21
107.95226159681499
  0
LINE
  8
_0-7_7
  6
CONTINUOUS
 62
    7
 10
140.97561520062365
 20
107.95226159681499
 11
140.95499199353119
 21
107.89337220777699
  0
LINE
  8
_0-7_7
  6
CONTINUOUS
 62
    7
 10
140.95499199353119
 20
107.89337220777699
 11
140.92825334988513
 21
107.83553186048653
  0
LINE
  8
_0-7_7
  6
CONTINUOUS
 62
    7
 10
140.92825334988513
 20
107.83553186048653
 11
140.89542311154267
 21
107.77885976423451
  0
LINE
  8
_0-7_7
  6
CONTINUOUS
 62
    7
 10
140.89542311154267
 20
107.77885976423451
 11
140.86081665478619
 21
107.72917333234949
  0
LINE
  8
_0-7_7
  6
CONTINUOUS
 62
    7
 10
140.86081665478619
 20
107.72917333234949
 11
140.82208555661114
 21
107.68222871412453
  0
LINE
  8
_0-7_7
  6
CONTINUOUS
 62
    7
 10
140.82208555661114
 20
107.68222871412453
 11
140.77945631466767
 21
107.6381928025645
  0
LINE
  8
_0-7_7
  6
CONTINUOUS
 62
    7
 10
140.77945631466767
 20
107.6381928025645
 11
140.73315542660615
 21
107.59713712324299
  0
LINE
  8
_0-7_7
  6
CONTINUOUS
 62
    7
 10
140.73315542660615
 20
107.59713712324299
 11
140.68342131100567
 21
107.55927625288203
  0
LINE
  8
_0-7_7
  6
CONTINUOUS
 62
    7
 10
140.68342131100567
 20
107.55927625288203
 11
140.63049238644518
 21
107.52470555891199
  0
LINE
  8
_0-7_7
  6
CONTINUOUS
 62
    7
 10
140.63049238644518
 20
107.52470555891199
 11
140.57458322964564
 21
107.4935680924815
  0
LINE
  8
_0-7_7
  6
CONTINUOUS
 62
    7
 10
140.57458322964564
 20
107.4935680924815
 11
140.51595610104468
 21
107.46600690473701
  0
LINE
  8
_0-7_7
  6
CONTINUOUS
 62
    7
 10
140.51595610104468
 20
107.46600690473701
 11
140.45482557736315
 21
107.44218888868502
  0
LINE
  8
_0-7_7
  6
CONTINUOUS
 62
    7
 10
140.45482557736315
 20
107.44218888868502
 11
140.39141815625121
 21
107.42220941175648
  0
LINE
  8
_0-7_7
  6
CONTINUOUS
 62
    7
 10
140.39141815625121
 20
107.42220941175648
 11
140.37938993893513
 21
107.41925302137551
  0
LINE
  8
_0-7_7
  6
CONTINUOUS
 62
    7
 10
140.37938993893513
 20
107.41925302137551
 11
140.36745708905116
 21
107.416415840284
  0
LINE
  8
_0-7_7
  6
CONTINUOUS
 62
    7
 10
140.36745708905116
 20
107.416415840284
 11
140.35564344845668
 21
107.41367402662453
  0
LINE
  8
_0-7_7
  6
CONTINUOUS
 62
    7
 10
140.35564344845668
 20
107.41367402662453
 11
140.34392517529366
 21
107.41109910597001
  0
LINE
  8
_0-7_7
  6
CONTINUOUS
 62
    7
 10
140.34392517529366
 20
107.41109910597001
 11
140.33231419049164
 21
107.40866723646351
  0
LINE
  8
_0-7_7
  6
CONTINUOUS
 62
    7
 10
140.33231419049164
 20
107.40866723646351
 11
140.32079857312115
 21
107.406354576246
  0
LINE
  8
_0-7_7
  6
CONTINUOUS
 62
    7
 10
140.32079857312115
 20
107.406354576246
 11
140.30937832318219
 21
107.404208809034
  0
LINE
  8
_0-7_7
  6
CONTINUOUS
 62
    7
 10
140.30937832318219
 20
107.404208809034
 11
140.29804151974568
 21
107.40222993482752
  0
LINE
  8
_0-7_7
  6
CONTINUOUS
 62
    7
 10
140.29804151974568
 20
107.40222993482752
 11
140.28677624188313
 21
107.40046563734202
  0
LINE
  8
_0-7_7
  6
CONTINUOUS
 62
    7
 10
140.28677624188313
 20
107.40046563734202
 11
140.27558248959471
 21
107.39886823286201
  0
LINE
  8
_0-7_7
  6
CONTINUOUS
 62
    7
 10
136.66726034603963
 20
105.16831937421952
 11
137.23282497845568
 21
105.49552503217851
  0
LINE
  8
_0-7_7
  6
CONTINUOUS
 62
    7
 10
137.23282497845568
 20
105.49552503217851
 11
137.85038870297316
 21
105.87351384748604
  0
LINE
  8
_0-7_7
  6
CONTINUOUS
 62
    7
 10
137.85038870297316
 20
105.87351384748604
 11
138.52063101254365
 21
106.30593362440248
  0
LINE
  8
_0-7_7
  6
CONTINUOUS
 62
    7
 10
138.52063101254365
 20
106.30593362440248
 11
139.24417179547217
 21
106.79631295789903
  0
LINE
  8
_0-7_7
  6
CONTINUOUS
 62
    7
 10
139.24417179547217
 20
106.79631295789903
 11
140.02166670285115
 21
107.34832349409251
  0
LINE
  8
_0-7_7
  6
CONTINUOUS
 62
    7
 10
140.02166670285115
 20
107.34832349409251
 11
140.85374754391566
 21
107.96551766981301
  0
LINE
  8
_0-7_7
  6
CONTINUOUS
 62
    7
 10
140.85374754391566
 20
107.96551766981301
 11
140.87643307171717
 21
108.11772409071153
  0
LINE
  8
_0-7_7
  6
CONTINUOUS
 62
    7
 10
140.87643307171717
 20
108.11772409071153
 11
140.85294884167567
 21
108.22835031141452
  0
LINE
  8
_0-7_7
  6
CONTINUOUS
 62
    7
 10
140.85294884167567
 20
108.22835031141452
 11
140.79359453640816
 21
108.30342832197351
  0
LINE
  8
_0-7_7
  6
CONTINUOUS
 62
    7
 10
140.79359453640816
 20
108.30342832197351
 11
140.70870560131917
 21
108.348942428724
  0
LINE
  8
_0-7_7
  6
CONTINUOUS
 62
    7
 10
140.70870560131917
 20
108.348942428724
 11
140.60858171902569
 21
108.37094846357502
  0
LINE
  8
_0-7_7
  6
CONTINUOUS
 62
    7
 10
140.60858171902569
 20
108.37094846357502
 11
140.50354641400216
 21
108.37545457472001
  0
LINE
  8
_0-7_7
  6
CONTINUOUS
 62
    7
 10
140.50354641400216
 20
108.37545457472001
 11
140.40389936886666
 21
108.3684689103525
  0
LINE
  8
_0-7_7
  6
CONTINUOUS
 62
    7
 10
140.40389936886666
 20
108.3684689103525
 11
140.31995218716517
 21
108.35604730238148
  0
LINE
  8
_0-7_7
  6
CONTINUOUS
 62
    7
 10
140.31995218716517
 20
108.35604730238148
 11
140.26202839337267
 21
108.344174057142
  0
LINE
  8
_0-7_7
  6
CONTINUOUS
 62
    7
 10
140.26202839337267
 20
108.344174057142
 11
140.24042767010567
 21
108.338881164686
  0
LINE
  8
_0-7_7
  6
CONTINUOUS
 62
    7
 10
138.96790426693818
 20
107.40675988783048
 11
138.38516157589814
 21
107.00225892652699
  0
LINE
  8
_0-7_7
  6
CONTINUOUS
 62
    7
 10
138.38516157589814
 20
107.00225892652699
 11
137.83766907177815
 21
106.636310249464
  0
LINE
  8
_0-7_7
  6
CONTINUOUS
 62
    7
 10
137.83766907177815
 20
106.636310249464
 11
137.32512873135468
 21
106.3070065080085
  0
LINE
  8
_0-7_7
  6
CONTINUOUS
 62
    7
 10
137.32512873135468
 20
106.3070065080085
 11
136.84721868954571
 21
106.01241651167101
  0
LINE
  8
_0-7_7
  6
CONTINUOUS
 62
    7
 10
136.84721868954571
 20
106.01241651167101
 11
136.40361708126918
 21
105.75072827924899
  0
LINE
  8
_0-7_7
  6
CONTINUOUS
 62
    7
 10
136.40361708126918
 20
105.75072827924899
 11
135.99401396237263
 21
105.5199867783945
  0
LINE
  8
_0-7_7
  6
CONTINUOUS
 62
    7
 10
135.99401396237263
 20
105.5199867783945
 11
135.61811130963216
 21
105.31833234419054
  0
LINE
  8
_f-a_250
  6
CONTINUOUS
 62
  250
 10
136.15306299649117
 20
104.88832059492299
 11
136.66726034603963
 21
105.16831937421952
  0
LINE
  8
_f-a_250
  6
CONTINUOUS
 62
  250
 10
136.66726034603963
 20
105.16831937421952
 11
137.23282497845568
 21
105.49552503217851
  0
LINE
  8
_f-a_250
  6
CONTINUOUS
 62
  250
 10
137.23282497845568
 20
105.49552503217851
 11
137.85038870297316
 21
105.87351384748604
  0
LINE
  8
_f-a_250
  6
CONTINUOUS
 62
  250
 10
137.85038870297316
 20
105.87351384748604
 11
138.52063101254365
 21
106.30593362440248
  0
LINE
  8
_f-a_250
  6
CONTINUOUS
 62
  250
 10
138.52063101254365
 20
106.30593362440248
 11
139.24417179547217
 21
106.79631295789903
  0
LINE
  8
_f-a_250
  6
CONTINUOUS
 62
  250
 10
139.24417179547217
 20
106.79631295789903
 11
140.02166670285115
 21
107.34832349409251
  0
LINE
  8
_f-a_250
  6
CONTINUOUS
 62
  250
 10
140.02166670285115
 20
107.34832349409251
 11
140.85374754391566
 21
107.96551766981301
  0
LINE
  8
_f-a_250
  6
CONTINUOUS
 62
  250
 10
140.85374754391566
 20
107.96551766981301
 11
140.87643307171717
 21
108.11772409071153
  0
LINE
  8
_f-a_250
  6
CONTINUOUS
 62
  250
 10
140.87643307171717
 20
108.11772409071153
 11
140.85294884167567
 21
108.22835031141452
  0
LINE
  8
_f-a_250
  6
CONTINUOUS
 62
  250
 10
140.85294884167567
 20
108.22835031141452
 11
140.79359453640816
 21
108.30342832197351
  0
LINE
  8
_f-a_250
  6
CONTINUOUS
 62
  250
 10
140.79359453640816
 20
108.30342832197351
 11
140.70870560131917
 21
108.348942428724
  0
LINE
  8
_f-a_250
  6
CONTINUOUS
 62
  250
 10
140.70870560131917
 20
108.348942428724
 11
140.60858171902569
 21
108.37094846357502
  0
LINE
  8
_f-a_250
  6
CONTINUOUS
 62
  250
 10
140.60858171902569
 20
108.37094846357502
 11
140.50354641400216
 21
108.37545457472001
  0
LINE
  8
_f-a_250
  6
CONTINUOUS
 62
  250
 10
140.50354641400216
 20
108.37545457472001
 11
140.40389936886666
 21
108.3684689103525
  0
LINE
  8
_f-a_250
  6
CONTINUOUS
 62
  250
 10
140.40389936886666
 20
108.3684689103525
 11
140.31995218716517
 21
108.35604730238148
  0
LINE
  8
_f-a_250
  6
CONTINUOUS
 62
  250
 10
140.31995218716517
 20
108.35604730238148
 11
140.26202839337267
 21
108.344174057142
  0
LINE
  8
_f-a_250
  6
CONTINUOUS
 62
  250
 10
140.26202839337267
 20
108.344174057142
 11
140.24042767010567
 21
108.338881164686
  0
LINE
  8
_f-a_250
  6
CONTINUOUS
 62
  250
 10
138.96790426693818
 20
107.40675988783048
 11
138.38516157589814
 21
107.00225892652699
  0
LINE
  8
_f-a_250
  6
CONTINUOUS
 62
  250
 10
138.38516157589814
 20
107.00225892652699
 11
137.83766907177815
 21
106.636310249464
  0
LINE
  8
_f-a_250
  6
CONTINUOUS
 62
  250
 10
137.83766907177815
 20
106.636310249464
 11
137.32512873135468
 21
106.3070065080085
  0
LINE
  8
_f-a_250
  6
CONTINUOUS
 62
  250
 10
137.32512873135468
 20
106.3070065080085
 11
136.84721868954571
 21
106.01241651167101
  0
LINE
  8
_f-a_250
  6
CONTINUOUS
 62
  250
 10
136.84721868954571
 20
106.01241651167101
 11
136.40361708126918
 21
105.75072827924899
  0
LINE
  8
_f-a_250
  6
CONTINUOUS
 62
  250
 10
136.40361708126918
 20
105.75072827924899
 11
135.99401396237263
 21
105.5199867783945
  0
LINE
  8
_f-a_250
  6
CONTINUOUS
 62
  250
 10
135.99401396237263
 20
105.5199867783945
 11
135.61811130963216
 21
105.31833234419054
  0
LINE
  8
_f-a_250
  6
CONTINUOUS
 62
  250
 10
171.41692322216866
 20
126.2138611375255
 11
171.56023663006667
 21
125.69143834699801
  0
LINE
  8
_f-a_250
  6
CONTINUOUS
 62
  250
 10
171.56023663006667
 20
125.69143834699801
 11
171.64126318417468
 21
125.17752709974451
  0
LINE
  8
_f-a_250
  6
CONTINUOUS
 62
  250
 10
171.64126318417468
 20
125.17752709974451
 11
171.66229170285115
 21
124.680114418165
  0
LINE
  8
_f-a_250
  6
CONTINUOUS
 62
  250
 10
171.66229170285115
 20
124.680114418165
 11
171.62558716259869
 21
124.207187324659
  0
LINE
  8
_f-a_250
  6
CONTINUOUS
 62
  250
 10
171.62558716259869
 20
124.207187324659
 11
171.53341453991814
 21
123.76678052534251
  0
LINE
  8
_f-a_250
  6
CONTINUOUS
 62
  250
 10
171.53341453991814
 20
123.76678052534251
 11
171.38803881131068
 21
123.36685720075752
  0
LINE
  8
_f-a_250
  6
CONTINUOUS
 62
  250
 10
171.38803881131068
 20
123.36685720075752
 11
171.19174879513665
 21
123.01545205701998
  0
LINE
  8
_f-a_250
  6
CONTINUOUS
 62
  250
 10
171.19174879513665
 20
123.01545205701998
 11
170.94677370510968
 21
122.72052827467149
  0
LINE
  8
_f-a_250
  6
CONTINUOUS
 62
  250
 10
170.94677370510968
 20
122.72052827467149
 11
170.65540235958966
 21
122.49009671796952
  0
LINE
  8
_f-a_250
  6
CONTINUOUS
 62
  250
 10
170.65540235958966
 20
122.49009671796952
 11
170.31991165600667
 21
122.3321920930305
  0
LINE
  8
_f-a_250
  6
CONTINUOUS
 62
  250
 10
170.31991165600667
 20
122.3321920930305
 11
169.95709818325915
 21
122.25663724531347
  0
LINE
  8
_f-a_250
  6
CONTINUOUS
 62
  250
 10
169.95709818325915
 20
122.25663724531347
 11
169.58592813931367
 21
122.26564946760351
  0
LINE
  8
_f-a_250
  6
CONTINUOUS
 62
  250
 10
169.58592813931367
 20
122.26564946760351
 11
169.21305340252766
 21
122.35417428602403
  0
LINE
  8
_f-a_250
  6
CONTINUOUS
 62
  250
 10
169.21305340252766
 20
122.35417428602403
 11
168.84506624661364
 21
122.51713338483998
  0
LINE
  8
_f-a_250
  6
CONTINUOUS
 62
  250
 10
168.84506624661364
 20
122.51713338483998
 11
168.48860662899867
 21
122.74949613203202
  0
LINE
  8
_f-a_250
  6
CONTINUOUS
 62
  250
 10
166.96760338269118
 20
125.29845300306499
 11
166.88655298672566
 21
125.81286492933452
  0
LINE
  8
_f-a_250
  6
CONTINUOUS
 62
  250
 10
166.88655298672566
 20
125.81286492933452
 11
166.86550062619116
 21
126.31073060621449
  0
LINE
  8
_f-a_250
  6
CONTINUOUS
 62
  250
 10
166.86550062619116
 20
126.31073060621449
 11
166.90215748272814
 21
126.7841106950205
  0
LINE
  8
_f-a_250
  6
CONTINUOUS
 62
  250
 10
166.90215748272814
 20
126.7841106950205
 11
166.99427050076369
 21
127.2248989640635
  0
LINE
  8
_f-a_250
  6
CONTINUOUS
 62
  250
 10
166.99427050076369
 20
127.2248989640635
 11
167.13958662472615
 21
127.62517991651703
  0
LINE
  8
_f-a_250
  6
CONTINUOUS
 62
  250
 10
167.13958662472615
 20
127.62517991651703
 11
167.33579319439767
 21
127.97687116254949
  0
LINE
  8
_f-a_250
  6
CONTINUOUS
 62
  250
 10
167.33579319439767
 20
127.97687116254949
 11
167.58066099606415
 21
128.27200952161951
  0
LINE
  8
_f-a_250
  6
CONTINUOUS
 62
  250
 10
167.58066099606415
 20
128.27200952161951
 11
167.87190121136567
 21
128.50256028761103
  0
LINE
  8
_f-a_250
  6
CONTINUOUS
 62
  250
 10
167.87190121136567
 20
128.50256028761103
 11
168.20724886380114
 21
128.6605364381235
  0
LINE
  8
_f-a_250
  6
CONTINUOUS
 62
  250
 10
168.20724886380114
 20
128.6605364381235
 11
168.57026499234118
 21
128.7356144486825
  0
LINE
  8
_f-a_250
  6
CONTINUOUS
 62
  250
 10
168.57026499234118
 20
128.7356144486825
 11
168.94156616650466
 21
128.72622075666604
  0
LINE
  8
_f-a_250
  6
CONTINUOUS
 62
  250
 10
168.94156616650466
 20
128.72622075666604
 11
169.31457203350917
 21
128.63740983595051
  0
LINE
  8
_f-a_250
  6
CONTINUOUS
 62
  250
 10
169.31457203350917
 20
128.63740983595051
 11
169.68264263592616
 21
128.47418847669749
  0
LINE
  8
_f-a_250
  6
CONTINUOUS
 62
  250
 10
169.68264263592616
 20
128.47418847669749
 11
170.03914993725667
 21
128.2415634690685
  0
LINE
  8
_f-a_250
  6
CONTINUOUS
 62
  250
 10
170.03914993725667
 20
128.2415634690685
 11
170.37750166378865
 21
127.9446131287975
  0
LINE
  8
_f-a_250
  6
CONTINUOUS
 62
  250
 10
170.37750166378865
 20
127.9446131287975
 11
170.69106977902314
 21
127.58832040418801
  0
LINE
  8
_f-a_250
  6
CONTINUOUS
 62
  250
 10
170.69106977902314
 20
127.58832040418801
 11
170.97325008831868
 21
127.17776361097503
  0
LINE
  8
_f-a_250
  6
CONTINUOUS
 62
  250
 10
170.97325008831868
 20
127.17776361097503
 11
171.21740263424763
 21
126.71792569746202
  0
LINE
  8
_f-a_250
  6
CONTINUOUS
 62
  250
 10
171.21740263424763
 20
126.71792569746202
 11
171.41692322216866
 21
126.2138611375255
  0
LINE
  8
_f-a_250
  6
CONTINUOUS
 62
  250
 10
134.31139868222115
 20
106.14438119520349
 11
134.82477348767165
 21
106.28943505872903
  0
LINE
  8
_f-a_250
  6
CONTINUOUS
 62
  250
 10
134.82477348767165
 20
106.28943505872903
 11
135.36888044796862
 21
106.449747711317
  0
LINE
  8
_f-a_250
  6
CONTINUOUS
 62
  250
 10
135.36888044796862
 20
106.449747711317
 11
135.94423216305617
 21
106.62605825056252
  0
LINE
  8
_f-a_250
  6
CONTINUOUS
 62
  250
 10
135.94423216305617
 20
106.62605825056252
 11
136.55134123288067
 21
106.81908193220301
  0
LINE
  8
_f-a_250
  6
CONTINUOUS
 62
  250
 10
136.55134123288067
 20
106.81908193220301
 11
137.19069641552815
 21
107.02953401197598
  0
LINE
  8
_f-a_250
  6
CONTINUOUS
 62
  250
 10
137.19069641552815
 20
107.02953401197598
 11
137.86283415280266
 21
107.25820127119252
  0
LINE
  8
_f-a_250
  6
CONTINUOUS
 62
  250
 10
137.86283415280266
 20
107.25820127119252
 11
138.56825512371918
 21
107.5057751237315
  0
LINE
  8
_f-a_250
  6
CONTINUOUS
 62
  250
 10
138.56825512371918
 20
107.5057751237315
 11
139.30744808636567
 21
107.77297082533048
  0
LINE
  8
_f-a_250
  6
CONTINUOUS
 62
  250
 10
139.30744808636567
 20
107.77297082533048
 11
140.08092564068713
 21
108.06052747358501
  0
LINE
  8
_f-a_250
  6
CONTINUOUS
 62
  250
 10
140.08092564068713
 20
108.06052747358501
 11
140.17471950970568
 21
108.20803704847501
  0
LINE
  8
_f-a_250
  6
CONTINUOUS
 62
  250
 10
140.17471950970568
 20
108.20803704847501
 11
140.19497316800019
 21
108.32228723158048
  0
LINE
  8
_f-a_250
  6
CONTINUOUS
 62
  250
 10
140.19497316800019
 20
108.32228723158048
 11
140.15670698605416
 21
108.40749803175152
  0
LINE
  8
_f-a_250
  6
CONTINUOUS
 62
  250
 10
140.15670698605416
 20
108.40749803175152
 11
140.07488172970668
 21
108.46781793226398
  0
LINE
  8
_f-a_250
  6
CONTINUOUS
 62
  250
 10
140.07488172970668
 20
108.46781793226398
 11
139.96452969036969
 21
108.50739541639498
  0
LINE
  8
_f-a_250
  6
CONTINUOUS
 62
  250
 10
139.96452969036969
 20
108.50739541639498
 11
139.84061163388165
 21
108.53042665113603
  0
LINE
  8
_f-a_250
  6
CONTINUOUS
 62
  250
 10
139.84061163388165
 20
108.53042665113603
 11
139.71812408886817
 21
108.54110780348
  0
LINE
  8
_f-a_250
  6
CONTINUOUS
 62
  250
 10
139.71812408886817
 20
108.54110780348
 11
139.61207550488368
 21
108.54356351484452
  0
LINE
  8
_f-a_250
  6
CONTINUOUS
 62
  250
 10
139.61207550488368
 20
108.54356351484452
 11
139.53746241055367
 21
108.54198995222248
  0
LINE
  8
_f-a_250
  6
CONTINUOUS
 62
  250
 10
139.53746241055367
 20
108.54198995222248
 11
139.50925749264619
 21
108.54051175703202
  0
LINE
  8
_f-a_250
  6
CONTINUOUS
 62
  250
 10
139.50925749264619
 20
108.54051175703202
 11
138.69338911496064
 21
108.2368618546885
  0
LINE
  8
_f-a_250
  6
CONTINUOUS
 62
  250
 10
138.69338911496064
 20
108.2368618546885
 11
137.91836183987519
 21
107.95719686140248
  0
LINE
  8
_f-a_250
  6
CONTINUOUS
 62
  250
 10
137.91836183987519
 20
107.95719686140248
 11
137.18354385815516
 21
107.70056310285753
  0
LINE
  8
_f-a_250
  6
CONTINUOUS
 62
  250
 10
137.18354385815516
 20
107.70056310285753
 11
136.48830336056616
 21
107.46595922102151
  0
LINE
  8
_f-a_250
  6
CONTINUOUS
 62
  250
 10
136.48830336056616
 20
107.46595922102151
 11
135.83198469601516
 21
107.25240769972001
  0
LINE
  8
_f-a_250
  6
CONTINUOUS
 62
  250
 10
135.83198469601516
 20
107.25240769972001
 11
135.21396797619715
 21
107.0588833390635
  0
LINE
  8
_f-a_250
  6
CONTINUOUS
 62
  250
 10
135.21396797619715
 20
107.0588833390635
 11
134.63359755001918
 21
106.884432464735
  0
LINE
  8
_f-a_250
  6
CONTINUOUS
 62
  250
 10
134.82477348767165
 20
106.28943505872903
 11
135.36888044796862
 21
106.449747711317
  0
LINE
  8
_f-a_250
  6
CONTINUOUS
 62
  250
 10
135.36888044796862
 20
106.449747711317
 11
135.94423216305617
 21
106.62605825056252
  0
LINE
  8
_f-a_250
  6
CONTINUOUS
 62
  250
 10
135.94423216305617
 20
106.62605825056252
 11
136.55134123288067
 21
106.81908193220301
  0
LINE
  8
_f-a_250
  6
CONTINUOUS
 62
  250
 10
136.55134123288067
 20
106.81908193220301
 11
137.19069641552815
 21
107.02953401197598
  0
LINE
  8
_f-a_250
  6
CONTINUOUS
 62
  250
 10
137.19069641552815
 20
107.02953401197598
 11
137.86283415280266
 21
107.25820127119252
  0
LINE
  8
_f-a_250
  6
CONTINUOUS
 62
  250
 10
137.86283415280266
 20
107.25820127119252
 11
138.56825512371918
 21
107.5057751237315
  0
LINE
  8
_f-a_250
  6
CONTINUOUS
 62
  250
 10
138.56825512371918
 20
107.5057751237315
 11
139.30744808636567
 21
107.77297082533048
  0
LINE
  8
_f-a_250
  6
CONTINUOUS
 62
  250
 10
139.30744808636567
 20
107.77297082533048
 11
140.08092564068713
 21
108.06052747358501
  0
LINE
  8
_f-a_250
  6
CONTINUOUS
 62
  250
 10
140.08092564068713
 20
108.06052747358501
 11
140.17471950970568
 21
108.20803704847501
  0
LINE
  8
_f-a_250
  6
CONTINUOUS
 62
  250
 10
140.17471950970568
 20
108.20803704847501
 11
140.19497316800019
 21
108.32228723158048
  0
LINE
  8
_f-a_250
  6
CONTINUOUS
 62
  250
 10
140.19497316800019
 20
108.32228723158048
 11
140.15670698605416
 21
108.40749803175152
  0
LINE
  8
_f-a_250
  6
CONTINUOUS
 62
  250
 10
140.15670698605416
 20
108.40749803175152
 11
140.07488172970668
 21
108.46781793226398
  0
LINE
  8
_f-a_250
  6
CONTINUOUS
 62
  250
 10
140.07488172970668
 20
108.46781793226398
 11
139.96452969036969
 21
108.50739541639498
  0
LINE
  8
_f-a_250
  6
CONTINUOUS
 62
  250
 10
139.96452969036969
 20
108.50739541639498
 11
139.84061163388165
 21
108.53042665113603
  0
LINE
  8
_f-a_250
  6
CONTINUOUS
 62
  250
 10
139.84061163388165
 20
108.53042665113603
 11
139.71812408886817
 21
108.54110780348
  0
LINE
  8
_f-a_250
  6
CONTINUOUS
 62
  250
 10
139.71812408886817
 20
108.54110780348
 11
139.61207550488368
 21
108.54356351484452
  0
LINE
  8
_f-a_250
  6
CONTINUOUS
 62
  250
 10
139.61207550488368
 20
108.54356351484452
 11
139.53746241055367
 21
108.54198995222248
  0
LINE
  8
_f-a_250
  6
CONTINUOUS
 62
  250
 10
139.53746241055367
 20
108.54198995222248
 11
139.50925749264619
 21
108.54051175703202
  0
LINE
  8
_f-a_250
  6
CONTINUOUS
 62
  250
 10
139.50925749264619
 20
108.54051175703202
 11
138.69338911496064
 21
108.2368618546885
  0
LINE
  8
_f-a_250
  6
CONTINUOUS
 62
  250
 10
138.69338911496064
 20
108.2368618546885
 11
137.91836183987519
 21
107.95719686140248
  0
LINE
  8
_f-a_250
  6
CONTINUOUS
 62
  250
 10
137.91836183987519
 20
107.95719686140248
 11
137.18354385815516
 21
107.70056310285753
  0
LINE
  8
_f-a_250
  6
CONTINUOUS
 62
  250
 10
137.18354385815516
 20
107.70056310285753
 11
136.48830336056616
 21
107.46595922102151
  0
LINE
  8
_f-a_250
  6
CONTINUOUS
 62
  250
 10
136.48830336056616
 20
107.46595922102151
 11
135.83198469601516
 21
107.25240769972001
  0
LINE
  8
_f-a_250
  6
CONTINUOUS
 62
  250
 10
135.83198469601516
 20
107.25240769972001
 11
135.21396797619715
 21
107.0588833390635
  0
LINE
  8
_f-a_250
  6
CONTINUOUS
 62
  250
 10
169.70458906613268
 20
124.21221795667802
 11
155.59487973313836
 21
115.90920693157076
  0
LINE
  8
_f-a_250
  6
CONTINUOUS
 62
  250
 10
154.50415195713063
 20
115.26735637775354
 11
140.94874542675868
 21
107.29053083051852
  0
LINE
  8
_f-a_250
  6
CONTINUOUS
 62
  250
 10
168.48860662899867
 20
122.74949613203202
 11
167.99178434362983
 21
123.18518721865161
  0
LINE
  8
_0-7_7
  6
CONTINUOUS
 62
    7
 10
139.6796891349762
 20
107.91890246659153
 11
138.96790426693818
 21
107.40675988783048
  0
LINE
  8
_0-7_7
  6
CONTINUOUS
 62
    7
 10
139.26066531920102
 20
108.45851891315306
 11
139.33797758541968
 21
108.56740537275502
  0
LINE
  8
_0-7_7
  6
CONTINUOUS
 62
    7
 10
139.36005484115631
 20
107.68913986235773
 11
139.2985545788533
 21
107.7706520317513
  0
LINE
  8
_f-a_250
  6
CONTINUOUS
 62
  250
 10
140.06247204266467
 20
107.0864206849495
 11
139.74030653371059
 21
107.11553450391037
  0
LINE
  8
_0-0_0
  6
CONTINUOUS
 62
    7
 10
138.77434505583969
 20
108.38972526473563
 11
138.75582047459764
 21
108.31871436997432
  0
LINE
  8
_0-0_0
  6
CONTINUOUS
 62
    7
 10
138.75582047459764
 20
108.31871436997432
 11
138.74964561418361
 21
108.26314062624806
  0
LINE
  8
_f-a_250
  6
CONTINUOUS
 62
  250
 10
138.96786850415114
 20
107.54859510053799
 11
138.90851074784948
 21
107.6294669155231
  0
LINE
  8
_0-7_7
  6
CONTINUOUS
 62
    7
 10
139.05163963539738
 20
107.46859836091568
 11
138.96786850415114
 21
107.54859510053799
  0
LINE
  8
_f-a_250
  6
CONTINUOUS
 62
  250
 10
149.63006644833899
 20
115.31110013051287
 11
149.63006644833899
 21
115.80946648640887
  0
LINE
  8
_f-a_250
  6
CONTINUOUS
 62
  250
 10
147.48988260186485
 20
117.0487720943037
 11
149.61805452264136
 21
115.82043957477268
  0
LINE
  8
_f-a_250
  6
CONTINUOUS
 62
  250
 10
147.49700222153177
 20
116.53018525235498
 11
149.62517414230825
 21
115.30185273282396
  0
LINE
  8
_f-a_250
  6
CONTINUOUS
 62
  250
 10
147.48007006697148
 20
116.54366161898861
 11
147.48007006697148
 21
117.0420279748846
  0
LINE
  8
_f-a_250
  6
CONTINUOUS
 62
  250
 10
147.48090293287459
 20
117.0444098372262
 11
152.28433909721531
 21
119.81780925913614
  0
LINE
  8
_f-a_250
  6
CONTINUOUS
 62
  250
 10
153.5814386430377
 20
120.56672628591987
 11
154.19690381800871
 21
120.92208247304734
  0
LINE
  8
_f-a_250
  6
CONTINUOUS
 62
  250
 10
150.77371889959406
 20
122.34516900463146
 11
153.64568135981798
 21
120.6861072095335
  0
LINE
  8
_f-a_250
  6
CONTINUOUS
 62
  250
 10
154.19690381800871
 20
120.92208247304734
 11
156.88954895417297
 21
119.36740418108491
  0
LINE
  8
_f-a_250
  6
CONTINUOUS
 62
  250
 10
159.22170955048313
 20
118.0648367802289
 11
173.75622088323658
 21
109.67290687092672
  0
LINE
  8
_f-a_250
  6
CONTINUOUS
 62
  250
 10
152.58393221061178
 20
114.12940892602646
 11
162.7678900421721
 21
108.24957179554822
  0
LINE
  8
_f-a_250
  6
CONTINUOUS
 62
  250
 10
152.13827808049393
 20
113.85670930852143
 11
162.7678900421721
 21
107.71959113606323
  0
LINE
  8
_f-a_250
  6
CONTINUOUS
 62
  250
 10
149.63006644833899
 20
115.84444249196338
 11
153.83331231036286
 21
118.27151086075447
  0
LINE
  8
_f-a_250
  6
CONTINUOUS
 62
  250
 10
155.20203482766306
 20
118.59730958841632
 11
155.29107719052649
 21
118.58027184529585
  0
LINE
  8
_f-a_250
  6
CONTINUOUS
 62
  250
 10
149.66789155591346
 20
115.31110013051287
 11
154.05224339475961
 21
117.84068774299647
  0
LINE
  8
_f-a_250
  6
CONTINUOUS
 62
  250
 10
139.29508608303914
 20
108.99052682508653
 11
154.08764082726037
 21
117.69687859955852
  0
LINE
  8
_f-a_250
  6
CONTINUOUS
 62
  250
 10
155.25846931919077
 20
118.38598503820819
 11
168.0204121442882
 21
125.89719358076252
  0
LINE
  8
_0-7_7
  6
CONTINUOUS
 62
    7
 10
157.03730267010567
 20
113.6559492646615
 11
157.44424053851492
 21
113.38860919538644
  0
ARC
  8
_0-0_0
  6
CONTINUOUS
 62
    7
 10
131.97096898792302
 20
105.77304698606831
 40
0.0917014043137713
 50
256.93009599760796
 51
291.62715586932524
  0
LINE
  8
_0-0_0
  6
CONTINUOUS
 62
    7
 10
133.63779310351077
 20
106.12380756218676
 11
131.99313457985502
 21
105.68321614137105
  0
LINE
  8
_0-0_0
  6
CONTINUOUS
 62
    7
 10
132.03716568237519
 20
105.74297614706381
 11
132.00456315048638
 21
105.68876225937485
  0
LINE
  8
_0-0_0
  6
CONTINUOUS
 62
    7
 10
131.8935734084281
 20
105.71509966564764
 11
131.95023166245738
 21
105.68372111699529
  0
LINE
  8
_0-0_0
  6
CONTINUOUS
 62
    7
 10
131.84736582505948
 20
105.94496482845668
 11
131.83269650043906
 21
105.91138596853227
  0
ARC
  8
_0-0_0
  6
CONTINUOUS
 62
    7
 10
131.92872360670191
 20
105.90259419486765
 40
0.0917014043137713
 50
100.59536751021274
 51
152.29592457274813
  0
LINE
  8
_0-0_0
  6
CONTINUOUS
 62
    7
 10
131.85240436680277
 20
105.75370617888376
 11
131.8935734084281
 21
105.71509966564764
  0
LINE
  8
_0-0_0
  6
CONTINUOUS
 62
    7
 10
131.82924045886119
 20
105.79440317580547
 11
131.85240436680277
 21
105.75370617888376
  0
LINE
  8
_0-0_0
  6
CONTINUOUS
 62
    7
 10
131.82057506680729
 20
105.83543734751615
 11
131.82924045886119
 21
105.79440317580547
  0
LINE
  8
_0-0_0
  6
CONTINUOUS
 62
    7
 10
131.82291843158447
 20
105.87500480889773
 11
131.82057506680729
 21
105.83543734751615
  0
LINE
  8
_0-0_0
  6
CONTINUOUS
 62
    7
 10
131.83269650043906
 20
105.91138596853227
 11
131.82291843158447
 21
105.87500480889773
  0
LINE
  8
_0-0_0
  6
CONTINUOUS
 62
    7
 10
132.05351586165412
 20
105.7969948890905
 11
132.03716568237519
 21
105.74297614706381
  0
LINE
  8
_0-0_0
  6
CONTINUOUS
 62
    7
 10
132.05322789592159
 20
105.84382147625324
 11
132.05351586165412
 21
105.7969948890905
  0
LINE
  8
_0-0_0
  6
CONTINUOUS
 62
    7
 10
132.04021525971871
 20
105.88369080740489
 11
132.05322789592159
 21
105.84382147625324
  0
LINE
  8
_0-0_0
  6
CONTINUOUS
 62
    7
 10
132.01840211560054
 20
105.91678555173601
 11
132.04021525971871
 21
105.88369080740489
  0
LINE
  8
_0-0_0
  6
CONTINUOUS
 62
    7
 10
131.99174347975526
 20
105.94340352577137
 11
132.01840211560054
 21
105.91678555173601
  0
LINE
  8
_0-0_0
  6
CONTINUOUS
 62
    7
 10
131.96418654420361
 20
105.96372122797604
 11
131.99174347975526
 21
105.94340352577137
  0
LINE
  8
_0-0_0
  6
CONTINUOUS
 62
    7
 10
131.93961558329428
 20
105.97795669846258
 11
131.96418654420361
 21
105.96372122797604
  0
LINE
  8
_0-0_0
  6
CONTINUOUS
 62
    7
 10
131.921996301229
 20
105.98635552409418
 11
131.93961558329428
 21
105.97795669846258
  0
LINE
  8
_0-0_0
  6
CONTINUOUS
 62
    7
 10
131.91524668983439
 20
105.98907734459731
 11
131.921996301229
 21
105.98635552409418
  0
LINE
  8
_0-0_0
  6
CONTINUOUS
 62
    7
 10
133.67469941962906
 20
106.18517809880265
 11
133.63779310351077
 21
106.12380756218676
  0
LINE
  8
_0-0_0
  6
CONTINUOUS
 62
    7
 10
133.69104959890802
 20
106.23919684082935
 11
133.67469941962906
 21
106.18517809880265
  0
LINE
  8
_0-0_0
  6
CONTINUOUS
 62
    7
 10
133.6907616331755
 20
106.28602342799209
 11
133.69104959890802
 21
106.23919684082935
  0
LINE
  8
_0-0_0
  6
CONTINUOUS
 62
    7
 10
133.67774899697258
 20
106.32589275914373
 11
133.6907616331755
 21
106.28602342799209
  0
LINE
  8
_0-0_0
  6
CONTINUOUS
 62
    7
 10
133.65593585285444
 20
106.35898750347485
 11
133.67774899697258
 21
106.32589275914373
  0
LINE
  8
_0-0_0
  6
CONTINUOUS
 62
    7
 10
133.62927721700913
 20
106.38560547751021
 11
133.65593585285444
 21
106.35898750347485
  0
LINE
  8
_0-0_0
  6
CONTINUOUS
 62
    7
 10
133.60172028145752
 20
106.40592317971489
 11
133.62927721700913
 21
106.38560547751021
  0
LINE
  8
_0-0_0
  6
CONTINUOUS
 62
    7
 10
133.57714932054819
 20
106.42015865020142
 11
133.60172028145752
 21
106.40592317971489
  0
LINE
  8
_0-0_0
  6
CONTINUOUS
 62
    7
 10
133.55953003848288
 20
106.42855747583303
 11
133.57714932054819
 21
106.42015865020142
  0
LINE
  8
_0-0_0
  6
CONTINUOUS
 62
    7
 10
133.55278042708829
 20
106.43127929633616
 11
133.55953003848288
 21
106.42855747583303
  0
LINE
  8
_0-0_0
  6
CONTINUOUS
 62
    7
 10
131.91165109831124
 20
105.99277149577776
 11
133.55278042708829
 21
106.43127929633616
  0
ARC
  8
_0-0_0
  6
CONTINUOUS
 62
    7
 10
133.84883404263758
 20
106.36432297440209
 40
0.4493454059614469
 50
161.27632235456116
 51
176.68386353458868
  0
LINE
  8
_f-a_250
  6
CONTINUOUS
 62
  250
 10
134.63359755001918
 20
106.884432464735
 11
133.6078304368063
 21
106.58916349162496
  0
ARC
  8
_0-0_0
  6
CONTINUOUS
 62
    7
 10
133.59355203076228
 20
106.36269120446403
 40
0.2250833190465014
 50
76.730666004127485
 51
139.44059857595838
  0
ARC
  8
_0-0_0
  6
CONTINUOUS
 62
    7
 10
133.45873631923922
 20
106.17477706953207
 40
0.4493454059614469
 50
342.17829436301707
 51
65.582611452337972
  0
ARC
  8
_0-0_0
  6
CONTINUOUS
 62
    7
 10
133.69008212427798
 20
106.27728533026945
 40
0.3114188037528993
 50
259.22250502126144
 51
308.62876322643376
  0
ARC
  8
_0-0_0
  6
CONTINUOUS
 62
    7
 10
133.84883404263758
 20
106.36432297440209
 40
0.4493454059614469
 50
219.27593422304577
 51
241.18551851920193
  0
LINE
  8
_f-a_250
  6
CONTINUOUS
 62
  250
 10
133.87599572252668
 20
106.02674827122982
 11
134.31139868222115
 21
106.14438119520349
  0
ARC
  8
_0-0_0
  6
CONTINUOUS
 62
    7
 10
134.00792168818055
 20
103.98392869440872
 40
0.0917014043137713
 50
271.93009599760796
 51
306.62715586932524
  0
LINE
  8
_0-0_0
  6
CONTINUOUS
 62
    7
 10
135.52716663193758
 20
104.75414321967583
 11
134.05258193932795
 21
103.90289563885625
  0
LINE
  8
_0-0_0
  6
CONTINUOUS
 62
    7
 10
134.07964569080343
 20
103.97201545964313
 11
134.06218564989257
 21
103.91121070920946
  0
LINE
  8
_0-0_0
  6
CONTINUOUS
 62
    7
 10
133.94816116924335
 20
103.90792443107011
 11
134.01101020608155
 21
103.89227931574038
  0
LINE
  8
_0-0_0
  6
CONTINUOUS
 62
    7
 10
133.84403458915659
 20
104.11799772578755
 11
133.83855595811275
 21
104.08176633717865
  0
ARC
  8
_0-0_0
  6
CONTINUOUS
 62
    7
 10
133.93358649854048
 20
104.09812777988401
 40
0.0917014043137713
 50
115.59536751021274
 51
167.29592457274811
  0
LINE
  8
_0-0_0
  6
CONTINUOUS
 62
    7
 10
133.89840282780335
 20
103.9345601272266
 11
133.94816116924335
 21
103.90792443107011
  0
LINE
  8
_0-0_0
  6
CONTINUOUS
 62
    7
 10
133.86549505300297
 20
103.9678751470714
 11
133.89840282780335
 21
103.9345601272266
  0
LINE
  8
_0-0_0
  6
CONTINUOUS
 62
    7
 10
133.84650450188445
 20
104.0052683447903
 11
133.86549505300297
 21
103.9678751470714
  0
LINE
  8
_0-0_0
  6
CONTINUOUS
 62
    7
 10
133.83852720587123
 20
104.04409408505342
 11
133.84650450188445
 21
104.0052683447903
  0
LINE
  8
_0-0_0
  6
CONTINUOUS
 62
    7
 10
133.83855595811275
 20
104.08176633717865
 11
133.83852720587123
 21
104.04409408505342
  0
LINE
  8
_0-0_0
  6
CONTINUOUS
 62
    7
 10
134.08145767200443
 20
104.02842529545859
 11
134.07964569080343
 21
103.97201545964313
  0
LINE
  8
_0-0_0
  6
CONTINUOUS
 62
    7
 10
134.06905990589144
 20
104.07358177434014
 11
134.08145767200443
 21
104.02842529545859
  0
LINE
  8
_0-0_0
  6
CONTINUOUS
 62
    7
 10
134.0461717222974
 20
104.10872467290008
 11
134.06905990589144
 21
104.07358177434014
  0
LINE
  8
_0-0_0
  6
CONTINUOUS
 62
    7
 10
134.01653629291542
 20
104.13504608403261
 11
134.0461717222974
 21
104.10872467290008
  0
LINE
  8
_0-0_0
  6
CONTINUOUS
 62
    7
 10
133.98389678943641
 20
104.15385730992364
 11
134.01653629291542
 21
104.13504608403261
  0
LINE
  8
_0-0_0
  6
CONTINUOUS
 62
    7
 10
133.95202022541042
 20
104.16635044346856
 11
133.98389678943641
 21
104.15385730992364
  0
LINE
  8
_0-0_0
  6
CONTINUOUS
 62
    7
 10
133.92460208881346
 20
104.17374141942108
 11
133.95202022541042
 21
104.16635044346856
  0
LINE
  8
_0-0_0
  6
CONTINUOUS
 62
    7
 10
133.90540939319595
 20
104.17729385624961
 11
133.92460208881346
 21
104.17374141942108
  0
LINE
  8
_0-0_0
  6
CONTINUOUS
 62
    7
 10
133.89818531024895
 20
104.17817600499214
 11
133.90540939319595
 21
104.17729385624961
  0
LINE
  8
_0-0_0
  6
CONTINUOUS
 62
    7
 10
135.54693153214509
 20
104.82297466346233
 11
135.52716663193758
 21
104.75414321967583
  0
LINE
  8
_0-0_0
  6
CONTINUOUS
 62
    7
 10
135.5487435133461
 20
104.87938449927779
 11
135.54693153214509
 21
104.82297466346233
  0
LINE
  8
_0-0_0
  6
CONTINUOUS
 62
    7
 10
135.5363457472331
 20
104.92454097815934
 11
135.5487435133461
 21
104.87938449927779
  0
LINE
  8
_0-0_0
  6
CONTINUOUS
 62
    7
 10
135.51345756363907
 20
104.95968387671928
 11
135.5363457472331
 21
104.92454097815934
  0
LINE
  8
_0-0_0
  6
CONTINUOUS
 62
    7
 10
135.48382213425708
 20
104.98600528785181
 11
135.51345756363907
 21
104.95968387671928
  0
LINE
  8
_0-0_0
  6
CONTINUOUS
 62
    7
 10
135.45118263077808
 20
105.00481651374284
 11
135.48382213425708
 21
104.98600528785181
  0
LINE
  8
_0-0_0
  6
CONTINUOUS
 62
    7
 10
135.41930606675209
 20
105.01730964728776
 11
135.45118263077808
 21
105.00481651374284
  0
LINE
  8
_0-0_0
  6
CONTINUOUS
 62
    7
 10
135.39188793015512
 20
105.02470062324028
 11
135.41930606675209
 21
105.01730964728776
  0
LINE
  8
_0-0_0
  6
CONTINUOUS
 62
    7
 10
135.37269523453762
 20
105.02825306006881
 11
135.39188793015512
 21
105.02470062324028
  0
LINE
  8
_0-0_0
  6
CONTINUOUS
 62
    7
 10
135.36547115159061
 20
105.02913520881134
 11
135.37269523453762
 21
105.02825306006881
  0
LINE
  8
_0-0_0
  6
CONTINUOUS
 62
    7
 10
133.89375611885492
 20
104.18081367345894
 11
135.36547115159061
 21
105.02913520881134
  0
LINE
  8
_0-7_7
  6
CONTINUOUS
 62
    7
 10
135.61811130963216
 20
105.31833234419054
 11
135.39827421407358
 21
105.2063671454151
  0
LINE
  8
_0-0_0
  6
CONTINUOUS
 62
    7
 10
135.23775466338606
 20
105.1082531077378
 11
135.21822209613504
 21
105.06386090944007
  0
ARC
  8
_0-0_0
  6
CONTINUOUS
 62
    7
 10
135.45870534967207
 20
104.91484089205096
 40
0.2954157582656722
 50
102.00452396765617
 51
137.5457776919398
  0
ARC
  8
_0-0_0
  6
CONTINUOUS
 62
    7
 10
135.66876655612248
 20
105.04108468229751
 40
0.4493454059614469
 50
176.65571942285104
 51
191.68386353458877
  0
LINE
  8
_0-7_7
  6
CONTINUOUS
 62
    7
 10
135.79317056891549
 20
104.69234634400991
 11
136.66726034603963
 21
105.16831937421952
  0
ARC
  8
_0-0_0
  6
CONTINUOUS
 62
    7
 10
135.34101918041699
 20
104.75703267724961
 40
0.4493454059614469
 50
352.1874435577987
 51
83.412858033987945
  0
ARC
  8
_0-0_0
  6
CONTINUOUS
 62
    7
 10
135.54494867560635
 20
104.9377870662745
 40
0.3430893773059967
 50
277.51970418045596
 51
314.60828347706871
  0
ARC
  8
_0-0_0
  6
CONTINUOUS
 62
    7
 10
135.66876655612248
 20
105.04108468229751
 40
0.4493454059614469
 50
234.27593422304577
 51
259.86038766646817
  0
ARC
  8
_0-0_0
  6
CONTINUOUS
 62
    7
 10
102.33046313131412
 20
102.01100220435158
 40
0.6066162980479533
 50
234.27593422304577
 51
271.94420036004442
  0
ARC
  8
_0-0_0
  6
CONTINUOUS
 62
    7
 10
102.33046313131412
 20
102.01100220435158
 40
0.6066162980479533
 50
159.08605749327495
 51
191.68386353458877
  0
ARC
  8
_0-0_0
  6
CONTINUOUS
 62
    7
 10
100.08832255959254
 20
100.58384162070172
 40
0.1237968958235913
 50
271.93009599760796
 51
306.62715586932524
  0
LINE
  8
_0-0_0
  6
CONTINUOUS
 62
    7
 10
102.13930323366453
 20
101.6236312298123
 11
100.14861389864153
 21
100.47444699570588
  0
LINE
  8
_0-0_0
  6
CONTINUOUS
 62
    7
 10
100.18514996313341
 20
100.56775875376817
 11
100.16157890790376
 21
100.4856723406827
  0
LINE
  8
_0-0_0
  6
CONTINUOUS
 62
    7
 10
100.00764585902731
 20
100.48123586519459
 11
100.09249205875889
 21
100.46011495949945
  0
LINE
  8
_0-0_0
  6
CONTINUOUS
 62
    7
 10
99.867074975910199
 20
100.76483481306312
 11
99.859678824001023
 21
100.71592243844111
  0
ARC
  8
_0-0_0
  6
CONTINUOUS
 62
    7
 10
99.987970053578451
 20
100.73801038609335
 40
0.1237968958235913
 50
115.59536751021274
 51
167.29592457274811
  0
LINE
  8
_0-0_0
  6
CONTINUOUS
 62
    7
 10
99.940472098083305
 20
100.51719405500585
 11
100.00764585902731
 21
100.48123586519459
  0
LINE
  8
_0-0_0
  6
CONTINUOUS
 62
    7
 10
99.8960466021028
 20
100.56216933179633
 11
99.940472098083305
 21
100.51719405500585
  0
LINE
  8
_0-0_0
  6
CONTINUOUS
 62
    7
 10
99.8704093580928
 20
100.61265014871682
 11
99.8960466021028
 21
100.56216933179633
  0
LINE
  8
_0-0_0
  6
CONTINUOUS
 62
    7
 10
99.85964000847494
 20
100.66506489807205
 11
99.8704093580928
 21
100.61265014871682
  0
LINE
  8
_0-0_0
  6
CONTINUOUS
 62
    7
 10
99.859678824001023
 20
100.71592243844111
 11
99.85964000847494
 21
100.66506489807205
  0
LINE
  8
_0-0_0
  6
CONTINUOUS
 62
    7
 10
100.18759613775477
 20
100.64391203211903
 11
100.18514996313341
 21
100.56775875376817
  0
LINE
  8
_0-0_0
  6
CONTINUOUS
 62
    7
 10
100.17085915350222
 20
100.70487327860914
 11
100.18759613775477
 21
100.64391203211903
  0
LINE
  8
_0-0_0
  6
CONTINUOUS
 62
    7
 10
100.13996010565027
 20
100.75231619166505
 11
100.17085915350222
 21
100.70487327860914
  0
LINE
  8
_0-0_0
  6
CONTINUOUS
 62
    7
 10
100.09995227598459
 20
100.78785009669397
 11
100.13996010565027
 21
100.75231619166505
  0
LINE
  8
_0-0_0
  6
CONTINUOUS
 62
    7
 10
100.05588894628794
 20
100.81324525164686
 11
100.09995227598459
 21
100.78785009669397
  0
LINE
  8
_0-0_0
  6
CONTINUOUS
 62
    7
 10
100.01285558485284
 20
100.83011098193251
 11
100.05588894628794
 21
100.81324525164686
  0
LINE
  8
_0-0_0
  6
CONTINUOUS
 62
    7
 10
99.975841100446942
 20
100.84008879946839
 11
100.01285558485284
 21
100.83011098193251
  0
LINE
  8
_0-0_0
  6
CONTINUOUS
 62
    7
 10
99.949930961363322
 20
100.8448845891869
 11
99.975841100446942
 21
100.84008879946839
  0
LINE
  8
_0-0_0
  6
CONTINUOUS
 62
    7
 10
99.94017844938486
 20
100.84607548998933
 11
99.949930961363322
 21
100.8448845891869
  0
LINE
  8
_0-0_0
  6
CONTINUOUS
 62
    7
 10
102.16598584894469
 20
101.7165536789241
 11
102.13930323366453
 21
101.6236312298123
  0
LINE
  8
_0-0_0
  6
CONTINUOUS
 62
    7
 10
102.16843202356604
 20
101.79270695727496
 11
102.16598584894469
 21
101.7165536789241
  0
LINE
  8
_0-0_0
  6
CONTINUOUS
 62
    7
 10
102.15169503931349
 20
101.85366820376507
 11
102.16843202356604
 21
101.79270695727496
  0
LINE
  8
_0-0_0
  6
CONTINUOUS
 62
    7
 10
102.12079599146155
 20
101.90111111682097
 11
102.15169503931349
 21
101.85366820376507
  0
LINE
  8
_0-0_0
  6
CONTINUOUS
 62
    7
 10
102.08078816179587
 20
101.9366450218499
 11
102.12079599146155
 21
101.90111111682097
  0
LINE
  8
_0-0_0
  6
CONTINUOUS
 62
    7
 10
102.03672483209921
 20
101.96204017680279
 11
102.08078816179587
 21
101.9366450218499
  0
LINE
  8
_0-0_0
  6
CONTINUOUS
 62
    7
 10
101.99369147066412
 20
101.97890590708843
 11
102.03672483209921
 21
101.96204017680279
  0
LINE
  8
_0-0_0
  6
CONTINUOUS
 62
    7
 10
101.95667698625822
 20
101.98888372462432
 11
101.99369147066412
 21
101.97890590708843
  0
LINE
  8
_0-0_0
  6
CONTINUOUS
 62
    7
 10
101.93076684717458
 20
101.99367951434283
 11
101.95667698625822
 21
101.98888372462432
  0
LINE
  8
_0-0_0
  6
CONTINUOUS
 62
    7
 10
101.92101433519613
 20
101.99487041514526
 11
101.93076684717458
 21
101.99367951434283
  0
LINE
  8
_0-0_0
  6
CONTINUOUS
 62
    7
 10
99.934199041002955
 20
100.84963634241952
 11
101.92101433519613
 21
101.99487041514526
  0
LINE
  8
_f-a_250
  6
CONTINUOUS
 62
  250
 10
109.4385513617091
 20
106.81045016574079
 11
101.79181564048434
 21
102.25679814131942
  0
LINE
  8
_f-a_250
  6
CONTINUOUS
 62
  250
 10
109.4385513617091
 20
106.81045016574079
 11
101.7673267570799
 21
102.24221494431146
  0
ARC
  8
_0-0_0
  6
CONTINUOUS
 62
    7
 10
101.88800417411171
 20
101.62753199753691
 40
0.6066162980479533
 50
347.07056636796608
 51
100.92207523376638
  0
ARC
  8
_0-0_0
  6
CONTINUOUS
 62
    7
 10
107.87871151649823
 20
98.96707319391453
 40
0.6066162980479533
 50
234.27593422304577
 51
271.94420036004442
  0
ARC
  8
_0-0_0
  6
CONTINUOUS
 62
    7
 10
107.87871151649823
 20
98.96707319391453
 40
0.6066162980479533
 50
159.08605749327495
 51
191.68386353458877
  0
ARC
  8
_0-0_0
  6
CONTINUOUS
 62
    7
 10
105.63657094477665
 20
97.539912610264665
 40
0.1237968958235913
 50
271.93009599760796
 51
306.62715586932524
  0
LINE
  8
_0-0_0
  6
CONTINUOUS
 62
    7
 10
107.68755161884864
 20
98.579702219375264
 11
105.69686228382564
 21
97.430517985268821
  0
LINE
  8
_0-0_0
  6
CONTINUOUS
 62
    7
 10
105.73339834831752
 20
97.523829743331135
 11
105.70982729308787
 21
97.441743330245657
  0
LINE
  8
_0-0_0
  6
CONTINUOUS
 62
    7
 10
105.55589424421142
 20
97.437306854757537
 11
105.640740443943
 21
97.416185949062395
  0
LINE
  8
_0-0_0
  6
CONTINUOUS
 62
    7
 10
105.41532336109431
 20
97.720905802626078
 11
105.40792720918513
 21
97.671993428004072
  0
ARC
  8
_0-0_0
  6
CONTINUOUS
 62
    7
 10
105.53621843876256
 20
97.69408137565631
 40
0.1237968958235913
 50
115.59536751021274
 51
167.29592457274811
  0
LINE
  8
_0-0_0
  6
CONTINUOUS
 62
    7
 10
105.48872048326741
 20
97.473265044568791
 11
105.55589424421142
 21
97.437306854757537
  0
LINE
  8
_0-0_0
  6
CONTINUOUS
 62
    7
 10
105.44429498728691
 20
97.518240321359286
 11
105.48872048326741
 21
97.473265044568791
  0
LINE
  8
_0-0_0
  6
CONTINUOUS
 62
    7
 10
105.41865774327691
 20
97.568721138279784
 11
105.44429498728691
 21
97.518240321359286
  0
LINE
  8
_0-0_0
  6
CONTINUOUS
 62
    7
 10
105.40788839365905
 20
97.621135887635006
 11
105.41865774327691
 21
97.568721138279784
  0
LINE
  8
_0-0_0
  6
CONTINUOUS
 62
    7
 10
105.40792720918513
 20
97.671993428004072
 11
105.40788839365905
 21
97.621135887635006
  0
LINE
  8
_0-0_0
  6
CONTINUOUS
 62
    7
 10
105.73584452293888
 20
97.599983021681993
 11
105.73339834831752
 21
97.523829743331135
  0
LINE
  8
_0-0_0
  6
CONTINUOUS
 62
    7
 10
105.71910753868633
 20
97.660944268172088
 11
105.73584452293888
 21
97.599983021681993
  0
LINE
  8
_0-0_0
  6
CONTINUOUS
 62
    7
 10
105.68820849083438
 20
97.708387181228005
 11
105.71910753868633
 21
97.660944268172088
  0
LINE
  8
_0-0_0
  6
CONTINUOUS
 62
    7
 10
105.6482006611687
 20
97.743921086256918
 11
105.68820849083438
 21
97.708387181228005
  0
LINE
  8
_0-0_0
  6
CONTINUOUS
 62
    7
 10
105.60413733147205
 20
97.769316241209808
 11
105.6482006611687
 21
97.743921086256918
  0
LINE
  8
_0-0_0
  6
CONTINUOUS
 62
    7
 10
105.56110397003695
 20
97.786181971495452
 11
105.60413733147205
 21
97.769316241209808
  0
LINE
  8
_0-0_0
  6
CONTINUOUS
 62
    7
 10
105.52408948563105
 20
97.79615978903135
 11
105.56110397003695
 21
97.786181971495452
  0
LINE
  8
_0-0_0
  6
CONTINUOUS
 62
    7
 10
105.49817934654743
 20
97.800955578749864
 11
105.52408948563105
 21
97.79615978903135
  0
LINE
  8
_0-0_0
  6
CONTINUOUS
 62
    7
 10
105.48842683456897
 20
97.802146479552277
 11
105.49817934654743
 21
97.800955578749864
  0
LINE
  8
_0-0_0
  6
CONTINUOUS
 62
    7
 10
107.7142342341288
 20
98.672624668487046
 11
107.68755161884864
 21
98.579702219375264
  0
LINE
  8
_0-0_0
  6
CONTINUOUS
 62
    7
 10
107.71668040875015
 20
98.748777946837919
 11
107.7142342341288
 21
98.672624668487046
  0
LINE
  8
_0-0_0
  6
CONTINUOUS
 62
    7
 10
107.6999434244976
 20
98.809739193328014
 11
107.71668040875015
 21
98.748777946837919
  0
LINE
  8
_0-0_0
  6
CONTINUOUS
 62
    7
 10
107.66904437664566
 20
98.857182106383931
 11
107.6999434244976
 21
98.809739193328014
  0
LINE
  8
_0-0_0
  6
CONTINUOUS
 62
    7
 10
107.62903654697998
 20
98.892716011412844
 11
107.66904437664566
 21
98.857182106383931
  0
LINE
  8
_0-0_0
  6
CONTINUOUS
 62
    7
 10
107.58497321728332
 20
98.918111166365733
 11
107.62903654697998
 21
98.892716011412844
  0
LINE
  8
_0-0_0
  6
CONTINUOUS
 62
    7
 10
107.54193985584823
 20
98.934976896651378
 11
107.58497321728332
 21
98.918111166365733
  0
LINE
  8
_0-0_0
  6
CONTINUOUS
 62
    7
 10
107.50492537144233
 20
98.944954714187276
 11
107.54193985584823
 21
98.934976896651378
  0
LINE
  8
_0-0_0
  6
CONTINUOUS
 62
    7
 10
107.47901523235869
 20
98.94975050390579
 11
107.50492537144233
 21
98.944954714187276
  0
LINE
  8
_0-0_0
  6
CONTINUOUS
 62
    7
 10
107.46926272038024
 20
98.950941404708203
 11
107.47901523235869
 21
98.94975050390579
  0
LINE
  8
_0-0_0
  6
CONTINUOUS
 62
    7
 10
105.48244742618706
 20
97.805707331982461
 11
107.46926272038024
 21
98.950941404708203
  0
ARC
  8
_0-0_0
  6
CONTINUOUS
 62
    7
 10
107.43625255929582
 20
98.583602987099852
 40
0.6066162980479533
 50
347.07056636796608
 51
100.92207523376638
  0
LINE
  8
_f-a_250
  6
CONTINUOUS
 62
  250
 10
114.3722185446311
 20
103.2471176080623
 11
107.31587230918635
 21
99.206499103521139
  0
LINE
  8
_0-7_7
  6
CONTINUOUS
 62
    7
 10
114.3722185446311
 20
103.2471176080623
 11
107.32665643857189
 21
99.212674332357238
  0
LINE
  8
_f-a_250
  6
CONTINUOUS
 62
  250
 10
107.8944155379733
 20
98.367052335536215
 11
114.90920871034163
 21
102.38711795138528
  0
ENDSEC
  0
EOF
