  0
SECTION
  2
HEADER
  9
$ACADVER
  1
AC1009
  9
$INSBASE
 10
0
 20
0
 30
0
  9
$EXTMIN
 10
0
 20
0
  9
$EXTMAX
 10
420
 20
297
  9
$LIMMIN
 10
0
 20
0
  9
$LIMMAX
 10
420
 20
297
  9
$LTSCALE
 40
1
  0
ENDSEC
  0
SECTION
  2
TABLES
  0
TABLE
  2
LTYPE
 70
     9
  0
LTYPE
  2
CONTINUOUS
 70
    64
  3
実線
 72
    65
 73
     0
 40
0.0
  0
LTYPE
  2
DASHED1
 70
    64
  3
--  --  --  --  --  --  --  --  
 72
    65
 73
     2
 40
2.5
 49
1.25
 49
-1.25
  0
LTYPE
  2
DASHED2
 70
    64
  3
----    ----    ----    ----    
 72
    65
 73
     2
 40
5.0
 49
2.5
 49
-2.5
  0
LTYPE
  2
DASHED3
 70
    64
  3
------  ------  ------  ------  
 72
    65
 73
     2
 40
5.0
 49
3.75
 49
-1.25
  0
LTYPE
  2
CENTER1
 70
    64
  3
----- - ----- - ----- - ----- - 
 72
    65
 73
     4
 40
10.0
 49
6.25
 49
-1.25
 49
1.25
 49
-1.25
  0
LTYPE
  2
CENTER2
 70
    64
  3
----------  --  ----------  --  
 72
    65
 73
     4
 40
20.0
 49
12.5
 49
-2.5
 49
2.5
 49
-2.5
  0
LTYPE
  2
PHANTOM1
 70
    64
  3
--- - - --- - - --- - - --- - - 
 72
    65
 73
     6
 40
10.0
 49
3.25
 49
-1.25
 49
1.25
 49
-1.25
 49
1.25
 49
-1.25
  0
LTYPE
  2
PHANTOM2
 70
    64
  3
--------  -  -  --------  -  -  
 72
    65
 73
     6
 40
20.0
 49
10.0
 49
-2.5
 49
1.25
 49
-2.5
 49
1.25
 49
-2.5
  0
LTYPE
  2
DOT
 70
    64
  3
-   -   -   -   -   -   -   -   
 72
    65
 73
     2
 40
2.5
 49
0.625
 49
-1.875
  0
LTYPE
  2
DUMMY
 70
    64
  3
ダミー
 72
    65
 73
     0
 40
0.0
  0
LTYPE
  2
RAND1
 70
    64
  3
ランダム線1
 72
    65
 73
     4
 40
10.0
 49
1.0
 49
-2.0
 49
3.0
 49
-4.0
  0
LTYPE
  2
RAND2
 70
    64
  3
ランダム線2
 72
    65
 73
     4
 40
14.0
 49
2.0
 49
-3.0
 49
4.0
 49
-5.0
  0
LTYPE
  2
RAND3
 70
    64
  3
ランダム線3
 72
    65
 73
     4
 40
18.0
 49
3.0
 49
-4.0
 49
5.0
 49
-6.0
  0
LTYPE
  2
RAND4
 70
    64
  3
ランダム線4
 72
    65
 73
     4
 40
22.0
 49
4.0
 49
-5.0
 49
6.0
 49
-7.0
  0
LTYPE
  2
RAND5
 70
    64
  3
ランダム線5
 72
    65
 73
     4
 40
26.0
 49
5.0
 49
-6.0
 49
7.0
 49
-8.0
  0
LTYPE
  2
LONG1
 70
    64
  3
----------  --  ----------  --  
 72
    65
 73
     4
 40
40.0
 49
32.5
 49
-2.5
 49
2.5
 49
-2.5
  0
LTYPE
  2
LONG2
 70
    64
  3
--------  -  -  --------  -  -  
 72
    65
 73
     6
 40
40.0
 49
30.0
 49
-2.5
 49
1.25
 49
-2.5
 49
1.25
 49
-2.5
  0
LTYPE
  2
LONG3
 70
    64
  3
+++++++++++++++..+++++++++++++++
 72
    65
 73
     2
 40
40.0
 49
37.5
 49
-2.5
  0
LTYPE
  2
LONG4
 70
    64
  3
+++++++++++++++..+++++++++++++++
 72
    65
 73
     2
 40
80.0
 49
75.0
 49
-5.0
  0
LTYPE
  2
LONG5
 70
    64
  3
----------  --  ----------  --  
 72
    65
 73
     4
 40
60.0
 49
37.5
 49
-7.5
 49
7.5
 49
-7.5
  0
LTYPE
  2
dashed
 70
   64
  3
-------   -------------   ------
 72
   65
 73
    2
 40
7.5
 49
6
 49
-1.5
  0
LTYPE
  2
dashed_spaced
 70
   64
  3
----        --------        ----
 72
   65
 73
    2
 40
12
 49
6
 49
-6
  0
LTYPE
  2
long_dashed_dotted
 70
   64
  3
------------- --- --------------
 72
   65
 73
    4
 40
15.25
 49
12
 49
-1.5
 49
0.25
 49
-1.5
  0
LTYPE
  2
long_dashed_double-dotted
 70
   64
  3
----------- --- --- ------------
 72
   65
 73
    6
 40
17
 49
12
 49
-1.5
 49
0.25
 49
-1.5
 49
0.25
 49
-1.5
  0
LTYPE
  2
long_dashed_triplicate-dotted
 70
   64
  3
--------- --- --- --- ----------
 72
   65
 73
    8
 40
18.75
 49
12
 49
-1.5
 49
0.25
 49
-1.5
 49
0.25
 49
-1.5
 49
0.25
 49
-1.5
  0
LTYPE
  2
dotted
 70
   64
  3
   -       -       -       -    
 72
   65
 73
    2
 40
1.75
 49
0.25
 49
-1.5
  0
LTYPE
  2
chain
 70
   64
  3
-------------- -- --------------
 72
   65
 73
    4
 40
18.5
 49
12
 49
-1.5
 49
3.5
 49
-1.5
  0
LTYPE
  2
chain_double_dash
 70
   64
  3
------------ -- -- -------------
 72
   65
 73
    6
 40
23.5
 49
12
 49
-1.5
 49
3.5
 49
-1.5
 49
3.5
 49
-1.5
  0
LTYPE
  2
dashed_dotted
 70
   64
  3
-----------     -     ----------
 72
   65
 73
    4
 40
9.25
 49
6
 49
-1.5
 49
0.25
 49
-1.5
  0
LTYPE
  2
double-dashed_dotted
 70
   64
  3
------   -----------   -   -----
 72
   65
 73
    6
 40
16.75
 49
6
 49
-1.5
 49
6
 49
-1.5
 49
0.25
 49
-1.5
  0
LTYPE
  2
dashed_double-dotted
 70
   64
  3
---------    -    -    ---------
 72
   65
 73
    6
 40
11
 49
6
 49
-1.5
 49
0.25
 49
-1.5
 49
0.25
 49
-1.5
  0
LTYPE
  2
double-dashed_double-dotted
 70
   64
  3
-----   ---------   -   -   ----
 72
   65
 73
    8
 40
18.5
 49
6
 49
-1.5
 49
6
 49
-1.5
 49
0.25
 49
-1.5
 49
0.25
 49
-1.5
  0
LTYPE
  2
dashed_triplicate-dotted
 70
   64
  3
-------    -    -    -    ------
 72
   65
 73
    8
 40
12.75
 49
6
 49
-1.5
 49
0.25
 49
-1.5
 49
0.25
 49
-1.5
 49
0.25
 49
-1.5
  0
LTYPE
  2
double-dashed_triplicate-dotted
 70
   64
  3
-----  ---------  -  -  -  -----
 72
   65
 73
   10
 40
20.25
 49
6
 49
-1.5
 49
6
 49
-1.5
 49
0.25
 49
-1.5
 49
0.25
 49
-1.5
 49
0.25
 49
-1.5
  0
LTYPE
  2
undefined
 70
   64
  3
--------------------------------
 72
   65
 73
    0
 40
0
  0
LTYPE
  2
_
 70
   64
  3
                                
 72
   65
 73
    0
 40
0
  0
LTYPE
  2
__18
 70
   64
  3
                                
 72
   65
 73
    0
 40
0
  0
LTYPE
  2
__19
 70
   64
  3
                                
 72
   65
 73
    0
 40
0
  0
LTYPE
  2
__20
 70
   64
  3
                                
 72
   65
 73
    0
 40
0
  0
LTYPE
  2
__21
 70
   64
  3
                                
 72
   65
 73
    0
 40
0
  0
LTYPE
  2
__22
 70
   64
  3
                                
 72
   65
 73
    0
 40
0
  0
LTYPE
  2
__23
 70
   64
  3
                                
 72
   65
 73
    0
 40
0
  0
LTYPE
  2
__24
 70
   64
  3
                                
 72
   65
 73
    0
 40
0
  0
LTYPE
  2
__25
 70
   64
  3
                                
 72
   65
 73
    0
 40
0
  0
LTYPE
  2
__26
 70
   64
  3
                                
 72
   65
 73
    0
 40
0
  0
LTYPE
  2
__27
 70
   64
  3
                                
 72
   65
 73
    0
 40
0
  0
LTYPE
  2
__28
 70
   64
  3
                                
 72
   65
 73
    0
 40
0
  0
LTYPE
  2
__29
 70
   64
  3
                                
 72
   65
 73
    0
 40
0
  0
LTYPE
  2
__30
 70
   64
  3
                                
 72
   65
 73
    0
 40
0
  0
LTYPE
  2
__31
 70
   64
  3
                                
 72
   65
 73
    0
 40
0
  0
LTYPE
  2
__32
 70
   64
  3
                                
 72
   65
 73
    0
 40
0
  0
ENDTAB
  0
TABLE
  2
STYLE
  5
3
100
AcDbSymbolTable
 70
     1
  0
STYLE
  5
10
100
AcDbSymbolTableRecord
100
AcDbTextStyleTableRecord
  2
STANDARD
 70
     0
 40
0.0
 41
1.0
 50
0.0
 71
     0
 42
0.2
  3
txt
  4
bigfont.shx
  0
STYLE
  5
26
100
AcDbSymbolTableRecord
100
AcDbTextStyleTableRecord
  2
TATEGAKI
 70
    68
 40
0.0
 41
1.0
 50
0.0
 71
     0
 42
1.0
  3
txt
  4
bigfont.shx
  0
ENDTAB
  0
TABLE
  2
LAYER
 70
    6
  0
LAYER
  2
_0-0_
 70
   64
 62
    7
  6
CONTINUOUS
  0
LAYER
  2
_1-1_
 70
   64
 62
    7
  6
CONTINUOUS
  0
LAYER
  2
_1-9_
 70
   64
 62
    7
  6
CONTINUOUS
  0
LAYER
  2
_1-a_
 70
   64
 62
    7
  6
CONTINUOUS
  0
LAYER
  2
_f-0_
 70
   64
 62
    7
  6
CONTINUOUS
  0
LAYER
  2
ADD_LINE
 70
   64
 62
    7
  6
CONTINUOUS
  0
ENDTAB
  0
ENDSEC
  0
SECTION
  2
BLOCKS
  0
ENDSEC
  0
SECTION
  2
ENTITIES
  0
TEXT
  8
_0-0_
 62
    7
 10
377.76981096569573
 20
264.08921292938288
 40
4
 41
1
 50
0
  1
藤島
  0
TEXT
  8
_0-0_
 62
    7
 10
387.7808109656957
 20
264.08921292938288
 40
4
 41
1
 50
0
  1
原田
  0
LINE
  8
_1-a_
  6
CONTINUOUS
 62
    4
 10
110.55971443865304
 20
204.44575455258063
 11
112.00860317808668
 21
204.83398312023439
  0
LINE
  8
_1-a_
  6
CONTINUOUS
 62
    4
 10
110.55971443865304
 20
204.44575455258063
 11
112.00860317808668
 21
204.05752598492682
  0
LINE
  8
_1-a_
  6
CONTINUOUS
 62
    4
 10
305.07749646987224
 20
204.44575451678133
 11
303.62860773043865
 21
204.05752594912752
  0
LINE
  8
_1-a_
  6
CONTINUOUS
 62
    4
 10
305.07749646987224
 20
204.44575451678133
 11
303.62860773043865
 21
204.83398308443508
  0
LINE
  8
_1-1_
  6
CONTINUOUS
 62
    7
 10
157.58231633943216
 20
123.66355664493893
 11
157.58231633943216
 21
122.91316321668894
  0
LINE
  8
_1-1_
  6
CONTINUOUS
 62
    7
 10
158.08231633943216
 20
123.66355664493893
 11
158.08231633943216
 21
122.91316321668894
  0
LINE
  8
_1-1_
  6
CONTINUOUS
 62
    7
 10
78.440850142705812
 20
185.04562224638419
 11
78.440850142705812
 21
161.06024873803417
  0
ARC
  8
_1-1_
  6
CONTINUOUS
 62
    7
 10
277.65214998352524
 20
178.05417072523087
 40
0.7564777124710708
 50
117.0436404005194
 51
242.95635959947861
  0
LINE
  8
_0-0_
  6
CONTINUOUS
 62
    7
 10
397.01213339959571
 20
34.294803014475434
 11
34.642090369810688
 21
34.294803014475434
  0
LINE
  8
_0-0_
  6
CONTINUOUS
 62
    7
 10
34.642090369810688
 20
34.294803014475434
 11
34.642090369810688
 21
273.99478149958287
  0
LINE
  8
_0-0_
  6
CONTINUOUS
 62
    7
 10
397.01213339959571
 20
273.99478149958287
 11
397.01213339959571
 21
34.294803014475434
  0
LINE
  8
_0-0_
  6
CONTINUOUS
 62
    7
 10
34.642090369810688
 20
273.99478149958287
 11
397.01213339959571
 21
273.99478149958287
  0
TEXT
  8
_0-0_
 62
    7
 10
304.41145268975685
 20
62.320573466185479
 40
3.0032999999999847
 41
1.0000000000000046
 50
-0.0000025044783313
  1
設計
  7
TATEGAKI
  0
TEXT
  8
_0-0_
 62
    7
 10
319.41053853570429
 20
62.32057346618545
 40
3.0032999999999847
 41
1.0000000000000046
 50
-0.0000025044786013
  1
製図
  7
TATEGAKI
  0
TEXT
  8
_0-0_
 62
    7
 10
334.40962438165149
 20
62.320573466185464
 40
3.0032999999999847
 41
1.0000000000000046
 50
-0.0000025044783313
  1
検図
  7
TATEGAKI
  0
TEXT
  8
_0-0_
 62
    7
 10
324.49999308892682
 20
52.592669945792124
 40
3.0032999999999883
 41
1.0000000000000128
 50
-0.0000025044780613
  1
材質
  7
TATEGAKI
  0
TEXT
  8
_0-0_
 62
    7
 10
313.95784230566187
 20
37.566532266374679
 40
3.2035199999999974
 41
1.0000000000000011
 50
0
  1
ＦＫＫ株式会社
  0
TEXT
  8
_0-0_
 62
    7
 10
349.53888866692983
 20
62.401692491034395
 40
3.0032999999999847
 41
1.0000000000000046
 50
-0.0000025044783313
  1
作図
  7
TATEGAKI
  0
TEXT
  8
_0-0_
 62
    7
 10
349.46299961663686
 20
52.592669945792124
 40
3.0032999999999883
 41
1.0000000000000128
 50
-0.0000025044778055
  1
品名
  7
TATEGAKI
  0
TEXT
  8
_0-0_
 62
    7
 10
349.5858763317247
 20
42.429815467337519
 40
3.0032999999999994
 41
1.0000000000000091
 50
-0.0000025044783313
  1
図番
  7
TATEGAKI
  0
TEXT
  8
_0-0_
 62
    7
 10
379.27059325067
 20
62.339412067488524
 40
3.0032999999999994
 41
0.9999999999999902
 50
-0.0000025044786013
  1
尺度
  7
TATEGAKI
  0
TEXT
  8
_f-0_
 62
    7
 10
322.68492505264697
 20
57.439636205326436
 40
4.0044000000000039
 41
1.0000000000000004
 50
0
  1
藤島
  0
TEXT
  8
_f-0_
 62
    7
 10
307.74500689596499
 20
57.439636205326436
 40
4.0044000000000039
 41
1.0000000000000037
 50
0
  1
森田
  0
TEXT
  8
_f-0_
 62
    7
 10
345.29465369101836
 20
80.024337983396378
 40
4.0044000000000039
 41
1.0000000000000088
 50
0
  1
ー
  0
TEXT
  8
_f-0_
 62
    7
 10
345.29465369101836
 20
74.720183291184198
 40
4.004400000000011
 41
1.0000000000000071
 50
0
  1
ー
  0
TEXT
  8
_f-0_
 62
    7
 10
345.29465369101836
 20
85.026202245412534
 40
4.0044000000000039
 41
1.0000000000000088
 50
0
  1
ー
  0
TEXT
  8
_f-0_
 62
    7
 10
303.11947925246823
 20
85.427697288086974
 40
4.0043999999999968
 41
0.9999999999999982
 50
0
  1
④
  0
TEXT
  8
_f-0_
 62
    7
 10
303.11947925246823
 20
80.145891528426247
 40
4.0044000000000039
 41
0.9999999999999964
 50
0
  1
③
  0
TEXT
  8
_f-0_
 62
    7
 10
303.11947925246823
 20
75.121678333858625
 40
4.0044000000000039
 41
0.9999999999999964
 50
0
  1
②
  0
TEXT
  8
_f-0_
 62
    7
 10
303.11947925246823
 20
69.950127508951737
 40
4.0043999999999968
 41
0.9999999999999982
 50
0
  1
①
  0
TEXT
  8
_f-0_
 62
    7
 10
309.88459122898433
 20
70.001695679570488
 40
4.0044000000000039
 41
1
 50
0
  1
本体
  0
TEXT
  8
_f-0_
 62
    7
 10
341.87371279102086
 20
70.056947290947675
 40
4.0043999999999968
 41
1.0000000000000024
 50
0
  1
アルミ
  0
TEXT
  8
_f-0_
 62
    7
 10
309.88459122898433
 20
80.142371430970797
 40
4.0044000000000039
 41
0.9999999999999984
 50
0
  1
DC2次側出力線
  0
TEXT
  8
_f-0_
 62
    7
 10
309.88459122898433
 20
74.816116094207785
 40
4.0043999999999968
 41
1.0000000000000002
 50
0
  1
AC1次側入力線
  0
TEXT
  8
_f-0_
 62
    7
 10
309.88459122898433
 20
85.143957193626292
 40
4.0044000000000039
 41
0.9999999999999984
 50
0
  1
調光信号線
  0
TEXT
  8
_f-0_
 62
    7
 10
357.23624487322518
 20
85.233692951421019
 40
4.0044000000000039
 41
1
 50
0
  1
1.0mm^u2
  0
TEXT
  8
_f-0_
 62
    7
 10
357.23624487322518
 20
85.304084851461695
 40
4.0044000000000039
 41
1
 50
0
  1
1.0mm^u2 x 2芯
  0
TEXT
  8
_f-0_
 62
    7
 10
357.23624487322518
 20
74.927673997192684
 40
4.0043999999999968
 41
1.0000000000000013
 50
0
  1
1.25mm^u2 x 3芯
  0
TEXT
  8
_f-0_
 62
    7
 10
357.23624487322518
 20
80.021820365269263
 40
4.0044000000000039
 41
1
 50
0
  1
1.0mm^u2 x 2芯
  0
TEXT
  8
_f-0_
 62
    7
 10
344.28880086469933
 20
64.88539646604083
 40
4.0044000000000039
 41
1.0000000000000046
 50
0
  1
材質
  0
TEXT
  8
_f-0_
 62
    7
 10
317.48982751949301
 20
64.785943565561879
 40
4.0043999999999968
 41
0.9999999999999993
 50
0
  1
部品名
  0
TEXT
  8
_f-0_
 62
    7
 10
371.89773776165742
 20
64.949856679314223
 40
4.0044000000000039
 41
1
 50
0
  1
仕様
  0
TEXT
  8
_f-0_
 62
    7
 10
385.89539399273922
 20
57.074257772146708
 40
4.0044000000000039
 41
0.999999999999994
 50
0
  1
1:2
  0
LINE
  8
_0-0_
  6
CONTINUOUS
 62
    7
 10
321.9296639507433
 20
64.327808742815548
 11
321.9296639507433
 21
54.316806833368843
  0
LINE
  8
_0-0_
  6
CONTINUOUS
 62
    7
 10
397.01213339959571
 20
44.305803014475429
 11
301.90763339959573
 21
44.305803014475429
  0
LINE
  8
_0-0_
  6
CONTINUOUS
 62
    7
 10
397.01213339959571
 20
54.316806833368843
 11
301.90763339959573
 21
54.316806833368843
  0
LINE
  8
_0-0_
  6
CONTINUOUS
 62
    7
 10
316.92413339959574
 20
64.327808742815548
 11
316.92413339959574
 21
54.316806833368843
  0
LINE
  8
_0-0_
  6
CONTINUOUS
 62
    7
 10
331.94063339959575
 20
64.327808742815548
 11
331.94063339959575
 21
54.316806833368843
  0
LINE
  8
_0-0_
  6
CONTINUOUS
 62
    7
 10
326.93513339959571
 20
54.316806833368843
 11
326.93513339959571
 21
44.305803014475429
  0
LINE
  8
_0-0_
  6
CONTINUOUS
 62
    7
 10
321.9296639507433
 20
54.316806833368843
 11
321.9296639507433
 21
44.305803014475429
  0
LINE
  8
_0-0_
  6
CONTINUOUS
 62
    7
 10
381.99566395074339
 20
64.327808742815548
 11
381.99566395074339
 21
54.316806833368843
  0
LINE
  8
_0-0_
  6
CONTINUOUS
 62
    7
 10
376.99013339959577
 20
64.327808742815548
 11
376.99013339959577
 21
54.316806833368843
  0
LINE
  8
_0-0_
  6
CONTINUOUS
 62
    7
 10
311.94163841363388
 20
47.588621190935697
 11
318.94933841363388
 21
46.086965462595543
  0
LINE
  8
_0-0_
  6
CONTINUOUS
 62
    7
 10
318.94933841363388
 20
52.093567372042258
 11
318.94933841363388
 21
46.086965462595543
  0
LINE
  8
_0-0_
  6
CONTINUOUS
 62
    7
 10
311.94163841363388
 20
50.591917372042246
 11
318.94933841363388
 21
52.093567372042258
  0
LINE
  8
_0-0_
  6
CONTINUOUS
 62
    7
 10
311.94163841363388
 20
50.591917372042246
 11
311.94163841363388
 21
47.588621190935697
  0
LINE
  8
_0-0_
  6
CONTINUOUS
 62
    7
 10
346.95713339959576
 20
54.316806833368843
 11
346.95713339959576
 21
34.294803014475434
  0
LINE
  8
_0-0_
  6
CONTINUOUS
 62
    7
 10
351.96263339959574
 20
54.316806833368843
 11
351.96263339959574
 21
34.294803014475434
  0
LINE
  8
_0-0_
  6
CONTINUOUS
 62
    7
 10
397.01212539079557
 20
64.327808742815548
 11
353.72120238209902
 21
64.327808742815548
  0
LINE
  8
_0-0_
  6
CONTINUOUS
 62
    7
 10
351.96263339959574
 20
64.309611528705303
 11
351.96263339959574
 21
54.316806833368843
  0
LINE
  8
_0-0_
  6
CENTER2
 62
    7
 10
306.93610786248638
 20
53.094671190935684
 11
306.93610786248638
 21
45.085867372042258
  0
LINE
  8
_0-0_
  6
CENTER2
 62
    7
 10
320.95150786248638
 20
49.090269281488957
 11
306.929554142678
 21
49.090269281488957
  0
LINE
  8
_0-0_
  6
CENTER2
 62
    7
 10
306.929554142678
 20
49.090269281488957
 11
302.93173841363386
 21
49.090269281488957
  0
LINE
  8
_0-0_
  6
CONTINUOUS
 62
    7
 10
346.95713339959576
 20
64.327808742815548
 11
346.95713339959576
 21
34.294803014475434
  0
LINE
  8
_0-0_
  6
CONTINUOUS
 62
    7
 10
306.91313339959572
 20
64.327808742815548
 11
306.91313339959572
 21
54.316806833368843
  0
LINE
  8
_0-0_
  6
CONTINUOUS
 62
    7
 10
336.94616395074336
 20
64.327808742815548
 11
336.94616395074336
 21
54.316806833368843
  0
LINE
  8
_0-0_
  6
CONTINUOUS
 62
    7
 10
397.01212539079557
 20
64.327808742815548
 11
301.90763339959573
 21
64.327808742815548
  0
LINE
  8
_0-0_
  6
CONTINUOUS
 62
    7
 10
301.90763339959573
 20
64.327808742815548
 11
301.90763339959573
 21
34.294803014475434
  0
LINE
  8
_0-0_
  6
CONTINUOUS
 62
    4
 10
326.93513339959571
 20
54.316806833368843
 11
346.95713339959576
 21
44.305803014475429
  0
LINE
  8
_0-0_
  6
CONTINUOUS
 62
    7
 10
397.01212728936633
 20
74.418896284548296
 11
301.90763339959573
 21
74.418896284548296
  0
LINE
  8
_0-0_
  6
CONTINUOUS
 62
    7
 10
397.01212728936633
 20
79.464440055414684
 11
301.90763339959573
 21
79.464440055414684
  0
LINE
  8
_0-0_
  6
CONTINUOUS
 62
    7
 10
397.01212728936633
 20
69.373352513681908
 11
301.90763339959573
 21
69.373352513681908
  0
LINE
  8
_0-0_
  6
CONTINUOUS
 62
    7
 10
397.01212728936633
 20
84.509983826281072
 11
301.90763339959573
 21
84.509983826281072
  0
LINE
  8
_0-0_
  6
CONTINUOUS
 62
    7
 10
301.90763339959573
 20
89.770459009643019
 11
301.90763339959573
 21
69.373352513681908
  0
LINE
  8
_0-0_
  6
CONTINUOUS
 62
    7
 10
397.01212728936633
 20
89.770459009643019
 11
301.90763339959573
 21
89.770459009643019
  0
LINE
  8
_0-0_
  6
CONTINUOUS
 62
    7
 10
308.06176392476669
 20
89.770459009643019
 11
308.06176392476669
 21
69.373352513681908
  0
LINE
  8
_0-0_
  6
CONTINUOUS
 62
    7
 10
339.18361532326468
 20
89.770459009643019
 11
339.18361532326468
 21
69.373352513681908
  0
LINE
  8
_0-0_
  6
CONTINUOUS
 62
    7
 10
355.69099668554378
 20
89.770459009643019
 11
355.69099668554378
 21
69.373352513681908
  0
LINE
  8
_0-0_
  6
CONTINUOUS
 62
    7
 10
334.50663688885231
 20
84.395960506071219
 11
334.50663688885231
 21
83.165115986630624
  0
LINE
  8
_0-0_
  6
CONTINUOUS
 62
    7
 10
339.18361532326468
 20
69.373352513681908
 11
339.18361532326468
 21
64.327808742815548
  0
LINE
  8
_0-0_
  6
CONTINUOUS
 62
    7
 10
301.90763339959573
 20
69.373352513681908
 11
301.90763339959573
 21
64.327808742815548
  0
LINE
  8
_0-0_
  6
CONTINUOUS
 62
    7
 10
308.06176392476669
 20
69.373352513681908
 11
308.06176392476669
 21
64.327808742815548
  0
LINE
  8
_0-0_
  6
CONTINUOUS
 62
    7
 10
355.69099668554378
 20
69.373352513681908
 11
355.69099668554378
 21
64.327808742815548
  0
CIRCLE
  8
_0-0_
  6
CONTINUOUS
 62
    7
 10
306.93610786248638
 20
49.090269281488957
 40
1.5016500000000003
  0
CIRCLE
  8
_0-0_
  6
CONTINUOUS
 62
    7
 10
306.93610786248638
 20
49.090269281488957
 40
3.0033000000000007
  0
TEXT
  8
_0-0_
 62
    7
 10
387.59474848127121
 20
269.56173366117599
 40
3.2035199999999974
 41
0.9999999999999992
 50
0
  1
検印
  0
TEXT
  8
_0-0_
 62
    7
 10
377.73402582525767
 20
269.49809417926411
 40
3.2035199999999974
 41
1.0000000000000082
 50
0
  1
担当
  0
TEXT
  8
_0-0_
 62
    7
 10
334.91750335849582
 20
269.80623716338294
 40
3.0032999999999674
 41
1.0000000000000122
 50
0
  1
訂　正　記　事
  0
TEXT
  8
_0-0_
 62
    7
 10
294.07461354529561
 20
269.80623716338294
 40
3.0032999999999674
 41
1.0000000000000104
 50
0
  1
年　月　日
  0
TEXT
  8
_0-0_
 62
    7
 10
280.36259533935697
 20
264.13950592573308
 40
3.0033000000000242
 41
0.9999999999999811
 50
0
  1
1
  0
TEXT
  8
_0-0_
 62
    7
 10
278.70640113713028
 20
269.77225896373073
 40
3.0032999999999958
 41
1.0000000000000019
 50
0
  1
Ｎｏ
  0
LINE
  8
_0-0_
  6
CONTINUOUS
 62
    7
 10
316.94831096569561
 20
273.99478149958287
 11
316.94831096569561
 21
268.5919529183829
  0
LINE
  8
_0-0_
  6
CONTINUOUS
 62
    7
 10
397.01213339959571
 20
268.5919529183829
 11
276.90431897449576
 21
268.5919529183829
  0
LINE
  8
_0-0_
  6
CONTINUOUS
 62
    7
 10
276.90430295689583
 20
263.58647294038286
 11
397.01213339959571
 21
263.58647294038286
  0
LINE
  8
_0-0_
  6
CONTINUOUS
 62
    7
 10
276.9346403417303
 20
273.98468253823074
 11
276.9346403417303
 21
268.58185395703065
  0
LINE
  8
_0-0_
  6
CONTINUOUS
 62
    7
 10
286.94564835053012
 20
273.98468253823074
 11
286.94564835053012
 21
268.58185395703065
  0
LINE
  8
_0-0_
  6
CONTINUOUS
 62
    7
 10
281.22762534256048
 20
268.42586956273072
 11
283.48010034256043
 21
263.92091756053065
  0
LINE
  8
_0-0_
  6
CONTINUOUS
 62
    7
 10
281.22762534256048
 20
268.42586956273072
 11
278.97515835136056
 21
263.92091756053065
  0
LINE
  8
_0-0_
  6
CONTINUOUS
 62
    7
 10
278.9877195438874
 20
263.90465086903321
 11
283.49266153508727
 21
263.90465086903321
  0
LINE
  8
_1-1_
  6
CONTINUOUS
 62
    7
 10
129.02471443865306
 20
170.42493332168052
 11
114.1247144386531
 21
170.42493332168052
  0
LINE
  8
_1-1_
  6
CONTINUOUS
 62
    7
 10
258.08231633943222
 20
123.66355664493893
 11
258.08231633943222
 21
122.91316321668894
  0
LINE
  8
_1-1_
  6
CONTINUOUS
 62
    7
 10
258.58231633943222
 20
123.66355664493893
 11
258.58231633943222
 21
122.91316321668894
  0
LINE
  8
_1-1_
  6
CONTINUOUS
 62
    7
 10
98.933258826255794
 20
186.30293546143423
 11
79.697312049005802
 21
186.30293520398424
  0
LINE
  8
_1-1_
  6
CONTINUOUS
 62
    7
 10
98.690965256355823
 20
183.28441181563414
 11
100.19085014270582
 21
183.28441181563414
  0
LINE
  8
_1-1_
  6
CONTINUOUS
 62
    7
 10
98.690965256355823
 20
183.28441181563414
 11
98.690965256355823
 21
162.78441181563417
  0
LINE
  8
_1-1_
  6
CONTINUOUS
 62
    7
 10
99.190965256355823
 20
183.28441181563414
 11
99.190965256355823
 21
162.78441181563417
  0
LINE
  8
_1-1_
  6
CONTINUOUS
 62
    7
 10
99.690850142705826
 20
162.78441181563417
 11
99.690850142705826
 21
183.28441181563414
  0
LINE
  8
_1-1_
  6
CONTINUOUS
 62
    7
 10
100.19085014270582
 20
161.06024873803417
 11
100.19085014270582
 21
185.04562224638419
  0
LINE
  8
_1-1_
  6
CONTINUOUS
 62
    7
 10
98.690965256355823
 20
162.78441181563417
 11
100.19085014270582
 21
162.78441181563417
  0
LINE
  8
_1-1_
  6
CONTINUOUS
 62
    7
 10
79.697312049005802
 20
159.80293578043418
 11
98.933258826255794
 21
159.80293552293417
  0
ARC
  8
_1-1_
  6
CONTINUOUS
 62
    7
 10
98.933536896905835
 20
161.06024873803417
 40
1.2573132458
 50
269.98732831879692
 51
0.0000000000000127
  0
ARC
  8
_1-1_
  6
CONTINUOUS
 62
    7
 10
79.698163388505804
 20
161.06024873803417
 40
1.2573132458
 50
180
 51
269.9612044458957
  0
ARC
  8
_1-1_
  6
CONTINUOUS
 62
    7
 10
79.698163388505804
 20
185.04562224638419
 40
1.2573132458
 50
90.038795554097774
 51
180
  0
ARC
  8
_1-1_
  6
CONTINUOUS
 62
    7
 10
98.933536896905835
 20
185.04562224638419
 40
1.2573132458
 50
0
 51
90.012671681196593
  0
CIRCLE
  8
_1-1_
  6
CONTINUOUS
 62
    7
 10
98.933536896905835
 20
185.04562224638419
 40
0.775
  0
CIRCLE
  8
_1-1_
  6
CONTINUOUS
 62
    7
 10
85.667916163005841
 20
185.04562224638419
 40
0.775
  0
CIRCLE
  8
_1-1_
  6
CONTINUOUS
 62
    7
 10
98.933536896905835
 20
161.06024873803417
 40
0.775
  0
CIRCLE
  8
_1-1_
  6
CONTINUOUS
 62
    7
 10
85.667916163005841
 20
161.06046193548425
 40
0.775
  0
CIRCLE
  8
_1-1_
  6
CONTINUOUS
 62
    7
 10
94.440850142705826
 20
169.06149825423372
 40
3
  0
LINE
  8
_1-1_
  6
CONTINUOUS
 62
    7
 10
129.02471443865306
 20
167.01433528868423
 11
137.30100284957018
 21
167.01433528868423
  0
LINE
  8
_1-1_
  6
CONTINUOUS
 62
    7
 10
129.02471443865306
 20
171.06433528868424
 11
137.30100284957018
 21
171.06433528868424
  0
ARC
  8
_1-1_
  6
CONTINUOUS
 62
    7
 10
136.39364452613216
 20
170.11773784759125
 40
1.3112382859709379
 50
313.78751140684778
 51
46.212488593147767
  0
ARC
  8
_1-1_
  6
CONTINUOUS
 62
    7
 10
138.49530482089645
 20
168.09273784759122
 40
1.6091330826786756
 50
137.91934105329622
 51
222.08065894669462
  0
ARC
  8
_1-1_
  6
CONTINUOUS
 62
    7
 10
138.80905760199536
 20
170.11773784759125
 40
1.3112382859709184
 50
313.78751140684687
 51
46.21248859314867
  0
ARC
  8
_1-1_
  6
CONTINUOUS
 62
    7
 10
140.91071789675976
 20
168.09273784759122
 40
1.609133082678781
 50
137.91934105329949
 51
222.08065894669118
  0
LINE
  8
_1-1_
  6
CONTINUOUS
 62
    7
 10
129.02471443865306
 20
171.06433528868424
 11
129.02471443865306
 21
167.01433528868423
  0
LINE
  8
_1-1_
  6
CONTINUOUS
 62
    7
 10
258.58231633943222
 20
182.28434120252313
 11
258.58231633943222
 21
181.33926467557319
  0
LINE
  8
_1-1_
  6
CONTINUOUS
 62
    7
 10
258.58231633943222
 20
164.73926467557319
 11
258.58231633943222
 21
163.78434120252316
  0
ARC
  8
_1-1_
  6
CONTINUOUS
 62
    7
 10
256.93230929293218
 20
173.0392646755732
 40
1.05
 50
270
 51
90
  0
ARC
  8
_1-1_
  6
CONTINUOUS
 62
    7
 10
258.08231633943222
 20
163.78434120252316
 40
0.5
 50
270
 51
0
  0
ARC
  8
_1-1_
  6
CONTINUOUS
 62
    7
 10
258.08231633943222
 20
182.28434120252313
 40
0.5
 50
0
 51
90
  0
ARC
  8
_1-1_
  6
CONTINUOUS
 62
    7
 10
258.08231633943222
 20
181.33926467557319
 40
0.5
 50
270
 51
0
  0
ARC
  8
_1-1_
  6
CONTINUOUS
 62
    7
 10
258.08231633943222
 20
164.73926467557319
 40
0.5
 50
0
 51
90
  0
LINE
  8
_1-1_
  6
CONTINUOUS
 62
    7
 10
157.58231633943222
 20
182.28434120252313
 11
157.58231633943222
 21
181.33926467557319
  0
LINE
  8
_1-1_
  6
CONTINUOUS
 62
    7
 10
157.58231633943222
 20
164.73926467557319
 11
157.58231633943222
 21
163.78434120252316
  0
ARC
  8
_1-1_
  6
CONTINUOUS
 62
    7
 10
159.2323233859322
 20
173.0392646755732
 40
1.05
 50
90
 51
270
  0
ARC
  8
_1-1_
  6
CONTINUOUS
 62
    7
 10
158.08231633943222
 20
163.78434120252316
 40
0.5
 50
180
 51
270
  0
ARC
  8
_1-1_
  6
CONTINUOUS
 62
    7
 10
158.08231633943222
 20
182.28434120252313
 40
0.5
 50
90
 51
180
  0
ARC
  8
_1-1_
  6
CONTINUOUS
 62
    7
 10
158.08231633943222
 20
181.33926467557319
 40
0.5
 50
180
 51
270
  0
ARC
  8
_1-1_
  6
CONTINUOUS
 62
    7
 10
158.08231633943222
 20
178.23926467557319
 40
0.5
 50
90
 51
180
  0
ARC
  8
_1-1_
  6
CONTINUOUS
 62
    7
 10
158.08231633943222
 20
164.73926467557319
 40
0.5
 50
90
 51
180
  0
CIRCLE
  8
_1-1_
  6
CONTINUOUS
 62
    7
 10
94.440850142705826
 20
169.06149825423372
 40
2.0249999999999999
  0
LINE
  8
_1-1_
  6
CONTINUOUS
 62
    7
 10
114.1247144386531
 20
168.36318283637265
 11
114.1247144386531
 21
167.58384759515442
  0
LINE
  8
_1-1_
  6
CONTINUOUS
 62
    7
 10
114.1247144386531
 20
167.81892781383609
 11
110.55971443865304
 21
167.81892781383609
  0
LINE
  8
_1-1_
  6
CONTINUOUS
 62
    7
 10
110.55971443865304
 20
167.81892781383609
 11
110.55971443865304
 21
168.08636949429032
  0
LINE
  8
_1-1_
  6
CONTINUOUS
 62
    7
 10
110.55971443865304
 20
168.08636949429032
 11
114.1247144386531
 21
168.08636949429032
  0
LINE
  8
_1-1_
  6
CONTINUOUS
 62
    7
 10
114.1247144386531
 20
168.08636949429032
 11
114.1247144386531
 21
167.81892781383609
  0
LINE
  8
_1-1_
  6
CONTINUOUS
 62
    7
 10
129.02471443865306
 20
167.58384759515442
 11
114.1247144386531
 21
167.58384759515442
  0
LINE
  8
_1-1_
  6
CONTINUOUS
 62
    7
 10
129.02471443865306
 20
168.36318283637265
 11
114.1247144386531
 21
168.36318283637265
  0
LINE
  8
_1-1_
  6
CONTINUOUS
 62
    7
 10
114.1247144386531
 20
169.42900290929347
 11
114.1247144386531
 21
168.64966766807512
  0
LINE
  8
_1-1_
  6
CONTINUOUS
 62
    7
 10
114.1247144386531
 20
168.90561444845715
 11
110.55971443865304
 21
168.90561444845715
  0
LINE
  8
_1-1_
  6
CONTINUOUS
 62
    7
 10
110.55971443865304
 20
168.90561444845715
 11
110.55971443865304
 21
169.17305612891138
  0
LINE
  8
_1-1_
  6
CONTINUOUS
 62
    7
 10
110.55971443865304
 20
169.17305612891138
 11
114.1247144386531
 21
169.17305612891138
  0
LINE
  8
_1-1_
  6
CONTINUOUS
 62
    7
 10
114.1247144386531
 20
169.17305612891138
 11
114.1247144386531
 21
168.90561444845715
  0
LINE
  8
_1-1_
  6
CONTINUOUS
 62
    7
 10
129.02471443865306
 20
168.64966766807512
 11
114.1247144386531
 21
168.64966766807512
  0
LINE
  8
_1-1_
  6
CONTINUOUS
 62
    7
 10
129.02471443865306
 20
169.42900290929347
 11
114.1247144386531
 21
169.42900290929347
  0
LINE
  8
_1-1_
  6
CONTINUOUS
 62
    7
 10
114.1247144386531
 20
170.42493332168052
 11
114.1247144386531
 21
169.64559808046217
  0
LINE
  8
_1-1_
  6
CONTINUOUS
 62
    7
 10
114.1247144386531
 20
169.8806782991439
 11
110.55971443865304
 21
169.8806782991439
  0
LINE
  8
_1-1_
  6
CONTINUOUS
 62
    7
 10
110.55971443865304
 20
169.8806782991439
 11
110.55971443865304
 21
170.14811997959813
  0
LINE
  8
_1-1_
  6
CONTINUOUS
 62
    7
 10
110.55971443865304
 20
170.14811997959813
 11
114.1247144386531
 21
170.14811997959813
  0
LINE
  8
_1-1_
  6
CONTINUOUS
 62
    7
 10
114.1247144386531
 20
170.14811997959813
 11
114.1247144386531
 21
169.8806782991439
  0
LINE
  8
_1-1_
  6
CONTINUOUS
 62
    7
 10
129.02471443865306
 20
169.64559808046217
 11
114.1247144386531
 21
169.64559808046217
  0
LINE
  8
_1-1_
  6
CONTINUOUS
 62
    7
 10
114.1247144386531
 20
166.08384759515442
 11
114.1247144386531
 21
159.36668069172432
  0
ARC
  8
_1-1_
  6
CONTINUOUS
 62
    7
 10
280.06756305938836
 20
178.05417072523087
 40
0.7564777124710708
 50
117.0436404005194
 51
242.95635959947861
  0
LINE
  8
_1-1_
  6
CONTINUOUS
 62
    7
 10
286.60983729441198
 20
175.37793552426884
 11
279.72361607940047
 21
175.37793552426884
  0
LINE
  8
_1-1_
  6
CONTINUOUS
 62
    7
 10
286.60983729441198
 20
178.72793552426887
 11
279.72361607940047
 21
178.72793552426887
  0
ARC
  8
_1-1_
  6
CONTINUOUS
 62
    7
 10
278.69730973338698
 20
176.37917072523086
 40
1.4337979786263255
 50
315.70844298875852
 51
44.291557011253658
  0
ARC
  8
_1-1_
  6
CONTINUOUS
 62
    7
 10
276.2818966575241
 20
176.37917072523097
 40
1.4337979786261794
 50
315.70844298874158
 51
44.291557011256713
  0
LINE
  8
_1-1_
  6
CONTINUOUS
 62
    7
 10
286.60983729441198
 20
178.72793552426887
 11
286.60983729441198
 21
175.37793552426884
  0
LINE
  8
_1-1_
  6
CONTINUOUS
 62
    7
 10
320.80706111574102
 20
159.80293558581817
 11
340.04316560854107
 21
159.80293595997616
  0
LINE
  8
_1-1_
  6
CONTINUOUS
 62
    7
 10
321.04935468564099
 20
162.82145923161826
 11
319.54946979929104
 21
162.82145923161826
  0
LINE
  8
_1-1_
  6
CONTINUOUS
 62
    7
 10
340.54907637104099
 20
163.32145923161826
 11
341.29946979929104
 21
163.32145923161826
  0
LINE
  8
_1-1_
  6
CONTINUOUS
 62
    7
 10
340.54907637104099
 20
163.82145923161826
 11
341.29946979929104
 21
163.82145923161826
  0
LINE
  8
_1-1_
  6
CONTINUOUS
 62
    7
 10
341.29946979929104
 20
164.76653575856821
 11
340.54907637104099
 21
164.76653575856821
  0
LINE
  8
_1-1_
  6
CONTINUOUS
 62
    7
 10
341.29946979929104
 20
165.26653575856821
 11
340.54907637104099
 21
165.26653575856821
  0
LINE
  8
_1-1_
  6
CONTINUOUS
 62
    7
 10
341.29946979929104
 20
161.0602488008682
 11
341.29946979929104
 21
185.04562230921823
  0
LINE
  8
_1-1_
  6
CONTINUOUS
 62
    7
 10
340.54907637104099
 20
163.32145923161826
 11
340.54907637104099
 21
182.82145923161823
  0
LINE
  8
_1-1_
  6
CONTINUOUS
 62
    7
 10
340.54907637104099
 20
167.36653575856817
 11
341.29946979929104
 21
167.36653575856817
  0
LINE
  8
_1-1_
  6
CONTINUOUS
 62
    7
 10
340.54907637104099
 20
167.86653575856817
 11
341.29946979929104
 21
167.86653575856817
  0
LINE
  8
_1-1_
  6
CONTINUOUS
 62
    7
 10
341.29946979929104
 20
178.26653575856821
 11
340.54907637104099
 21
178.26653575856821
  0
LINE
  8
_1-1_
  6
CONTINUOUS
 62
    7
 10
341.29946979929104
 20
178.76653575856821
 11
340.54907637104099
 21
178.76653575856821
  0
LINE
  8
_1-1_
  6
CONTINUOUS
 62
    7
 10
321.04935468564099
 20
162.82145923161826
 11
321.04935468564099
 21
183.32145923161823
  0
LINE
  8
_1-1_
  6
CONTINUOUS
 62
    7
 10
320.54935468564099
 20
162.82145923161826
 11
320.54935468564099
 21
183.32145923161823
  0
LINE
  8
_1-1_
  6
CONTINUOUS
 62
    7
 10
340.54907637104099
 20
180.8665357585682
 11
341.29946979929104
 21
180.8665357585682
  0
LINE
  8
_1-1_
  6
CONTINUOUS
 62
    7
 10
340.54907637104099
 20
181.3665357585682
 11
341.29946979929104
 21
181.3665357585682
  0
LINE
  8
_1-1_
  6
CONTINUOUS
 62
    7
 10
320.04946979929104
 20
183.32145923161823
 11
320.04946979929104
 21
162.82145923161826
  0
LINE
  8
_1-1_
  6
CONTINUOUS
 62
    7
 10
319.54946979929104
 20
185.04562230921823
 11
319.54946979929104
 21
161.0602488008682
  0
LINE
  8
_1-1_
  6
CONTINUOUS
 62
    7
 10
341.29946979929104
 20
182.32145923161823
 11
340.54907637104099
 21
182.32145923161823
  0
LINE
  8
_1-1_
  6
CONTINUOUS
 62
    7
 10
341.29946979929104
 20
182.82145923161823
 11
340.54907637104099
 21
182.82145923161823
  0
LINE
  8
_1-1_
  6
CONTINUOUS
 62
    7
 10
321.04935468564099
 20
183.32145923161823
 11
319.54946979929104
 21
183.32145923161823
  0
LINE
  8
_1-1_
  6
CONTINUOUS
 62
    7
 10
340.0431656368006
 20
186.30293515008759
 11
320.80706111574102
 21
186.30293552431822
  0
ARC
  8
_1-1_
  6
CONTINUOUS
 62
    7
 10
320.80678304509103
 20
185.04562230921823
 40
1.2573132458
 50
89.987328318796883
 51
180
  0
ARC
  8
_1-1_
  6
CONTINUOUS
 62
    7
 10
340.04215655349099
 20
185.04562230921823
 40
1.2573132458
 50
0
 51
89.961204445895731
  0
ARC
  8
_1-1_
  6
CONTINUOUS
 62
    7
 10
340.04215655349099
 20
161.0602488008682
 40
1.2573132458
 50
270.03879555410424
 51
0
  0
ARC
  8
_1-1_
  6
CONTINUOUS
 62
    7
 10
320.80678304509103
 20
161.0602488008682
 40
1.2573132458
 50
180
 51
270.01267168120307
  0
CIRCLE
  8
_1-1_
  6
CONTINUOUS
 62
    7
 10
320.80678304509103
 20
161.0602488008682
 40
0.775
  0
CIRCLE
  8
_1-1_
  6
CONTINUOUS
 62
    7
 10
334.07240377899097
 20
161.0602488008682
 40
0.775
  0
CIRCLE
  8
_1-1_
  6
CONTINUOUS
 62
    7
 10
320.80678304509103
 20
185.04562230921823
 40
0.775
  0
CIRCLE
  8
_1-1_
  6
CONTINUOUS
 62
    7
 10
334.07240377899097
 20
185.04540911176815
 40
0.775
  0
LINE
  8
_1-1_
  6
CONTINUOUS
 62
    7
 10
286.60983729441198
 20
167.37793556135707
 11
279.72361607940047
 21
167.37793556135707
  0
LINE
  8
_1-1_
  6
CONTINUOUS
 62
    7
 10
286.60983729441198
 20
170.72793556135698
 11
279.72361607940047
 21
170.72793556135698
  0
ARC
  8
_1-1_
  6
CONTINUOUS
 62
    7
 10
280.06608596859229
 20
170.05525504695137
 40
0.754840843796939
 50
116.9812017089757
 51
243.0187982910223
  0
ARC
  8
_1-1_
  6
CONTINUOUS
 62
    7
 10
278.69494921360688
 20
168.38025504695141
 40
1.4362450598639235
 50
315.74323936765529
 51
44.256760632356709
  0
ARC
  8
_1-1_
  6
CONTINUOUS
 62
    7
 10
277.65067289272911
 20
170.05525504695137
 40
0.754840843796952
 50
116.98120170897759
 51
243.01879829102037
  0
ARC
  8
_1-1_
  6
CONTINUOUS
 62
    7
 10
276.27953613774388
 20
168.38025504695147
 40
1.4362450598638389
 50
315.74323936764261
 51
44.25676063235744
  0
LINE
  8
_1-1_
  6
CONTINUOUS
 62
    7
 10
286.60983729441198
 20
170.72793556135698
 11
286.60983729441198
 21
167.37793556135707
  0
LINE
  8
_1-1_
  6
CONTINUOUS
 62
    7
 10
301.51193052919683
 20
176.73133834584004
 11
301.51193052919683
 21
175.95200310462175
  0
LINE
  8
_1-1_
  6
CONTINUOUS
 62
    7
 10
301.51193052919683
 20
176.20794988500378
 11
305.07749646987224
 21
176.20794988500378
  0
LINE
  8
_1-1_
  6
CONTINUOUS
 62
    7
 10
305.07749646987224
 20
176.20794988500378
 11
305.07749646987224
 21
176.47539156545801
  0
LINE
  8
_1-1_
  6
CONTINUOUS
 62
    7
 10
305.07749646987224
 20
176.47539156545801
 11
301.51193052919683
 21
176.47539156545801
  0
LINE
  8
_1-1_
  6
CONTINUOUS
 62
    7
 10
301.51193052919683
 20
176.47539156545801
 11
301.51193052919683
 21
176.20794988500378
  0
LINE
  8
_1-1_
  6
CONTINUOUS
 62
    7
 10
286.60983729441198
 20
175.95200310462175
 11
301.51193052919683
 21
175.95200310462175
  0
LINE
  8
_1-1_
  6
CONTINUOUS
 62
    7
 10
286.60983729441198
 20
176.73133834584004
 11
301.51193052919683
 21
176.73133834584004
  0
LINE
  8
_1-1_
  6
CONTINUOUS
 62
    7
 10
301.51193052919683
 20
178.15386794391596
 11
301.51193052919683
 21
177.37453270269767
  0
LINE
  8
_1-1_
  6
CONTINUOUS
 62
    7
 10
301.51193052919683
 20
177.63047948307965
 11
305.07749646987224
 21
177.63047948307965
  0
LINE
  8
_1-1_
  6
CONTINUOUS
 62
    7
 10
305.07749646987224
 20
177.63047948307965
 11
305.07749646987224
 21
177.89792116353387
  0
LINE
  8
_1-1_
  6
CONTINUOUS
 62
    7
 10
305.07749646987224
 20
177.89792116353387
 11
301.51193052919683
 21
177.89792116353387
  0
LINE
  8
_1-1_
  6
CONTINUOUS
 62
    7
 10
301.51193052919683
 20
177.89792116353387
 11
301.51193052919683
 21
177.63047948307965
  0
LINE
  8
_1-1_
  6
CONTINUOUS
 62
    7
 10
286.60983729441198
 20
177.37453270269767
 11
301.51193052919683
 21
177.37453270269767
  0
LINE
  8
_1-1_
  6
CONTINUOUS
 62
    7
 10
286.60983729441198
 20
178.15386794391596
 11
301.51193052919683
 21
178.15386794391596
  0
LINE
  8
_1-1_
  6
CONTINUOUS
 62
    7
 10
301.51193052919683
 20
168.73350695219286
 11
301.51193052919683
 21
167.95417171097457
  0
LINE
  8
_1-1_
  6
CONTINUOUS
 62
    7
 10
301.51193052919683
 20
168.21011849135661
 11
305.07749646987224
 21
168.21011849135661
  0
LINE
  8
_1-1_
  6
CONTINUOUS
 62
    7
 10
305.07749646987224
 20
168.21011849135661
 11
305.07749646987224
 21
168.47756017181077
  0
LINE
  8
_1-1_
  6
CONTINUOUS
 62
    7
 10
305.07749646987224
 20
168.47756017181077
 11
301.51193052919683
 21
168.47756017181077
  0
LINE
  8
_1-1_
  6
CONTINUOUS
 62
    7
 10
301.51193052919683
 20
168.47756017181077
 11
301.51193052919683
 21
168.21011849135661
  0
LINE
  8
_1-1_
  6
CONTINUOUS
 62
    7
 10
286.60983729441198
 20
167.95417171097457
 11
301.51193052919683
 21
167.95417171097457
  0
LINE
  8
_1-1_
  6
CONTINUOUS
 62
    7
 10
286.60983729441198
 20
168.73350695219286
 11
301.51193052919683
 21
168.73350695219286
  0
LINE
  8
_1-1_
  6
CONTINUOUS
 62
    7
 10
301.51193052919683
 20
170.15603655026868
 11
301.51193052919683
 21
169.37670130905044
  0
LINE
  8
_1-1_
  6
CONTINUOUS
 62
    7
 10
301.51193052919683
 20
169.63264808943247
 11
305.07749646987224
 21
169.63264808943247
  0
LINE
  8
_1-1_
  6
CONTINUOUS
 62
    7
 10
305.07749646987224
 20
169.63264808943247
 11
305.07749646987224
 21
169.9000897698867
  0
LINE
  8
_1-1_
  6
CONTINUOUS
 62
    7
 10
305.07749646987224
 20
169.9000897698867
 11
301.51193052919683
 21
169.9000897698867
  0
LINE
  8
_1-1_
  6
CONTINUOUS
 62
    7
 10
301.51193052919683
 20
169.9000897698867
 11
301.51193052919683
 21
169.63264808943247
  0
LINE
  8
_1-1_
  6
CONTINUOUS
 62
    7
 10
286.60983729441198
 20
169.37670130905044
 11
301.51193052919683
 21
169.37670130905044
  0
LINE
  8
_1-1_
  6
CONTINUOUS
 62
    7
 10
286.60983729441198
 20
170.15603655026868
 11
301.51193052919683
 21
170.15603655026868
  0
CIRCLE
  8
_1-1_
  6
CONTINUOUS
 62
    7
 10
325.54946979929098
 20
177.05293552426886
 40
3
  0
CIRCLE
  8
_1-1_
  6
CONTINUOUS
 62
    7
 10
325.54946979929098
 20
169.05293556135703
 40
3
  0
CIRCLE
  8
_1-1_
  6
CONTINUOUS
 62
    7
 10
325.54946979929098
 20
177.05293552426886
 40
1.6750000000000115
  0
CIRCLE
  8
_1-1_
  6
CONTINUOUS
 62
    7
 10
325.54946979929098
 20
169.05293556135703
 40
1.6750000000000115
  0
LINE
  8
_1-1_
  6
CONTINUOUS
 62
    7
 10
260.40473929861548
 20
175.37793552426884
 11
263.00914278043831
 21
175.37793552426884
  0
LINE
  8
_1-1_
  6
CONTINUOUS
 62
    7
 10
260.40473929861548
 20
190.62001009550652
 11
263.00914278043831
 21
190.62001009550652
  0
LINE
  8
_1-1_
  6
CONTINUOUS
 62
    7
 10
263.00914278043831
 20
175.37793552426884
 11
263.00914278043831
 21
190.62001009550652
  0
LINE
  8
_1-1_
  6
CONTINUOUS
 62
    7
 10
260.40473929861548
 20
190.62001009550652
 11
260.40473929861548
 21
175.37793552426884
  0
LINE
  8
_1-1_
  6
CONTINUOUS
 62
    7
 10
260.40473929861548
 20
155.48586099011927
 11
263.00914278043831
 21
155.48586099011927
  0
LINE
  8
_1-1_
  6
CONTINUOUS
 62
    7
 10
260.40473929861548
 20
170.72793556135698
 11
263.00914278043831
 21
170.72793556135698
  0
LINE
  8
_1-1_
  6
CONTINUOUS
 62
    7
 10
263.00914278043831
 20
155.48586099011927
 11
263.00914278043831
 21
170.72793556135698
  0
LINE
  8
_1-1_
  6
CONTINUOUS
 62
    7
 10
260.40473929861548
 20
170.72793556135698
 11
260.40473929861548
 21
155.48586099011927
  0
TEXT
  8
_1-1_
 62
    7
 10
260.78152798922332
 20
170.39073418486
 40
1.8
 41
1
 50
-90
  1
出力 + 赤 - 黒
  0
TEXT
  8
_1-1_
 62
    7
 10
260.79504565435388
 20
190.11968960092082
 40
1.8
 41
1
 50
-90
  1
調光信号(無極性)
  0
LINE
  8
_1-a_
  6
CONTINUOUS
 62
    4
 10
157.58231633943216
 20
121.41316321668894
 11
157.58231633943216
 21
118.53207016055235
  0
LINE
  8
_1-a_
  6
CONTINUOUS
 62
    4
 10
258.58231633943222
 20
121.41316321668894
 11
258.58231633943222
 21
118.53207016055235
  0
LINE
  8
_1-a_
  6
CONTINUOUS
 62
    4
 10
156.08231633943222
 20
122.91316321668905
 11
151.09603878624406
 21
122.91316321668905
  0
LINE
  8
_1-a_
  6
CONTINUOUS
 62
    4
 10
157.76981633943225
 20
165.23926467557325
 11
155.1442135540004
 21
165.23926467557325
  0
LINE
  8
_1-a_
  6
CONTINUOUS
 62
    4
 10
157.76981633943225
 20
167.33926467557327
 11
155.1442135540004
 21
167.33926467557327
  0
LINE
  8
_1-a_
  6
CONTINUOUS
 62
    4
 10
155.7692135540004
 20
167.33926467557327
 11
155.7692135540004
 21
165.23926467557325
  0
LINE
  8
_1-a_
  6
CONTINUOUS
 62
    4
 10
129.02471443865306
 20
165.92114040649832
 11
129.02471443865306
 21
153.88832961408027
  0
LINE
  8
_1-a_
  6
CONTINUOUS
 62
    4
 10
114.1247144386531
 20
166.08384759515442
 11
114.1247144386531
 21
153.88832961408027
  0
LINE
  8
_1-a_
  6
CONTINUOUS
 62
    4
 10
110.55971443865304
 20
166.31892781383609
 11
110.55971443865304
 21
159.36668069172432
  0
LINE
  8
_1-a_
  6
CONTINUOUS
 62
    4
 10
110.55971443865304
 20
159.86668069172432
 11
103.22240202391914
 21
159.86668069172432
  0
LINE
  8
_1-a_
  6
CONTINUOUS
 62
    4
 10
114.1247144386531
 20
159.86668069172432
 11
117.12471443865307
 21
159.86668069172432
  0
LINE
  8
_1-a_
  6
CONTINUOUS
 62
    4
 10
114.1247144386531
 20
154.38832961408027
 11
129.02471443865306
 21
154.38832961408027
  0
LINE
  8
_1-a_
  6
CONTINUOUS
 62
    4
 10
155.7692135540004
 20
167.33926467557327
 11
155.7692135540004
 21
169.83926467557327
  0
LINE
  8
_1-a_
  6
CONTINUOUS
 62
    4
 10
152.55458237396877
 20
179.78926467557326
 11
152.55458237396882
 21
166.28926467557326
  0
LINE
  8
_1-a_
  6
CONTINUOUS
 62
    4
 10
161.08232338593222
 20
154.60437153833365
 11
255.08230929293227
 21
154.60437153833365
  0
LINE
  8
_1-a_
  6
CONTINUOUS
 62
    4
 10
151.72103878624406
 20
144.66316321668901
 11
151.72103878624406
 21
122.91316321668905
  0
LINE
  8
_1-a_
  6
CONTINUOUS
 62
    4
 10
157.58231633943216
 20
119.15707016055235
 11
258.58231633943222
 21
119.15707016055235
  0
LINE
  8
_1-a_
  6
CONTINUOUS
 62
    4
 10
110.55971443865304
 20
159.86668069172432
 11
114.1247144386531
 21
159.86668069172432
  0
LINE
  8
_1-a_
  6
CONTINUOUS
 62
    4
 10
110.55971443865304
 20
159.86668069172432
 11
109.11082569921946
 21
159.47845212407051
  0
LINE
  8
_1-a_
  6
CONTINUOUS
 62
    4
 10
110.55971443865304
 20
159.86668069172432
 11
109.11082569921946
 21
160.25490925937808
  0
LINE
  8
_1-a_
  6
CONTINUOUS
 62
    4
 10
114.1247144386531
 20
159.86668069172432
 11
115.57360317808668
 21
160.25490925937808
  0
LINE
  8
_1-a_
  6
CONTINUOUS
 62
    4
 10
114.1247144386531
 20
159.86668069172432
 11
115.57360317808668
 21
159.47845212407051
  0
LINE
  8
_1-a_
  6
CONTINUOUS
 62
    4
 10
114.1247144386531
 20
154.38832961408027
 11
115.57360317808668
 21
154.77655818173403
  0
LINE
  8
_1-a_
  6
CONTINUOUS
 62
    4
 10
114.1247144386531
 20
154.38832961408027
 11
115.57360317808668
 21
154.00010104642646
  0
LINE
  8
_1-a_
  6
CONTINUOUS
 62
    4
 10
129.02471443865306
 20
154.38832961408027
 11
127.57582569921946
 21
154.00010104642646
  0
LINE
  8
_1-a_
  6
CONTINUOUS
 62
    4
 10
129.02471443865306
 20
154.38832961408027
 11
127.57582569921946
 21
154.77655818173403
  0
LINE
  8
_1-a_
  6
CONTINUOUS
 62
    4
 10
155.7692135540004
 20
165.23926467557325
 11
156.15744212165418
 21
163.79037593613961
  0
LINE
  8
_1-a_
  6
CONTINUOUS
 62
    4
 10
155.7692135540004
 20
165.23926467557325
 11
155.38098498634661
 21
163.79037593613961
  0
LINE
  8
_1-a_
  6
CONTINUOUS
 62
    4
 10
155.7692135540004
 20
167.33926467557327
 11
155.38098498634661
 21
168.78815341500686
  0
LINE
  8
_1-a_
  6
CONTINUOUS
 62
    4
 10
155.7692135540004
 20
167.33926467557327
 11
156.15744212165418
 21
168.78815341500686
  0
LINE
  8
_1-a_
  6
CONTINUOUS
 62
    4
 10
152.55458237396882
 20
166.28926467557326
 11
152.16635380631504
 21
167.73815341500684
  0
LINE
  8
_1-a_
  6
CONTINUOUS
 62
    4
 10
152.55458237396882
 20
166.28926467557326
 11
152.94281094162258
 21
167.73815341500684
  0
LINE
  8
_1-a_
  6
CONTINUOUS
 62
    4
 10
152.55458237396877
 20
179.78926467557326
 11
152.94281094162255
 21
178.34037593613962
  0
LINE
  8
_1-a_
  6
CONTINUOUS
 62
    4
 10
152.55458237396877
 20
179.78926467557326
 11
152.16635380631498
 21
178.34037593613962
  0
LINE
  8
_1-a_
  6
CONTINUOUS
 62
    4
 10
255.08230929293227
 20
154.60437153833365
 11
253.63342055349863
 21
154.21614297067984
  0
LINE
  8
_1-a_
  6
CONTINUOUS
 62
    4
 10
255.08230929293227
 20
154.60437153833365
 11
253.63342055349863
 21
154.9926001059874
  0
LINE
  8
_1-a_
  6
CONTINUOUS
 62
    4
 10
258.58231633943222
 20
119.15707016055235
 11
257.13342759999864
 21
118.76884159289856
  0
LINE
  8
_1-a_
  6
CONTINUOUS
 62
    4
 10
258.58231633943222
 20
119.15707016055235
 11
257.13342759999864
 21
119.54529872820613
  0
LINE
  8
_1-a_
  6
CONTINUOUS
 62
    4
 10
157.58231633943216
 20
119.15707016055235
 11
159.03120507886575
 21
119.54529872820613
  0
LINE
  8
_1-a_
  6
CONTINUOUS
 62
    4
 10
157.58231633943216
 20
119.15707016055235
 11
159.03120507886575
 21
118.76884159289856
  0
LINE
  8
_1-a_
  6
CONTINUOUS
 62
    4
 10
151.72103878624406
 20
122.91316321668905
 11
151.33281021859028
 21
124.36205195612264
  0
LINE
  8
_1-a_
  6
CONTINUOUS
 62
    4
 10
151.72103878624406
 20
122.91316321668905
 11
152.10926735389784
 21
124.36205195612264
  0
LINE
  8
_1-a_
  6
CONTINUOUS
 62
    4
 10
151.72103878624406
 20
144.66316321668901
 11
152.10926735389784
 21
143.2142744772554
  0
LINE
  8
_1-a_
  6
CONTINUOUS
 62
    4
 10
151.72103878624406
 20
144.66316321668901
 11
151.33281021859028
 21
143.2142744772554
  0
LINE
  8
_1-a_
  6
CONTINUOUS
 62
    4
 10
161.08232338593222
 20
154.60437153833365
 11
162.53121212536581
 21
154.9926001059874
  0
LINE
  8
_1-a_
  6
CONTINUOUS
 62
    4
 10
161.08232338593222
 20
154.60437153833365
 11
162.53121212536581
 21
154.21614297067984
  0
LINE
  8
_1-a_
  6
CONTINUOUS
 62
    4
 10
161.08232338593222
 20
164.88272647478069
 11
161.08232338593222
 21
153.97937153833365
  0
LINE
  8
_1-a_
  6
CONTINUOUS
 62
    4
 10
255.08230929293227
 20
164.88272647478069
 11
255.08230929293227
 21
153.97937153833365
  0
TEXT
  8
_1-a_
 62
    7
 10
204.83231633943222
 20
154.94330400763791
 40
4
 41
1
 50
0
  1
188
  0
TEXT
  8
_1-a_
 62
    7
 10
204.83231633943222
 20
119.49600262985659
 40
4
 41
1
 50
0
  1
202
  0
TEXT
  8
_1-a_
 62
    7
 10
152.23696641216801
 20
173.04751199986097
 40
4
 41
1
 50
90
  1
27
  0
TEXT
  8
_1-a_
 62
    7
 10
119.66333737047541
 20
154.91476208338448
 40
4
 41
1
 50
0
  1
50
  0
TEXT
  8
_1-a_
 62
    7
 10
103.26605823128615
 20
160.39311316102853
 40
4
 41
1
 50
0
  1
10
  0
LINE
  8
_1-a_
  6
CONTINUOUS
 62
    4
 10
110.55971443865304
 20
171.64811997959813
 11
110.55971443865304
 21
205.07075451678133
  0
LINE
  8
_1-a_
  6
CONTINUOUS
 62
    4
 10
342.32714693165627
 20
186.30293537467315
 11
354.07507880206594
 21
186.30293537467315
  0
LINE
  8
_1-a_
  6
CONTINUOUS
 62
    4
 10
286.60983729441198
 20
166.13257453254576
 11
286.60983729441198
 21
156.1891017266989
  0
LINE
  8
_1-a_
  6
CONTINUOUS
 62
    4
 10
301.51193052919683
 20
166.45417171097457
 11
301.51193052919683
 21
156.1891017266989
  0
LINE
  8
_1-a_
  6
CONTINUOUS
 62
    4
 10
305.07749646987224
 20
166.71011849135661
 11
305.07749646987224
 21
160.50766899156653
  0
LINE
  8
_1-a_
  6
CONTINUOUS
 62
    4
 10
353.45007880206594
 20
186.30293537467315
 11
353.45007880206594
 21
159.80293584329362
  0
LINE
  8
_1-a_
  6
CONTINUOUS
 62
    4
 10
286.60983729441198
 20
156.6891017266989
 11
301.51193052919683
 21
156.6891017266989
  0
LINE
  8
_1-a_
  6
CONTINUOUS
 62
    4
 10
301.51193052919683
 20
161.00766899156653
 11
298.51193052919683
 21
161.00766899156653
  0
LINE
  8
_1-a_
  6
CONTINUOUS
 62
    4
 10
305.07749646987224
 20
161.00766899156653
 11
312.41480888460625
 21
161.00766899156653
  0
LINE
  8
_1-a_
  6
CONTINUOUS
 62
    4
 10
301.51193052919683
 20
161.00766899156653
 11
305.07749646987224
 21
161.00766899156653
  0
LINE
  8
_1-a_
  6
CONTINUOUS
 62
    4
 10
286.60983729441198
 20
156.6891017266989
 11
288.05872603384557
 21
157.07733029435266
  0
LINE
  8
_1-a_
  6
CONTINUOUS
 62
    4
 10
286.60983729441198
 20
156.6891017266989
 11
288.05872603384557
 21
156.30087315904509
  0
LINE
  8
_1-a_
  6
CONTINUOUS
 62
    4
 10
301.51193052919683
 20
156.6891017266989
 11
300.06304178976319
 21
156.30087315904509
  0
LINE
  8
_1-a_
  6
CONTINUOUS
 62
    4
 10
301.51193052919683
 20
156.6891017266989
 11
300.06304178976319
 21
157.07733029435266
  0
LINE
  8
_1-a_
  6
CONTINUOUS
 62
    4
 10
301.51193052919683
 20
161.00766899156653
 11
300.06304178976319
 21
160.61944042391277
  0
LINE
  8
_1-a_
  6
CONTINUOUS
 62
    4
 10
301.51193052919683
 20
161.00766899156653
 11
300.06304178976319
 21
161.39589755922034
  0
LINE
  8
_1-a_
  6
CONTINUOUS
 62
    4
 10
305.07749646987224
 20
161.00766899156653
 11
306.52638520930588
 21
161.39589755922034
  0
LINE
  8
_1-a_
  6
CONTINUOUS
 62
    4
 10
305.07749646987224
 20
161.00766899156653
 11
306.52638520930588
 21
160.61944042391277
  0
LINE
  8
_1-a_
  6
CONTINUOUS
 62
    4
 10
353.45007880206594
 20
186.30293537467315
 11
353.8383073697197
 21
184.85404663523956
  0
LINE
  8
_1-a_
  6
CONTINUOUS
 62
    4
 10
353.45007880206594
 20
186.30293537467315
 11
353.06185023441219
 21
184.85404663523956
  0
LINE
  8
_1-a_
  6
CONTINUOUS
 62
    4
 10
353.45007880206594
 20
159.80293584329362
 11
353.06185023441219
 21
161.2518245827272
  0
LINE
  8
_1-a_
  6
CONTINUOUS
 62
    4
 10
353.45007880206594
 20
159.80293584329362
 11
353.8383073697197
 21
161.2518245827272
  0
TEXT
  8
_1-a_
 62
    7
 10
291.81871347649621
 20
157.21553419600317
 40
4
 41
1
 50
0
  1
50
  0
TEXT
  8
_1-a_
 62
    7
 10
308.12115267723925
 20
161.5341014608708
 40
4
 41
1
 50
0
  1
10
  0
TEXT
  8
_1-a_
 62
    7
 10
353.11029367246158
 20
171.56828413369404
 40
4
 41
1
 50
90
  1
53
  0
LINE
  8
_1-a_
  6
CONTINUOUS
 62
    4
 10
305.07749646987224
 20
179.39792116353387
 11
305.07749646987224
 21
205.07075451678133
  0
LINE
  8
_1-a_
  6
CONTINUOUS
 62
    4
 10
301.51193052919683
 20
166.45417171097457
 11
301.51193052919683
 21
160.50766899156653
  0
TEXT
  8
_1-a_
 62
    7
 10
267.72607457380757
 20
204.9721869860856
 40
4
 41
1
 50
0
  1
150±10
  0
TEXT
  8
_1-a_
 62
    7
 10
128.94601528164463
 20
204.9721870218849
 40
4
 41
1
 50
0
  1
150±10
  0
TEXT
  8
_1-a_
 62
    7
 10
155.45159759219961
 20
155.43414221574855
 40
4
 41
1
 50
90
  1
4.2
  0
LINE
  8
_1-a_
  6
CONTINUOUS
 62
    4
 10
155.7692135540004
 20
165.23926467557325
 11
155.7692135540004
 21
154.7420208829462
  0
LINE
  8
_1-a_
  6
CONTINUOUS
 62
    4
 10
148.07005113358911
 20
182.78434120252319
 11
148.07005113358917
 21
163.28434120252322
  0
LINE
  8
_1-a_
  6
CONTINUOUS
 62
    4
 10
148.07005113358917
 20
163.28434120252322
 11
147.68182256593536
 21
164.7332299419568
  0
LINE
  8
_1-a_
  6
CONTINUOUS
 62
    4
 10
148.07005113358911
 20
182.78434120252319
 11
147.6818225659353
 21
181.3354524630896
  0
TEXT
  8
_1-a_
 62
    7
 10
147.7302660039848
 20
174.61904601798292
 40
4
 41
1
 50
90
  1
39
  0
LINE
  8
_1-a_
  6
CONTINUOUS
 62
    4
 10
148.07005113358911
 20
182.78434120252319
 11
148.45827970124287
 21
181.3354524630896
  0
LINE
  8
_1-a_
  6
CONTINUOUS
 62
    4
 10
148.07005113358917
 20
163.28434120252322
 11
148.45827970124292
 21
164.7332299419568
  0
LINE
  8
_1-a_
  6
CONTINUOUS
 62
    4
 10
156.58231633943225
 20
163.28434120252322
 11
147.12152411678528
 21
163.28434120252322
  0
LINE
  8
_1-a_
  6
CONTINUOUS
 62
    4
 10
156.58231633943225
 20
182.78434120252319
 11
147.12152411678528
 21
182.78434120252319
  0
LINE
  8
_1-a_
  6
CONTINUOUS
 62
    4
 10
342.32714693165627
 20
159.80293584329362
 11
354.07507880206594
 21
159.80293584329362
  0
LINE
  8
_1-1_
  6
CONTINUOUS
 62
    7
 10
79.191243570955805
 20
182.78434120252313
 11
78.440850142705812
 21
182.78434120252313
  0
LINE
  8
_1-1_
  6
CONTINUOUS
 62
    7
 10
78.440850142705812
 20
168.33926467557321
 11
79.191243570955805
 21
168.33926467557321
  0
LINE
  8
_1-1_
  6
CONTINUOUS
 62
    7
 10
78.440850142705812
 20
167.83926467557321
 11
79.191243570955805
 21
167.83926467557321
  0
LINE
  8
_1-1_
  6
CONTINUOUS
 62
    7
 10
79.191243570955805
 20
165.73926467557319
 11
78.440850142705812
 21
165.73926467557319
  0
LINE
  8
_1-1_
  6
CONTINUOUS
 62
    7
 10
79.191243570955805
 20
165.23926467557319
 11
78.440850142705812
 21
165.23926467557319
  0
LINE
  8
_1-1_
  6
CONTINUOUS
 62
    7
 10
78.440850142705812
 20
181.33926467557319
 11
79.191243570955805
 21
181.33926467557319
  0
LINE
  8
_1-1_
  6
CONTINUOUS
 62
    7
 10
78.440850142705812
 20
180.83926467557319
 11
79.191243570955805
 21
180.83926467557319
  0
LINE
  8
_1-1_
  6
CONTINUOUS
 62
    7
 10
79.191243570955805
 20
178.73926467557319
 11
78.440850142705812
 21
178.73926467557319
  0
LINE
  8
_1-1_
  6
CONTINUOUS
 62
    7
 10
79.191243570955805
 20
178.23926467557319
 11
78.440850142705812
 21
178.23926467557319
  0
LINE
  8
_1-1_
  6
CONTINUOUS
 62
    7
 10
78.440850142705812
 20
163.28434120252316
 11
79.191243570955805
 21
163.28434120252316
  0
LINE
  8
_1-1_
  6
CONTINUOUS
 62
    7
 10
79.191243570955805
 20
182.78434120252313
 11
79.191243570955805
 21
163.28434120252316
  0
LINE
  8
_1-1_
  6
CONTINUOUS
 62
    7
 10
79.191243570955805
 20
182.28434120252313
 11
78.440850142705812
 21
182.28434120252313
  0
LINE
  8
_1-1_
  6
CONTINUOUS
 62
    7
 10
79.191243570955805
 20
163.78434120252316
 11
78.440850142705812
 21
163.78434120252316
  0
ARC
  8
_1-1_
  6
CONTINUOUS
 62
    7
 10
258.08231633943222
 20
167.83926467557321
 40
0.5
 50
270
 51
292.68215622722175
  0
ARC
  8
_1-1_
  6
CONTINUOUS
 62
    7
 10
258.08231633943222
 20
178.23926467557319
 40
0.5
 50
77.779899553192421
 51
90
  0
ARC
  8
_1-1_
  6
DASHED1
 62
    7
 10
258.08231633943222
 20
178.23926467557319
 40
0.5
 50
0
 51
77.779899553192421
  0
ARC
  8
_1-1_
  6
DASHED1
 62
    7
 10
258.08231633943222
 20
167.83926467557321
 40
0.5
 50
292.68215622722175
 51
0.0000000000000127
  0
LINE
  8
_1-1_
  6
CONTINUOUS
 62
    7
 10
258.58231633943222
 20
175.37793552426867
 11
258.58231633943222
 21
170.72793556135698
  0
LINE
  8
_1-1_
  6
DASHED1
 62
    7
 10
258.58231633943222
 20
170.72793556135698
 11
258.58231633943222
 21
167.83926467557321
  0
LINE
  8
_1-1_
  6
DASHED1
 62
    7
 10
258.58231633943222
 20
175.37793552426867
 11
258.58231633943222
 21
178.23926467557319
  0
LINE
  8
_1-1_
  6
CONTINUOUS
 62
    7
 10
277.30820300353713
 20
167.37793556135702
 11
263.00914278043831
 21
167.37793556135702
  0
LINE
  8
_1-1_
  6
CONTINUOUS
 62
    7
 10
277.30820300353735
 20
178.72793552426887
 11
263.00914278043831
 21
178.72793552426887
  0
LINE
  8
_1-1_
  6
CONTINUOUS
 62
    7
 10
157.58231633943222
 20
178.23926467557319
 11
157.58231633943222
 21
171.06433528868424
  0
LINE
  8
_1-1_
  6
DASHED1
 62
    7
 10
157.58231633943222
 20
167.83926467557321
 11
157.58231633943222
 21
171.06433528868424
  0
ARC
  8
_1-1_
  6
DASHED1
 62
    7
 10
158.08231633943222
 20
167.83926467557321
 40
0.5
 50
180
 51
270
  0
TEXT
  8
_1-a_
 62
    7
 10
151.3812536566397
 20
125.98164082487609
 40
4
 41
1
 50
90
  1
43.5
  0
LINE
  8
_1-a_
  6
CONTINUOUS
 62
    4
 10
265.35286623115138
 20
144.66316321668901
 11
265.35286623115138
 21
128.91316321668907
  0
LINE
  8
_1-a_
  6
CONTINUOUS
 62
    4
 10
265.35286623115138
 20
144.66316321668901
 11
265.35286623115138
 21
148.9478420088026
  0
LINE
  8
_1-a_
  6
CONTINUOUS
 62
    4
 10
265.35286623115138
 20
128.91316321668907
 11
265.35286623115138
 21
118.77022353010885
  0
LINE
  8
_1-a_
  6
CONTINUOUS
 62
    4
 10
265.35286623115138
 20
128.91316321668907
 11
265.74109479880513
 21
127.46427447725544
  0
LINE
  8
_1-a_
  6
CONTINUOUS
 62
    4
 10
265.35286623115138
 20
128.91316321668907
 11
264.96463766349756
 21
127.46427447725544
  0
LINE
  8
_1-a_
  6
CONTINUOUS
 62
    4
 10
265.35286623115138
 20
144.66316321668901
 11
264.96463766349756
 21
146.11205195612259
  0
LINE
  8
_1-a_
  6
CONTINUOUS
 62
    4
 10
265.35286623115138
 20
144.66316321668901
 11
265.74109479880513
 21
146.11205195612259
  0
TEXT
  8
_1-a_
 62
    7
 10
265.0130811015469
 20
119.46730636563255
 40
4
 41
1
 50
90
  1
31.5
  0
ARC
  8
_1-1_
  6
CONTINUOUS
 62
    7
 10
280.02138411269436
 20
139.69829689049379
 40
0.7057582568062442
 50
114.9553729531992
 51
245.04462704680079
  0
ARC
  8
_1-1_
  6
CONTINUOUS
 62
    7
 10
278.62351175333435
 20
138.02329689049381
 40
1.5105400527209482
 50
316.74284832057333
 51
43.257151679431196
  0
ARC
  8
_1-1_
  6
CONTINUOUS
 62
    7
 10
277.60597103683113
 20
139.69829689049379
 40
0.7057582568062442
 50
114.9553729531992
 51
245.04462704680079
  0
ARC
  8
_1-1_
  6
CONTINUOUS
 62
    7
 10
276.20809867747124
 20
138.02329689049386
 40
1.5105400527208456
 50
316.74284832057122
 51
43.257151679432638
  0
LINE
  8
_1-1_
  6
CONTINUOUS
 62
    7
 10
286.60983729441198
 20
140.33816321668896
 11
286.60983729441198
 21
136.98816321668894
  0
LINE
  8
_1-1_
  6
CONTINUOUS
 62
    7
 10
301.51193052919677
 20
138.40936298394569
 11
301.51193052919677
 21
137.6300277427274
  0
LINE
  8
_1-1_
  6
CONTINUOUS
 62
    7
 10
286.60983729441198
 20
137.6300277427274
 11
301.51193052919677
 21
137.6300277427274
  0
LINE
  8
_1-1_
  6
CONTINUOUS
 62
    7
 10
286.60983729441198
 20
138.40936298394569
 11
301.51193052919677
 21
138.40936298394569
  0
LINE
  8
_1-1_
  6
CONTINUOUS
 62
    7
 10
301.51193052919677
 20
139.83189258202156
 11
301.51193052919677
 21
139.05255734080324
  0
LINE
  8
_1-1_
  6
CONTINUOUS
 62
    7
 10
286.60983729441198
 20
139.05255734080324
 11
301.51193052919677
 21
139.05255734080324
  0
LINE
  8
_1-1_
  6
CONTINUOUS
 62
    7
 10
286.60983729441198
 20
139.83189258202156
 11
301.51193052919677
 21
139.83189258202156
  0
LINE
  8
_1-1_
  6
CONTINUOUS
 62
    7
 10
301.51193052919677
 20
138.15341620356366
 11
301.51193052919677
 21
137.88597452310946
  0
LINE
  8
_1-1_
  6
CONTINUOUS
 62
    7
 10
305.07749646987224
 20
138.15341620356366
 11
301.51193052919677
 21
138.15341620356366
  0
LINE
  8
_1-1_
  6
CONTINUOUS
 62
    7
 10
305.07749646987224
 20
137.88597452310946
 11
305.07749646987224
 21
138.15341620356366
  0
LINE
  8
_1-1_
  6
CONTINUOUS
 62
    7
 10
301.51193052919677
 20
137.88597452310946
 11
305.07749646987224
 21
137.88597452310946
  0
LINE
  8
_1-1_
  6
CONTINUOUS
 62
    7
 10
301.51193052919677
 20
139.3085041211853
 11
305.07749646987224
 21
139.3085041211853
  0
LINE
  8
_1-1_
  6
CONTINUOUS
 62
    7
 10
305.07749646987224
 20
139.3085041211853
 11
305.07749646987224
 21
139.57594580163956
  0
LINE
  8
_1-1_
  6
CONTINUOUS
 62
    7
 10
305.07749646987224
 20
139.57594580163956
 11
301.51193052919677
 21
139.57594580163956
  0
LINE
  8
_1-1_
  6
CONTINUOUS
 62
    7
 10
301.51193052919677
 20
139.57594580163956
 11
301.51193052919677
 21
139.3085041211853
  0
LINE
  8
_1-1_
  6
CONTINUOUS
 62
    7
 10
286.60983729441198
 20
140.33816321668896
 11
279.72361607940052
 21
140.33816321668896
  0
LINE
  8
_1-1_
  6
CONTINUOUS
 62
    7
 10
286.60983729441198
 20
136.98816321668894
 11
279.72361607940052
 21
136.98816321668894
  0
ARC
  8
_1-1_
  6
CONTINUOUS
 62
    7
 10
136.25017270218825
 20
139.92566321668891
 40
1.459246466038893
 50
316.06425193171537
 51
43.9357480682811
  0
ARC
  8
_1-1_
  6
CONTINUOUS
 62
    7
 10
138.35183299695233
 20
137.90066321668896
 40
1.459246466038883
 50
136.064251931715
 51
223.93574806828149
  0
ARC
  8
_1-1_
  6
CONTINUOUS
 62
    7
 10
138.66558577805147
 20
139.92566321668886
 40
1.4592464660387713
 50
316.06425193171389
 51
43.93574806828775
  0
ARC
  8
_1-1_
  6
CONTINUOUS
 62
    7
 10
140.76724607281545
 20
137.90066321668896
 40
1.4592464660388724
 50
136.0642519317146
 51
223.93574806828189
  0
LINE
  8
_1-1_
  6
CONTINUOUS
 62
    7
 10
129.02471443865306
 20
140.93816321668896
 11
129.02471443865306
 21
136.88816321668889
  0
LINE
  8
_1-1_
  6
CONTINUOUS
 62
    7
 10
115.36726471304059
 20
138.29703941379764
 11
115.36726471304059
 21
137.51770417257941
  0
LINE
  8
_1-1_
  6
CONTINUOUS
 62
    7
 10
115.36726471304059
 20
137.75278439126111
 11
111.80226471304059
 21
137.75278439126111
  0
LINE
  8
_1-1_
  6
CONTINUOUS
 62
    7
 10
111.80226471304059
 20
137.75278439126111
 11
111.80226471304059
 21
138.02022607171537
  0
LINE
  8
_1-1_
  6
CONTINUOUS
 62
    7
 10
111.80226471304059
 20
138.02022607171537
 11
115.36726471304059
 21
138.02022607171537
  0
LINE
  8
_1-1_
  6
CONTINUOUS
 62
    7
 10
115.36726471304059
 20
138.02022607171537
 11
115.36726471304059
 21
137.75278439126111
  0
LINE
  8
_1-1_
  6
CONTINUOUS
 62
    7
 10
129.02471443865306
 20
137.51770417257941
 11
115.36726471304059
 21
137.51770417257941
  0
LINE
  8
_1-1_
  6
CONTINUOUS
 62
    7
 10
129.02471443865306
 20
138.29703941379764
 11
115.36726471304059
 21
138.29703941379764
  0
LINE
  8
_1-1_
  6
CONTINUOUS
 62
    7
 10
115.36726471304059
 20
139.36285948671846
 11
115.36726471304059
 21
138.58352424550014
  0
LINE
  8
_1-1_
  6
CONTINUOUS
 62
    7
 10
115.36726471304059
 20
138.81860446418184
 11
111.80226471304059
 21
138.81860446418184
  0
LINE
  8
_1-1_
  6
CONTINUOUS
 62
    7
 10
111.80226471304059
 20
138.81860446418184
 11
111.80226471304059
 21
139.0860461446361
  0
LINE
  8
_1-1_
  6
CONTINUOUS
 62
    7
 10
111.80226471304059
 20
139.0860461446361
 11
115.36726471304059
 21
139.0860461446361
  0
LINE
  8
_1-1_
  6
CONTINUOUS
 62
    7
 10
115.36726471304059
 20
139.0860461446361
 11
115.36726471304059
 21
138.81860446418184
  0
LINE
  8
_1-1_
  6
CONTINUOUS
 62
    7
 10
129.02471443865306
 20
138.58352424550014
 11
115.36726471304059
 21
138.58352424550014
  0
LINE
  8
_1-1_
  6
CONTINUOUS
 62
    7
 10
129.02471443865306
 20
139.36285948671846
 11
115.36726471304059
 21
139.36285948671846
  0
LINE
  8
_1-1_
  6
CONTINUOUS
 62
    7
 10
115.36726471304059
 20
140.35878989910551
 11
115.36726471304059
 21
139.57945465788719
  0
LINE
  8
_1-1_
  6
CONTINUOUS
 62
    7
 10
115.36726471304059
 20
139.81453487656889
 11
111.80226471304059
 21
139.81453487656889
  0
LINE
  8
_1-1_
  6
CONTINUOUS
 62
    7
 10
111.80226471304059
 20
139.81453487656889
 11
111.80226471304059
 21
140.08197655702315
  0
LINE
  8
_1-1_
  6
CONTINUOUS
 62
    7
 10
111.80226471304059
 20
140.08197655702315
 11
115.36726471304059
 21
140.08197655702315
  0
LINE
  8
_1-1_
  6
CONTINUOUS
 62
    7
 10
115.36726471304059
 20
140.08197655702315
 11
115.36726471304059
 21
139.81453487656889
  0
LINE
  8
_1-1_
  6
CONTINUOUS
 62
    7
 10
129.02471443865306
 20
139.57945465788719
 11
115.36726471304059
 21
139.57945465788719
  0
LINE
  8
_1-1_
  6
CONTINUOUS
 62
    7
 10
129.02471443865306
 20
140.35878989910551
 11
115.36726471304059
 21
140.35878989910551
  0
LINE
  8
_1-1_
  6
CONTINUOUS
 62
    7
 10
129.02471443865306
 20
140.93816321668896
 11
137.30100284957023
 21
140.93816321668896
  0
LINE
  8
_1-1_
  6
CONTINUOUS
 62
    7
 10
129.02471443865306
 20
136.88816321668889
 11
137.30100284957023
 21
136.88816321668889
  0
TEXT
  8
_f-0_
 62
    7
 10
337.78431840890578
 20
57.439636205326436
 40
4.0044000000000039
 41
1.0000000000000004
 50
0
  1
原田
  0
TEXT
  8
_f-0_
 62
    7
 10
352.46326735679451
 20
57.78471583666284
 40
3.00330000000001
 41
0.9999999999999974
 50
0
  1
2021年11月22日
  0
TEXT
  8
_f-0_
 62
    7
 10
353.7499858514181
 20
47.115327295762256
 40
4
 41
1
 50
0
  1
OT 90/100-200/24-G3
  0
TEXT
  8
_0-0_
 62
    7
 10
294.07461354529561
 20
264.43072778248546
 40
3.0032999999999674
 41
1.0000000000000133
 50
0
  1
2022 . 4. 18
  0
TEXT
  8
_0-0_
 62
    7
 10
319.9505637038905
 20
264.43072778248546
 40
3.0032999999999674
 41
1.0000000000000133
 50
0
  1
品名の更新
  0
TEXT
  8
_0-0_
 62
    7
 10
393.3145893163018
 20
47.150447084727204
 40
3.0033000000000242
 41
0.9999999999999811
 50
0
  1
1
  0
LINE
  8
_0-0_
  6
CONTINUOUS
 62
    7
 10
394.17961931950532
 20
51.436810721724839
 11
396.43209431950526
 21
46.931858719524768
  0
LINE
  8
_0-0_
  6
CONTINUOUS
 62
    7
 10
394.17961931950532
 20
51.436810721724839
 11
391.92715232830539
 21
46.931858719524768
  0
LINE
  8
_0-0_
  6
CONTINUOUS
 62
    7
 10
391.93971352083218
 20
46.915592028027276
 11
396.44465551203211
 21
46.915592028027276
  0
LINE
  8
_0-0_
  6
CONTINUOUS
 62
    7
 10
22.422712762078276
 20
102.95645482464634
 11
22.422712762078276
 21
186.85145482464633
  0
LINE
  8
_0-0_
  6
CONTINUOUS
 62
    7
 10
28.591462762078265
 20
264.03732232464636
 11
28.591462762078265
 21
212.2198223246464
  0
LINE
  8
_0-0_
  6
CONTINUOUS
 62
    7
 10
22.422712762078276
 20
212.2198223246464
 11
22.422712762078276
 21
264.03732232464636
  0
LINE
  8
_0-0_
  6
CONTINUOUS
 62
    7
 10
28.591462762078265
 20
186.85145482464633
 11
28.591462762078265
 21
102.95645482464634
  0
LINE
  8
_0-0_
  6
CONTINUOUS
 62
    7
 10
22.422712762078276
 20
264.03732232464636
 11
34.642090369810688
 21
264.03732232464636
  0
LINE
  8
_0-0_
  6
CONTINUOUS
 62
    7
 10
22.422712762078276
 20
246.76482232464636
 11
34.642090369810688
 21
246.76482232464636
  0
LINE
  8
_0-0_
  6
CONTINUOUS
 62
    7
 10
34.642090369810688
 20
229.49232232464638
 11
22.422712762078276
 21
229.49232232464638
  0
LINE
  8
_0-0_
  6
CONTINUOUS
 62
    7
 10
34.642090369810688
 20
212.2198223246464
 11
22.422712762078276
 21
212.2198223246464
  0
LINE
  8
_0-0_
  6
CONTINUOUS
 62
    7
 10
22.422712762078276
 20
186.85145482464633
 11
34.642090369810688
 21
186.85145482464633
  0
LINE
  8
_0-0_
  6
CONTINUOUS
 62
    7
 10
22.422712762078276
 20
172.04645482464636
 11
34.642090369810688
 21
172.04645482464636
  0
LINE
  8
_0-0_
  6
CONTINUOUS
 62
    7
 10
34.642090369810688
 20
157.24145482464635
 11
22.422712762078276
 21
157.24145482464635
  0
LINE
  8
_0-0_
  6
CONTINUOUS
 62
    7
 10
22.422712762078276
 20
142.43645482464637
 11
34.642090369810688
 21
142.43645482464637
  0
LINE
  8
_0-0_
  6
CONTINUOUS
 62
    7
 10
34.642090369810688
 20
127.63145482464638
 11
22.422712762078276
 21
127.63145482464638
  0
LINE
  8
_0-0_
  6
CONTINUOUS
 62
    7
 10
22.422712762078276
 20
112.82645482464637
 11
34.642090369810688
 21
112.82645482464637
  0
LINE
  8
_0-0_
  6
CONTINUOUS
 62
    7
 10
34.642090369810688
 20
102.95645482464634
 11
22.422712762078276
 21
102.95645482464634
  0
TEXT
  8
_0-0_
 62
    7
 10
33.467401565944442
 20
250.23107009214638
 40
3.7012499999999874
 41
0.6984130000000019
 50
90
  1
JIS  2級
  0
TEXT
  8
_0-0_
 62
    7
 10
27.357712762078278
 20
247.69013790902133
 40
3.7012500000000159
 41
0.8333329999999975
 50
90
  1
ネジの等級
  0
TEXT
  8
_0-0_
 62
    7
 10
33.437982774617779
 20
234.09903100580899
 40
3.7012499999999897
 41
0.8680560000000048
 50
89.580999999999988
  1
±0.1
  0
TEXT
  8
_0-0_
 62
    7
 10
27.357712762078278
 20
229.49231800652134
 40
3.7012499999999874
 41
0.6666670000000022
 50
90
  1
偏心又は片寄り
  0
TEXT
  8
_0-0_
 62
    7
 10
27.340241543179843
 20
217.76128289152021
 40
3.7012500000000518
 41
0.8333329999999942
 50
89.676000000000001
  1
角度
  0
TEXT
  8
_0-0_
 62
    7
 10
33.44768285204941
 20
216.83092916368562
 40
3.7012500000000154
 41
0.8680559999999943
 50
89.719000000000036
  1
±30'
  0
TEXT
  8
_0-0_
 62
    7
 10
33.467401565944442
 20
175.43283948714636
 40
3.7012499999999874
 41
0.868056000000005
 50
90
  1
±0.8
  0
TEXT
  8
_0-0_
 62
    7
 10
28.318275262078259
 20
174.37295482464637
 40
2.5380000000000109
 41
0.9999999999999968
 50
90
  1
1000以下
  0
TEXT
  8
_0-0_
 62
    7
 10
25.290348407179777
 20
173.75129228070372
 40
2.5379999999999753
 41
1.0000000000000086
 50
90.566999999999993
  1
250をこえ
  0
TEXT
  8
_0-0_
 62
    7
 10
33.46740156594447
 20
160.62783948714636
 40
3.7012500000000159
 41
0.8680559999999971
 50
90
  1
±0.5
  0
TEXT
  8
_0-0_
 62
    7
 10
28.318275262078259
 20
160.20245482464636
 40
2.5380000000000109
 41
0.9999999999999952
 50
90
  1
250以下
  0
TEXT
  8
_0-0_
 62
    7
 10
25.194261012924698
 20
159.55820914242056
 40
2.5380000000000064
 41
0.9999999999999954
 50
89.553000000000011
  1
63をこえ
  0
TEXT
  8
_0-0_
 62
    7
 10
28.318275262078259
 20
146.03195482464639
 40
2.5380000000000109
 41
0.9999999999999942
 50
90
  1
63以下
  0
TEXT
  8
_0-0_
 62
    7
 10
33.46740156594447
 20
145.82283948714638
 40
3.7012500000000159
 41
0.8680559999999946
 50
90
  1
±0.3
  0
TEXT
  8
_0-0_
 62
    7
 10
25.189200914005709
 20
144.751988644919
 40
2.5379999999999887
 41
1.0000000000000042
 50
89.496000000000009
  1
16をこえ
  0
TEXT
  8
_0-0_
 62
    7
 10
28.318275262078259
 20
131.22695482464638
 40
2.5380000000000109
 41
0.9999999999999981
 50
90
  1
16以下
  0
TEXT
  8
_0-0_
 62
    7
 10
33.467401565944442
 20
131.01783948714637
 40
3.7012499999999874
 41
0.868056000000004
 50
90
  1
±0.2
  0
TEXT
  8
_0-0_
 62
    7
 10
25.213732377892284
 20
130.58674203498682
 40
2.5380000000000042
 41
0.9999999999999996
 50
89.740000000000094
  1
4をこえ
  0
TEXT
  8
_0-0_
 62
    7
 10
33.452809760676018
 20
116.20614767011214
 40
3.7012500000000447
 41
0.8680559999999907
 50
89.792000000000086
  1
±0.1
  0
TEXT
  8
_0-0_
 62
    7
 10
27.357712762078278
 20
115.60239417527138
 40
3.7012500000000159
 41
0.8333329999999965
 50
90
  1
４以下
  0
TEXT
  8
_0-0_
 62
    7
 10
27.357712762078278
 20
104.80708105839637
 40
3.7012500000000159
 41
0.8333329999999943
 50
90
  1
寸法
  0
TEXT
  8
_0-0_
 62
    7
 10
33.448571864667172
 20
103.25740666816939
 40
3.7012499999999279
 41
0.8333330000000178
 50
89.767000000000066
  1
寸法差
  0
LINE
  8
_1-1_
  6
CONTINUOUS
 62
    4
 10
140.43783922518133
 20
171.17250420460609
 11
141.14192213063074
 21
172.49699175164229
  0
LINE
  8
_1-a_
  6
CONTINUOUS
 62
    4
 10
163.08231633943222
 20
204.44575455258063
 11
161.63342759999861
 21
204.05752598492682
  0
LINE
  8
_1-a_
  6
CONTINUOUS
 62
    4
 10
163.08231633943222
 20
204.44575455258063
 11
161.63342759999861
 21
204.83398312023439
  0
LINE
  8
_1-a_
  6
CONTINUOUS
 62
    4
 10
163.08231633943222
 20
204.44575451678133
 11
164.5312050788658
 21
204.83398308443508
  0
LINE
  8
_1-a_
  6
CONTINUOUS
 62
    4
 10
163.08231633943222
 20
204.44575451678133
 11
164.5312050788658
 21
204.05752594912752
  0
LINE
  8
_1-1_
  6
CONTINUOUS
 62
    7
 10
163.83231633943222
 20
122.91316321668894
 11
157.58231633943216
 21
122.91316321668894
  0
LINE
  8
_1-1_
  6
CONTINUOUS
 62
    7
 10
163.08231633943222
 20
123.66355664493893
 11
157.58231633943216
 21
123.66355664493893
  0
ARC
  8
_1-1_
  6
CONTINUOUS
 62
    7
 10
162.58231633943222
 20
144.16316321668895
 40
0.5
 50
90
 51
180
  0
ARC
  8
_1-1_
  6
CONTINUOUS
 62
    7
 10
162.58231633943222
 20
143.66327833033895
 40
0.5
 50
180
 51
270
  0
LINE
  8
_1-1_
  6
CONTINUOUS
 62
    7
 10
163.83231633943222
 20
144.66316321668895
 11
162.58231633943222
 21
144.66316321668895
  0
LINE
  8
_1-1_
  6
CONTINUOUS
 62
    7
 10
163.83231633943222
 20
143.40557190023892
 11
163.08231633943222
 21
143.40557190023892
  0
LINE
  8
_1-1_
  6
CONTINUOUS
 62
    7
 10
163.08231633943222
 20
143.16327833033895
 11
162.58231633943222
 21
143.16327833033895
  0
LINE
  8
_1-1_
  6
CONTINUOUS
 62
    7
 10
162.08231633943222
 20
144.16316321668895
 11
162.08231633943222
 21
143.66327833033895
  0
LINE
  8
_1-1_
  6
CONTINUOUS
 62
    7
 10
163.08231633943222
 20
144.66316321668895
 11
163.08231633943222
 21
123.66355664493893
  0
LINE
  8
_1-1_
  6
CONTINUOUS
 62
    7
 10
163.83231633943222
 20
144.66316321668895
 11
163.83231633943222
 21
122.91316321668894
  0
LINE
  8
_1-1_
  6
CONTINUOUS
 62
    7
 10
163.83231633943222
 20
124.16962512298893
 11
163.08231633943222
 21
124.16962512298893
  0
LINE
  8
_1-1_
  6
CONTINUOUS
 62
    7
 10
163.83231633943222
 20
128.91316321668895
 11
163.83231633943222
 21
144.66316321668895
  0
LINE
  8
_1-1_
  6
CONTINUOUS
 62
    7
 10
163.83231633943222
 20
128.91316321668895
 11
163.83231633943222
 21
144.66316321668895
  0
LINE
  8
_1-1_
  6
CONTINUOUS
 62
    7
 10
163.08231633943222
 20
162.82145933947319
 11
163.08231633943222
 21
186.30293537467309
  0
LINE
  8
_1-1_
  6
CONTINUOUS
 62
    7
 10
163.83231633943222
 20
159.82235212817315
 11
163.83231633943222
 21
160.74345056122317
  0
LINE
  8
_1-1_
  6
CONTINUOUS
 62
    7
 10
163.83231633943222
 20
160.75179066637312
 11
163.83231633943222
 21
184.72297781972309
  0
LINE
  8
_1-1_
  6
CONTINUOUS
 62
    7
 10
163.83231633943222
 20
184.73244469667309
 11
163.83231633943222
 21
186.30286459087318
  0
LINE
  8
_1-1_
  6
CONTINUOUS
 62
    7
 10
163.83231633943222
 20
159.80293595112314
 11
163.08231633943222
 21
159.80293595112314
  0
LINE
  8
_1-1_
  6
CONTINUOUS
 62
    7
 10
163.83231633943222
 20
161.06024890872308
 11
163.08231633943222
 21
161.06024890872308
  0
LINE
  8
_1-1_
  6
CONTINUOUS
 62
    7
 10
163.83231633943222
 20
159.80293595112314
 11
163.83231633943222
 21
186.30293537467309
  0
LINE
  8
_1-1_
  6
CONTINUOUS
 62
    7
 10
163.08231633943222
 20
159.80293595112314
 11
163.08231633943222
 21
162.82145933947319
  0
LINE
  8
_1-1_
  6
CONTINUOUS
 62
    7
 10
163.83231633943222
 20
185.04562241707316
 11
163.08231633943222
 21
185.04562241707316
  0
LINE
  8
_1-1_
  6
CONTINUOUS
 62
    7
 10
163.83231633943222
 20
186.30293537467309
 11
163.08231633943222
 21
186.30293537467309
  0
LINE
  8
_1-1_
  6
CONTINUOUS
 62
    7
 10
163.83231633943222
 20
186.30286459087318
 11
164.33231633943222
 21
186.30293537467309
  0
LINE
  8
_1-1_
  6
CONTINUOUS
 62
    7
 10
164.33231633943222
 20
186.30293537467309
 11
164.33231633943222
 21
159.82228134437312
  0
LINE
  8
_1-1_
  6
CONTINUOUS
 62
    7
 10
164.33231633943222
 20
159.82228134437312
 11
163.83231633943222
 21
159.82235212817315
  0
LINE
  8
_1-1_
  6
CONTINUOUS
 62
    7
 10
163.08231633943222
 20
172.83933528863425
 11
163.08231633943222
 21
165.23933528873422
  0
LINE
  8
_1-1_
  6
CONTINUOUS
 62
    7
 10
163.83231633943222
 20
159.82235212817315
 11
163.83231633943222
 21
160.74345056122317
  0
LINE
  8
_1-1_
  6
CONTINUOUS
 62
    7
 10
163.83231633943222
 20
160.75179066637312
 11
163.83231633943222
 21
184.72297781972309
  0
LINE
  8
_1-1_
  6
CONTINUOUS
 62
    7
 10
163.83231633943222
 20
184.73244469667309
 11
163.83231633943222
 21
186.30286459087318
  0
LINE
  8
_1-1_
  6
CONTINUOUS
 62
    7
 10
163.83231633943222
 20
159.80293595112314
 11
163.08231633943222
 21
159.80293595112314
  0
LINE
  8
_1-1_
  6
CONTINUOUS
 62
    7
 10
163.83231633943222
 20
161.06024890872308
 11
163.08231633943222
 21
161.06024890872308
  0
LINE
  8
_1-1_
  6
CONTINUOUS
 62
    7
 10
163.83231633943222
 20
159.80293595112314
 11
163.83231633943222
 21
186.30293537467309
  0
LINE
  8
_1-1_
  6
CONTINUOUS
 62
    7
 10
163.08231633943222
 20
159.80293595112314
 11
163.08231633943222
 21
162.82145933947319
  0
LINE
  8
_1-1_
  6
CONTINUOUS
 62
    7
 10
163.08231633943222
 20
162.82145933947319
 11
163.08231633943222
 21
186.30293537467309
  0
LINE
  8
_1-1_
  6
CONTINUOUS
 62
    7
 10
163.83231633943222
 20
185.04562241707316
 11
163.08231633943222
 21
185.04562241707316
  0
LINE
  8
_1-1_
  6
CONTINUOUS
 62
    7
 10
163.83231633943222
 20
186.30293537467309
 11
163.08231633943222
 21
186.30293537467309
  0
LINE
  8
_1-1_
  6
CONTINUOUS
 62
    7
 10
163.08231633943222
 20
180.88588136432014
 11
163.08231633943222
 21
173.28588136442019
  0
LINE
  8
_1-1_
  6
CONTINUOUS
 62
    7
 10
163.08231633943222
 20
178.50841096244604
 11
163.08231633943222
 21
175.66335176629431
  0
LINE
  8
_1-1_
  6
CONTINUOUS
 62
    7
 10
163.08231633943222
 20
180.88588136432014
 11
163.08231633943222
 21
173.28588136442019
  0
LINE
  8
_1-1_
  6
CONTINUOUS
 62
    7
 10
163.83231633943222
 20
186.30286459087318
 11
163.08231633943222
 21
186.30286459087318
  0
LINE
  8
_1-1_
  6
CONTINUOUS
 62
    7
 10
163.83231633943222
 20
185.04555163327319
 11
163.08231633943222
 21
185.04555163327319
  0
LINE
  8
_1-1_
  6
CONTINUOUS
 62
    7
 10
163.08231633943222
 20
183.28434120252313
 11
162.08231633943222
 21
183.28434120252313
  0
LINE
  8
_1-1_
  6
CONTINUOUS
 62
    7
 10
163.83231633943222
 20
186.30286459087318
 11
163.83231633943222
 21
159.80286516732317
  0
LINE
  8
_1-1_
  6
CONTINUOUS
 62
    7
 10
163.08231633943222
 20
186.30286459087318
 11
163.08231633943222
 21
182.78434120252313
  0
LINE
  8
_1-1_
  6
CONTINUOUS
 62
    7
 10
163.08231633943222
 20
163.28434120252316
 11
163.08231633943222
 21
159.80286516732317
  0
LINE
  8
_1-1_
  6
CONTINUOUS
 62
    7
 10
162.58231633943222
 20
183.28434120252313
 11
162.58231633943222
 21
182.78434120252313
  0
LINE
  8
_1-1_
  6
CONTINUOUS
 62
    7
 10
162.58231633943222
 20
163.28434120252316
 11
162.58231633943222
 21
162.78434120252316
  0
LINE
  8
_1-1_
  6
CONTINUOUS
 62
    7
 10
162.08231633943222
 20
183.28434120252313
 11
162.08231633943222
 21
182.78434120252313
  0
LINE
  8
_1-1_
  6
CONTINUOUS
 62
    7
 10
162.08231633943222
 20
180.51457020552322
 11
162.08231633943222
 21
179.06395914562321
  0
LINE
  8
_1-1_
  6
CONTINUOUS
 62
    7
 10
162.08231633943222
 20
173.6516935394732
 11
162.08231633943222
 21
172.42683581162319
  0
LINE
  8
_1-1_
  6
CONTINUOUS
 62
    7
 10
162.08231633943222
 20
167.01457020552319
 11
162.08231633943222
 21
165.56395914562321
  0
LINE
  8
_1-1_
  6
CONTINUOUS
 62
    7
 10
162.08231633943222
 20
163.28434120252316
 11
162.08231633943222
 21
162.78434120252316
  0
LINE
  8
_1-1_
  6
CONTINUOUS
 62
    7
 10
163.08231633943222
 20
162.78434120252316
 11
162.08231633943222
 21
162.78434120252316
  0
LINE
  8
_1-1_
  6
CONTINUOUS
 62
    7
 10
163.83231633943222
 20
161.06017812492316
 11
163.08231633943222
 21
161.06017812492316
  0
LINE
  8
_1-1_
  6
CONTINUOUS
 62
    7
 10
163.83231633943222
 20
159.80286516732317
 11
163.08231633943222
 21
159.80286516732317
  0
LINE
  8
_1-1_
  6
CONTINUOUS
 62
    7
 10
162.08231633943222
 20
162.82145933947319
 11
162.08231633943222
 21
183.28434120252313
  0
LINE
  8
_1-1_
  6
CONTINUOUS
 62
    7
 10
163.08231633943222
 20
182.78434120252313
 11
158.08231633943222
 21
182.78434120252313
  0
LINE
  8
_1-1_
  6
CONTINUOUS
 62
    7
 10
161.33232338593222
 20
180.83926467557319
 11
158.08231633943222
 21
180.83926467557319
  0
LINE
  8
_1-1_
  6
CONTINUOUS
 62
    7
 10
158.08231633943222
 20
178.73926467557319
 11
161.33232338593222
 21
178.73926467557319
  0
LINE
  8
_1-1_
  6
CONTINUOUS
 62
    7
 10
161.2323233859322
 20
174.08926467557321
 11
159.2323233859322
 21
174.08926467557321
  0
LINE
  8
_1-1_
  6
CONTINUOUS
 62
    7
 10
159.2323233859322
 20
171.98926467557319
 11
161.2323233859322
 21
171.98926467557319
  0
LINE
  8
_1-1_
  6
CONTINUOUS
 62
    7
 10
158.08231633943222
 20
165.23926467557319
 11
161.33232338593222
 21
165.23926467557319
  0
LINE
  8
_1-1_
  6
CONTINUOUS
 62
    7
 10
163.08231633943222
 20
163.28434120252316
 11
158.08231633943222
 21
163.28434120252316
  0
LINE
  8
_1-a_
  6
CONTINUOUS
 62
    4
 10
162.08231633943225
 20
144.66316321668901
 11
151.09603878624406
 21
144.66316321668901
  0
LINE
  8
_1-a_
  6
CONTINUOUS
 62
    4
 10
160.09454410911189
 20
166.28926467557326
 11
151.92958237396882
 21
166.28926467557326
  0
LINE
  8
_1-a_
  6
CONTINUOUS
 62
    4
 10
110.55971443865304
 20
204.44575455258063
 11
163.08231633943222
 21
204.44575455258063
  0
LINE
  8
_1-a_
  6
CONTINUOUS
 62
    4
 10
163.08231633943222
 20
187.80293537467309
 11
163.08231633943222
 21
205.07075451678133
  0
LINE
  8
_1-a_
  6
CONTINUOUS
 62
    4
 10
160.09454410911189
 20
179.78926467557326
 11
151.92958237396877
 21
179.78926467557326
  0
ARC
  8
_1-1_
  6
CONTINUOUS
 62
    7
 10
161.33232338593222
 20
179.7892646755732
 40
1.05
 50
270
 51
315.95868950293566
  0
ARC
  8
_1-1_
  6
CONTINUOUS
 62
    7
 10
161.33232338593222
 20
179.7892646755732
 40
1.05
 50
44.41585800785571
 51
90
  0
ARC
  8
_1-1_
  6
CONTINUOUS
 62
    7
 10
161.2323233859322
 20
173.0392646755732
 40
1.05
 50
270
 51
324.04877744135956
  0
ARC
  8
_1-1_
  6
CONTINUOUS
 62
    7
 10
161.2323233859322
 20
173.0392646755732
 40
1.05
 50
35.773146667025045
 51
90
  0
ARC
  8
_1-1_
  6
CONTINUOUS
 62
    7
 10
161.33232338593222
 20
166.2892646755732
 40
1.05
 50
270
 51
315.58414199214428
  0
ARC
  8
_1-1_
  6
DASHED1
 62
    7
 10
161.23087321771788
 20
173.04128240042109
 40
1.05
 50
324.18378212853474
 51
35.637557862680857
  0
ARC
  8
_1-1_
  6
DASHED1
 62
    7
 10
161.32767506496543
 20
179.78449038326326
 40
1.05
 50
315.9477464833788
 51
44.052253516620623
  0
LINE
  8
_1-1_
  6
CONTINUOUS
 62
    7
 10
139.71641592543329
 20
167.01433528868423
 11
162.08231633943222
 21
167.01433528868423
  0
LINE
  8
_1-1_
  6
CONTINUOUS
 62
    7
 10
139.71641592543329
 20
171.06433528868424
 11
162.08231633943222
 21
171.06433528868424
  0
LINE
  8
_1-1_
  6
DASHED1
 62
    7
 10
162.08231633943222
 20
171.06433528868424
 11
163.08231633943222
 21
171.06433528868424
  0
LINE
  8
_1-1_
  6
DASHED1
 62
    7
 10
162.08231633943222
 20
167.01457020552319
 11
163.08231633943222
 21
167.01457020552319
  0
ARC
  8
_1-1_
  6
DASHED1
 62
    7
 10
161.33232338593222
 20
166.2892646755732
 40
1.05
 50
315.58414199214331
 51
90.000000000000554
  0
LINE
  8
_1-1_
  6
DASHED1
 62
    7
 10
158.08231633943222
 20
167.33926467557321
 11
161.33232338593222
 21
167.33926467557321
  0
LINE
  8
_1-1_
  6
CONTINUOUS
 62
    7
 10
164.33231633943222
 20
128.91316321668895
 11
164.33231633943222
 21
144.66316321958902
  0
LINE
  8
_1-1_
  6
CONTINUOUS
 62
    7
 10
139.71641592543329
 20
140.93816321668896
 11
163.08231633943219
 21
140.93816321668896
  0
LINE
  8
_1-1_
  6
CONTINUOUS
 62
    7
 10
139.7164159254334
 20
136.88816321668889
 11
163.08231633943219
 21
136.88816321668889
  0
LINE
  8
_1-a_
  6
CONTINUOUS
 62
    4
 10
253.08231633943222
 20
204.44575451678133
 11
251.63342759999864
 21
204.05752594912752
  0
LINE
  8
_1-a_
  6
CONTINUOUS
 62
    4
 10
253.08231633943222
 20
204.44575451678133
 11
251.63342759999864
 21
204.83398308443508
  0
LINE
  8
_1-a_
  6
CONTINUOUS
 62
    4
 10
253.08231633943222
 20
204.44575451678133
 11
254.53120507886586
 21
204.83398308443508
  0
LINE
  8
_1-a_
  6
CONTINUOUS
 62
    4
 10
253.08231633943222
 20
204.44575451678133
 11
254.53120507886586
 21
204.05752594912752
  0
LINE
  8
_1-1_
  6
CONTINUOUS
 62
    7
 10
277.30820300353713
 20
175.37793552426867
 11
254.08231633943222
 21
175.37793552426867
  0
LINE
  8
_1-1_
  6
CONTINUOUS
 62
    4
 10
251.83231633943222
 20
128.91316321668895
 11
251.83231633943222
 21
144.66316321958902
  0
LINE
  8
_1-1_
  6
CONTINUOUS
 62
    7
 10
251.83231633943222
 20
128.91316321668895
 11
251.83231633943222
 21
144.66316321668895
  0
LINE
  8
_1-1_
  6
CONTINUOUS
 62
    7
 10
252.33231633943222
 20
122.91316321668894
 11
258.58231633943222
 21
122.91316321668894
  0
LINE
  8
_1-1_
  6
CONTINUOUS
 62
    7
 10
253.08231633943222
 20
123.66355664493893
 11
258.58231633943222
 21
123.66355664493893
  0
LINE
  8
_1-1_
  6
CONTINUOUS
 62
    7
 10
252.33231633943222
 20
124.16962512298893
 11
253.08231633943222
 21
124.16962512298893
  0
LINE
  8
_1-1_
  6
CONTINUOUS
 62
    7
 10
252.33231633943222
 20
144.66316321668895
 11
252.33231633943222
 21
122.91316321668894
  0
LINE
  8
_1-1_
  6
CONTINUOUS
 62
    7
 10
253.08231633943222
 20
144.66316321668895
 11
253.08231633943222
 21
123.66355664493893
  0
LINE
  8
_1-1_
  6
CONTINUOUS
 62
    7
 10
254.08231633943222
 20
144.16316321668895
 11
254.08231633943222
 21
143.66327833033895
  0
LINE
  8
_1-1_
  6
CONTINUOUS
 62
    7
 10
253.08231633943222
 20
143.16327833033895
 11
253.58231633943222
 21
143.16327833033895
  0
LINE
  8
_1-1_
  6
CONTINUOUS
 62
    7
 10
252.33231633943222
 20
143.40557190023892
 11
253.08231633943222
 21
143.40557190023892
  0
LINE
  8
_1-1_
  6
CONTINUOUS
 62
    7
 10
252.33231633943222
 20
144.66316321668895
 11
253.58231633943222
 21
144.66316321668895
  0
ARC
  8
_1-1_
  6
CONTINUOUS
 62
    7
 10
253.58231633943222
 20
143.66327833033895
 40
0.5
 50
270
 51
0
  0
ARC
  8
_1-1_
  6
CONTINUOUS
 62
    7
 10
253.58231633943222
 20
144.16316321668895
 40
0.5
 50
0
 51
90
  0
LINE
  8
_1-1_
  6
CONTINUOUS
 62
    7
 10
252.33231633943222
 20
128.91316321668895
 11
252.33231633943222
 21
144.66316321668895
  0
LINE
  8
_1-1_
  6
CONTINUOUS
 62
    7
 10
252.33231633943222
 20
159.82235212817315
 11
252.33231633943222
 21
160.74345056122317
  0
LINE
  8
_1-1_
  6
CONTINUOUS
 62
    7
 10
252.33231633943222
 20
160.75179066637312
 11
252.33231633943222
 21
184.72297781972309
  0
LINE
  8
_1-1_
  6
CONTINUOUS
 62
    7
 10
252.33231633943222
 20
184.73244469667309
 11
252.33231633943222
 21
186.30286459087318
  0
LINE
  8
_1-1_
  6
CONTINUOUS
 62
    7
 10
252.33231633943222
 20
159.80293595112314
 11
253.08231633943222
 21
159.80293595112314
  0
LINE
  8
_1-1_
  6
CONTINUOUS
 62
    7
 10
252.33231633943222
 20
161.06024890872308
 11
253.08231633943222
 21
161.06024890872308
  0
LINE
  8
_1-1_
  6
CONTINUOUS
 62
    7
 10
252.33231633943222
 20
159.80293595112314
 11
252.33231633943222
 21
186.30293537467309
  0
LINE
  8
_1-1_
  6
CONTINUOUS
 62
    7
 10
253.08231633943222
 20
159.80293595112314
 11
253.08231633943222
 21
162.82145933947319
  0
LINE
  8
_1-1_
  6
CONTINUOUS
 62
    7
 10
253.08231633943222
 20
162.82145933947319
 11
253.08231633943222
 21
186.30293537467309
  0
LINE
  8
_1-1_
  6
CONTINUOUS
 62
    7
 10
252.33231633943222
 20
185.04562241707316
 11
253.08231633943222
 21
185.04562241707316
  0
LINE
  8
_1-1_
  6
CONTINUOUS
 62
    7
 10
252.33231633943222
 20
186.30293537467309
 11
253.08231633943222
 21
186.30293537467309
  0
LINE
  8
_1-1_
  6
CONTINUOUS
 62
    7
 10
252.33231633943222
 20
186.30286459087318
 11
251.83231633943222
 21
186.30293537467309
  0
LINE
  8
_1-1_
  6
CONTINUOUS
 62
    7
 10
251.83231633943222
 20
186.30293537467309
 11
251.83231633943222
 21
159.82228134437312
  0
LINE
  8
_1-1_
  6
CONTINUOUS
 62
    7
 10
251.83231633943222
 20
159.82228134437312
 11
252.33231633943222
 21
159.82235212817315
  0
LINE
  8
_1-1_
  6
CONTINUOUS
 62
    7
 10
253.08231633943222
 20
180.88588136432014
 11
253.08231633943222
 21
173.28588136442019
  0
LINE
  8
_1-1_
  6
CONTINUOUS
 62
    7
 10
253.08231633943222
 20
178.50841096244604
 11
253.08231633943222
 21
175.66335176629431
  0
LINE
  8
_1-1_
  6
CONTINUOUS
 62
    7
 10
253.08231633943222
 20
180.88588136432014
 11
253.08231633943222
 21
173.28588136442019
  0
LINE
  8
_1-1_
  6
CONTINUOUS
 62
    7
 10
252.33231633943222
 20
186.30286459087318
 11
253.08231633943222
 21
186.30286459087318
  0
LINE
  8
_1-1_
  6
CONTINUOUS
 62
    7
 10
252.33231633943222
 20
185.04555163327319
 11
253.08231633943222
 21
185.04555163327319
  0
LINE
  8
_1-1_
  6
CONTINUOUS
 62
    7
 10
253.08231633943222
 20
183.28434120252313
 11
254.08231633943222
 21
183.28434120252313
  0
LINE
  8
_1-1_
  6
CONTINUOUS
 62
    7
 10
253.08231633943222
 20
182.78434120252313
 11
258.08231633943222
 21
182.78434120252313
  0
LINE
  8
_1-1_
  6
CONTINUOUS
 62
    7
 10
254.83230929293227
 20
180.83926467557319
 11
258.08231633943222
 21
180.83926467557319
  0
LINE
  8
_1-1_
  6
CONTINUOUS
 62
    7
 10
258.08231633943222
 20
178.73926467557319
 11
254.83230929293227
 21
178.73926467557319
  0
LINE
  8
_1-1_
  6
CONTINUOUS
 62
    7
 10
252.33231633943222
 20
186.30286459087318
 11
252.33231633943222
 21
159.80286516732317
  0
LINE
  8
_1-1_
  6
CONTINUOUS
 62
    7
 10
253.08231633943222
 20
186.30286459087318
 11
253.08231633943222
 21
182.78434120252313
  0
LINE
  8
_1-1_
  6
CONTINUOUS
 62
    7
 10
253.08231633943222
 20
163.28434120252316
 11
253.08231633943222
 21
159.80286516732317
  0
LINE
  8
_1-1_
  6
CONTINUOUS
 62
    7
 10
253.58231633943222
 20
183.28434120252313
 11
253.58231633943222
 21
182.78434120252313
  0
LINE
  8
_1-1_
  6
CONTINUOUS
 62
    7
 10
253.58231633943222
 20
163.28434120252316
 11
253.58231633943222
 21
162.78434120252316
  0
LINE
  8
_1-1_
  6
CONTINUOUS
 62
    7
 10
254.93230929293218
 20
174.08926467557321
 11
256.93230929293218
 21
174.08926467557321
  0
LINE
  8
_1-1_
  6
CONTINUOUS
 62
    7
 10
254.08231633943222
 20
180.51457020552322
 11
254.08231633943222
 21
179.06395914562321
  0
LINE
  8
_1-1_
  6
CONTINUOUS
 62
    7
 10
254.08231633943222
 20
173.6516935394732
 11
254.08231633943222
 21
172.42683581162319
  0
LINE
  8
_1-1_
  6
CONTINUOUS
 62
    7
 10
254.08231633943222
 20
167.01457020552319
 11
254.08231633943222
 21
165.56395914562321
  0
LINE
  8
_1-1_
  6
CONTINUOUS
 62
    7
 10
254.08231633943222
 20
163.28434120252316
 11
254.08231633943222
 21
162.78434120252316
  0
LINE
  8
_1-1_
  6
CONTINUOUS
 62
    7
 10
256.93230929293218
 20
171.98926467557319
 11
254.93230929293218
 21
171.98926467557319
  0
LINE
  8
_1-1_
  6
CONTINUOUS
 62
    7
 10
258.08231633943222
 20
167.33926467557321
 11
254.83230929293227
 21
167.33926467557321
  0
LINE
  8
_1-1_
  6
CONTINUOUS
 62
    7
 10
258.08231633943222
 20
165.23926467557319
 11
254.83230929293227
 21
165.23926467557319
  0
LINE
  8
_1-1_
  6
CONTINUOUS
 62
    7
 10
253.08231633943222
 20
163.28434120252316
 11
258.08231633943222
 21
163.28434120252316
  0
LINE
  8
_1-1_
  6
CONTINUOUS
 62
    7
 10
253.08231633943222
 20
162.78434120252316
 11
254.08231633943222
 21
162.78434120252316
  0
LINE
  8
_1-1_
  6
CONTINUOUS
 62
    7
 10
252.33231633943222
 20
161.06017812492316
 11
253.08231633943222
 21
161.06017812492316
  0
LINE
  8
_1-1_
  6
CONTINUOUS
 62
    7
 10
252.33231633943222
 20
159.80286516732317
 11
253.08231633943222
 21
159.80286516732317
  0
LINE
  8
_1-a_
  6
CONTINUOUS
 62
    4
 10
254.58231633943233
 20
128.91316321668907
 11
265.97786623115138
 21
128.91316321668907
  0
LINE
  8
_1-a_
  6
CONTINUOUS
 62
    4
 10
254.58231633943233
 20
144.66316321668901
 11
265.97786623115138
 21
144.66316321668901
  0
LINE
  8
_1-a_
  6
CONTINUOUS
 62
    4
 10
253.08231633943222
 20
187.80293537467309
 11
253.08231633943222
 21
205.07075451678133
  0
LINE
  8
_1-a_
  6
CONTINUOUS
 62
    4
 10
253.08231633943222
 20
204.44575451678133
 11
305.07749646987224
 21
204.44575451678133
  0
ARC
  8
_1-1_
  6
CONTINUOUS
 62
    7
 10
254.83230929293227
 20
166.2892646755732
 40
1.05
 50
90
 51
135.58414199214428
  0
ARC
  8
_1-1_
  6
CONTINUOUS
 62
    7
 10
254.83230929293227
 20
166.2892646755732
 40
1.05
 50
224.04131049706461
 51
270
  0
ARC
  8
_1-1_
  6
CONTINUOUS
 62
    7
 10
254.93230929293218
 20
173.0392646755732
 40
1.05
 50
90
 51
144.04877744135288
  0
ARC
  8
_1-1_
  6
CONTINUOUS
 62
    7
 10
254.93230929293218
 20
173.0392646755732
 40
1.05
 50
215.95122255864708
 51
270
  0
ARC
  8
_1-1_
  6
CONTINUOUS
 62
    7
 10
254.83230929293227
 20
179.7892646755732
 40
1.05
 50
90
 51
135.95868950293427
  0
ARC
  8
_1-1_
  6
CONTINUOUS
 62
    7
 10
254.83230929293227
 20
179.7892646755732
 40
1.05
 50
224.41585800785574
 51
270
  0
ARC
  8
_1-1_
  6
DASHED1
 62
    7
 10
254.83692730287265
 20
179.79407029733613
 40
1.05
 50
136.32237285341378
 51
224.05463223819251
  0
ARC
  8
_1-1_
  6
DASHED1
 62
    7
 10
254.93376422299826
 20
173.04127580183455
 40
1.05
 50
144.18422616301202
 51
215.81577383698797
  0
ARC
  8
_1-1_
  6
DASHED1
 62
    7
 10
254.83230929293227
 20
166.2892646755732
 40
1.05
 50
135.58414199214428
 51
224.41585800785571
  0
LINE
  8
_1-1_
  6
CONTINUOUS
 62
    7
 10
277.3082030035373
 20
170.72793556135698
 11
254.08231633943222
 21
170.72793556135698
  0
LINE
  8
_1-1_
  6
DASHED1
 62
    7
 10
254.08231633943222
 20
167.37793556135702
 11
253.08231633943222
 21
167.37793556135702
  0
LINE
  8
_1-1_
  6
DASHED1
 62
    7
 10
254.08231633943222
 20
170.72793556135698
 11
253.08231633943222
 21
170.72793556135698
  0
LINE
  8
_1-1_
  6
DASHED1
 62
    7
 10
254.08231633943222
 20
178.72793552426887
 11
253.08231633943222
 21
178.72793552426887
  0
LINE
  8
_1-1_
  6
DASHED1
 62
    7
 10
254.08231633943222
 20
175.37793552426867
 11
253.08231633943222
 21
175.37793552426867
  0
LINE
  8
_1-1_
  6
CONTINUOUS
 62
    7
 10
254.08231633943222
 20
183.28434120252313
 11
254.08231633943222
 21
182.78434120252313
  0
LINE
  8
_1-1_
  6
CONTINUOUS
 62
    7
 10
254.08231633943222
 20
162.82145933947319
 11
254.08231633943222
 21
183.28434120252313
  0
LINE
  8
_1-1_
  6
CONTINUOUS
 62
    7
 10
260.40473929861548
 20
167.37793556135702
 11
254.08231633943222
 21
167.37793556135702
  0
LINE
  8
_1-1_
  6
CONTINUOUS
 62
    7
 10
260.40473929861548
 20
178.72793552426887
 11
254.08231633943222
 21
178.72793552426887
  0
LINE
  8
_1-1_
  6
CONTINUOUS
 62
    7
 10
277.3082030035373
 20
140.33816321668896
 11
253.08231633943222
 21
140.33816321668896
  0
LINE
  8
_1-1_
  6
CONTINUOUS
 62
    7
 10
277.30820300353735
 20
136.988163216689
 11
253.08231633943222
 21
136.988163216689
  0
LINE
  8
_1-1_
  6
CONTINUOUS
 62
    7
 10
251.83231633943222
 20
159.82228134437312
 11
164.33231633943222
 21
159.82228134437312
  0
LINE
  8
_1-1_
  6
CONTINUOUS
 62
    7
 10
251.83231633943222
 20
160.36386293152307
 11
164.33231633943222
 21
160.36386293152307
  0
LINE
  8
_1-1_
  6
CONTINUOUS
 62
    7
 10
251.83231633943222
 20
160.48125021257314
 11
164.33231633943222
 21
160.48125021257314
  0
LINE
  8
_1-1_
  6
CONTINUOUS
 62
    7
 10
251.83231633943222
 20
160.71246235872317
 11
164.33231633943222
 21
160.71246235872317
  0
LINE
  8
_1-1_
  6
CONTINUOUS
 62
    7
 10
251.83231633943222
 20
160.74345056122317
 11
164.33231633943222
 21
160.74345056122317
  0
LINE
  8
_1-1_
  6
CONTINUOUS
 62
    7
 10
251.83231633943222
 20
161.40223889932312
 11
164.33231633943222
 21
161.40223889932312
  0
LINE
  8
_1-1_
  6
CONTINUOUS
 62
    7
 10
251.83231633943222
 20
161.51594844527321
 11
164.33231633943222
 21
161.51594844527321
  0
LINE
  8
_1-1_
  6
CONTINUOUS
 62
    7
 10
251.83231633943222
 20
162.00133278687312
 11
164.33231633943222
 21
162.00133278687312
  0
LINE
  8
_1-1_
  6
CONTINUOUS
 62
    7
 10
251.83231633943222
 20
162.13649646917312
 11
164.33231633943222
 21
162.13649646917312
  0
LINE
  8
_1-1_
  6
CONTINUOUS
 62
    7
 10
251.83231633943222
 20
183.98872024987309
 11
164.33231633943222
 21
183.98872024987309
  0
LINE
  8
_1-1_
  6
CONTINUOUS
 62
    7
 10
251.83231633943222
 20
184.12388393217304
 11
164.33231633943222
 21
184.12388393217304
  0
LINE
  8
_1-1_
  6
CONTINUOUS
 62
    7
 10
251.83231633943222
 20
184.60926827377312
 11
164.33231633943222
 21
184.60926827377312
  0
LINE
  8
_1-1_
  6
CONTINUOUS
 62
    7
 10
251.83231633943222
 20
184.72297781972309
 11
164.33231633943222
 21
184.72297781972309
  0
LINE
  8
_1-1_
  6
CONTINUOUS
 62
    7
 10
251.83231633943222
 20
185.38176615782316
 11
164.33231633943222
 21
185.38176615782316
  0
LINE
  8
_1-1_
  6
CONTINUOUS
 62
    7
 10
251.83231633943222
 20
185.41275436032316
 11
164.33231633943222
 21
185.41275436032316
  0
LINE
  8
_1-1_
  6
CONTINUOUS
 62
    7
 10
251.83231633943222
 20
185.64396650647307
 11
164.33231633943222
 21
185.64396650647307
  0
LINE
  8
_1-1_
  6
CONTINUOUS
 62
    7
 10
251.83231633943222
 20
185.76135378752309
 11
164.33231633943222
 21
185.76135378752309
  0
LINE
  8
_1-1_
  6
CONTINUOUS
 62
    7
 10
251.83231633943222
 20
186.30293537467309
 11
164.33231633943222
 21
186.30293537467309
  0
LINE
  8
_1-1_
  6
CONTINUOUS
 62
    7
 10
251.83231633943222
 20
132.37922236743906
 11
164.33231633943222
 21
132.37922236743906
  0
LINE
  8
_1-1_
  6
CONTINUOUS
 62
    7
 10
251.83231633943222
 20
132.52922236743901
 11
164.33231633943222
 21
132.52922236743901
  0
LINE
  8
_1-1_
  6
CONTINUOUS
 62
    7
 10
251.83231633943222
 20
132.92922236743899
 11
164.33231633943222
 21
132.92922236743899
  0
LINE
  8
_1-1_
  6
CONTINUOUS
 62
    7
 10
251.83231633943222
 20
133.07922236743894
 11
164.33231633943222
 21
133.07922236743894
  0
LINE
  8
_1-1_
  6
CONTINUOUS
 62
    7
 10
251.83231633943222
 20
134.02922236743901
 11
164.33231633943222
 21
134.02922236743901
  0
LINE
  8
_1-1_
  6
CONTINUOUS
 62
    7
 10
251.83231633943222
 20
134.17922236743899
 11
164.33231633943222
 21
134.17922236743899
  0
LINE
  8
_1-1_
  6
CONTINUOUS
 62
    7
 10
251.83231633943222
 20
134.57922236743894
 11
164.33231633943222
 21
134.57922236743894
  0
LINE
  8
_1-1_
  6
CONTINUOUS
 62
    7
 10
251.83231633943222
 20
134.72922236743895
 11
164.33231633943222
 21
134.72922236743895
  0
LINE
  8
_1-1_
  6
CONTINUOUS
 62
    7
 10
251.83231633943222
 20
135.62922236743906
 11
164.33231633943222
 21
135.62922236743906
  0
LINE
  8
_1-1_
  6
CONTINUOUS
 62
    7
 10
251.83231633943222
 20
135.77922236743901
 11
164.33231633943222
 21
135.77922236743901
  0
LINE
  8
_1-1_
  6
CONTINUOUS
 62
    7
 10
251.83231633943222
 20
136.17922236743899
 11
164.33231633943222
 21
136.17922236743899
  0
LINE
  8
_1-1_
  6
CONTINUOUS
 62
    7
 10
251.83231633943222
 20
136.32922236743894
 11
164.33231633943222
 21
136.32922236743894
  0
LINE
  8
_1-1_
  6
CONTINUOUS
 62
    7
 10
251.83231633943222
 20
137.22922236743895
 11
164.33231633943222
 21
137.22922236743895
  0
LINE
  8
_1-1_
  6
CONTINUOUS
 62
    7
 10
251.83231633943222
 20
137.37922236743906
 11
164.33231633943222
 21
137.37922236743906
  0
LINE
  8
_1-1_
  6
CONTINUOUS
 62
    7
 10
251.83231633943222
 20
137.77922236743901
 11
164.33231633943222
 21
137.77922236743901
  0
LINE
  8
_1-1_
  6
CONTINUOUS
 62
    7
 10
251.83231633943222
 20
137.92922236743899
 11
164.33231633943222
 21
137.92922236743899
  0
LINE
  8
_1-1_
  6
CONTINUOUS
 62
    7
 10
251.83231633943222
 20
138.82922236743894
 11
164.33231633943222
 21
138.82922236743894
  0
LINE
  8
_1-1_
  6
CONTINUOUS
 62
    7
 10
251.83231633943222
 20
138.97922236743895
 11
164.33231633943222
 21
138.97922236743895
  0
LINE
  8
_1-1_
  6
CONTINUOUS
 62
    7
 10
251.83231633943222
 20
139.37922236743906
 11
164.33231633943222
 21
139.37922236743906
  0
LINE
  8
_1-1_
  6
CONTINUOUS
 62
    7
 10
251.83231633943222
 20
139.52922236743901
 11
164.33231633943222
 21
139.52922236743901
  0
LINE
  8
_1-1_
  6
CONTINUOUS
 62
    7
 10
251.83231633943222
 20
140.42922236743899
 11
164.33231633943222
 21
140.42922236743899
  0
LINE
  8
_1-1_
  6
CONTINUOUS
 62
    7
 10
251.83231633943222
 20
140.57922236743894
 11
164.33231633943222
 21
140.57922236743894
  0
LINE
  8
_1-1_
  6
CONTINUOUS
 62
    7
 10
251.83231633943222
 20
164.32186785787311
 11
164.33231633943222
 21
164.32186785787311
  0
LINE
  8
_1-1_
  6
CONTINUOUS
 62
    7
 10
251.83231633943222
 20
163.32326106012314
 11
164.33231633943222
 21
163.32326106012314
  0
LINE
  8
_1-1_
  6
CONTINUOUS
 62
    7
 10
251.83231633943222
 20
163.57186785782332
 11
164.33231633943222
 21
163.57186785782332
  0
LINE
  8
_1-1_
  6
CONTINUOUS
 62
    7
 10
251.83231633943222
 20
164.07326106007312
 11
164.33231633943222
 21
164.07326106007312
  0
LINE
  8
_1-1_
  6
CONTINUOUS
 62
    7
 10
251.83231633943222
 20
181.81120387497315
 11
164.33231633943222
 21
181.81120387497315
  0
LINE
  8
_1-1_
  6
CONTINUOUS
 62
    7
 10
251.83231633943222
 20
182.80981067272313
 11
164.33231633943222
 21
182.80981067272313
  0
LINE
  8
_1-1_
  6
CONTINUOUS
 62
    7
 10
251.83231633943222
 20
182.56120387502295
 11
164.33231633943222
 21
182.56120387502295
  0
LINE
  8
_1-1_
  6
CONTINUOUS
 62
    7
 10
251.83231633943222
 20
182.05981067277315
 11
164.33231633943222
 21
182.05981067277315
  0
LINE
  8
_1-a_
  6
CONTINUOUS
 62
    4
 10
163.08231633943222
 20
204.44575451678133
 11
253.08231633943222
 21
204.44575451678133
  0
LINE
  8
_1-1_
  6
CONTINUOUS
 62
    7
 10
252.33231633943222
 20
144.66316321668895
 11
163.83231633943219
 21
144.66316321668895
  0
LINE
  8
_1-1_
  6
CONTINUOUS
 62
    7
 10
251.83231633943222
 20
142.383287810489
 11
163.83231633943219
 21
142.383287810489
  0
LINE
  8
_1-1_
  6
CONTINUOUS
 62
    7
 10
251.83231633943222
 20
141.12922236743906
 11
163.83231633943219
 21
141.12922236743906
  0
LINE
  8
_1-1_
  6
CONTINUOUS
 62
    7
 10
251.83231633943222
 20
140.97922236743895
 11
163.83231633943219
 21
140.97922236743895
  0
LINE
  8
_1-1_
  6
CONTINUOUS
 62
    7
 10
252.33231633943222
 20
128.91316321668895
 11
163.83231633943219
 21
128.91316321668895
  0
LINE
  8
_1-1_
  6
CONTINUOUS
 62
    7
 10
251.83231633943222
 20
131.54844563918899
 11
163.83231633943219
 21
131.54844563918899
  0
LINE
  8
_1-1_
  6
CONTINUOUS
 62
    7
 10
251.83231633943222
 20
131.33438875303906
 11
163.83231633943219
 21
131.33438875303906
  0
LINE
  8
_1-1_
  6
CONTINUOUS
 62
    7
 10
251.83231633943222
 20
131.19303862288901
 11
163.83231633943219
 21
131.19303862288901
  0
TEXT
  8
_1-a_
 62
    7
 10
204.83231633943225
 20
204.94575451678133
 40
4
 41
1
 50
0
  1
180
  0
LINE
  8
_1-9_
  6
CONTINUOUS
 62
    7
 10
50.115161493803356
 20
40.779839515607477
 11
145.11516149380332
 21
40.779839515607477
  0
TEXT
  8
_1-9_
 62
    7
 10
50.615161493803356
 20
91.279839515607463
 40
4
 41
1
 50
0
  1
電気特性
  0
TEXT
  8
_1-9_
 62
    7
 10
63.365161493803356
 20
86.279839515607463
 40
4
 41
1
 50
0
  1
型番
  0
LINE
  8
_1-9_
  6
CONTINUOUS
 62
    7
 10
50.115161493803356
 20
63.279839515607491
 11
50.115161493803356
 21
53.279839515607477
  0
LINE
  8
_1-9_
  6
CONTINUOUS
 62
    7
 10
80.115161493803327
 20
63.279839515607491
 11
80.115161493803327
 21
53.279839515607477
  0
TEXT
  8
_1-9_
 62
    7
 10
86.365161493803341
 20
86.279839515607463
 40
4
 41
1
 50
0
  1
出力電力
  0
TEXT
  8
_1-9_
 62
    7
 10
106.36516149380334
 20
86.279839515607463
 40
4
 41
1
 50
0
  1
出力電圧
  0
LINE
  8
_1-9_
  6
CONTINUOUS
 62
    7
 10
80.115161493803327
 20
63.279839515607491
 11
80.115161493803327
 21
53.279839515607477
  0
LINE
  8
_1-9_
  6
CONTINUOUS
 62
    7
 10
100.11516149380334
 20
63.279839515607491
 11
100.11516149380334
 21
53.279839515607477
  0
LINE
  8
_1-9_
  6
CONTINUOUS
 62
    7
 10
50.115161493803356
 20
63.279839515607491
 11
50.115161493803356
 21
53.279839515607477
  0
TEXT
  8
_1-9_
 62
    7
 10
126.36516149380334
 20
86.279839515607463
 40
4
 41
1
 50
0
  1
出力電流
  0
TEXT
  8
_1-9_
 62
    7
 10
146.36516149380332
 20
86.279839515607463
 40
4
 41
1
 50
0
  1
入力電圧
  0
LINE
  8
_1-9_
  6
CONTINUOUS
 62
    7
 10
50.115161493803356
 20
63.279839515607491
 11
125.11516149380334
 21
63.279839515607491
  0
LINE
  8
_1-9_
  6
CONTINUOUS
 62
    7
 10
125.11516149380334
 20
63.279839515607491
 11
125.11516149380334
 21
53.279839515607477
  0
LINE
  8
_1-9_
  6
CONTINUOUS
 62
    7
 10
50.115161493803356
 20
53.279839515607477
 11
125.11516149380334
 21
53.279839515607477
  0
LINE
  8
_1-9_
  6
CONTINUOUS
 62
    7
 10
50.115161493803356
 20
58.279839515607491
 11
125.11516149380334
 21
58.279839515607491
  0
TEXT
  8
_1-9_
 62
    7
 10
173.86516149380332
 20
86.279839515607463
 40
4
 41
1
 50
0
  1
入力電流
  0
TEXT
  8
_1-9_
 62
    7
 10
203.61516149380332
 20
86.279839515607463
 40
4
 41
1
 50
0
  1
周波数
  0
TEXT
  8
_1-9_
 62
    7
 10
222.74016149380332
 20
86.279839515607463
 40
4
 41
1
 50
0
  1
効率/力率
  0
LINE
  8
_1-9_
  6
CONTINUOUS
 62
    7
 10
50.115161493803356
 20
45.779839515607477
 11
145.11516149380332
 21
45.779839515607477
  0
TEXT
  8
_1-9_
 62
    7
 10
168.11516149380332
 20
81.279839515607463
 40
4
 41
1
 50
0
  1
1.03A(AC100V)
  0
LINE
  8
_1-9_
  6
CONTINUOUS
 62
    7
 10
50.115161493803356
 20
45.779839515607477
 11
50.115161493803356
 21
40.779839515607477
  0
LINE
  8
_1-9_
  6
CONTINUOUS
 62
    7
 10
100.11516149380334
 20
45.779839515607477
 11
100.11516149380334
 21
40.779839515607477
  0
LINE
  8
_1-9_
  6
CONTINUOUS
 62
    7
 10
50.115161493803356
 20
45.779839515607477
 11
50.115161493803356
 21
40.779839515607477
  0
LINE
  8
_1-9_
  6
CONTINUOUS
 62
    7
 10
75.115161493803327
 20
45.779839515607477
 11
75.115161493803327
 21
40.779839515607477
  0
LINE
  8
_1-9_
  6
CONTINUOUS
 62
    7
 10
120.11516149380334
 20
45.779839515607477
 11
120.11516149380334
 21
40.779839515607477
  0
LINE
  8
_1-9_
  6
CONTINUOUS
 62
    7
 10
50.115161493803356
 20
40.779839515607477
 11
145.11516149380332
 21
40.779839515607477
  0
LINE
  8
_1-9_
  6
CONTINUOUS
 62
    7
 10
145.11516149380332
 20
45.779839515607477
 11
145.11516149380332
 21
40.779839515607477
  0
LINE
  8
_1-9_
  6
CONTINUOUS
 62
    7
 10
85.115161493803341
 20
90.779839515607463
 11
85.115161493803341
 21
70.779839515607477
  0
LINE
  8
_1-9_
  6
CONTINUOUS
 62
    7
 10
50.115161493803356
 20
90.779839515607463
 11
50.115161493803356
 21
70.779839515607477
  0
TEXT
  8
_1-9_
 62
    7
 10
53.115161493803384
 20
78.779839515607477
 40
4
 41
1
 50
0
  1
OT90/100-200/
  0
LINE
  8
_1-9_
  6
CONTINUOUS
 62
    7
 10
105.11516149380334
 20
90.779839515607463
 11
105.11516149380334
 21
70.779839515607477
  0
TEXT
  8
_1-9_
 62
    7
 10
149.61516149380335
 20
78.779839515607477
 40
4
 41
1
 50
0
  1
AC100
  0
TEXT
  8
_1-9_
 62
    7
 10
228.36516149380332
 20
78.779839515607477
 40
4
 41
1
 50
0
  1
87％
  0
TEXT
  8
_1-9_
 62
    7
 10
91.865161493803341
 20
76.279839515607477
 40
4
 41
1
 50
0
  1
90W
  0
LINE
  8
_1-9_
  6
CONTINUOUS
 62
    7
 10
125.11516149380334
 20
90.779839515607463
 11
125.11516149380334
 21
70.779839515607477
  0
TEXT
  8
_1-9_
 62
    7
 10
107.36516149380334
 20
76.279839515607477
 40
4
 41
1
 50
0
  1
DC24.2V
  0
LINE
  8
_1-9_
  6
CONTINUOUS
 62
    7
 10
145.11516149380332
 20
90.779839515607463
 11
145.11516149380332
 21
70.779839515607477
  0
TEXT
  8
_1-9_
 62
    7
 10
129.61516149380332
 20
76.279839515607477
 40
4
 41
1
 50
0
  1
3.75A
  0
TEXT
  8
_1-9_
 62
    7
 10
168.11516149380332
 20
76.279839515607477
 40
4
 41
1
 50
0
  1
0.49A(AC200V)
  0
TEXT
  8
_1-9_
 62
    7
 10
202.36516149380332
 20
76.279839515607477
 40
4
 41
1
 50
0
  1
50/60Hz
  0
LINE
  8
_1-9_
  6
CONTINUOUS
 62
    7
 10
220.11516149380332
 20
90.779839515607463
 11
220.11516149380332
 21
70.779839515607477
  0
LINE
  8
_1-9_
  6
CONTINUOUS
 62
    7
 10
200.11516149380332
 20
90.779839515607463
 11
200.11516149380332
 21
70.779839515607477
  0
LINE
  8
_1-9_
  6
CONTINUOUS
 62
    7
 10
165.11516149380332
 20
90.779839515607463
 11
165.11516149380332
 21
70.779839515607477
  0
LINE
  8
_1-9_
  6
CONTINUOUS
 62
    7
 10
165.11516149380332
 20
80.779839515607477
 11
200.11516149380332
 21
80.779839515607477
  0
LINE
  8
_1-9_
  6
CONTINUOUS
 62
    7
 10
165.11516149380332
 20
75.779839515607477
 11
200.11516149380332
 21
75.779839515607477
  0
TEXT
  8
_1-9_
 62
    7
 10
148.49016149380332
 20
73.779839515607477
 40
4
 41
1
 50
0
  1
～242V
  0
TEXT
  8
_1-9_
 62
    7
 10
228.24016149380332
 20
73.779839515607477
 40
4
 41
1
 50
0
  1
0.95
  0
TEXT
  8
_1-9_
 62
    7
 10
168.11516149380332
 20
71.279839515607477
 40
4
 41
1
 50
0
  1
0.42A(AC242V)
  0
TEXT
  8
_1-9_
 62
    7
 10
50.615161493803356
 20
63.779839515607491
 40
4
 41
1
 50
0
  1
使用環境
  0
TEXT
  8
_1-9_
 62
    7
 10
51.865161493803356
 20
58.779839515607491
 40
4
 41
1
 50
0
  1
使用環境温度
  0
TEXT
  8
_1-9_
 62
    7
 10
81.365161493803327
 20
58.779839515607491
 40
4
 41
1
 50
0
  1
動作湿度
  0
TEXT
  8
_1-9_
 62
    7
 10
101.61516149380334
 20
58.779839515607491
 40
4
 41
1
 50
0
  1
最大Tc温度
  0
TEXT
  8
_1-9_
 62
    7
 10
55.240161493803356
 20
53.779839515607477
 40
4
 41
1
 50
0
  1
-40～70℃
  0
TEXT
  8
_1-9_
 62
    7
 10
82.490161493803341
 20
53.779839515607477
 40
4
 41
1
 50
0
  1
5～95％
  0
TEXT
  8
_1-9_
 62
    7
 10
108.36516149380334
 20
53.779839515607477
 40
4
 41
1
 50
0
  1
85℃
  0
TEXT
  8
_1-9_
 62
    7
 10
50.615161493803356
 20
46.279839515607477
 40
4
 41
1
 50
0
  1
保護機能
  0
TEXT
  8
_1-9_
 62
    7
 10
51.615161493803356
 20
41.279839515607477
 40
4
 41
1
 50
0
  1
過電圧保護
  0
TEXT
  8
_1-9_
 62
    7
 10
76.615161493803327
 20
41.279839515607477
 40
4
 41
1
 50
0
  1
過負荷保護
  0
TEXT
  8
_1-9_
 62
    7
 10
101.36516149380334
 20
41.279839515607477
 40
4
 41
1
 50
0
  1
短絡保護
  0
TEXT
  8
_1-9_
 62
    7
 10
121.61516149380334
 20
41.279839515607477
 40
4
 41
1
 50
0
  1
過昇温保護
  0
TEXT
  8
_1-a_
 62
    7
 10
126.61516149380334
 20
60.612152656292252
 40
3
 41
1
 50
0
  1
※1 正規取り付け方向・ＬＥＤ負荷80％時の使用温度範囲
  0
TEXT
  8
_1-a_
 62
    7
 10
126.61516149380334
 20
56.612152656292252
 40
3
 41
1
 50
0
  1
※2 周囲を囲ってご使用される場合にはTcポイント85℃以下になる様にご注意ください。
  0
TEXT
  8
_1-a_
 62
    7
 10
75.865161493803327
 20
53.779839515607477
 40
2.5
 41
1
 50
0
  1
※1
  0
TEXT
  8
_1-a_
 62
    7
 10
117.32400662856987
 20
53.779839515607477
 40
2.5
 41
1
 50
0
  1
※2
  0
TEXT
  8
_1-a_
 62
    7
 10
126.61516149380334
 20
52.862152656292238
 40
3
 41
1
 50
0
  1
※ 推奨調光器及び配線図は電源トランスの取扱説明書またはＦＫＫホームページをご確認下さい。
  0
LINE
  8
_0-0_
  6
CONTINUOUS
 62
    7
 10
278.98770352628747
 20
258.88907192968105
 11
283.4926455174874
 21
258.88907192968105
  0
LINE
  8
_0-0_
  6
CONTINUOUS
 62
    7
 10
281.22760932496055
 20
263.41029062337855
 11
278.97514233376062
 21
258.90533862117848
  0
LINE
  8
_0-0_
  6
CONTINUOUS
 62
    7
 10
281.22760932496055
 20
263.41029062337855
 11
283.48008432496055
 21
258.90533862117848
  0
LINE
  8
_0-0_
  6
CONTINUOUS
 62
    7
 10
276.9042869392959
 20
258.57089400103069
 11
397.01211738199577
 21
258.57089400103069
  0
TEXT
  8
_0-0_
 62
    7
 10
280.36257932175703
 20
259.12392698638092
 40
3.0033000000000242
 41
0.9999999999999811
 50
0
  1
2
  0
TEXT
  8
_0-0_
 62
    7
 10
293.64886441506592
 20
259.41132265221239
 40
3.0032999999999674
 41
1.0000000000000133
 50
0
  1
2022 . 9. 16
  0
TEXT
  8
_0-0_
 62
    7
 10
377.76981096569573
 20
259.07363399003071
 40
4
 41
1
 50
0
  1
原田
  0
TEXT
  8
_0-0_
 62
    7
 10
317.44831096569561
 20
259.07089400103069
 40
3.0032999999999674
 41
1.0000000000000133
 50
0
  1
誤記修正・TC追記・スペック表追加
  0
LINE
  8
_0-0_
  6
CONTINUOUS
 62
    7
 10
276.90430295689583
 20
263.58647294038286
 11
397.01213339959571
 21
263.58647294038286
  0
LINE
  8
_0-0_
  6
CONTINUOUS
 62
    7
 10
276.9346403417303
 20
268.58185395703065
 11
276.9346403417303
 21
258.57089400103069
  0
LINE
  8
_0-0_
  6
CONTINUOUS
 62
    7
 10
286.94564835053012
 20
268.58185395703065
 11
286.94564835053012
 21
258.57089400103069
  0
LINE
  8
_0-0_
  6
CONTINUOUS
 62
    7
 10
316.94831096569561
 20
268.5919529183829
 11
316.94831096569561
 21
258.57089400103069
  0
LINE
  8
_0-0_
  6
CONTINUOUS
 62
    7
 10
377.01431096569575
 20
273.99478149958287
 11
377.01431096569575
 21
258.57089400103069
  0
LINE
  8
_0-0_
  6
CONTINUOUS
 62
    7
 10
387.02531096569572
 20
273.99478149958287
 11
387.02531096569572
 21
258.57089400103069
  0
CIRCLE
  8
_1-1_
  6
CONTINUOUS
 62
    7
 10
224.33231633943225
 20
175.30293537467312
 40
0.5
  0
TEXT
  8
_1-a_
 62
    7
 10
224.79819992000966
 20
191.8659946591643
 40
4
 41
1
 50
0
  1
Tcﾎﾟｲﾝﾄ
  0
LINE
  8
_1-a_
  6
CONTINUOUS
 62
    4
 10
224.71627136729762
 20
175.97641915038624
 11
231.79819992000966
 21
191.3659946591643
  0
LINE
  8
_1-a_
  6
CENTER1
 62
    4
 10
255.08230929293227
 20
165.5392646755732
 11
255.08230929293227
 21
167.0392646755732
  0
LINE
  8
_1-a_
  6
CENTER1
 62
    4
 10
160.33232338593225
 20
166.28926467557326
 11
161.83232338593225
 21
166.28926467557326
  0
LINE
  8
_1-a_
  6
CENTER1
 62
    4
 10
161.08232338593225
 20
179.03926467557326
 11
161.08232338593225
 21
180.53926467557323
  0
LINE
  8
_1-a_
  6
CENTER1
 62
    4
 10
160.33232338593225
 20
179.78926467557326
 11
161.83232338593225
 21
179.78926467557326
  0
LINE
  8
_1-a_
  6
CENTER1
 62
    4
 10
161.08232338593225
 20
165.53926467557326
 11
161.08232338593225
 21
167.03926467557326
  0
TEXT
  8
_1-a_
 62
    7
 10
218.76545485924867
 20
198.78749506638274
 40
4
 41
1
 50
0
  1
①
  0
LINE
  8
_1-a_
  6
CONTINUOUS
 62
    4
 10
219.35396825743941
 20
186.60472496909653
 11
220.57055811919053
 21
197.63513971564032
  0
LINE
  8
_1-a_
  6
CONTINUOUS
 62
    4
 10
140.43783922518133
 20
171.17250420460609
 11
145.0608806998357
 21
191.20568392810838
  0
TEXT
  8
_1-a_
 62
    7
 10
143.74325823866496
 20
192.32846938637766
 40
4
 41
1
 50
0
  1
②
  0
TEXT
  8
_1-a_
 62
    7
 10
118.62338841683732
 20
178.35806221296925
 40
2.9400000000000403
 41
0.9999999999999865
 50
0
  1
AC/L(黒)
  0
TEXT
  8
_1-a_
 62
    7
 10
118.62338841683732
 20
183.70403408290582
 40
2.9399999999999977
 41
1.0000000000000006
 50
0
  1
FG (黄/緑)
  0
TEXT
  8
_1-a_
 62
    7
 10
118.62338841683732
 20
172.8166478555498
 40
2.9399999999999977
 41
1.0000000000000011
 50
0
  1
AC/N(白)
  0
LINE
  8
_1-a_
  6
CENTER1
 62
    4
 10
254.33230929293227
 20
179.7892646755732
 11
255.83230929293227
 21
179.7892646755732
  0
LINE
  8
_1-a_
  6
CENTER1
 62
    4
 10
255.08230929293227
 20
179.0392646755732
 11
255.08230929293227
 21
180.53926467557317
  0
LINE
  8
_1-a_
  6
CENTER1
 62
    4
 10
254.33230929293227
 20
166.2892646755732
 11
255.83230929293227
 21
166.2892646755732
  0
LINE
  8
_1-a_
  6
CONTINUOUS
 62
    4
 10
292.08942990632601
 20
178.52303011083265
 11
285.43873866208639
 21
193.98723902020282
  0
TEXT
  8
_1-a_
 62
    7
 10
282.31059392749011
 20
194.81263584559968
 40
4
 41
1
 50
0
  1
④
  0
TEXT
  8
_1-a_
 62
    7
 10
266.33024407415689
 20
180.45665232772262
 40
2.0999999999999943
 41
1.0000000000000024
 50
0
  1
調光信号線:青
  0
TEXT
  8
_1-a_
 62
    7
 10
266.33024407415689
 20
183.9766523277226
 40
2.1000000000000085
 41
0.9999999999999957
 50
0
  1
調光信号線:茶
  0
TEXT
  8
_1-a_
 62
    7
 10
266.33024407415689
 20
159.08298376662645
 40
2.3333333333333285
 41
1.0000000000000022
 50
0
  1
出力線 -:黒
  0
TEXT
  8
_1-a_
 62
    7
 10
266.33024407415689
 20
163.05717731501354
 40
2.3333333333333285
 41
1.0000000000000022
 50
0
  1
出力線 +:赤
  0
LINE
  8
_1-a_
  6
CONTINUOUS
 62
    4
 10
280.42112527299218
 20
166.97107706959539
 11
282.09731574918265
 21
155.29181439678433
  0
TEXT
  8
_1-a_
 62
    7
 10
280.75968134058052
 20
150.22839060432829
 40
4
 41
1
 50
0
  1
③
  0
LINE
  8
_1-a_
  6
CONTINUOUS
 62
    4
 10
140.43783922518133
 20
171.17250420460609
 11
140.38534913415276
 21
172.67158552006029
  0
LINE
  8
_1-a_
  6
CONTINUOUS
 62
    4
 10
219.35396825743941
 20
186.60472496909653
 11
219.12692041527481
 21
188.08744182587281
  0
LINE
  8
_1-a_
  6
CONTINUOUS
 62
    4
 10
219.35396825743941
 20
186.60472496909653
 11
219.89869748663852
 21
188.00231935476648
  0
LINE
  8
_1-a_
  6
CONTINUOUS
 62
    4
 10
224.71627136729762
 20
175.97641915038624
 11
224.96928411936647
 21
177.45492669087784
  0
LINE
  8
_1-a_
  6
CONTINUOUS
 62
    4
 10
224.71627136729762
 20
175.97641915038624
 11
225.67464060831645
 21
177.1303378641044
  0
LINE
  8
_1-a_
  6
CONTINUOUS
 62
    4
 10
292.08942990632601
 20
178.52303011083265
 11
291.16035552271478
 21
179.70066366577128
  0
LINE
  8
_1-a_
  6
CONTINUOUS
 62
    4
 10
292.08942990632601
 20
178.52303011083265
 11
291.87364466558261
 21
180.00742787756411
  0
LINE
  8
_1-a_
  6
CONTINUOUS
 62
    4
 10
280.42112527299218
 20
166.97107706959539
 11
280.24266759967866
 21
165.48173061600056
  0
LINE
  8
_1-a_
  6
CONTINUOUS
 62
    4
 10
280.42112527299218
 20
166.97107706959539
 11
281.01124962119979
 21
165.59203636908924
  0
LINE
  8
_0-0_
  6
CONTINUOUS
 62
    7
 10
50.775266139179649
 20
96.050959794250687
 11
55.280208130379548
 21
96.050959794250687
  0
LINE
  8
_0-0_
  6
CONTINUOUS
 62
    7
 10
53.015171937852727
 20
100.57217848794824
 11
50.762704946652831
 21
96.067226485748179
  0
LINE
  8
_0-0_
  6
CONTINUOUS
 62
    7
 10
53.015171937852727
 20
100.57217848794824
 11
55.267646937852703
 21
96.067226485748179
  0
TEXT
  8
_0-0_
 62
    7
 10
52.150141934649212
 20
96.285814850950615
 40
3.0033000000000242
 41
0.9999999999999811
 50
0
  1
2
  0
LINE
  8
_0-0_
  6
CONTINUOUS
 62
    7
 10
225.44850281332082
 20
196.7586535752037
 11
229.95344480452075
 21
196.7586535752037
  0
LINE
  8
_0-0_
  6
CONTINUOUS
 62
    7
 10
227.6884086119939
 20
201.27987226890127
 11
225.43594162079403
 21
196.7749202667012
  0
LINE
  8
_0-0_
  6
CONTINUOUS
 62
    7
 10
227.6884086119939
 20
201.27987226890127
 11
229.94088361199391
 21
196.7749202667012
  0
TEXT
  8
_0-0_
 62
    7
 10
226.82337860879042
 20
196.99350863190363
 40
3.0033000000000242
 41
0.9999999999999811
 50
0
  1
2
  0
LINE
  8
_0-0_
  6
CONTINUOUS
 62
    7
 10
200.26781742105299
 20
205.30622568083589
 11
204.77275941225289
 21
205.30622568083589
  0
LINE
  8
_0-0_
  6
CONTINUOUS
 62
    7
 10
202.50772321972607
 20
209.82744437453348
 11
200.25525622852617
 21
205.32249237233338
  0
LINE
  8
_0-0_
  6
CONTINUOUS
 62
    7
 10
202.50772321972607
 20
209.82744437453348
 11
204.76019821972604
 21
205.32249237233338
  0
TEXT
  8
_0-0_
 62
    7
 10
201.64269321652255
 20
205.54108073753582
 40
3.0033000000000242
 41
0.9999999999999811
 50
0
  1
2
  0
TEXT
  8
_f-0_
 62
    7
 10
355.25717188828451
 20
36.155778617000748
 40
6.0066000000000059
 41
0.9999999999999986
 50
0
  1
FC21A030-2
  0
LINE
  8
_1-9_
  6
CONTINUOUS
 62
    7
 10
245.11516149380332
 20
90.779839515607463
 11
245.11516149380332
 21
70.779839515607477
  0
LINE
  8
_1-9_
  6
CONTINUOUS
 62
    7
 10
290.11516149380332
 20
90.779839515607463
 11
290.11516149380332
 21
70.779839515607477
  0
TEXT
  8
_1-9_
 62
    7
 10
258.86516149380332
 20
86.279839515607463
 40
4
 41
1
 50
0
  1
適合規格
  0
TEXT
  8
_1-9_
 62
    7
 10
246.36516149380332
 20
81.279839515607463
 40
4
 41
1
 50
0
  1
電気用品安全法(PSE)
  0
TEXT
  8
_1-9_
 62
    7
 10
263.24016149380332
 20
76.279839515607477
 40
4
 41
1
 50
0
  1
RoHS
  0
TEXT
  8
_1-9_
 62
    7
 10
263.24016149380332
 20
71.279839515607477
 40
4
 41
1
 50
0
  1
IP66
  0
LINE
  8
_1-9_
  6
CONTINUOUS
 62
    7
 10
50.115161493803356
 20
70.779839515607477
 11
290.11516149380332
 21
70.779839515607477
  0
LINE
  8
_1-9_
  6
CONTINUOUS
 62
    7
 10
50.115161493803356
 20
85.779839515607463
 11
290.11516149380332
 21
85.779839515607463
  0
LINE
  8
_1-9_
  6
CONTINUOUS
 62
    7
 10
50.115161493803356
 20
90.779839515607463
 11
290.11516149380332
 21
90.779839515607463
  0
TEXT
  8
_1-9_
 62
    7
 10
62.115161493803356
 20
73.779839515607477
 40
4
 41
1
 50
0
  1
24-G3
  0
ENDSEC
  0
EOF
