  0
SECTION
  2
HEADER
  9
$ACADVER
  1
AC1009
  9
$INSBASE
 10
0
 20
0
 30
0
  9
$EXTMIN
 10
0
 20
0
  9
$EXTMAX
 10
420
 20
297
  9
$LIMMIN
 10
0
 20
0
  9
$LIMMAX
 10
420
 20
297
  9
$LTSCALE
 40
1
  0
ENDSEC
  0
SECTION
  2
TABLES
  0
TABLE
  2
LTYPE
 70
     9
  0
LTYPE
  2
CONTINUOUS
 70
    64
  3
実線
 72
    65
 73
     0
 40
0.0
  0
LTYPE
  2
DASHED1
 70
    64
  3
--  --  --  --  --  --  --  --  
 72
    65
 73
     2
 40
2.5
 49
1.25
 49
-1.25
  0
LTYPE
  2
DASHED2
 70
    64
  3
----    ----    ----    ----    
 72
    65
 73
     2
 40
5.0
 49
2.5
 49
-2.5
  0
LTYPE
  2
DASHED3
 70
    64
  3
------  ------  ------  ------  
 72
    65
 73
     2
 40
5.0
 49
3.75
 49
-1.25
  0
LTYPE
  2
CENTER1
 70
    64
  3
----- - ----- - ----- - ----- - 
 72
    65
 73
     4
 40
10.0
 49
6.25
 49
-1.25
 49
1.25
 49
-1.25
  0
LTYPE
  2
CENTER2
 70
    64
  3
----------  --  ----------  --  
 72
    65
 73
     4
 40
20.0
 49
12.5
 49
-2.5
 49
2.5
 49
-2.5
  0
LTYPE
  2
PHANTOM1
 70
    64
  3
--- - - --- - - --- - - --- - - 
 72
    65
 73
     6
 40
10.0
 49
3.25
 49
-1.25
 49
1.25
 49
-1.25
 49
1.25
 49
-1.25
  0
LTYPE
  2
PHANTOM2
 70
    64
  3
--------  -  -  --------  -  -  
 72
    65
 73
     6
 40
20.0
 49
10.0
 49
-2.5
 49
1.25
 49
-2.5
 49
1.25
 49
-2.5
  0
LTYPE
  2
DOT
 70
    64
  3
-   -   -   -   -   -   -   -   
 72
    65
 73
     2
 40
2.5
 49
0.625
 49
-1.875
  0
LTYPE
  2
DUMMY
 70
    64
  3
ダミー
 72
    65
 73
     0
 40
0.0
  0
LTYPE
  2
RAND1
 70
    64
  3
ランダム線1
 72
    65
 73
     4
 40
10.0
 49
1.0
 49
-2.0
 49
3.0
 49
-4.0
  0
LTYPE
  2
RAND2
 70
    64
  3
ランダム線2
 72
    65
 73
     4
 40
14.0
 49
2.0
 49
-3.0
 49
4.0
 49
-5.0
  0
LTYPE
  2
RAND3
 70
    64
  3
ランダム線3
 72
    65
 73
     4
 40
18.0
 49
3.0
 49
-4.0
 49
5.0
 49
-6.0
  0
LTYPE
  2
RAND4
 70
    64
  3
ランダム線4
 72
    65
 73
     4
 40
22.0
 49
4.0
 49
-5.0
 49
6.0
 49
-7.0
  0
LTYPE
  2
RAND5
 70
    64
  3
ランダム線5
 72
    65
 73
     4
 40
26.0
 49
5.0
 49
-6.0
 49
7.0
 49
-8.0
  0
LTYPE
  2
LONG1
 70
    64
  3
----------  --  ----------  --  
 72
    65
 73
     4
 40
40.0
 49
32.5
 49
-2.5
 49
2.5
 49
-2.5
  0
LTYPE
  2
LONG2
 70
    64
  3
--------  -  -  --------  -  -  
 72
    65
 73
     6
 40
40.0
 49
30.0
 49
-2.5
 49
1.25
 49
-2.5
 49
1.25
 49
-2.5
  0
LTYPE
  2
LONG3
 70
    64
  3
+++++++++++++++..+++++++++++++++
 72
    65
 73
     2
 40
40.0
 49
37.5
 49
-2.5
  0
LTYPE
  2
LONG4
 70
    64
  3
+++++++++++++++..+++++++++++++++
 72
    65
 73
     2
 40
80.0
 49
75.0
 49
-5.0
  0
LTYPE
  2
LONG5
 70
    64
  3
----------  --  ----------  --  
 72
    65
 73
     4
 40
60.0
 49
37.5
 49
-7.5
 49
7.5
 49
-7.5
  0
LTYPE
  2
dashed
 70
   64
  3
-------   -------------   ------
 72
   65
 73
    2
 40
7.5
 49
6
 49
-1.5
  0
LTYPE
  2
dashed_spaced
 70
   64
  3
----        --------        ----
 72
   65
 73
    2
 40
12
 49
6
 49
-6
  0
LTYPE
  2
long_dashed_dotted
 70
   64
  3
------------- --- --------------
 72
   65
 73
    4
 40
15.25
 49
12
 49
-1.5
 49
0.25
 49
-1.5
  0
LTYPE
  2
long_dashed_double-dotted
 70
   64
  3
----------- --- --- ------------
 72
   65
 73
    6
 40
17
 49
12
 49
-1.5
 49
0.25
 49
-1.5
 49
0.25
 49
-1.5
  0
LTYPE
  2
long_dashed_triplicate-dotted
 70
   64
  3
--------- --- --- --- ----------
 72
   65
 73
    8
 40
18.75
 49
12
 49
-1.5
 49
0.25
 49
-1.5
 49
0.25
 49
-1.5
 49
0.25
 49
-1.5
  0
LTYPE
  2
dotted
 70
   64
  3
   -       -       -       -    
 72
   65
 73
    2
 40
1.75
 49
0.25
 49
-1.5
  0
LTYPE
  2
chain
 70
   64
  3
-------------- -- --------------
 72
   65
 73
    4
 40
18.5
 49
12
 49
-1.5
 49
3.5
 49
-1.5
  0
LTYPE
  2
chain_double_dash
 70
   64
  3
------------ -- -- -------------
 72
   65
 73
    6
 40
23.5
 49
12
 49
-1.5
 49
3.5
 49
-1.5
 49
3.5
 49
-1.5
  0
LTYPE
  2
dashed_dotted
 70
   64
  3
-----------     -     ----------
 72
   65
 73
    4
 40
9.25
 49
6
 49
-1.5
 49
0.25
 49
-1.5
  0
LTYPE
  2
double-dashed_dotted
 70
   64
  3
------   -----------   -   -----
 72
   65
 73
    6
 40
16.75
 49
6
 49
-1.5
 49
6
 49
-1.5
 49
0.25
 49
-1.5
  0
LTYPE
  2
dashed_double-dotted
 70
   64
  3
---------    -    -    ---------
 72
   65
 73
    6
 40
11
 49
6
 49
-1.5
 49
0.25
 49
-1.5
 49
0.25
 49
-1.5
  0
LTYPE
  2
double-dashed_double-dotted
 70
   64
  3
-----   ---------   -   -   ----
 72
   65
 73
    8
 40
18.5
 49
6
 49
-1.5
 49
6
 49
-1.5
 49
0.25
 49
-1.5
 49
0.25
 49
-1.5
  0
LTYPE
  2
dashed_triplicate-dotted
 70
   64
  3
-------    -    -    -    ------
 72
   65
 73
    8
 40
12.75
 49
6
 49
-1.5
 49
0.25
 49
-1.5
 49
0.25
 49
-1.5
 49
0.25
 49
-1.5
  0
LTYPE
  2
double-dashed_triplicate-dotted
 70
   64
  3
-----  ---------  -  -  -  -----
 72
   65
 73
   10
 40
20.25
 49
6
 49
-1.5
 49
6
 49
-1.5
 49
0.25
 49
-1.5
 49
0.25
 49
-1.5
 49
0.25
 49
-1.5
  0
LTYPE
  2
undefined
 70
   64
  3
--------------------------------
 72
   65
 73
    0
 40
0
  0
LTYPE
  2
_
 70
   64
  3
                                
 72
   65
 73
    0
 40
0
  0
LTYPE
  2
__18
 70
   64
  3
                                
 72
   65
 73
    0
 40
0
  0
LTYPE
  2
__19
 70
   64
  3
                                
 72
   65
 73
    0
 40
0
  0
LTYPE
  2
__20
 70
   64
  3
                                
 72
   65
 73
    0
 40
0
  0
LTYPE
  2
__21
 70
   64
  3
                                
 72
   65
 73
    0
 40
0
  0
LTYPE
  2
__22
 70
   64
  3
                                
 72
   65
 73
    0
 40
0
  0
LTYPE
  2
__23
 70
   64
  3
                                
 72
   65
 73
    0
 40
0
  0
LTYPE
  2
__24
 70
   64
  3
                                
 72
   65
 73
    0
 40
0
  0
LTYPE
  2
__25
 70
   64
  3
                                
 72
   65
 73
    0
 40
0
  0
LTYPE
  2
__26
 70
   64
  3
                                
 72
   65
 73
    0
 40
0
  0
LTYPE
  2
__27
 70
   64
  3
                                
 72
   65
 73
    0
 40
0
  0
LTYPE
  2
__28
 70
   64
  3
                                
 72
   65
 73
    0
 40
0
  0
LTYPE
  2
__29
 70
   64
  3
                                
 72
   65
 73
    0
 40
0
  0
LTYPE
  2
__30
 70
   64
  3
                                
 72
   65
 73
    0
 40
0
  0
LTYPE
  2
__31
 70
   64
  3
                                
 72
   65
 73
    0
 40
0
  0
LTYPE
  2
__32
 70
   64
  3
                                
 72
   65
 73
    0
 40
0
  0
ENDTAB
  0
TABLE
  2
STYLE
  5
3
100
AcDbSymbolTable
 70
     1
  0
STYLE
  5
10
100
AcDbSymbolTableRecord
100
AcDbTextStyleTableRecord
  2
STANDARD
 70
     0
 40
0.0
 41
1.0
 50
0.0
 71
     0
 42
0.2
  3
txt
  4
bigfont.shx
  0
STYLE
  5
26
100
AcDbSymbolTableRecord
100
AcDbTextStyleTableRecord
  2
TATEGAKI
 70
    68
 40
0.0
 41
1.0
 50
0.0
 71
     0
 42
1.0
  3
txt
  4
bigfont.shx
  0
ENDTAB
  0
TABLE
  2
LAYER
 70
    7
  0
LAYER
  2
_0-0_
 70
   64
 62
    7
  6
CONTINUOUS
  0
LAYER
  2
_1-1_
 70
   64
 62
    7
  6
CONTINUOUS
  0
LAYER
  2
_1-2_
 70
   64
 62
    7
  6
CONTINUOUS
  0
LAYER
  2
_1-9_
 70
   64
 62
    7
  6
CONTINUOUS
  0
LAYER
  2
_1-a_
 70
   64
 62
    7
  6
CONTINUOUS
  0
LAYER
  2
_f-0_
 70
   64
 62
    7
  6
CONTINUOUS
  0
LAYER
  2
ADD_LINE
 70
   64
 62
    7
  6
CONTINUOUS
  0
ENDTAB
  0
ENDSEC
  0
SECTION
  2
BLOCKS
  0
ENDSEC
  0
SECTION
  2
ENTITIES
  0
LINE
  8
_0-0_
  6
CONTINUOUS
 62
    7
 10
392.37124071700645
 20
27.106673290124916
 11
30.001197687221406
 21
27.106673290124916
  0
LINE
  8
_0-0_
  6
CONTINUOUS
 62
    7
 10
30.001197687221406
 20
27.106673290124916
 11
30.001197687221406
 21
266.80665177523241
  0
LINE
  8
_0-0_
  6
CONTINUOUS
 62
    7
 10
392.37124071700645
 20
266.80665177523241
 11
392.37124071700645
 21
27.106673290124916
  0
LINE
  8
_0-0_
  6
CONTINUOUS
 62
    7
 10
30.001197687221406
 20
266.80665177523241
 11
392.37124071700645
 21
266.80665177523241
  0
TEXT
  8
_0-0_
 62
    7
 10
299.77056000716765
 20
55.132443741834961
 40
3.0032999999999847
 41
1.0000000000000046
 50
-0.0000025044784592
  1
設計
  7
TATEGAKI
  0
TEXT
  8
_0-0_
 62
    7
 10
314.76964585311498
 20
55.132443741834947
 40
3.0032999999999847
 41
1.0000000000000046
 50
-0.0000025044788856
  1
製図
  7
TATEGAKI
  0
TEXT
  8
_0-0_
 62
    7
 10
329.76873169906218
 20
55.132443741834961
 40
3.0032999999999847
 41
1.0000000000000046
 50
-0.0000025044783313
  1
検図
  7
TATEGAKI
  0
TEXT
  8
_0-0_
 62
    7
 10
319.85910040633763
 20
45.404540221441607
 40
3.0032999999999883
 41
1.0000000000000128
 50
-0.0000025044778055
  1
材質
  7
TATEGAKI
  0
TEXT
  8
_0-0_
 62
    7
 10
309.31694962307261
 20
30.378402542024161
 40
3.2035199999999974
 41
1.0000000000000011
 50
0
  1
ＦＫＫ株式会社
  0
TEXT
  8
_0-0_
 62
    7
 10
344.89799598434058
 20
55.213562766683892
 40
3.0032999999999847
 41
1.0000000000000046
 50
-0.0000025044783313
  1
作図
  7
TATEGAKI
  0
TEXT
  8
_0-0_
 62
    7
 10
344.82210693404761
 20
45.404540221441607
 40
3.0032999999999883
 41
1.0000000000000128
 50
-0.0000025044778055
  1
品名
  7
TATEGAKI
  0
TEXT
  8
_0-0_
 62
    7
 10
344.94498364913545
 20
35.24168574298703
 40
3.0032999999999994
 41
1.0000000000000091
 50
-0.0000025044783313
  1
図番
  7
TATEGAKI
  0
TEXT
  8
_0-0_
 62
    7
 10
374.62970056808075
 20
55.151282343137978
 40
3.0032999999999994
 41
0.9999999999999902
 50
-0.0000025044788856
  1
尺度
  7
TATEGAKI
  0
TEXT
  8
_f-0_
 62
    7
 10
340.65376100842911
 20
72.836208259045889
 40
4.0044000000000039
 41
1.0000000000000088
 50
0
  1
ー
  0
TEXT
  8
_f-0_
 62
    7
 10
340.65376100842911
 20
67.532053566833667
 40
4.004400000000011
 41
1.0000000000000071
 50
0
  1
ー
  0
TEXT
  8
_f-0_
 62
    7
 10
340.65376100842911
 20
77.838072521062059
 40
4.0044000000000039
 41
1.0000000000000088
 50
0
  1
ー
  0
TEXT
  8
_f-0_
 62
    7
 10
298.47858656987904
 20
78.239567563736471
 40
4.0043999999999968
 41
0.9999999999999982
 50
0
  1
④
  0
TEXT
  8
_f-0_
 62
    7
 10
298.47858656987904
 20
72.957761804075744
 40
4.0044000000000039
 41
0.9999999999999964
 50
0
  1
③
  0
TEXT
  8
_f-0_
 62
    7
 10
298.47858656987904
 20
67.933548609508108
 40
4.0044000000000039
 41
0.9999999999999964
 50
0
  1
②
  0
TEXT
  8
_f-0_
 62
    7
 10
298.47858656987904
 20
62.761997784601248
 40
4.0043999999999968
 41
0.9999999999999982
 50
0
  1
①
  0
TEXT
  8
_f-0_
 62
    7
 10
337.23282010843161
 20
62.868817566597158
 40
4.0043999999999968
 41
1.0000000000000024
 50
0
  1
アルミ
  0
TEXT
  8
_f-0_
 62
    7
 10
339.64790818211008
 20
57.697266741690327
 40
4.0044000000000039
 41
1.0000000000000046
 50
0
  1
材質
  0
TEXT
  8
_f-0_
 62
    7
 10
312.84893483690376
 20
57.597813841211348
 40
4.0043999999999968
 41
0.9999999999999993
 50
0
  1
部品名
  0
TEXT
  8
_f-0_
 62
    7
 10
367.25684507906817
 20
57.761726954963677
 40
4.0044000000000039
 41
1
 50
0
  1
仕様
  0
TEXT
  8
_f-0_
 62
    7
 10
381.25450131014997
 20
49.886128047796205
 40
4.0044000000000039
 41
0.999999999999994
 50
0
  1
1:2
  0
LINE
  8
_0-0_
  6
CONTINUOUS
 62
    7
 10
317.28877126815405
 20
57.139679018465017
 11
317.28877126815405
 21
47.128677109018354
  0
LINE
  8
_0-0_
  6
CONTINUOUS
 62
    7
 10
392.37124071700645
 20
37.11767329012494
 11
297.26674071700648
 21
37.11767329012494
  0
LINE
  8
_0-0_
  6
CONTINUOUS
 62
    7
 10
392.37124071700645
 20
47.128677109018354
 11
297.26674071700648
 21
47.128677109018354
  0
LINE
  8
_0-0_
  6
CONTINUOUS
 62
    7
 10
312.28324071700649
 20
57.139679018465017
 11
312.28324071700649
 21
47.128677109018354
  0
LINE
  8
_0-0_
  6
CONTINUOUS
 62
    7
 10
327.2997407170065
 20
57.139679018465017
 11
327.2997407170065
 21
47.128677109018354
  0
LINE
  8
_0-0_
  6
CONTINUOUS
 62
    7
 10
322.29424071700651
 20
47.128677109018354
 11
322.29424071700651
 21
37.11767329012494
  0
LINE
  8
_0-0_
  6
CONTINUOUS
 62
    7
 10
317.28877126815405
 20
47.128677109018354
 11
317.28877126815405
 21
37.11767329012494
  0
LINE
  8
_0-0_
  6
CONTINUOUS
 62
    7
 10
377.35477126815413
 20
57.139679018465017
 11
377.35477126815413
 21
47.128677109018354
  0
LINE
  8
_0-0_
  6
CONTINUOUS
 62
    7
 10
372.34924071700652
 20
57.139679018465017
 11
372.34924071700652
 21
47.128677109018354
  0
LINE
  8
_0-0_
  6
CONTINUOUS
 62
    7
 10
307.30074573104462
 20
40.400491466585208
 11
314.30844573104462
 21
38.898835738245054
  0
LINE
  8
_0-0_
  6
CONTINUOUS
 62
    7
 10
314.30844573104462
 20
44.905437647691769
 11
314.30844573104462
 21
38.898835738245054
  0
LINE
  8
_0-0_
  6
CONTINUOUS
 62
    7
 10
307.30074573104462
 20
43.403787647691757
 11
314.30844573104462
 21
44.905437647691769
  0
LINE
  8
_0-0_
  6
CONTINUOUS
 62
    7
 10
307.30074573104462
 20
43.403787647691757
 11
307.30074573104462
 21
40.400491466585208
  0
LINE
  8
_0-0_
  6
CONTINUOUS
 62
    7
 10
342.3162407170065
 20
47.128677109018354
 11
342.3162407170065
 21
27.106673290124916
  0
LINE
  8
_0-0_
  6
CONTINUOUS
 62
    7
 10
347.32174071700649
 20
47.128677109018354
 11
347.32174071700649
 21
27.106673290124916
  0
LINE
  8
_0-0_
  6
CONTINUOUS
 62
    7
 10
392.37123270820632
 20
57.139679018465017
 11
349.08030969950976
 21
57.139679018465017
  0
LINE
  8
_0-0_
  6
CONTINUOUS
 62
    7
 10
347.32174071700649
 20
57.121481804354772
 11
347.32174071700649
 21
47.128677109018354
  0
LINE
  8
_0-0_
  6
CENTER2
 62
    7
 10
302.29521517989712
 20
45.906541466585196
 11
302.29521517989712
 21
37.897737647691741
  0
LINE
  8
_0-0_
  6
CENTER2
 62
    7
 10
316.31061517989712
 20
41.902139557138468
 11
302.28866146008874
 21
41.902139557138468
  0
LINE
  8
_0-0_
  6
CENTER2
 62
    7
 10
302.28866146008874
 20
41.902139557138468
 11
298.29084573104466
 21
41.902139557138468
  0
LINE
  8
_0-0_
  6
CONTINUOUS
 62
    7
 10
342.3162407170065
 20
57.139679018465017
 11
342.3162407170065
 21
27.106673290124916
  0
LINE
  8
_0-0_
  6
CONTINUOUS
 62
    7
 10
302.27224071700652
 20
57.139679018465017
 11
302.27224071700652
 21
47.128677109018354
  0
LINE
  8
_0-0_
  6
CONTINUOUS
 62
    7
 10
332.30527126815411
 20
57.139679018465017
 11
332.30527126815411
 21
47.128677109018354
  0
LINE
  8
_0-0_
  6
CONTINUOUS
 62
    7
 10
392.37123270820632
 20
57.139679018465017
 11
297.26674071700648
 21
57.139679018465017
  0
LINE
  8
_0-0_
  6
CONTINUOUS
 62
    7
 10
297.26674071700648
 20
57.139679018465017
 11
297.26674071700648
 21
27.106673290124916
  0
LINE
  8
_0-0_
  6
CONTINUOUS
 62
    4
 10
322.29424071700651
 20
47.128677109018354
 11
342.3162407170065
 21
37.11767329012494
  0
LINE
  8
_0-0_
  6
CONTINUOUS
 62
    7
 10
392.37123460677707
 20
67.230766560197793
 11
297.26674071700648
 21
67.230766560197793
  0
LINE
  8
_0-0_
  6
CONTINUOUS
 62
    7
 10
392.37123460677707
 20
72.276310331064166
 11
297.26674071700648
 21
72.276310331064166
  0
LINE
  8
_0-0_
  6
CONTINUOUS
 62
    7
 10
392.37123460677707
 20
62.18522278933139
 11
297.26674071700648
 21
62.18522278933139
  0
LINE
  8
_0-0_
  6
CONTINUOUS
 62
    7
 10
392.37123460677707
 20
77.321854101930597
 11
297.26674071700648
 21
77.321854101930597
  0
LINE
  8
_0-0_
  6
CONTINUOUS
 62
    7
 10
392.37123460677707
 20
82.58232928529253
 11
297.26674071700648
 21
82.58232928529253
  0
LINE
  8
_0-0_
  6
CONTINUOUS
 62
    7
 10
329.86574420626305
 20
77.20783078172073
 11
329.86574420626305
 21
75.976986262280149
  0
LINE
  8
_0-0_
  6
CONTINUOUS
 62
    7
 10
334.54272264067543
 20
62.18522278933139
 11
334.54272264067543
 21
57.139679018465017
  0
LINE
  8
_0-0_
  6
CONTINUOUS
 62
    7
 10
297.26674071700648
 20
62.18522278933139
 11
297.26674071700648
 21
57.139679018465017
  0
LINE
  8
_0-0_
  6
CONTINUOUS
 62
    7
 10
303.42087124217744
 20
62.18522278933139
 11
303.42087124217744
 21
57.139679018465017
  0
LINE
  8
_0-0_
  6
CONTINUOUS
 62
    7
 10
351.05010400295452
 20
62.18522278933139
 11
351.05010400295452
 21
57.139679018465017
  0
CIRCLE
  8
_0-0_
  6
CONTINUOUS
 62
    7
 10
302.29521517989712
 20
41.902139557138468
 40
1.5016500000000003
  0
CIRCLE
  8
_0-0_
  6
CONTINUOUS
 62
    7
 10
302.29521517989712
 20
41.902139557138468
 40
3.0033000000000007
  0
TEXT
  8
_0-0_
 62
    7
 10
382.95385579868195
 20
262.37360393682547
 40
3.2035199999999974
 41
0.9999999999999992
 50
0
  1
検印
  0
TEXT
  8
_0-0_
 62
    7
 10
373.09313314266842
 20
262.30996445491365
 40
3.2035199999999974
 41
1.0000000000000082
 50
0
  1
担当
  0
TEXT
  8
_0-0_
 62
    7
 10
330.27661067590656
 20
262.61810743903248
 40
3.0032999999999674
 41
1.0000000000000122
 50
0
  1
訂　正　記　事
  0
TEXT
  8
_0-0_
 62
    7
 10
289.43372086270636
 20
262.61810743903248
 40
3.0032999999999674
 41
1.0000000000000104
 50
0
  1
年　月　日
  0
TEXT
  8
_0-0_
 62
    7
 10
274.06550845454108
 20
262.58412923938021
 40
3.0032999999999958
 41
1.0000000000000019
 50
0
  1
Ｎｏ
  0
LINE
  8
_0-0_
  6
CONTINUOUS
 62
    7
 10
312.30741828310635
 20
266.80665177523241
 11
312.30741828310635
 21
261.40382319403238
  0
LINE
  8
_0-0_
  6
CONTINUOUS
 62
    7
 10
372.3734182831065
 20
266.80665177523241
 11
372.3734182831065
 21
256.3983432160324
  0
LINE
  8
_0-0_
  6
CONTINUOUS
 62
    7
 10
382.38441828310646
 20
266.80665177523241
 11
382.38441828310646
 21
256.3983432160324
  0
LINE
  8
_0-0_
  6
CONTINUOUS
 62
    7
 10
272.2937476591411
 20
266.79655281388028
 11
272.2937476591411
 21
261.39372423268019
  0
LINE
  8
_0-0_
  6
CONTINUOUS
 62
    7
 10
282.30475566794086
 20
266.79655281388028
 11
282.30475566794086
 21
261.39372423268019
  0
TEXT
  8
_f-0_
 62
    7
 10
298.27728408533738
 20
88.184345228660106
 40
4
 41
1
 50
0
  1
⑥
  0
TEXT
  8
_f-0_
 62
    7
 10
298.27728408533738
 20
83.113504576081766
 40
4
 41
1
 50
0
  1
⑤
  0
LINE
  8
_0-0_
  6
CONTINUOUS
 62
    7
 10
303.42087124217744
 20
92.58232928529253
 11
303.42087124217744
 21
62.18522278933139
  0
LINE
  8
_0-0_
  6
CONTINUOUS
 62
    7
 10
297.26674071700648
 20
92.58232928529253
 11
297.26674071700648
 21
62.18522278933139
  0
LINE
  8
_0-0_
  6
CONTINUOUS
 62
    7
 10
334.54272264067543
 20
92.58232928529253
 11
334.54272264067543
 21
62.18522278933139
  0
LINE
  8
_0-0_
  6
CONTINUOUS
 62
    7
 10
351.05010400295452
 20
92.58232928529253
 11
351.05010400295452
 21
62.18522278933139
  0
LINE
  8
_0-0_
  6
CONTINUOUS
 62
    7
 10
392.26673461349088
 20
92.58232928529253
 11
297.26674071700648
 21
92.58232928529253
  0
LINE
  8
_0-0_
  6
CONTINUOUS
 62
    7
 10
392.26673461349088
 20
87.58232928529253
 11
297.26674071700648
 21
87.58232928529253
  0
TEXT
  8
_f-0_
 62
    7
 10
340.65376100842911
 20
83.098547704423992
 40
4.0044000000000039
 41
1.0000000000000088
 50
0
  1
ー
  0
TEXT
  8
_f-0_
 62
    7
 10
340.65376100842911
 20
88.098547704423992
 40
4.0044000000000039
 41
1.0000000000000088
 50
0
  1
ー
  0
LINE
  8
_1-1_
  6
CONTINUOUS
 62
    7
 10
131.26754791112605
 20
123.49177741179497
 11
131.26754791112605
 21
122.74138398354497
  0
LINE
  8
_1-1_
  6
CONTINUOUS
 62
    7
 10
131.76754791112605
 20
123.49177741179497
 11
131.76754791112605
 21
122.74138398354497
  0
LINE
  8
_1-1_
  6
CONTINUOUS
 62
    7
 10
231.76754791112614
 20
123.49177741179497
 11
231.76754791112614
 21
122.74138398354497
  0
LINE
  8
_1-1_
  6
CONTINUOUS
 62
    7
 10
232.26754791112614
 20
123.49177741179497
 11
232.26754791112614
 21
122.74138398354497
  0
ARC
  8
_1-1_
  6
CONTINUOUS
 62
    7
 10
109.93540427388199
 20
139.75388398354493
 40
1.459246466038893
 50
316.06425193171537
 51
43.9357480682811
  0
ARC
  8
_1-1_
  6
CONTINUOUS
 62
    7
 10
112.03706456864608
 20
137.72888398354498
 40
1.459246466038883
 50
136.064251931715
 51
223.93574806828149
  0
ARC
  8
_1-1_
  6
CONTINUOUS
 62
    7
 10
112.35081734974525
 20
139.75388398354488
 40
1.4592464660387713
 50
316.06425193171389
 51
43.93574806828775
  0
ARC
  8
_1-1_
  6
CONTINUOUS
 62
    7
 10
114.45247764450925
 20
137.72888398354498
 40
1.4592464660388724
 50
136.0642519317146
 51
223.93574806828189
  0
LINE
  8
_1-1_
  6
CONTINUOUS
 62
    7
 10
102.70994601034695
 20
140.76638398354498
 11
102.70994601034695
 21
136.71638398354491
  0
LINE
  8
_1-1_
  6
CONTINUOUS
 62
    7
 10
89.052496284734488
 20
138.12526018065366
 11
89.052496284734488
 21
137.34592493943543
  0
LINE
  8
_1-1_
  6
CONTINUOUS
 62
    7
 10
89.052496284734488
 20
137.58100515811713
 11
85.487496284734504
 21
137.58100515811713
  0
LINE
  8
_1-1_
  6
CONTINUOUS
 62
    7
 10
85.487496284734504
 20
137.58100515811713
 11
85.487496284734504
 21
137.84844683857139
  0
LINE
  8
_1-1_
  6
CONTINUOUS
 62
    7
 10
85.487496284734504
 20
137.84844683857139
 11
89.052496284734488
 21
137.84844683857139
  0
LINE
  8
_1-1_
  6
CONTINUOUS
 62
    7
 10
89.052496284734488
 20
137.84844683857139
 11
89.052496284734488
 21
137.58100515811713
  0
LINE
  8
_1-1_
  6
CONTINUOUS
 62
    7
 10
102.70994601034695
 20
137.34592493943543
 11
89.052496284734488
 21
137.34592493943543
  0
LINE
  8
_1-1_
  6
CONTINUOUS
 62
    7
 10
102.70994601034695
 20
138.12526018065366
 11
89.052496284734488
 21
138.12526018065366
  0
LINE
  8
_1-1_
  6
CONTINUOUS
 62
    7
 10
89.052496284734488
 20
139.19108025357448
 11
89.052496284734488
 21
138.41174501235616
  0
LINE
  8
_1-1_
  6
CONTINUOUS
 62
    7
 10
89.052496284734488
 20
138.64682523103786
 11
85.487496284734504
 21
138.64682523103786
  0
LINE
  8
_1-1_
  6
CONTINUOUS
 62
    7
 10
85.487496284734504
 20
138.64682523103786
 11
85.487496284734504
 21
138.91426691149212
  0
LINE
  8
_1-1_
  6
CONTINUOUS
 62
    7
 10
85.487496284734504
 20
138.91426691149212
 11
89.052496284734488
 21
138.91426691149212
  0
LINE
  8
_1-1_
  6
CONTINUOUS
 62
    7
 10
89.052496284734488
 20
138.91426691149212
 11
89.052496284734488
 21
138.64682523103786
  0
LINE
  8
_1-1_
  6
CONTINUOUS
 62
    7
 10
102.70994601034695
 20
138.41174501235616
 11
89.052496284734488
 21
138.41174501235616
  0
LINE
  8
_1-1_
  6
CONTINUOUS
 62
    7
 10
102.70994601034695
 20
139.19108025357448
 11
89.052496284734488
 21
139.19108025357448
  0
LINE
  8
_1-1_
  6
CONTINUOUS
 62
    7
 10
89.052496284734488
 20
140.1870106659615
 11
89.052496284734488
 21
139.40767542474321
  0
LINE
  8
_1-1_
  6
CONTINUOUS
 62
    7
 10
89.052496284734488
 20
139.64275564342489
 11
85.487496284734504
 21
139.64275564342489
  0
LINE
  8
_1-1_
  6
CONTINUOUS
 62
    7
 10
85.487496284734504
 20
139.64275564342489
 11
85.487496284734504
 21
139.91019732387917
  0
LINE
  8
_1-1_
  6
CONTINUOUS
 62
    7
 10
85.487496284734504
 20
139.91019732387917
 11
89.052496284734488
 21
139.91019732387917
  0
LINE
  8
_1-1_
  6
CONTINUOUS
 62
    7
 10
89.052496284734488
 20
139.91019732387917
 11
89.052496284734488
 21
139.64275564342489
  0
LINE
  8
_1-1_
  6
CONTINUOUS
 62
    7
 10
102.70994601034695
 20
139.40767542474321
 11
89.052496284734488
 21
139.40767542474321
  0
LINE
  8
_1-1_
  6
CONTINUOUS
 62
    7
 10
102.70994601034695
 20
140.1870106659615
 11
89.052496284734488
 21
140.1870106659615
  0
LINE
  8
_1-1_
  6
CONTINUOUS
 62
    7
 10
102.70994601034695
 20
140.76638398354498
 11
110.98623442126404
 21
140.76638398354498
  0
LINE
  8
_1-1_
  6
CONTINUOUS
 62
    7
 10
102.70994601034695
 20
136.71638398354491
 11
110.98623442126404
 21
136.71638398354491
  0
LINE
  8
_1-a_
  6
CONTINUOUS
 62
    4
 10
125.40627035793795
 20
144.491383983545
 11
125.40627035793795
 21
122.74138398354506
  0
LINE
  8
_1-a_
  6
CONTINUOUS
 62
    4
 10
131.26754791112605
 20
118.98529092740835
 11
232.26754791112614
 21
118.98529092740835
  0
LINE
  8
_1-a_
  6
CONTINUOUS
 62
    4
 10
232.26754791112614
 20
118.98529092740835
 11
230.81865917169255
 21
118.5970623597546
  0
LINE
  8
_1-a_
  6
CONTINUOUS
 62
    4
 10
232.26754791112614
 20
118.98529092740835
 11
230.81865917169255
 21
119.37351949506216
  0
LINE
  8
_1-a_
  6
CONTINUOUS
 62
    4
 10
131.26754791112605
 20
118.98529092740835
 11
132.71643665055964
 21
119.37351949506216
  0
LINE
  8
_1-a_
  6
CONTINUOUS
 62
    4
 10
131.26754791112605
 20
118.98529092740835
 11
132.71643665055964
 21
118.5970623597546
  0
LINE
  8
_1-a_
  6
CONTINUOUS
 62
    4
 10
125.40627035793795
 20
122.74138398354506
 11
125.01804179028417
 21
124.19027272297867
  0
LINE
  8
_1-a_
  6
CONTINUOUS
 62
    4
 10
125.40627035793795
 20
122.74138398354506
 11
125.79449892559173
 21
124.19027272297867
  0
LINE
  8
_1-a_
  6
CONTINUOUS
 62
    4
 10
125.40627035793795
 20
144.491383983545
 11
125.79449892559173
 21
143.04249524411142
  0
LINE
  8
_1-a_
  6
CONTINUOUS
 62
    4
 10
125.40627035793795
 20
144.491383983545
 11
125.01804179028417
 21
143.04249524411142
  0
TEXT
  8
_1-a_
 62
    7
 10
178.51754791112611
 20
119.32422339671262
 40
4
 41
1
 50
0
  1
202
  0
TEXT
  8
_1-a_
 62
    7
 10
125.06648522833359
 20
125.80986159173212
 40
4
 41
1
 50
90
  1
43.5
  0
LINE
  8
_1-a_
  6
CONTINUOUS
 62
    4
 10
239.03809780284524
 20
144.491383983545
 11
239.03809780284524
 21
128.74138398354506
  0
LINE
  8
_1-a_
  6
CONTINUOUS
 62
    4
 10
239.03809780284524
 20
144.491383983545
 11
239.03809780284524
 21
148.77606277565863
  0
LINE
  8
_1-a_
  6
CONTINUOUS
 62
    4
 10
239.03809780284524
 20
128.74138398354506
 11
239.03809780284524
 21
118.59844429696488
  0
LINE
  8
_1-a_
  6
CONTINUOUS
 62
    4
 10
239.03809780284524
 20
128.74138398354506
 11
239.42632637049905
 21
127.29249524411147
  0
LINE
  8
_1-a_
  6
CONTINUOUS
 62
    4
 10
239.03809780284524
 20
128.74138398354506
 11
238.64986923519148
 21
127.29249524411147
  0
LINE
  8
_1-a_
  6
CONTINUOUS
 62
    4
 10
239.03809780284524
 20
144.491383983545
 11
238.64986923519148
 21
145.94027272297861
  0
LINE
  8
_1-a_
  6
CONTINUOUS
 62
    4
 10
239.03809780284524
 20
144.491383983545
 11
239.42632637049905
 21
145.94027272297861
  0
TEXT
  8
_1-a_
 62
    7
 10
238.69831267324082
 20
119.29552713248858
 40
4
 41
1
 50
90
  1
31.5
  0
LINE
  8
_1-1_
  6
CONTINUOUS
 62
    7
 10
265.83652456065192
 20
136.81638398354493
 11
253.40884765109444
 21
136.81638398354493
  0
LINE
  8
_1-1_
  6
CONTINUOUS
 62
    7
 10
265.83652456065192
 20
140.16638398354496
 11
253.40884765109444
 21
140.16638398354496
  0
ARC
  8
_1-1_
  6
CONTINUOUS
 62
    7
 10
253.70661568438828
 20
139.52651765734981
 40
0.7057582568062442
 50
114.9553729531992
 51
245.04462704680079
  0
ARC
  8
_1-1_
  6
CONTINUOUS
 62
    7
 10
252.30874332502833
 20
137.8515176573498
 40
1.5105400527209482
 50
316.74284832057333
 51
43.257151679431196
  0
LINE
  8
_1-1_
  6
CONTINUOUS
 62
    7
 10
265.83652456065192
 20
140.16638398354496
 11
265.83652456065192
 21
136.81638398354493
  0
LINE
  8
_1-1_
  6
CONTINUOUS
 62
    7
 10
265.83652456065192
 20
138.88105160415409
 11
288.50843206100239
 21
138.88105160415409
  0
LINE
  8
_1-1_
  6
CONTINUOUS
 62
    7
 10
265.83652456065192
 20
138.10171636293577
 11
288.50843206100239
 21
138.10171636293577
  0
ARC
  8
_1-1_
  6
CONTINUOUS
 62
    7
 10
251.29120260852505
 20
139.52651765734981
 40
0.7057582568062442
 50
114.9553729531992
 51
245.04462704680079
  0
ARC
  8
_1-1_
  6
CONTINUOUS
 62
    7
 10
249.89333024916516
 20
137.85151765734988
 40
1.5105400527208456
 50
316.74284832057122
 51
43.257151679432638
  0
LINE
  8
_1-1_
  6
CONTINUOUS
 62
    7
 10
288.50843206100239
 20
140.49138398354494
 11
288.50843206100239
 21
136.49138398354494
  0
LINE
  8
_1-2_
  6
CONTINUOUS
 62
    7
 10
311.13343206100239
 20
144.14138398354489
 11
311.13343206100239
 21
128.71433300042008
  0
LINE
  8
_1-2_
  6
CONTINUOUS
 62
    7
 10
310.63343206100239
 20
131.74138398354492
 11
310.63343206100239
 21
130.64138398354492
  0
LINE
  8
_1-2_
  6
CONTINUOUS
 62
    7
 10
303.38343206100239
 20
134.99138398354489
 11
303.38343206100239
 21
130.74138398354492
  0
LINE
  8
_1-2_
  6
CONTINUOUS
 62
    7
 10
298.38343206100239
 20
134.99138398354489
 11
298.38343206100239
 21
130.74138398354492
  0
LINE
  8
_1-2_
  6
CONTINUOUS
 62
    7
 10
299.38343206100239
 20
134.99138398354489
 11
299.38343206100239
 21
130.74138398354492
  0
LINE
  8
_1-2_
  6
CONTINUOUS
 62
    7
 10
291.63343206100239
 20
144.14138398354489
 11
291.63343206100239
 21
128.71433300042008
  0
LINE
  8
_1-2_
  6
CONTINUOUS
 62
    7
 10
297.38343206100239
 20
130.74138398354492
 11
298.33094473301338
 21
138.70049042843749
  0
LINE
  8
_1-2_
  6
CONTINUOUS
 62
    7
 10
292.13343206100239
 20
131.74138398354492
 11
292.13343206100239
 21
130.64138398354492
  0
LINE
  8
_1-2_
  6
CONTINUOUS
 62
    7
 10
293.38343206100239
 20
130.64138398354492
 11
292.35858674236123
 21
131.87119836591432
  0
LINE
  8
_1-2_
  6
CONTINUOUS
 62
    7
 10
304.38343206100239
 20
134.99138398354489
 11
304.38343206100239
 21
130.74138398354492
  0
LINE
  8
_1-2_
  6
CONTINUOUS
 62
    7
 10
305.38343206100233
 20
130.74138398354492
 11
304.43591938899135
 21
138.70049042843749
  0
LINE
  8
_1-2_
  6
CONTINUOUS
 62
    7
 10
309.38343206100239
 20
130.64138398354492
 11
310.40827737964355
 21
131.87119836591432
  0
LINE
  8
_1-2_
  6
CONTINUOUS
 62
    7
 10
295.74479569736598
 20
129.13002034718135
 11
295.83343206100238
 21
128.39138398354492
  0
LINE
  8
_1-2_
  6
CONTINUOUS
 62
    7
 10
295.84053884218894
 20
129.03427720235839
 11
295.73343206100122
 21
129.14138398354606
  0
ARC
  8
_1-2_
  6
CONTINUOUS
 62
    7
 10
296.5476456233755
 20
129.74138398354489
 40
1
 50
224.999999999999
 51
270
  0
ARC
  8
_1-2_
  6
CONTINUOUS
 62
    7
 10
296.53343206100237
 20
129.74138398354489
 40
1
 50
90
 51
216.86989764575409
  0
ARC
  8
_1-2_
  6
CONTINUOUS
 62
    7
 10
291.88343206100239
 20
128.71433300042008
 40
0.25
 50
180
 51
286.60154959901927
  0
LINE
  8
_1-2_
  6
CONTINUOUS
 62
    7
 10
293.38343206100228
 20
130.64138398354492
 11
294.88343206100239
 21
130.64138398354492
  0
LINE
  8
_1-2_
  6
CONTINUOUS
 62
    7
 10
292.55843206100234
 20
130.64138398354492
 11
292.55843206100234
 21
130.01638398354492
  0
LINE
  8
_1-2_
  6
CONTINUOUS
 62
    7
 10
292.55843206100234
 20
130.01638398354492
 11
293.3479612666901
 21
130.01638398354492
  0
ARC
  8
_1-2_
  6
CONTINUOUS
 62
    7
 10
291.38343206100239
 20
130.39138398354492
 40
2
 50
286.60154959902001
 51
349.19307712513938
  0
LINE
  8
_1-2_
  6
CONTINUOUS
 62
    7
 10
292.13343206100239
 20
130.64138398354492
 11
292.5584320610024
 21
130.64138398354492
  0
LINE
  8
_1-2_
  6
CONTINUOUS
 62
    7
 10
295.13343206100239
 20
130.89138398354492
 11
294.88343206100239
 21
130.64138398354495
  0
LINE
  8
_1-2_
  6
CONTINUOUS
 62
    7
 10
295.53343206100237
 20
130.89138398354492
 11
295.6220458126134
 21
130.15293605345243
  0
LINE
  8
_1-2_
  6
CONTINUOUS
 62
    7
 10
295.13343206100239
 20
130.89138398354492
 11
295.53343206100237
 21
130.89138398354492
  0
LINE
  8
_1-2_
  6
CONTINUOUS
 62
    7
 10
296.53343206100237
 20
130.14138398354492
 11
306.23843206100241
 21
130.14138398354492
  0
LINE
  8
_1-2_
  6
CONTINUOUS
 62
    7
 10
296.53343206100237
 20
130.74138398354492
 11
306.23343206100241
 21
130.74138398354492
  0
LINE
  8
_1-2_
  6
CONTINUOUS
 62
    7
 10
297.63343206100239
 20
128.14138398354489
 11
305.13343206100239
 21
128.14138398354492
  0
LINE
  8
_1-2_
  6
CONTINUOUS
 62
    7
 10
297.63343206100239
 20
129.49138398354492
 11
297.63343206100239
 21
128.14138398354492
  0
LINE
  8
_1-2_
  6
CONTINUOUS
 62
    7
 10
296.38343206100239
 20
130.11219390789824
 11
296.38343206100239
 21
129.49138398354492
  0
ARC
  8
_1-2_
  6
CONTINUOUS
 62
    7
 10
296.53343206100237
 20
129.74138398354489
 40
0.3999999999999914
 50
90
 51
270
  0
LINE
  8
_1-2_
  6
CONTINUOUS
 62
    7
 10
297.63343206100239
 20
129.49138398354492
 11
296.38343206100239
 21
129.49138398354492
  0
LINE
  8
_1-2_
  6
CONTINUOUS
 62
    7
 10
297.38343206100233
 20
129.2913839835449
 11
297.53343206100237
 21
129.14138398354492
  0
ARC
  8
_1-2_
  6
CONTINUOUS
 62
    7
 10
297.28343206100237
 20
128.64138398354492
 40
0.25
 50
270
 51
0
  0
LINE
  8
_1-2_
  6
CONTINUOUS
 62
    7
 10
297.53343206100225
 20
129.14138398354495
 11
297.53343206100237
 21
128.64138398354492
  0
LINE
  8
_1-2_
  6
CONTINUOUS
 62
    7
 10
297.38343206100239
 20
128.74138398354492
 11
296.5476456233755
 21
128.74138398354492
  0
LINE
  8
_1-2_
  6
CONTINUOUS
 62
    7
 10
297.38343206100239
 20
129.34138398354491
 11
296.53343206100237
 21
129.34138398354491
  0
LINE
  8
_1-2_
  6
CONTINUOUS
 62
    7
 10
297.38343206100239
 20
129.34138398354491
 11
297.38343206100239
 21
128.74138398354492
  0
LINE
  8
_1-2_
  6
CONTINUOUS
 62
    7
 10
295.83343206100238
 20
128.39138398354492
 11
297.28343206100237
 21
128.39138398354492
  0
LINE
  8
_1-2_
  6
CONTINUOUS
 62
    7
 10
302.63343206100239
 20
130.74138398354492
 11
302.63343206100239
 21
128.14138398354492
  0
LINE
  8
_1-2_
  6
CONTINUOUS
 62
    7
 10
300.13343206100239
 20
130.74138398354492
 11
300.13343206100239
 21
128.14138398354492
  0
LINE
  8
_1-2_
  6
CONTINUOUS
 62
    7
 10
309.38343206100239
 20
130.64138398354492
 11
307.88343206100239
 21
130.64138398354492
  0
LINE
  8
_1-2_
  6
CONTINUOUS
 62
    7
 10
305.13343206100239
 20
129.49138398354492
 11
305.13343206100239
 21
128.14138398354492
  0
LINE
  8
_1-2_
  6
CONTINUOUS
 62
    7
 10
305.38343206100239
 20
128.74138398354492
 11
306.21921849862923
 21
128.74138398354492
  0
LINE
  8
_1-2_
  6
CONTINUOUS
 62
    7
 10
305.13343206100239
 20
129.49138398354492
 11
306.38343206100239
 21
129.49138398354492
  0
LINE
  8
_1-2_
  6
CONTINUOUS
 62
    7
 10
305.38343206100239
 20
129.34138398354491
 11
306.23343206100241
 21
129.34138398354491
  0
LINE
  8
_1-2_
  6
CONTINUOUS
 62
    7
 10
306.9334320610024
 20
128.39138398354492
 11
305.48343206100241
 21
128.39138398354492
  0
LINE
  8
_1-2_
  6
CONTINUOUS
 62
    7
 10
305.38343206100239
 20
129.34138398354491
 11
305.38343206100239
 21
128.74138398354492
  0
LINE
  8
_1-2_
  6
CONTINUOUS
 62
    7
 10
305.23343206100241
 20
129.14138398354495
 11
305.23343206100241
 21
128.64138398354492
  0
ARC
  8
_1-2_
  6
CONTINUOUS
 62
    7
 10
305.48343206100241
 20
128.64138398354492
 40
0.25
 50
180
 51
270
  0
LINE
  8
_1-2_
  6
CONTINUOUS
 62
    7
 10
305.38343206100239
 20
129.2913839835449
 11
305.23343206100241
 21
129.14138398354492
  0
LINE
  8
_1-2_
  6
CONTINUOUS
 62
    7
 10
306.38343206100239
 20
130.11219390790068
 11
306.38343206100239
 21
129.49138398354492
  0
ARC
  8
_1-2_
  6
CONTINUOUS
 62
    7
 10
306.23343206100241
 20
129.74138398354489
 40
1
 50
323.13010235424587
 51
89.999999999999943
  0
ARC
  8
_1-2_
  6
CONTINUOUS
 62
    7
 10
306.23343206100241
 20
129.74138398354489
 40
0.3999999999999914
 50
270
 51
90
  0
LINE
  8
_1-2_
  6
CONTINUOUS
 62
    7
 10
306.92632527981578
 20
129.03427720235839
 11
307.0334320610035
 21
129.14138398354606
  0
LINE
  8
_1-2_
  6
CONTINUOUS
 62
    7
 10
307.0220684246388
 20
129.13002034718135
 11
306.9334320610024
 21
128.39138398354492
  0
LINE
  8
_1-2_
  6
CONTINUOUS
 62
    7
 10
307.63343206100239
 20
130.89138398354492
 11
307.23343206100241
 21
130.89138398354492
  0
LINE
  8
_1-2_
  6
CONTINUOUS
 62
    7
 10
307.23343206100241
 20
130.89138398354492
 11
307.14481830939132
 21
130.15293605345243
  0
LINE
  8
_1-2_
  6
CONTINUOUS
 62
    7
 10
307.63343206100239
 20
130.89138398354492
 11
307.88343206100239
 21
130.64138398354495
  0
ARC
  8
_1-2_
  6
CONTINUOUS
 62
    7
 10
306.21921849862923
 20
129.74138398354489
 40
1
 50
270
 51
315.00000000000068
  0
LINE
  8
_1-2_
  6
CONTINUOUS
 62
    7
 10
310.20843206100244
 20
130.01638398354492
 11
309.41890285531468
 21
130.01638398354492
  0
ARC
  8
_1-2_
  6
CONTINUOUS
 62
    7
 10
311.38343206100239
 20
130.39138398354492
 40
2
 50
190.8069228748603
 51
253.39845040097986
  0
ARC
  8
_1-2_
  6
CONTINUOUS
 62
    7
 10
310.88343206100239
 20
128.71433300042008
 40
0.25
 50
253.39845040098072
 51
0
  0
LINE
  8
_1-2_
  6
CONTINUOUS
 62
    7
 10
310.20843206100232
 20
130.64138398354492
 11
310.20843206100244
 21
130.01638398354492
  0
LINE
  8
_1-2_
  6
CONTINUOUS
 62
    7
 10
310.63343206100239
 20
130.64138398354492
 11
310.20843206100232
 21
130.64138398354492
  0
LINE
  8
_1-2_
  6
CONTINUOUS
 62
    7
 10
292.88343206100239
 20
145.39138398354489
 11
309.88343206100239
 21
145.39138398354489
  0
ARC
  8
_1-2_
  6
CONTINUOUS
 62
    7
 10
292.28343206100237
 20
131.74138398354492
 40
0.1499999999999913
 50
59.931752263272656
 51
180
  0
ARC
  8
_1-2_
  6
CONTINUOUS
 62
    7
 10
292.88343206100239
 20
144.14138398354489
 40
1.25
 50
90
 51
180
  0
ARC
  8
_1-2_
  6
CONTINUOUS
 62
    7
 10
303.9394252518939
 20
138.64138398354489
 40
0.5
 50
6.7889745744388223
 51
89.999999999999587
  0
LINE
  8
_1-2_
  6
CONTINUOUS
 62
    7
 10
298.82743887011082
 20
139.14138398354492
 11
303.9394252518939
 21
139.14138398354489
  0
ARC
  8
_1-2_
  6
CONTINUOUS
 62
    7
 10
298.82743887011082
 20
138.64138398354492
 40
0.5
 50
90
 51
173.21102542556118
  0
ARC
  8
_1-2_
  6
CONTINUOUS
 62
    7
 10
310.48343206100241
 20
131.74138398354492
 40
0.1499999999999913
 50
0
 51
120.0682477367273
  0
ARC
  8
_1-2_
  6
CONTINUOUS
 62
    7
 10
309.88343206100239
 20
144.14138398354489
 40
1.25
 50
0
 51
90
  0
ARC
  8
_1-2_
  6
CONTINUOUS
 62
    7
 10
299.13343206100239
 20
139.89138398354489
 40
0.5
 50
90
 51
162.54239687617479
  0
LINE
  8
_1-2_
  6
CONTINUOUS
 62
    7
 10
292.88343206100239
 20
144.64138398354489
 11
309.88343206100239
 21
144.64138398354489
  0
LINE
  8
_1-2_
  6
CONTINUOUS
 62
    7
 10
292.38343206100239
 20
144.14138398354489
 11
292.38343206100239
 21
136.64138398354489
  0
LINE
  8
_1-2_
  6
CONTINUOUS
 62
    7
 10
292.88343206100239
 20
136.14138398354489
 11
297.13343206100239
 21
136.14138398354489
  0
ARC
  8
_1-2_
  6
CONTINUOUS
 62
    7
 10
292.88343206100239
 20
136.64138398354489
 40
0.5
 50
180
 51
270
  0
LINE
  8
_1-2_
  6
CONTINUOUS
 62
    7
 10
297.61716539433575
 20
136.50638398354487
 11
298.31393399150431
 21
138.88173147389258
  0
ARC
  8
_1-2_
  6
CONTINUOUS
 62
    7
 10
297.13343206100239
 20
136.64138398354489
 40
0.5
 50
270
 51
344.33573314863178
  0
LINE
  8
_1-2_
  6
CONTINUOUS
 62
    7
 10
298.31392290657237
 20
138.8816501843915
 11
298.65409872766906
 21
140.0413839835449
  0
ARC
  8
_1-2_
  6
CONTINUOUS
 62
    7
 10
292.88343206100239
 20
144.14138398354489
 40
0.5
 50
90
 51
180
  0
LINE
  8
_1-2_
  6
CONTINUOUS
 62
    7
 10
309.88343206100239
 20
136.14138398354489
 11
305.63343206100239
 21
136.14138398354489
  0
LINE
  8
_1-2_
  6
CONTINUOUS
 62
    7
 10
303.63343206100239
 20
140.39138398354489
 11
301.38343206100239
 21
140.39138398354489
  0
LINE
  8
_1-2_
  6
CONTINUOUS
 62
    7
 10
299.13343206100239
 20
140.39138398354489
 11
301.38343206100239
 21
140.39138398354489
  0
LINE
  8
_1-2_
  6
CONTINUOUS
 62
    7
 10
305.14969872766914
 20
136.50638398354487
 11
304.45293013050047
 21
138.88173147389289
  0
ARC
  8
_1-2_
  6
CONTINUOUS
 62
    7
 10
305.63343206100239
 20
136.64138398354489
 40
0.5
 50
195.66426685136801
 51
270
  0
LINE
  8
_1-2_
  6
CONTINUOUS
 62
    7
 10
304.45294121543247
 20
138.88165018439119
 11
304.11276539433578
 21
140.0413839835449
  0
ARC
  8
_1-2_
  6
CONTINUOUS
 62
    7
 10
303.63343206100239
 20
139.89138398354489
 40
0.5
 50
17.45760312382519
 51
90
  0
LINE
  8
_1-2_
  6
CONTINUOUS
 62
    7
 10
310.38343206100239
 20
144.14138398354489
 11
310.38343206100239
 21
136.64138398354489
  0
ARC
  8
_1-2_
  6
CONTINUOUS
 62
    7
 10
309.88343206100239
 20
136.64138398354489
 40
0.5
 50
270
 51
0
  0
ARC
  8
_1-2_
  6
CONTINUOUS
 62
    7
 10
309.88343206100239
 20
144.14138398354489
 40
0.5
 50
0
 51
90
  0
LINE
  8
_1-2_
  6
CONTINUOUS
 62
    7
 10
303.63340731102493
 20
140.64143623349738
 11
301.38343206100239
 21
140.64143623349733
  0
LINE
  8
_1-2_
  6
CONTINUOUS
 62
    7
 10
292.8835255609174
 20
144.39139498353489
 11
309.88333856108738
 21
144.39139498353489
  0
LINE
  8
_1-2_
  6
CONTINUOUS
 62
    7
 10
303.63340731102493
 20
140.39143898349487
 11
301.38343206100239
 21
140.39143898349485
  0
LINE
  8
_1-2_
  6
CONTINUOUS
 62
    7
 10
292.8835255609174
 20
144.64139223353737
 11
309.88333856108738
 21
144.64139223353737
  0
CIRCLE
  8
_1-2_
  6
CONTINUOUS
 62
    7
 10
301.38343206100239
 20
142.74141313351839
 40
1.2499862500125
  0
LINE
  8
_1-2_
  6
CONTINUOUS
 62
    7
 10
292.63352831091492
 20
144.14139773353238
 11
292.63352831091492
 21
136.64148023345734
  0
LINE
  8
_1-2_
  6
CONTINUOUS
 62
    7
 10
292.38353106091244
 20
144.14139773353238
 11
292.38353106091244
 21
136.64148023345734
  0
LINE
  8
_1-2_
  6
CONTINUOUS
 62
    7
 10
294.89415718807572
 20
136.39148298345489
 11
297.1334788109599
 21
136.39148298345489
  0
LINE
  8
_1-2_
  6
CONTINUOUS
 62
    7
 10
294.89415718807572
 20
136.14148573345238
 11
297.1334788109599
 21
136.14148573345238
  0
LINE
  8
_1-2_
  6
CONTINUOUS
 62
    7
 10
292.8835255609174
 20
136.39148298345489
 11
294.89415718807572
 21
136.39148298345489
  0
LINE
  8
_1-2_
  6
CONTINUOUS
 62
    7
 10
292.8835255609174
 20
136.14148573345232
 11
294.89415718807572
 21
136.14148573345238
  0
ARC
  8
_1-2_
  6
CONTINUOUS
 62
    7
 10
292.8835255609174
 20
136.64148023345734
 40
0.2499972500025
 50
180
 51
270
  0
ARC
  8
_1-2_
  6
CONTINUOUS
 62
    7
 10
292.8835255609174
 20
136.64148023345734
 40
0.499994500005
 50
180
 51
270
  0
LINE
  8
_1-2_
  6
CONTINUOUS
 62
    7
 10
297.37731721663112
 20
136.57684933639208
 11
298.41423914370813
 21
140.11181045142743
  0
LINE
  8
_1-2_
  6
CONTINUOUS
 62
    7
 10
297.61720682323141
 20
136.50648171845602
 11
298.31392290657237
 21
138.8816501843915
  0
LINE
  8
_1-2_
  6
CONTINUOUS
 62
    7
 10
298.58002101510589
 20
139.78880282711924
 11
298.65412875030835
 21
140.04144283349137
  0
ARC
  8
_1-2_
  6
CONTINUOUS
 62
    7
 10
297.1334788109599
 20
136.6414802334574
 40
0.2499972500025
 50
270
 51
344.33573314863178
  0
ARC
  8
_1-2_
  6
CONTINUOUS
 62
    7
 10
297.1334788109599
 20
136.6414802334574
 40
0.499994500005
 50
270
 51
344.33573314863178
  0
ARC
  8
_1-2_
  6
CONTINUOUS
 62
    7
 10
299.13345681097985
 20
139.89144448348989
 40
0.7499917500074995
 50
90
 51
162.54239687617479
  0
ARC
  8
_1-2_
  6
CONTINUOUS
 62
    7
 10
299.13345681097985
 20
139.89144448348989
 40
0.499994500005
 50
90
 51
162.54239687617479
  0
LINE
  8
_1-2_
  6
CONTINUOUS
 62
    7
 10
299.13345681097985
 20
140.64143623349738
 11
301.38343206100239
 21
140.64143623349733
  0
LINE
  8
_1-2_
  6
CONTINUOUS
 62
    7
 10
299.13345681097985
 20
140.39143898349487
 11
301.38343206100239
 21
140.39143898349485
  0
ARC
  8
_1-2_
  6
CONTINUOUS
 62
    7
 10
292.8835255609174
 20
144.14139773353238
 40
0.2499972500025
 50
90
 51
180
  0
ARC
  8
_1-2_
  6
CONTINUOUS
 62
    7
 10
292.8835255609174
 20
144.14139773353238
 40
0.499994500005
 50
90
 51
180
  0
LINE
  8
_1-2_
  6
CONTINUOUS
 62
    7
 10
310.13333581108986
 20
144.14139773353238
 11
310.13333581108986
 21
136.64148023345734
  0
LINE
  8
_1-2_
  6
CONTINUOUS
 62
    7
 10
310.38333306109234
 20
144.14139773353238
 11
310.38333306109234
 21
136.64148023345734
  0
LINE
  8
_1-2_
  6
CONTINUOUS
 62
    7
 10
307.87270693392895
 20
136.39148298345489
 11
305.63338531104488
 21
136.39148298345489
  0
LINE
  8
_1-2_
  6
CONTINUOUS
 62
    7
 10
307.87270693392895
 20
136.14148573345238
 11
305.63338531104488
 21
136.14148573345238
  0
LINE
  8
_1-2_
  6
CONTINUOUS
 62
    7
 10
305.38954690537366
 20
136.57684933639208
 11
304.3526249782966
 21
140.11181045142743
  0
LINE
  8
_1-2_
  6
CONTINUOUS
 62
    7
 10
305.14965729877337
 20
136.50648171845602
 11
304.45294121543247
 21
138.88165018439119
  0
LINE
  8
_1-2_
  6
CONTINUOUS
 62
    7
 10
304.18684310689889
 20
139.78880282711929
 11
304.11273537169643
 21
140.04144283349137
  0
ARC
  8
_1-2_
  6
CONTINUOUS
 62
    7
 10
305.63338531104488
 20
136.6414802334574
 40
0.2499972500025
 50
195.66426685136801
 51
270
  0
ARC
  8
_1-2_
  6
CONTINUOUS
 62
    7
 10
305.63338531104488
 20
136.6414802334574
 40
0.499994500005
 50
195.66426685136801
 51
270
  0
ARC
  8
_1-2_
  6
CONTINUOUS
 62
    7
 10
303.63340731102493
 20
139.89144448348989
 40
0.7499917500074995
 50
17.45760312382519
 51
90
  0
ARC
  8
_1-2_
  6
CONTINUOUS
 62
    7
 10
303.63340731102493
 20
139.89144448348989
 40
0.499994500005
 50
17.45760312382519
 51
90
  0
ARC
  8
_1-2_
  6
CONTINUOUS
 62
    7
 10
309.88333856108738
 20
136.64148023345734
 40
0.499994500005
 50
270
 51
0
  0
LINE
  8
_1-2_
  6
CONTINUOUS
 62
    7
 10
307.87270693392895
 20
136.39148298345489
 11
309.88333856108738
 21
136.39148298345489
  0
LINE
  8
_1-2_
  6
CONTINUOUS
 62
    7
 10
307.87270693392895
 20
136.14148573345238
 11
309.88333856108738
 21
136.14148573345232
  0
ARC
  8
_1-2_
  6
CONTINUOUS
 62
    7
 10
309.88333856108738
 20
136.64148023345734
 40
0.2499972500025
 50
270
 51
0
  0
ARC
  8
_1-2_
  6
CONTINUOUS
 62
    7
 10
309.88333856108738
 20
144.14139773353238
 40
0.499994500005
 50
0
 51
90
  0
ARC
  8
_1-2_
  6
CONTINUOUS
 62
    7
 10
309.88333856108738
 20
144.14139773353238
 40
0.2499972500025
 50
0
 51
90
  0
LINE
  8
_1-2_
  6
CONTINUOUS
 62
    7
 10
292.63352831091492
 20
142.3914149835349
 11
297.05015081091494
 21
142.3914149835349
  0
LINE
  8
_1-2_
  6
CONTINUOUS
 62
    7
 10
302.58341827768504
 20
142.3914149835349
 11
310.13333581108986
 21
142.3914149835349
  0
LINE
  8
_1-2_
  6
CONTINUOUS
 62
    7
 10
292.8835255609174
 20
144.39139498353489
 11
309.88333856108738
 21
144.39139498353489
  0
LINE
  8
_1-2_
  6
CONTINUOUS
 62
    7
 10
295.95421904979184
 20
138.06732915831639
 11
295.95421904979184
 21
137.50812297728452
  0
LINE
  8
_1-2_
  6
CONTINUOUS
 62
    7
 10
295.70342180858926
 20
138.06586132404029
 11
295.70342180858926
 21
137.50812297728458
  0
LINE
  8
_1-2_
  6
CONTINUOUS
 62
    7
 10
296.48136772450516
 20
137.25732573608209
 11
296.70934326005857
 21
138.06732915831639
  0
LINE
  8
_1-2_
  6
CONTINUOUS
 62
    7
 10
296.48136772450516
 20
137.25732573608209
 11
296.2533921889518
 21
138.06732915831639
  0
LINE
  8
_1-2_
  6
CONTINUOUS
 62
    7
 10
296.35596910390387
 20
137.00652849487954
 11
296.05740666240797
 21
138.06732915831639
  0
LINE
  8
_1-2_
  6
CONTINUOUS
 62
    7
 10
296.96875235214952
 20
138.13769368393195
 11
296.96875235214952
 21
136.63291023671689
  0
LINE
  8
_1-2_
  6
CONTINUOUS
 62
    7
 10
296.60676634510639
 20
137.00652849487954
 11
296.90532878660235
 21
138.06732915831639
  0
LINE
  8
_1-2_
  6
CONTINUOUS
 62
    7
 10
294.97841737439722
 20
138.06732915831639
 11
294.97841737439722
 21
137.50812297728458
  0
LINE
  8
_1-2_
  6
CONTINUOUS
 62
    7
 10
295.22921461559985
 20
138.06732915831639
 11
295.22921461559985
 21
137.50812297728458
  0
LINE
  8
_1-2_
  6
CONTINUOUS
 62
    7
 10
293.77302001820305
 20
138.13769368393195
 11
293.77302001820305
 21
136.63291023671689
  0
LINE
  8
_1-2_
  6
CONTINUOUS
 62
    7
 10
294.47511966529236
 20
137.81792289835652
 11
294.47511966529236
 21
137.00652849487954
  0
LINE
  8
_1-2_
  6
CONTINUOUS
 62
    7
 10
294.2243224240899
 20
137.81792289835652
 11
294.2243224240899
 21
137.00652849487954
  0
LINE
  8
_1-2_
  6
CONTINUOUS
 62
    7
 10
293.77302001820305
 20
136.63291023671689
 11
296.96875235214952
 21
136.63291023671689
  0
LINE
  8
_1-2_
  6
CONTINUOUS
 62
    7
 10
293.77302001820305
 20
136.88370747791938
 11
296.96875235214952
 21
136.88370747791938
  0
ARC
  8
_1-2_
  6
CONTINUOUS
 62
    7
 10
295.48001185680232
 20
137.50812297728458
 40
0.2507972412025081
 50
180
 51
270
  0
ARC
  8
_1-2_
  6
CONTINUOUS
 62
    7
 10
295.48001185680232
 20
137.50812297728458
 40
0.501594482405016
 50
179.9999999999984
 51
270.00000000000329
  0
LINE
  8
_1-2_
  6
CONTINUOUS
 62
    7
 10
294.2243224240899
 20
137.00652849487954
 11
294.47511966529236
 21
137.00652849487954
  0
ARC
  8
_1-2_
  6
CONTINUOUS
 62
    7
 10
295.4526245673868
 20
137.50812297728458
 40
0.501594482405016
 50
271.56438231952307
 51
359.99999999999681
  0
ARC
  8
_1-2_
  6
CONTINUOUS
 62
    7
 10
295.4526245673868
 20
137.50812297728458
 40
0.2507972412025081
 50
273.1299323909468
 51
0.0000000000016411
  0
LINE
  8
_1-2_
  6
CONTINUOUS
 62
    7
 10
296.48136772450516
 20
137.00652849487954
 11
296.35596910390387
 21
137.00652849487954
  0
LINE
  8
_1-2_
  6
CONTINUOUS
 62
    7
 10
296.48136772450516
 20
137.00652849487954
 11
296.60676634510639
 21
137.00652849487954
  0
LINE
  8
_1-2_
  6
CONTINUOUS
 62
    7
 10
296.96875235214952
 20
138.13769368393195
 11
293.77302001820305
 21
138.13769368393195
  0
LINE
  8
_1-2_
  6
CONTINUOUS
 62
    7
 10
294.85131552709617
 20
138.06872013955904
 11
293.84812656228609
 21
138.06872013955904
  0
LINE
  8
_1-2_
  6
CONTINUOUS
 62
    7
 10
293.84812656228609
 20
138.06872013955904
 11
293.84812656228609
 21
137.81792289835652
  0
LINE
  8
_1-2_
  6
CONTINUOUS
 62
    7
 10
293.84812656228609
 20
137.81792289835652
 11
294.2243224240899
 21
137.81792289835652
  0
LINE
  8
_1-2_
  6
CONTINUOUS
 62
    7
 10
294.85131552709617
 20
137.81792289835652
 11
294.47511966529236
 21
137.81792289835652
  0
LINE
  8
_1-2_
  6
CONTINUOUS
 62
    7
 10
294.85131552709617
 20
138.06872013955904
 11
294.85131552709617
 21
137.81792289835652
  0
LINE
  8
_1-2_
  6
CONTINUOUS
 62
    7
 10
294.97841737439722
 20
138.06732915831639
 11
295.22921461559985
 21
138.06732915831639
  0
LINE
  8
_1-2_
  6
CONTINUOUS
 62
    7
 10
296.05740666240797
 20
138.06732915831639
 11
296.2533921889518
 21
138.06732915831639
  0
LINE
  8
_1-2_
  6
CONTINUOUS
 62
    7
 10
296.05740666240797
 20
138.06732915831639
 11
296.2533921889518
 21
138.06732915831639
  0
LINE
  8
_1-2_
  6
CONTINUOUS
 62
    7
 10
295.95421904979184
 20
138.06732915831639
 11
295.70342180858926
 21
138.06732915831639
  0
LINE
  8
_1-2_
  6
CONTINUOUS
 62
    7
 10
295.52101517757319
 20
138.06586132404024
 11
295.63319858105262
 21
138.06586132404024
  0
LINE
  8
_1-2_
  6
CONTINUOUS
 62
    7
 10
295.63319858105262
 20
138.06586132404024
 11
295.63319858105262
 21
137.96424049364122
  0
LINE
  8
_1-2_
  6
CONTINUOUS
 62
    7
 10
295.63319858105262
 20
137.96424049364122
 11
295.52101517757319
 21
137.96424049364122
  0
LINE
  8
_1-2_
  6
CONTINUOUS
 62
    7
 10
295.52101517757319
 20
137.96424049364122
 11
295.52101517757319
 21
138.06586132404024
  0
LINE
  8
_1-2_
  6
CONTINUOUS
 62
    7
 10
295.30031360531495
 20
138.06586132404024
 11
295.41249700879438
 21
138.06586132404024
  0
LINE
  8
_1-2_
  6
CONTINUOUS
 62
    7
 10
295.41249700879438
 20
138.06586132404024
 11
295.41249700879438
 21
137.96424049364122
  0
LINE
  8
_1-2_
  6
CONTINUOUS
 62
    7
 10
295.41249700879438
 20
137.96424049364122
 11
295.30031360531495
 21
137.96424049364122
  0
LINE
  8
_1-2_
  6
CONTINUOUS
 62
    7
 10
295.30031360531495
 20
137.96424049364122
 11
295.30031360531495
 21
138.06586132404024
  0
LINE
  8
_1-2_
  6
CONTINUOUS
 62
    7
 10
296.90532878660235
 20
138.06732915831639
 11
296.70934326005851
 21
138.06732915831639
  0
LINE
  8
_1-2_
  6
CONTINUOUS
 62
    7
 10
296.90532878660235
 20
138.06732915831639
 11
296.70934326005857
 21
138.06732915831639
  0
LINE
  8
_1-2_
  6
CONTINUOUS
 62
    7
 10
293.46685331091487
 20
138.1414574835349
 11
297.05015081091494
 21
138.1414574835349
  0
LINE
  8
_1-2_
  6
CONTINUOUS
 62
    7
 10
293.13352331091493
 20
142.05808498353493
 11
293.13352331091493
 21
138.47478748353489
  0
LINE
  8
_1-2_
  6
CONTINUOUS
 62
    7
 10
297.38348081091487
 20
142.05808498353488
 11
297.38348081091487
 21
138.47478748353489
  0
LINE
  8
_1-2_
  6
CONTINUOUS
 62
    7
 10
300.18344584431974
 20
142.3914149835349
 11
293.46685331091487
 21
142.3914149835349
  0
ARC
  8
_1-2_
  6
CONTINUOUS
 62
    7
 10
293.46685331091487
 20
138.47478748353489
 40
0.33333
 50
180
 51
270
  0
ARC
  8
_1-2_
  6
CONTINUOUS
 62
    7
 10
297.05015081091494
 20
138.47478748353489
 40
0.33333
 50
270
 51
0
  0
ARC
  8
_1-2_
  6
CONTINUOUS
 62
    7
 10
293.46685331091487
 20
142.05808498353493
 40
0.33333
 50
90
 51
180
  0
ARC
  8
_1-2_
  6
CONTINUOUS
 62
    7
 10
297.05015081091494
 20
142.05808498353488
 40
0.33333
 50
0
 51
90
  0
LINE
  8
_1-2_
  6
CONTINUOUS
 62
    7
 10
309.6333413110849
 20
142.05808498353488
 11
309.6333413110849
 21
138.3680789745203
  0
LINE
  8
_1-2_
  6
CONTINUOUS
 62
    7
 10
306.21403906458351
 20
138.03474897452034
 11
309.30001131108485
 21
138.03474897452034
  0
ARC
  8
_1-2_
  6
CONTINUOUS
 62
    7
 10
309.30001131108485
 20
138.3680789745203
 40
0.33333
 50
270
 51
0
  0
ARC
  8
_1-2_
  6
CONTINUOUS
 62
    7
 10
306.21815476768381
 20
142.05808498353488
 40
0.33333
 50
90
 51
180.2473640238893
  0
ARC
  8
_1-2_
  6
CONTINUOUS
 62
    7
 10
309.30001131108485
 20
142.05808498353488
 40
0.33333
 50
0
 51
90
  0
LINE
  8
_1-2_
  6
CONTINUOUS
 62
    7
 10
309.6333413110849
 20
141.02907503380004
 11
309.6333413110849
 21
140.32908203380003
  0
LINE
  8
_1-2_
  6
CONTINUOUS
 62
    7
 10
305.88071217108483
 20
142.05808498353493
 11
305.88071217108483
 21
138.36807897452032
  0
LINE
  8
_1-2_
  6
CONTINUOUS
 62
    7
 10
306.43795661184196
 20
138.00427777738752
 11
307.35467928170152
 21
138.00427777738752
  0
LINE
  8
_1-2_
  6
CONTINUOUS
 62
    7
 10
306.73085794258497
 20
137.71304277048579
 11
307.06793806089046
 21
137.71304277048579
  0
LINE
  8
_1-2_
  6
CONTINUOUS
 62
    7
 10
306.80495120876116
 20
137.49707076777238
 11
307.14203132706654
 21
137.49707076777238
  0
LINE
  8
_1-2_
  6
CONTINUOUS
 62
    7
 10
306.62039435121073
 20
137.19601883009124
 11
306.78997976897932
 21
137.19601883009124
  0
LINE
  8
_1-2_
  6
CONTINUOUS
 62
    7
 10
306.69144305154111
 20
136.71826249420593
 11
307.07213606600447
 21
136.71826249420598
  0
LINE
  8
_1-2_
  6
CONTINUOUS
 62
    7
 10
307.97272705026881
 20
138.00427777738752
 11
308.35110377216381
 21
136.90136002756844
  0
LINE
  8
_1-2_
  6
CONTINUOUS
 62
    7
 10
307.57746854356571
 20
138.00427777738752
 11
307.88282264195458
 21
137.11421124949319
  0
LINE
  8
_1-2_
  6
CONTINUOUS
 62
    7
 10
307.35467928170152
 20
138.00427777738752
 11
307.66003338009045
 21
137.11421124949319
  0
LINE
  8
_1-2_
  6
CONTINUOUS
 62
    7
 10
307.06793806089046
 20
137.71304277048579
 11
307.14203132706654
 21
137.49707076777238
  0
LINE
  8
_1-2_
  6
CONTINUOUS
 62
    7
 10
306.73085794258497
 20
137.71304277048579
 11
306.80495120876116
 21
137.49707076777238
  0
LINE
  8
_1-2_
  6
CONTINUOUS
 62
    7
 10
306.30719884697668
 20
137.8211802440251
 11
306.48963658634545
 21
137.28939853192878
  0
LINE
  8
_1-2_
  6
CONTINUOUS
 62
    7
 10
306.69144305154111
 20
136.71826249420593
 11
306.78997976897932
 21
137.19601883009124
  0
LINE
  8
_1-2_
  6
CONTINUOUS
 62
    7
 10
307.07205036618404
 20
136.71826249420598
 11
307.1705870836223
 21
137.19601883009124
  0
LINE
  8
_1-2_
  6
CONTINUOUS
 62
    7
 10
307.57746854356571
 20
138.00427777738752
 11
307.97272705026881
 21
138.00427777738752
  0
LINE
  8
_1-2_
  6
CONTINUOUS
 62
    7
 10
307.66003338009045
 20
137.11421124949319
 11
307.88282264195458
 21
137.11421124949319
  0
LINE
  8
_1-2_
  6
CONTINUOUS
 62
    7
 10
307.1705870836223
 20
137.19601883009124
 11
307.24531286852209
 21
137.19601883009124
  0
LINE
  8
_1-2_
  6
CONTINUOUS
 62
    7
 10
307.24531286852197
 20
137.19601883009124
 11
307.40921618431002
 21
136.71826249420598
  0
ARC
  8
_1-2_
  6
CONTINUOUS
 62
    7
 10
308.22034600729853
 20
136.85650111180598
 40
0.1382386176
 50
270
 51
18.93549763382947
  0
ARC
  8
_1-2_
  6
CONTINUOUS
 62
    7
 10
306.62039435121073
 20
137.33425744769124
 40
0.1382386176
 50
198.93549763382941
 51
270
  0
ARC
  8
_1-2_
  6
CONTINUOUS
 62
    7
 10
306.43795661184196
 20
137.86603915978753
 40
0.1382386176
 50
90
 51
198.93549763382941
  0
ARC
  8
_1-2_
  6
CONTINUOUS
 62
    7
 10
306.21403906458351
 20
138.3680789745203
 40
0.33333
 50
180
 51
270
  0
LINE
  8
_1-2_
  6
CONTINUOUS
 62
    7
 10
306.12241891473433
 20
137.16377219002433
 11
306.12241891473433
 21
137.08922120728024
  0
LINE
  8
_1-2_
  6
CONTINUOUS
 62
    7
 10
306.24596939453152
 20
137.1763264786594
 11
306.24596939453152
 21
137.08922120728024
  0
LINE
  8
_1-2_
  6
CONTINUOUS
 62
    7
 10
306.03463304948934
 20
136.71826249420593
 11
306.12241891473433
 21
136.71826249420593
  0
LINE
  8
_1-2_
  6
CONTINUOUS
 62
    7
 10
306.03463304948792
 20
137.29722775408234
 11
306.12241891473297
 21
137.29722775408234
  0
ARC
  8
_1-2_
  6
CONTINUOUS
 62
    7
 10
306.03365671394249
 20
137.17728174047795
 40
0.1199499871224912
 50
89.533634598998816
 51
180.4562988922353
  0
ARC
  8
_1-2_
  6
CONTINUOUS
 62
    7
 10
306.12153996009669
 20
137.17275003502544
 40
0.1244808222292334
 50
1.6463847780589009
 51
89.595433187023644
  0
ARC
  8
_1-2_
  6
CONTINUOUS
 62
    7
 10
306.0791200330841
 20
137.15178742274389
 40
0.0449269161964759
 50
15.471642071272839
 51
171.9752330664339
  0
LINE
  8
_1-1_
  6
CONTINUOUS
 62
    7
 10
291.63343206100239
 20
140.49138398354494
 11
288.50843206100239
 21
140.49138398354494
  0
LINE
  8
_1-1_
  6
CONTINUOUS
 62
    7
 10
288.50843206100239
 20
136.49138398354494
 11
291.63343206100239
 21
136.49138398354494
  0
LINE
  8
_1-a_
  6
CONTINUOUS
 62
    4
 10
321.16508170181299
 20
145.39138398354486
 11
321.16508170181299
 21
128.39138398354492
  0
LINE
  8
_1-a_
  6
CONTINUOUS
 62
    4
 10
321.16508170181299
 20
145.39138398354486
 11
321.5533102694668
 21
143.94249524411128
  0
LINE
  8
_1-a_
  6
CONTINUOUS
 62
    4
 10
321.16508170181299
 20
145.39138398354486
 11
320.77685313415918
 21
143.94249524411128
  0
LINE
  8
_1-a_
  6
CONTINUOUS
 62
    4
 10
321.16508170181299
 20
128.39138398354492
 11
320.77685313415918
 21
129.84027272297851
  0
LINE
  8
_1-a_
  6
CONTINUOUS
 62
    4
 10
321.16508170181299
 20
128.39138398354492
 11
321.5533102694668
 21
129.84027272297851
  0
TEXT
  8
_1-a_
 62
    7
 10
320.66508170181299
 20
134.76638398354489
 40
4
 41
1
 50
90
  1
34
  0
LINE
  8
_1-a_
  6
CONTINUOUS
 62
    4
 10
129.76754791112611
 20
122.74138398354506
 11
124.90627035793795
 21
122.74138398354506
  0
LINE
  8
_1-a_
  6
CONTINUOUS
 62
    4
 10
131.26754791112605
 20
121.24138398354497
 11
131.26754791112605
 21
118.48529092740835
  0
LINE
  8
_1-a_
  6
CONTINUOUS
 62
    4
 10
232.26754791112614
 20
121.24138398354497
 11
232.26754791112614
 21
118.48529092740835
  0
LINE
  8
_1-a_
  6
CONTINUOUS
 62
    4
 10
321.66508170181299
 20
145.39138398354486
 11
312.88451489843339
 21
145.39138398354486
  0
LINE
  8
_1-a_
  6
CONTINUOUS
 62
    4
 10
321.66508170181299
 20
128.39138398354492
 11
312.88451489843339
 21
128.39138398354492
  0
LINE
  8
_1-a_
  6
CONTINUOUS
 62
    4
 10
87.809946010346948
 20
176.40063452239633
 11
87.809946010346948
 21
164.20511654132218
  0
LINE
  8
_1-1_
  6
CONTINUOUS
 62
    7
 10
52.126081714399731
 20
195.36240917362613
 11
52.126081714399731
 21
171.37703566527608
  0
ARC
  8
_1-1_
  6
CONTINUOUS
 62
    7
 10
251.33738155521911
 20
188.37095765247278
 40
0.7564777124710708
 50
117.0436404005194
 51
242.95635959947861
  0
LINE
  8
_1-1_
  6
CONTINUOUS
 62
    7
 10
102.70994601034695
 20
180.74172024892243
 11
87.809946010346948
 21
180.74172024892243
  0
LINE
  8
_1-1_
  6
CONTINUOUS
 62
    7
 10
72.618490397949699
 20
196.61972238867616
 11
53.382543620699721
 21
196.61972213122618
  0
LINE
  8
_1-1_
  6
CONTINUOUS
 62
    7
 10
72.376196828049728
 20
193.60119874287607
 11
73.876081714399703
 21
193.60119874287607
  0
LINE
  8
_1-1_
  6
CONTINUOUS
 62
    7
 10
72.376196828049728
 20
193.60119874287607
 11
72.376196828049728
 21
173.10119874287607
  0
LINE
  8
_1-1_
  6
CONTINUOUS
 62
    7
 10
72.876196828049728
 20
193.60119874287607
 11
72.876196828049728
 21
173.10119874287607
  0
LINE
  8
_1-1_
  6
CONTINUOUS
 62
    7
 10
73.376081714399731
 20
173.10119874287607
 11
73.376081714399731
 21
193.60119874287607
  0
LINE
  8
_1-1_
  6
CONTINUOUS
 62
    7
 10
73.876081714399703
 20
171.37703566527608
 11
73.876081714399703
 21
195.36240917362613
  0
LINE
  8
_1-1_
  6
CONTINUOUS
 62
    7
 10
72.376196828049728
 20
173.10119874287607
 11
73.876081714399703
 21
173.10119874287607
  0
LINE
  8
_1-1_
  6
CONTINUOUS
 62
    7
 10
53.382543620699721
 20
170.11972270767608
 11
72.618490397949699
 21
170.11972245017608
  0
ARC
  8
_1-1_
  6
CONTINUOUS
 62
    7
 10
72.618768468599739
 20
171.37703566527608
 40
1.2573132458
 50
269.98732831879692
 51
0.0000000000000127
  0
ARC
  8
_1-1_
  6
CONTINUOUS
 62
    7
 10
53.383394960199723
 20
171.37703566527608
 40
1.2573132458
 50
180
 51
269.9612044458957
  0
ARC
  8
_1-1_
  6
CONTINUOUS
 62
    7
 10
53.383394960199723
 20
195.36240917362613
 40
1.2573132458
 50
90.038795554097774
 51
180
  0
ARC
  8
_1-1_
  6
CONTINUOUS
 62
    7
 10
72.618768468599739
 20
195.36240917362613
 40
1.2573132458
 50
0
 51
90.012671681196593
  0
CIRCLE
  8
_1-1_
  6
CONTINUOUS
 62
    7
 10
72.618768468599739
 20
195.36240917362613
 40
0.775
  0
CIRCLE
  8
_1-1_
  6
CONTINUOUS
 62
    7
 10
59.353147734699746
 20
195.36240917362613
 40
0.775
  0
CIRCLE
  8
_1-1_
  6
CONTINUOUS
 62
    7
 10
72.618768468599739
 20
171.37703566527608
 40
0.775
  0
CIRCLE
  8
_1-1_
  6
CONTINUOUS
 62
    7
 10
59.353147734699746
 20
171.37724886272616
 40
0.775
  0
CIRCLE
  8
_1-1_
  6
CONTINUOUS
 62
    7
 10
68.126081714399731
 20
179.37828518147563
 40
3
  0
LINE
  8
_1-1_
  6
CONTINUOUS
 62
    7
 10
102.70994601034695
 20
177.33112221592614
 11
110.98623442126404
 21
177.33112221592614
  0
LINE
  8
_1-1_
  6
CONTINUOUS
 62
    7
 10
102.70994601034695
 20
181.38112221592615
 11
110.98623442126404
 21
181.38112221592615
  0
ARC
  8
_1-1_
  6
CONTINUOUS
 62
    7
 10
110.07887609782605
 20
180.43452477483316
 40
1.3112382859709379
 50
313.78751140684778
 51
46.212488593147767
  0
ARC
  8
_1-1_
  6
CONTINUOUS
 62
    7
 10
112.18053639259034
 20
178.40952477483313
 40
1.6091330826786756
 50
137.91934105329622
 51
222.08065894669462
  0
ARC
  8
_1-1_
  6
CONTINUOUS
 62
    7
 10
112.49428917368925
 20
180.43452477483316
 40
1.3112382859709184
 50
313.78751140684687
 51
46.21248859314867
  0
ARC
  8
_1-1_
  6
CONTINUOUS
 62
    7
 10
114.59594946845365
 20
178.40952477483313
 40
1.609133082678781
 50
137.91934105329949
 51
222.08065894669118
  0
LINE
  8
_1-1_
  6
CONTINUOUS
 62
    7
 10
102.70994601034695
 20
181.38112221592615
 11
102.70994601034695
 21
177.33112221592614
  0
LINE
  8
_1-1_
  6
CONTINUOUS
 62
    7
 10
232.26754791112614
 20
192.60112812976507
 11
232.26754791112614
 21
191.65605160281512
  0
LINE
  8
_1-1_
  6
CONTINUOUS
 62
    7
 10
232.26754791112614
 20
175.0560516028151
 11
232.26754791112614
 21
174.10112812976507
  0
ARC
  8
_1-1_
  6
CONTINUOUS
 62
    7
 10
230.6175408646261
 20
183.35605160281511
 40
1.05
 50
270
 51
90
  0
ARC
  8
_1-1_
  6
CONTINUOUS
 62
    7
 10
231.76754791112614
 20
174.10112812976507
 40
0.5
 50
270
 51
0
  0
ARC
  8
_1-1_
  6
CONTINUOUS
 62
    7
 10
231.76754791112614
 20
192.60112812976507
 40
0.5
 50
0
 51
90
  0
ARC
  8
_1-1_
  6
CONTINUOUS
 62
    7
 10
231.76754791112614
 20
191.65605160281512
 40
0.5
 50
270
 51
0
  0
ARC
  8
_1-1_
  6
CONTINUOUS
 62
    7
 10
231.76754791112614
 20
175.0560516028151
 40
0.5
 50
0
 51
90
  0
LINE
  8
_1-1_
  6
CONTINUOUS
 62
    7
 10
131.26754791112611
 20
192.60112812976507
 11
131.26754791112611
 21
191.65605160281512
  0
LINE
  8
_1-1_
  6
CONTINUOUS
 62
    7
 10
131.26754791112611
 20
175.0560516028151
 11
131.26754791112611
 21
174.10112812976507
  0
ARC
  8
_1-1_
  6
CONTINUOUS
 62
    7
 10
132.91755495762609
 20
183.35605160281511
 40
1.05
 50
90
 51
270
  0
ARC
  8
_1-1_
  6
CONTINUOUS
 62
    7
 10
131.76754791112611
 20
174.10112812976507
 40
0.5
 50
180
 51
270
  0
ARC
  8
_1-1_
  6
CONTINUOUS
 62
    7
 10
131.76754791112611
 20
192.60112812976507
 40
0.5
 50
90
 51
180
  0
ARC
  8
_1-1_
  6
CONTINUOUS
 62
    7
 10
131.76754791112611
 20
191.65605160281512
 40
0.5
 50
180
 51
270
  0
ARC
  8
_1-1_
  6
CONTINUOUS
 62
    7
 10
131.76754791112611
 20
188.5560516028151
 40
0.5
 50
90
 51
180
  0
ARC
  8
_1-1_
  6
CONTINUOUS
 62
    7
 10
131.76754791112611
 20
175.0560516028151
 40
0.5
 50
90
 51
180
  0
CIRCLE
  8
_1-1_
  6
CONTINUOUS
 62
    7
 10
68.126081714399731
 20
179.37828518147563
 40
2.0249999999999999
  0
LINE
  8
_1-1_
  6
CONTINUOUS
 62
    7
 10
87.809946010346948
 20
178.67996976361456
 11
87.809946010346948
 21
177.90063452239633
  0
LINE
  8
_1-1_
  6
CONTINUOUS
 62
    7
 10
87.809946010346948
 20
178.135714741078
 11
84.244946010346936
 21
178.135714741078
  0
LINE
  8
_1-1_
  6
CONTINUOUS
 62
    7
 10
84.244946010346936
 20
178.135714741078
 11
84.244946010346936
 21
178.40315642153223
  0
LINE
  8
_1-1_
  6
CONTINUOUS
 62
    7
 10
84.244946010346936
 20
178.40315642153223
 11
87.809946010346948
 21
178.40315642153223
  0
LINE
  8
_1-1_
  6
CONTINUOUS
 62
    7
 10
87.809946010346948
 20
178.40315642153223
 11
87.809946010346948
 21
178.135714741078
  0
LINE
  8
_1-1_
  6
CONTINUOUS
 62
    7
 10
102.70994601034695
 20
177.90063452239633
 11
87.809946010346948
 21
177.90063452239633
  0
LINE
  8
_1-1_
  6
CONTINUOUS
 62
    7
 10
102.70994601034695
 20
178.67996976361456
 11
87.809946010346948
 21
178.67996976361456
  0
LINE
  8
_1-1_
  6
CONTINUOUS
 62
    7
 10
87.809946010346948
 20
179.74578983653537
 11
87.809946010346948
 21
178.96645459531703
  0
LINE
  8
_1-1_
  6
CONTINUOUS
 62
    7
 10
87.809946010346948
 20
179.22240137569906
 11
84.244946010346936
 21
179.22240137569906
  0
LINE
  8
_1-1_
  6
CONTINUOUS
 62
    7
 10
84.244946010346936
 20
179.22240137569906
 11
84.244946010346936
 21
179.48984305615329
  0
LINE
  8
_1-1_
  6
CONTINUOUS
 62
    7
 10
84.244946010346936
 20
179.48984305615329
 11
87.809946010346948
 21
179.48984305615329
  0
LINE
  8
_1-1_
  6
CONTINUOUS
 62
    7
 10
87.809946010346948
 20
179.48984305615329
 11
87.809946010346948
 21
179.22240137569906
  0
LINE
  8
_1-1_
  6
CONTINUOUS
 62
    7
 10
102.70994601034695
 20
178.96645459531703
 11
87.809946010346948
 21
178.96645459531703
  0
LINE
  8
_1-1_
  6
CONTINUOUS
 62
    7
 10
102.70994601034695
 20
179.74578983653537
 11
87.809946010346948
 21
179.74578983653537
  0
LINE
  8
_1-1_
  6
CONTINUOUS
 62
    7
 10
87.809946010346948
 20
180.74172024892243
 11
87.809946010346948
 21
179.96238500770408
  0
LINE
  8
_1-1_
  6
CONTINUOUS
 62
    7
 10
87.809946010346948
 20
180.19746522638581
 11
84.244946010346936
 21
180.19746522638581
  0
LINE
  8
_1-1_
  6
CONTINUOUS
 62
    7
 10
84.244946010346936
 20
180.19746522638581
 11
84.244946010346936
 21
180.46490690684004
  0
LINE
  8
_1-1_
  6
CONTINUOUS
 62
    7
 10
84.244946010346936
 20
180.46490690684004
 11
87.809946010346948
 21
180.46490690684004
  0
LINE
  8
_1-1_
  6
CONTINUOUS
 62
    7
 10
87.809946010346948
 20
180.46490690684004
 11
87.809946010346948
 21
180.19746522638581
  0
LINE
  8
_1-1_
  6
CONTINUOUS
 62
    7
 10
102.70994601034695
 20
179.96238500770408
 11
87.809946010346948
 21
179.96238500770408
  0
ARC
  8
_1-1_
  6
CONTINUOUS
 62
    7
 10
249.96712822921796
 20
186.69595765247288
 40
1.4337979786261794
 50
315.70844298874158
 51
44.291557011256713
  0
ARC
  8
_1-1_
  6
CONTINUOUS
 62
    7
 10
251.33590446442303
 20
180.37204197419328
 40
0.754840843796952
 50
116.98120170897759
 51
243.01879829102037
  0
ARC
  8
_1-1_
  6
CONTINUOUS
 62
    7
 10
249.96476770943775
 20
178.69704197419338
 40
1.4362450598638389
 50
315.74323936764261
 51
44.25676063235744
  0
LINE
  8
_1-1_
  6
CONTINUOUS
 62
    7
 10
234.0899708703094
 20
185.69472245151075
 11
236.69437435213222
 21
185.69472245151075
  0
LINE
  8
_1-1_
  6
CONTINUOUS
 62
    7
 10
234.0899708703094
 20
200.93679702274846
 11
236.69437435213222
 21
200.93679702274846
  0
LINE
  8
_1-1_
  6
CONTINUOUS
 62
    7
 10
236.69437435213222
 20
185.69472245151075
 11
236.69437435213222
 21
200.93679702274846
  0
LINE
  8
_1-1_
  6
CONTINUOUS
 62
    7
 10
234.0899708703094
 20
200.93679702274846
 11
234.0899708703094
 21
185.69472245151075
  0
LINE
  8
_1-1_
  6
CONTINUOUS
 62
    7
 10
234.0899708703094
 20
165.80264791736118
 11
236.69437435213222
 21
165.80264791736118
  0
LINE
  8
_1-1_
  6
CONTINUOUS
 62
    7
 10
234.0899708703094
 20
181.04472248859889
 11
236.69437435213222
 21
181.04472248859889
  0
LINE
  8
_1-1_
  6
CONTINUOUS
 62
    7
 10
236.69437435213222
 20
165.80264791736118
 11
236.69437435213222
 21
181.04472248859889
  0
LINE
  8
_1-1_
  6
CONTINUOUS
 62
    7
 10
234.0899708703094
 20
181.04472248859889
 11
234.0899708703094
 21
165.80264791736118
  0
TEXT
  8
_1-1_
 62
    7
 10
234.46675956091723
 20
180.70752111210191
 40
1.8
 41
1
 50
-90
  1
出力 + 赤 - 黒
  0
TEXT
  8
_1-1_
 62
    7
 10
234.48027722604774
 20
200.43647652816275
 40
1.8
 41
1
 50
-90
  1
調光信号(無極性)
  0
LINE
  8
_1-1_
  6
CONTINUOUS
 62
    7
 10
52.876475142649724
 20
193.10112812976507
 11
52.126081714399731
 21
193.10112812976507
  0
LINE
  8
_1-1_
  6
CONTINUOUS
 62
    7
 10
52.126081714399731
 20
178.65605160281512
 11
52.876475142649724
 21
178.65605160281512
  0
LINE
  8
_1-1_
  6
CONTINUOUS
 62
    7
 10
52.126081714399731
 20
178.15605160281512
 11
52.876475142649724
 21
178.15605160281512
  0
LINE
  8
_1-1_
  6
CONTINUOUS
 62
    7
 10
52.876475142649724
 20
176.0560516028151
 11
52.126081714399731
 21
176.0560516028151
  0
LINE
  8
_1-1_
  6
CONTINUOUS
 62
    7
 10
52.876475142649724
 20
175.5560516028151
 11
52.126081714399731
 21
175.5560516028151
  0
LINE
  8
_1-1_
  6
CONTINUOUS
 62
    7
 10
52.126081714399731
 20
191.65605160281512
 11
52.876475142649724
 21
191.65605160281512
  0
LINE
  8
_1-1_
  6
CONTINUOUS
 62
    7
 10
52.126081714399731
 20
191.15605160281512
 11
52.876475142649724
 21
191.15605160281512
  0
LINE
  8
_1-1_
  6
CONTINUOUS
 62
    7
 10
52.876475142649724
 20
189.0560516028151
 11
52.126081714399731
 21
189.0560516028151
  0
LINE
  8
_1-1_
  6
CONTINUOUS
 62
    7
 10
52.876475142649724
 20
188.5560516028151
 11
52.126081714399731
 21
188.5560516028151
  0
LINE
  8
_1-1_
  6
CONTINUOUS
 62
    7
 10
52.126081714399731
 20
173.60112812976507
 11
52.876475142649724
 21
173.60112812976507
  0
LINE
  8
_1-1_
  6
CONTINUOUS
 62
    7
 10
52.876475142649724
 20
193.10112812976507
 11
52.876475142649724
 21
173.60112812976507
  0
LINE
  8
_1-1_
  6
CONTINUOUS
 62
    7
 10
52.876475142649724
 20
192.60112812976507
 11
52.126081714399731
 21
192.60112812976507
  0
LINE
  8
_1-1_
  6
CONTINUOUS
 62
    7
 10
52.876475142649724
 20
174.10112812976507
 11
52.126081714399731
 21
174.10112812976507
  0
ARC
  8
_1-1_
  6
CONTINUOUS
 62
    7
 10
231.76754791112614
 20
178.15605160281512
 40
0.5
 50
270
 51
292.68215622722175
  0
ARC
  8
_1-1_
  6
CONTINUOUS
 62
    7
 10
231.76754791112614
 20
188.5560516028151
 40
0.5
 50
77.779899553192421
 51
90
  0
ARC
  8
_1-1_
  6
DASHED1
 62
    7
 10
231.76754791112614
 20
188.5560516028151
 40
0.5
 50
0
 51
77.779899553192421
  0
ARC
  8
_1-1_
  6
DASHED1
 62
    7
 10
231.76754791112614
 20
178.15605160281512
 40
0.5
 50
292.68215622722175
 51
0.0000000000000127
  0
LINE
  8
_1-1_
  6
CONTINUOUS
 62
    7
 10
232.26754791112614
 20
185.69472245151058
 11
232.26754791112614
 21
181.04472248859889
  0
LINE
  8
_1-1_
  6
DASHED1
 62
    7
 10
232.26754791112614
 20
181.04472248859889
 11
232.26754791112614
 21
178.15605160281512
  0
LINE
  8
_1-1_
  6
DASHED1
 62
    7
 10
232.26754791112614
 20
185.69472245151058
 11
232.26754791112614
 21
188.5560516028151
  0
LINE
  8
_1-1_
  6
CONTINUOUS
 62
    7
 10
250.99343457523104
 20
177.69472248859892
 11
236.69437435213222
 21
177.69472248859892
  0
LINE
  8
_1-1_
  6
CONTINUOUS
 62
    7
 10
250.99343457523121
 20
189.04472245151077
 11
236.69437435213222
 21
189.04472245151077
  0
LINE
  8
_1-1_
  6
CONTINUOUS
 62
    7
 10
131.26754791112611
 20
188.5560516028151
 11
131.26754791112611
 21
181.38112221592615
  0
LINE
  8
_1-1_
  6
DASHED1
 62
    7
 10
131.26754791112611
 20
178.15605160281512
 11
131.26754791112611
 21
181.38112221592615
  0
ARC
  8
_1-1_
  6
DASHED1
 62
    7
 10
131.76754791112611
 20
178.15605160281512
 40
0.5
 50
180
 51
270
  0
LINE
  8
_1-1_
  6
CONTINUOUS
 62
    7
 10
285.83753790110222
 20
185.91979573878637
 11
285.13771655702691
 21
189.61885141461328
  0
LINE
  8
_1-1_
  6
CONTINUOUS
 62
    7
 10
276.85601031406281
 20
188.65525460871504
 11
285.13771655702691
 21
189.61885141461328
  0
ARC
  8
_1-1_
  6
CONTINUOUS
 62
    7
 10
285.4445098028234
 20
185.84543907154443
 40
0.4
 50
278.27581925974772
 51
10.71312302279103
  0
LINE
  8
_1-1_
  6
CONTINUOUS
 62
    7
 10
277.3135857441
 20
184.25856068722228
 11
285.5020852328605
 21
185.44960442190389
  0
LINE
  8
_1-1_
  6
CONTINUOUS
 62
    7
 10
276.85601031406281
 20
184.65439533686279
 11
276.85601031406281
 21
188.65525460871504
  0
LINE
  8
_1-1_
  6
CONTINUOUS
 62
    7
 10
285.09781748546367
 20
183.48111443196381
 11
285.68015856369083
 21
185.47550576381524
  0
ARC
  8
_1-1_
  6
CONTINUOUS
 62
    7
 10
277.25601031406279
 20
184.65050083492479
 40
0.4
 50
180
 51
278.27581925974777
  0
ARC
  8
_1-1_
  6
CONTINUOUS
 62
    7
 10
277.25601031406279
 20
183.56651957385699
 40
0.4
 50
180
 51
270
  0
LINE
  8
_1-1_
  6
CONTINUOUS
 62
    7
 10
284.70791291558577
 20
183.16651957385698
 11
277.25601031406279
 21
183.16651957385698
  0
ARC
  8
_1-1_
  6
CONTINUOUS
 62
    7
 10
284.70791291558577
 20
183.56651957385699
 40
0.4
 50
270
 51
347.10005915742061
  0
LINE
  8
_1-1_
  6
CONTINUOUS
 62
    7
 10
276.85601031406281
 20
183.56651957385699
 11
276.94341727979485
 21
184.40093001345888
  0
LINE
  8
_1-1_
  6
CONTINUOUS
 62
    7
 10
276.85601031406281
 20
196.34814102474192
 11
285.13771655702691
 21
197.31173783064016
  0
LINE
  8
_1-1_
  6
CONTINUOUS
 62
    7
 10
277.3135857441
 20
191.95144710324916
 11
285.5020852328605
 21
193.14249083793077
  0
LINE
  8
_1-1_
  6
CONTINUOUS
 62
    7
 10
276.85601031406281
 20
192.34728175288967
 11
276.85601031406281
 21
196.34814102474192
  0
LINE
  8
_1-1_
  6
CONTINUOUS
 62
    7
 10
285.09781748546367
 20
191.17400084799072
 11
285.68015856369083
 21
193.16839217984215
  0
ARC
  8
_1-1_
  6
CONTINUOUS
 62
    7
 10
277.25601031406279
 20
192.3433872509517
 40
0.4
 50
180
 51
278.27581925974777
  0
ARC
  8
_1-1_
  6
CONTINUOUS
 62
    7
 10
277.25601031406279
 20
191.25940598988387
 40
0.4
 50
180
 51
270
  0
LINE
  8
_1-1_
  6
CONTINUOUS
 62
    7
 10
284.70791291558577
 20
190.85940598988389
 11
277.25601031406279
 21
190.85940598988389
  0
ARC
  8
_1-1_
  6
CONTINUOUS
 62
    7
 10
284.70791291558577
 20
191.25940598988387
 40
0.4
 50
270
 51
347.10005915742061
  0
LINE
  8
_1-1_
  6
CONTINUOUS
 62
    7
 10
276.85601031406281
 20
191.25940598988387
 11
276.94341727979485
 21
192.09381642948579
  0
LINE
  8
_1-1_
  6
CONTINUOUS
 62
    7
 10
285.83753790110222
 20
193.61268215481328
 11
285.13771655702691
 21
197.31173783064016
  0
ARC
  8
_1-1_
  6
CONTINUOUS
 62
    7
 10
285.4445098028234
 20
193.53832548757134
 40
0.4
 50
278.27581925974772
 51
10.71312302279103
  0
LINE
  8
_1-1_
  6
CONTINUOUS
 62
    7
 10
276.85601031406281
 20
193.89321474342335
 11
265.83652456065192
 21
187.62352268425402
  0
LINE
  8
_1-1_
  6
CONTINUOUS
 62
    7
 10
276.85601031406281
 20
194.67321474342338
 11
265.83652456065192
 21
188.40352268425402
  0
LINE
  8
_1-1_
  6
CONTINUOUS
 62
    7
 10
265.83652456065192
 20
186.20099308617815
 11
276.85601031406281
 21
186.20099308617815
  0
LINE
  8
_1-1_
  6
CONTINUOUS
 62
    7
 10
265.83652456065192
 20
186.98032832739647
 11
276.85601031406281
 21
186.98032832739647
  0
ARC
  8
_1-1_
  6
CONTINUOUS
 62
    7
 10
253.70661568438828
 20
180.65485612531557
 40
0.7057582568062442
 50
114.9553729531992
 51
245.04462704680079
  0
ARC
  8
_1-1_
  6
CONTINUOUS
 62
    7
 10
252.30874332502833
 20
178.97985612531562
 40
1.5105400527209482
 50
316.74284832057333
 51
43.257151679431196
  0
LINE
  8
_1-1_
  6
CONTINUOUS
 62
    7
 10
265.83652456065192
 20
177.94472245151075
 11
253.40884765109444
 21
177.94472245151075
  0
LINE
  8
_1-1_
  6
CONTINUOUS
 62
    7
 10
265.83652456065192
 20
181.29472245151077
 11
253.40884765109444
 21
181.29472245151077
  0
LINE
  8
_1-1_
  6
CONTINUOUS
 62
    7
 10
265.83652456065192
 20
181.29472245151077
 11
265.83652456065192
 21
177.94472245151075
  0
LINE
  8
_1-1_
  6
CONTINUOUS
 62
    7
 10
288.50843206100239
 20
182.53474263364344
 11
278.63156580510661
 21
180.72065487115781
  0
LINE
  8
_1-1_
  6
CONTINUOUS
 62
    7
 10
288.50843206100239
 20
181.75474263364344
 11
278.63156580510661
 21
179.94065487115778
  0
LINE
  8
_1-1_
  6
CONTINUOUS
 62
    7
 10
265.83652456065186
 20
179.94131962993947
 11
278.635185108271
 21
179.94131962993947
  0
LINE
  8
_1-1_
  6
CONTINUOUS
 62
    7
 10
265.83652456065186
 20
180.72065487115781
 11
278.63156580510661
 21
180.72065487115781
  0
LINE
  8
_1-1_
  6
CONTINUOUS
 62
    7
 10
288.50843206100239
 20
176.70470226937806
 11
278.63156580510661
 21
178.51879003186371
  0
LINE
  8
_1-1_
  6
CONTINUOUS
 62
    7
 10
288.50843206100239
 20
177.48470226937803
 11
278.63156580510661
 21
179.29879003186368
  0
LINE
  8
_1-1_
  6
CONTINUOUS
 62
    7
 10
265.83652456065186
 20
178.5187900318636
 11
278.63156580510701
 21
178.5187900318636
  0
LINE
  8
_1-1_
  6
CONTINUOUS
 62
    7
 10
265.83652456065186
 20
179.29812527308195
 11
278.63518510827134
 21
179.29812527308195
  0
LINE
  8
_1-1_
  6
CONTINUOUS
 62
    7
 10
265.83652456065192
 20
185.69472245151075
 11
253.40884765109444
 21
185.69472245151075
  0
LINE
  8
_1-1_
  6
CONTINUOUS
 62
    7
 10
265.83652456065192
 20
189.04472245151077
 11
253.40884765109444
 21
189.04472245151077
  0
ARC
  8
_1-1_
  6
CONTINUOUS
 62
    7
 10
253.70661568438828
 20
188.4048561253156
 40
0.7057582568062442
 50
114.9553729531992
 51
245.04462704680079
  0
ARC
  8
_1-1_
  6
CONTINUOUS
 62
    7
 10
252.30874332502827
 20
186.72985612531562
 40
1.5105400527209482
 50
316.74284832057333
 51
43.257151679431196
  0
LINE
  8
_1-1_
  6
CONTINUOUS
 62
    7
 10
265.83652456065192
 20
189.04472245151077
 11
265.83652456065192
 21
185.69472245151075
  0
LINE
  8
_1-a_
  6
CONTINUOUS
 62
    4
 10
193.0391998291333
 20
196.92151189633847
 11
192.69862806588639
 21
199.14558718150283
  0
LINE
  8
_1-a_
  6
CONTINUOUS
 62
    4
 10
193.0391998291333
 20
196.92151189633847
 11
193.85629367293199
 21
199.01790347484339
  0
TEXT
  8
_1-a_
 62
    7
 10
192.45068643094256
 20
209.10428199362468
 40
4
 41
1
 50
0
  1
①
  0
LINE
  8
_1-a_
  6
CONTINUOUS
 62
    4
 10
193.0391998291333
 20
196.92151189633847
 11
194.25578969088445
 21
207.95192664288225
  0
LINE
  8
_1-a_
  6
CONTINUOUS
 62
    4
 10
114.12307079687522
 20
181.489291131848
 11
114.04433566033239
 21
183.73791310502926
  0
LINE
  8
_1-a_
  6
CONTINUOUS
 62
    4
 10
114.12307079687522
 20
181.489291131848
 11
115.17919515504934
 21
183.47602245240227
  0
LINE
  8
_1-a_
  6
CONTINUOUS
 62
    4
 10
114.12307079687522
 20
181.489291131848
 11
118.74611227152959
 21
201.52247085535032
  0
TEXT
  8
_1-a_
 62
    7
 10
117.42848981035885
 20
202.64525631361959
 40
4
 41
1
 50
0
  1
②
  0
TEXT
  8
_1-a_
 62
    7
 10
92.308619988531205
 20
188.67484914021116
 40
2.9400000000000403
 41
0.9999999999999865
 50
0
  1
AC/L(黒)
  0
TEXT
  8
_1-a_
 62
    7
 10
92.308619988531205
 20
194.02082101014772
 40
2.9399999999999977
 41
1.0000000000000006
 50
0
  1
FG (黄/緑)
  0
TEXT
  8
_1-a_
 62
    7
 10
92.308619988531205
 20
183.1334347827917
 40
2.9399999999999977
 41
1.0000000000000011
 50
0
  1
AC/N(白)
  0
LINE
  8
_1-a_
  6
CONTINUOUS
 62
    4
 10
265.77466147801987
 20
188.83981703807455
 11
259.12397023378025
 21
204.30402594744475
  0
LINE
  8
_1-a_
  6
CONTINUOUS
 62
    4
 10
265.77466147801987
 20
188.83981703807455
 11
265.45098361690486
 21
191.06641368817173
  0
LINE
  8
_1-a_
  6
CONTINUOUS
 62
    4
 10
265.77466147801987
 20
188.83981703807455
 11
264.38104990260308
 21
190.60626737048249
  0
TEXT
  8
_1-a_
 62
    7
 10
255.99582549918397
 20
205.12942277284159
 40
4
 41
1
 50
0
  1
④
  0
TEXT
  8
_1-a_
 62
    7
 10
240.01547564585081
 20
190.7734392549645
 40
2.0999999999999943
 41
1.0000000000000024
 50
0
  1
調光信号線:青
  0
TEXT
  8
_1-a_
 62
    7
 10
240.01547564585081
 20
194.29343925496451
 40
2.1000000000000085
 41
0.9999999999999957
 50
0
  1
調光信号線:茶
  0
TEXT
  8
_1-a_
 62
    7
 10
240.01547564585081
 20
169.39977069386836
 40
2.3333333333333285
 41
1.0000000000000022
 50
0
  1
出力線 -:黒
  0
TEXT
  8
_1-a_
 62
    7
 10
240.01547564585081
 20
173.37396424225545
 40
2.3333333333333285
 41
1.0000000000000022
 50
0
  1
出力線 +:赤
  0
LINE
  8
_1-a_
  6
CONTINUOUS
 62
    4
 10
254.10635684468604
 20
177.2878639968373
 11
255.78254732087657
 21
165.60860132402623
  0
LINE
  8
_1-a_
  6
CONTINUOUS
 62
    4
 10
254.10635684468604
 20
177.2878639968373
 11
254.99154336699751
 21
175.21930294607807
  0
LINE
  8
_1-a_
  6
CONTINUOUS
 62
    4
 10
254.10635684468604
 20
177.2878639968373
 11
253.8386703347158
 21
175.05384431644503
  0
TEXT
  8
_1-a_
 62
    7
 10
254.44491291227438
 20
160.5451775315702
 40
4
 41
1
 50
0
  1
③
  0
LINE
  8
_1-a_
  6
CONTINUOUS
 62
    4
 10
129.45444512569429
 20
177.65605160281518
 11
129.45444512569429
 21
175.55605160281515
  0
LINE
  8
_1-a_
  6
CONTINUOUS
 62
    4
 10
84.244946010346936
 20
170.18346761896623
 11
76.907633595612992
 21
170.18346761896623
  0
LINE
  8
_1-a_
  6
CONTINUOUS
 62
    4
 10
87.809946010346948
 20
170.18346761896623
 11
90.809946010346948
 21
170.18346761896623
  0
LINE
  8
_1-a_
  6
CONTINUOUS
 62
    4
 10
87.809946010346948
 20
164.70511654132218
 11
102.70994601034695
 21
164.70511654132218
  0
LINE
  8
_1-a_
  6
CONTINUOUS
 62
    4
 10
129.45444512569429
 20
177.65605160281518
 11
129.45444512569429
 21
180.15605160281518
  0
LINE
  8
_1-a_
  6
CONTINUOUS
 62
    4
 10
126.23981394566266
 20
190.10605160281517
 11
126.23981394566271
 21
176.60605160281517
  0
LINE
  8
_1-a_
  6
CONTINUOUS
 62
    4
 10
134.76755495762611
 20
164.92115846557555
 11
228.76754086462614
 21
164.92115846557555
  0
LINE
  8
_1-a_
  6
CONTINUOUS
 62
    4
 10
84.244946010346936
 20
170.18346761896623
 11
82.796057270913337
 21
169.79523905131242
  0
LINE
  8
_1-a_
  6
CONTINUOUS
 62
    4
 10
84.244946010346936
 20
170.18346761896623
 11
82.796057270913337
 21
170.57169618661998
  0
LINE
  8
_1-a_
  6
CONTINUOUS
 62
    4
 10
87.809946010346948
 20
170.18346761896623
 11
89.258834749780547
 21
170.57169618661998
  0
LINE
  8
_1-a_
  6
CONTINUOUS
 62
    4
 10
87.809946010346948
 20
170.18346761896623
 11
89.258834749780547
 21
169.79523905131242
  0
LINE
  8
_1-a_
  6
CONTINUOUS
 62
    4
 10
87.809946010346948
 20
164.70511654132218
 11
89.258834749780547
 21
165.09334510897593
  0
LINE
  8
_1-a_
  6
CONTINUOUS
 62
    4
 10
87.809946010346948
 20
164.70511654132218
 11
89.258834749780547
 21
164.31688797366837
  0
LINE
  8
_1-a_
  6
CONTINUOUS
 62
    4
 10
102.70994601034695
 20
164.70511654132218
 11
101.26105727091334
 21
164.31688797366837
  0
LINE
  8
_1-a_
  6
CONTINUOUS
 62
    4
 10
102.70994601034695
 20
164.70511654132218
 11
101.26105727091334
 21
165.09334510897593
  0
LINE
  8
_1-a_
  6
CONTINUOUS
 62
    4
 10
129.45444512569429
 20
175.55605160281515
 11
129.84267369334807
 21
174.10716286338151
  0
LINE
  8
_1-a_
  6
CONTINUOUS
 62
    4
 10
129.45444512569429
 20
175.55605160281515
 11
129.0662165580405
 21
174.10716286338151
  0
LINE
  8
_1-a_
  6
CONTINUOUS
 62
    4
 10
129.45444512569429
 20
177.65605160281518
 11
129.0662165580405
 21
179.10494034224876
  0
LINE
  8
_1-a_
  6
CONTINUOUS
 62
    4
 10
129.45444512569429
 20
177.65605160281518
 11
129.84267369334807
 21
179.10494034224876
  0
LINE
  8
_1-a_
  6
CONTINUOUS
 62
    4
 10
126.23981394566271
 20
176.60605160281517
 11
125.85158537800893
 21
178.05494034224875
  0
LINE
  8
_1-a_
  6
CONTINUOUS
 62
    4
 10
126.23981394566271
 20
176.60605160281517
 11
126.62804251331647
 21
178.05494034224875
  0
LINE
  8
_1-a_
  6
CONTINUOUS
 62
    4
 10
126.23981394566266
 20
190.10605160281517
 11
126.62804251331644
 21
188.65716286338152
  0
LINE
  8
_1-a_
  6
CONTINUOUS
 62
    4
 10
126.23981394566266
 20
190.10605160281517
 11
125.85158537800887
 21
188.65716286338152
  0
LINE
  8
_1-a_
  6
CONTINUOUS
 62
    4
 10
228.76754086462614
 20
164.92115846557555
 11
227.31865212519255
 21
164.53292989792174
  0
LINE
  8
_1-a_
  6
CONTINUOUS
 62
    4
 10
228.76754086462614
 20
164.92115846557555
 11
227.31865212519255
 21
165.30938703322931
  0
LINE
  8
_1-a_
  6
CONTINUOUS
 62
    4
 10
134.76755495762611
 20
164.92115846557555
 11
136.2164436970597
 21
165.30938703322931
  0
LINE
  8
_1-a_
  6
CONTINUOUS
 62
    4
 10
134.76755495762611
 20
164.92115846557555
 11
136.2164436970597
 21
164.53292989792174
  0
TEXT
  8
_1-a_
 62
    7
 10
178.51754791112611
 20
165.26009093487982
 40
4
 41
1
 50
0
  1
188
  0
TEXT
  8
_1-a_
 62
    7
 10
125.9221979838619
 20
183.36429892710287
 40
4
 41
1
 50
90
  1
27
  0
TEXT
  8
_1-a_
 62
    7
 10
93.348568942169293
 20
165.23154901062639
 40
4
 41
1
 50
0
  1
50
  0
TEXT
  8
_1-a_
 62
    7
 10
76.951289802979999
 20
170.70990008827044
 40
4
 41
1
 50
0
  1
10
  0
TEXT
  8
_1-a_
 62
    7
 10
129.1368291638935
 20
165.75092914299045
 40
4
 41
1
 50
90
  1
4.2
  0
LINE
  8
_1-a_
  6
CONTINUOUS
 62
    4
 10
129.45444512569429
 20
175.55605160281515
 11
129.45444512569429
 21
165.05880781018811
  0
LINE
  8
_1-a_
  6
CONTINUOUS
 62
    4
 10
121.755282705283
 20
193.10112812976512
 11
121.75528270528306
 21
173.60112812976512
  0
LINE
  8
_1-a_
  6
CONTINUOUS
 62
    4
 10
121.75528270528306
 20
173.60112812976512
 11
121.36705413762928
 21
175.05001686919871
  0
LINE
  8
_1-a_
  6
CONTINUOUS
 62
    4
 10
121.755282705283
 20
193.10112812976512
 11
121.36705413762922
 21
191.65223939033148
  0
TEXT
  8
_1-a_
 62
    7
 10
121.41549757567872
 20
184.93583294522483
 40
4
 41
1
 50
90
  1
39
  0
LINE
  8
_1-a_
  6
CONTINUOUS
 62
    4
 10
121.755282705283
 20
193.10112812976512
 11
122.14351127293679
 21
191.65223939033148
  0
LINE
  8
_1-a_
  6
CONTINUOUS
 62
    4
 10
121.75528270528306
 20
173.60112812976512
 11
122.14351127293684
 21
175.05001686919871
  0
TEXT
  8
_1-a_
 62
    7
 10
286.95769567384149
 20
217.78319959892115
 40
4
 41
1
 50
0
  1
⑥
  0
LINE
  8
_1-a_
  6
CONTINUOUS
 62
    4
 10
283.00190116965995
 20
197.5379216203807
 11
283.72170511761839
 21
198.85393160381678
  0
LINE
  8
_1-a_
  6
CONTINUOUS
 62
    4
 10
283.00190116965995
 20
197.5379216203807
 11
287.89556903106972
 21
217.64783798836157
  0
LINE
  8
_1-a_
  6
CONTINUOUS
 62
    4
 10
283.00190116965995
 20
197.5379216203807
 11
282.96726468261829
 21
199.03752167164952
  0
LINE
  8
_1-1_
  6
CONTINUOUS
 62
    7
 10
288.50843206100239
 20
184.24472245151071
 11
288.50843206100239
 21
180.24472245151071
  0
LINE
  8
_1-1_
  6
CONTINUOUS
 62
    7
 10
288.50843206100239
 20
184.24472245151071
 11
288.50843206100239
 21
180.24472245151071
  0
LINE
  8
_1-1_
  6
CONTINUOUS
 62
    7
 10
288.50843206100239
 20
180.24472245151071
 11
293.50843206100239
 21
180.24472245151071
  0
LINE
  8
_1-1_
  6
CONTINUOUS
 62
    7
 10
293.50843206100239
 20
184.24472245151071
 11
288.50843206100239
 21
184.24472245151071
  0
LINE
  8
_1-1_
  6
CONTINUOUS
 62
    7
 10
293.50843206100239
 20
184.24472245151071
 11
293.50843206100239
 21
180.24472245151071
  0
ARC
  8
_1-2_
  6
CONTINUOUS
 62
    7
 10
295.76345731417177
 20
172.23969719834127
 40
0.180277563773203
 50
258.69006752598477
 51
11.309932474021442
  0
ARC
  8
_1-2_
  6
CONTINUOUS
 62
    7
 10
296.25843206100233
 20
171.74472245151071
 40
1.7000000000000023
 50
315.00000000000034
 51
135.00000000000036
  0
ARC
  8
_1-2_
  6
CONTINUOUS
 62
    7
 10
296.75340680783295
 20
172.23969719834127
 40
0.180277563773203
 50
168.690067525979
 51
281.3099324740159
  0
ARC
  8
_1-2_
  6
CONTINUOUS
 62
    7
 10
306.01345731417171
 20
172.23969719834127
 40
0.180277563773203
 50
258.69006752598477
 51
11.309932474021442
  0
ARC
  8
_1-2_
  6
CONTINUOUS
 62
    7
 10
307.00340680783295
 20
172.23969719834127
 40
0.180277563773203
 50
168.690067525979
 51
281.3099324740159
  0
ARC
  8
_1-2_
  6
CONTINUOUS
 62
    7
 10
306.50843206100239
 20
171.74472245151071
 40
1.7000000000000023
 50
315.00000000000034
 51
135.00000000000036
  0
LINE
  8
_1-2_
  6
CONTINUOUS
 62
    7
 10
311.13343206100239
 20
184.49472245151071
 11
311.13343206100239
 21
168.74472245151073
  0
LINE
  8
_1-2_
  6
CONTINUOUS
 62
    7
 10
310.63343206100239
 20
167.74472245151071
 11
310.63343206100239
 21
179.15913645447966
  0
LINE
  8
_1-2_
  6
CONTINUOUS
 62
    7
 10
309.25843206100239
 20
169.49472245151071
 11
309.25843206100239
 21
173.99472245151071
  0
ARC
  8
_1-2_
  6
CONTINUOUS
 62
    7
 10
296.25843206100233
 20
171.74472245151071
 40
1.7000000000000023
 50
135.00000000000034
 51
315.00000000000034
  0
LINE
  8
_1-2_
  6
CONTINUOUS
 62
    7
 10
304.50843206100239
 20
173.99472245151076
 11
304.50843206100233
 21
169.49472245151076
  0
LINE
  8
_1-2_
  6
CONTINUOUS
 62
    7
 10
308.50843206100239
 20
169.49472245151071
 11
308.50843206100239
 21
173.99472245151071
  0
ARC
  8
_1-2_
  6
CONTINUOUS
 62
    7
 10
306.50843206100239
 20
171.74472245151071
 40
1.7000000000000023
 50
135.00000000000034
 51
315.00000000000034
  0
LINE
  8
_1-2_
  6
CONTINUOUS
 62
    7
 10
298.25843206100239
 20
169.49472245151071
 11
298.25843206100239
 21
173.99472245151071
  0
LINE
  8
_1-2_
  6
CONTINUOUS
 62
    7
 10
293.50843206100239
 20
169.49472245151071
 11
293.50843206100239
 21
173.99472245151071
  0
LINE
  8
_1-2_
  6
CONTINUOUS
 62
    7
 10
294.25843206100239
 20
169.49472245151071
 11
294.25843206100239
 21
173.99472245151071
  0
LINE
  8
_1-2_
  6
CONTINUOUS
 62
    7
 10
311.13343206100239
 20
169.49472245151071
 11
303.88343206100233
 21
169.49472245151071
  0
LINE
  8
_1-2_
  6
CONTINUOUS
 62
    7
 10
311.1334320610025
 20
166.99472245151071
 11
291.6334320610025
 21
166.99472245151071
  0
LINE
  8
_1-2_
  6
CONTINUOUS
 62
    7
 10
295.6334320610025
 20
166.49472245151071
 11
307.1334320610025
 21
166.49472245151071
  0
LINE
  8
_1-2_
  6
CONTINUOUS
 62
    7
 10
304.3834320610025
 20
166.99472245151071
 11
298.3834320610025
 21
166.99472245151071
  0
ARC
  8
_1-2_
  6
CONTINUOUS
 62
    7
 10
301.3834320610025
 20
163.99472245151071
 40
1.3000000000000109
 50
0
 51
180
  0
LINE
  8
_1-2_
  6
CONTINUOUS
 62
    7
 10
311.1334320610025
 20
167.74472245151071
 11
291.6334320610025
 21
167.74472245151071
  0
LINE
  8
_1-2_
  6
CONTINUOUS
 62
    7
 10
299.38343206100245
 20
168.99472245151073
 11
303.3834320610025
 21
168.99472245151073
  0
CIRCLE
  8
_1-2_
  6
CONTINUOUS
 62
    7
 10
304.1334320610025
 20
163.84472245151067
 40
0.625
  0
LINE
  8
_1-2_
  6
CONTINUOUS
 62
    7
 10
307.1334320610025
 20
166.49472245151071
 11
307.1334320610025
 21
161.49472245151071
  0
LINE
  8
_1-2_
  6
CONTINUOUS
 62
    7
 10
307.1334320610025
 20
161.49472245151071
 11
302.68343206100246
 21
161.49472245151071
  0
LINE
  8
_1-2_
  6
CONTINUOUS
 62
    7
 10
302.68343206100246
 20
161.49472245151071
 11
302.68343206100246
 21
163.99472245151071
  0
LINE
  8
_1-2_
  6
CONTINUOUS
 62
    7
 10
308.50843206100239
 20
170.74472245151071
 11
307.90843206100237
 21
170.74472245151071
  0
LINE
  8
_1-2_
  6
CONTINUOUS
 62
    7
 10
308.50843206100239
 20
170.24472245151071
 11
307.50843206100239
 21
170.24472245151071
  0
LINE
  8
_1-2_
  6
CONTINUOUS
 62
    7
 10
303.38343206100245
 20
168.74472245151076
 11
311.13343206100239
 21
168.74472245151076
  0
LINE
  8
_1-2_
  6
CONTINUOUS
 62
    7
 10
311.1334320610025
 20
166.99472245151071
 11
311.1334320610025
 21
168.74472245151073
  0
LINE
  8
_1-2_
  6
CONTINUOUS
 62
    7
 10
306.3834320610025
 20
166.99472245151071
 11
306.3834320610025
 21
166.49472245151071
  0
LINE
  8
_1-2_
  6
CONTINUOUS
 62
    7
 10
305.3834320610025
 20
166.49472245151071
 11
305.3834320610025
 21
166.99472245151071
  0
LINE
  8
_1-2_
  6
CONTINUOUS
 62
    7
 10
303.8834320610025
 20
165.99472245151071
 11
303.3834320610025
 21
166.49472245151071
  0
LINE
  8
_1-2_
  6
CONTINUOUS
 62
    7
 10
303.8834320610025
 20
165.99472245151071
 11
304.3834320610025
 21
166.49472245151071
  0
LINE
  8
_1-2_
  6
CONTINUOUS
 62
    7
 10
304.38343206100245
 20
166.49472245151071
 11
304.3834320610025
 21
166.99472245151071
  0
LINE
  8
_1-2_
  6
CONTINUOUS
 62
    7
 10
305.97810224515137
 20
172.06315984346167
 11
304.83876823478573
 21
172.06444531185007
  0
LINE
  8
_1-2_
  6
CONTINUOUS
 62
    7
 10
305.97810224515137
 20
171.42628505955968
 11
304.83876823478573
 21
171.42499959117131
  0
LINE
  8
_1-2_
  6
CONTINUOUS
 62
    7
 10
304.50843206100239
 20
170.24472245151071
 11
305.50843206100239
 21
170.24472245151071
  0
LINE
  8
_1-2_
  6
CONTINUOUS
 62
    7
 10
306.00843206100233
 20
169.49472245151071
 11
306.00843206100233
 21
170.09472245151067
  0
LINE
  8
_1-2_
  6
CONTINUOUS
 62
    7
 10
307.00843206100233
 20
169.49472245151071
 11
307.00843206100233
 21
170.09472245151067
  0
LINE
  8
_1-2_
  6
CONTINUOUS
 62
    7
 10
306.19023400946844
 20
171.21439236562076
 11
306.19023400946844
 21
170.57799626255288
  0
LINE
  8
_1-2_
  6
CONTINUOUS
 62
    7
 10
306.82663011253629
 20
171.21439236562082
 11
306.82663011253634
 21
170.57799626255291
  0
ARC
  8
_1-2_
  6
CONTINUOUS
 62
    7
 10
306.47307672194301
 20
171.70936711245138
 40
0.8544003745317488
 50
272.48955292199889
 51
294.44395478041712
  0
LINE
  8
_1-2_
  6
CONTINUOUS
 62
    7
 10
306.50843206100239
 20
170.57799626255288
 11
306.82663011253634
 21
170.57799626255291
  0
LINE
  8
_1-2_
  6
CONTINUOUS
 62
    7
 10
306.50843206100233
 20
170.57799626255288
 11
306.19023400946844
 21
170.57799626255288
  0
ARC
  8
_1-2_
  6
CONTINUOUS
 62
    7
 10
306.54378740006166
 20
171.70936711245138
 40
0.8544003745317488
 50
245.55604521958269
 51
267.51044707800099
  0
ARC
  8
_1-2_
  6
CONTINUOUS
 62
    7
 10
306.01345731417177
 20
171.24974770468008
 40
0.180277563773203
 50
348.69006752598107
 51
101.30993247401767
  0
LINE
  8
_1-2_
  6
CONTINUOUS
 62
    7
 10
307.03876214689228
 20
172.06292050304466
 11
308.17013299679075
 21
172.06292050304466
  0
ARC
  8
_1-2_
  6
CONTINUOUS
 62
    7
 10
307.00340680783295
 20
171.24974770468014
 40
0.180277563773203
 50
78.690067525982243
 51
191.30993247401929
  0
LINE
  8
_1-2_
  6
CONTINUOUS
 62
    7
 10
307.03876187685335
 20
171.42628505955974
 11
308.178095887219
 21
171.42499959117134
  0
ARC
  8
_1-2_
  6
CONTINUOUS
 62
    7
 10
306.50843206100239
 20
171.74472245151071
 40
0.8732124598286503
 50
338.62937773065721
 51
21.370622269343897
  0
ARC
  8
_1-2_
  6
CONTINUOUS
 62
    7
 10
306.50843206100239
 20
171.74472245151071
 40
0.8732124598286503
 50
158.62937773065632
 51
201.37062226934315
  0
LINE
  8
_1-2_
  6
CONTINUOUS
 62
    7
 10
303.88343206100233
 20
169.49472245151071
 11
303.88343206100233
 21
168.74472245151076
  0
LINE
  8
_1-2_
  6
CONTINUOUS
 62
    7
 10
303.38343206100245
 20
168.74472245151076
 11
303.38343206100245
 21
168.99472245151073
  0
LINE
  8
_1-2_
  6
CONTINUOUS
 62
    7
 10
304.50843206100239
 20
170.74472245151071
 11
305.10843206100236
 21
170.74472245151071
  0
CIRCLE
  8
_1-2_
  6
CONTINUOUS
 62
    7
 10
298.6334320610025
 20
163.84472245151067
 40
0.625
  0
LINE
  8
_1-2_
  6
CONTINUOUS
 62
    7
 10
295.6334320610025
 20
161.49472245151071
 11
295.6334320610025
 21
166.49472245151071
  0
LINE
  8
_1-2_
  6
CONTINUOUS
 62
    7
 10
300.08343206100249
 20
161.49472245151071
 11
295.6334320610025
 21
161.49472245151071
  0
LINE
  8
_1-2_
  6
CONTINUOUS
 62
    7
 10
300.08343206100249
 20
161.49472245151071
 11
300.08343206100249
 21
163.99472245151071
  0
ARC
  8
_1-2_
  6
CONTINUOUS
 62
    7
 10
296.22307672194301
 20
171.70936711245138
 40
0.8544003745317488
 50
272.48955292199889
 51
294.44395478041712
  0
ARC
  8
_1-2_
  6
CONTINUOUS
 62
    7
 10
296.75340680783295
 20
171.24974770468014
 40
0.180277563773203
 50
78.690067525982243
 51
191.30993247401929
  0
LINE
  8
_1-2_
  6
CONTINUOUS
 62
    7
 10
291.6334320610025
 20
168.74472245151073
 11
299.38343206100245
 21
168.74472245151073
  0
LINE
  8
_1-2_
  6
CONTINUOUS
 62
    7
 10
298.8834320610025
 20
165.99472245151071
 11
298.3834320610025
 21
166.49472245151071
  0
LINE
  8
_1-2_
  6
CONTINUOUS
 62
    7
 10
298.8834320610025
 20
165.99472245151071
 11
299.3834320610025
 21
166.49472245151071
  0
LINE
  8
_1-2_
  6
CONTINUOUS
 62
    7
 10
297.3834320610025
 20
166.49472245151071
 11
297.3834320610025
 21
166.99472245151071
  0
LINE
  8
_1-2_
  6
CONTINUOUS
 62
    7
 10
298.38343206100245
 20
166.49472245151071
 11
298.38343206100245
 21
166.99472245151071
  0
LINE
  8
_1-2_
  6
CONTINUOUS
 62
    7
 10
298.88343206100239
 20
169.49472245151071
 11
298.88343206100239
 21
168.74472245151073
  0
LINE
  8
_1-2_
  6
CONTINUOUS
 62
    7
 10
296.75843206100239
 20
169.49472245151071
 11
296.75843206100239
 21
170.09472245151067
  0
LINE
  8
_1-2_
  6
CONTINUOUS
 62
    7
 10
299.3834320610025
 20
168.74472245151073
 11
299.38343206100245
 21
168.99472245151073
  0
LINE
  8
_1-2_
  6
CONTINUOUS
 62
    7
 10
296.78876214689222
 20
172.06292050304466
 11
297.92013299679075
 21
172.06292050304466
  0
LINE
  8
_1-2_
  6
CONTINUOUS
 62
    7
 10
296.78876187685335
 20
171.42628505955974
 11
297.928095887219
 21
171.42499959117134
  0
LINE
  8
_1-2_
  6
CONTINUOUS
 62
    7
 10
298.25843206100239
 20
170.74472245151071
 11
297.65843206100237
 21
170.74472245151071
  0
ARC
  8
_1-2_
  6
CONTINUOUS
 62
    7
 10
296.25843206100233
 20
171.74472245151071
 40
0.8732124598286503
 50
338.62937773065721
 51
21.370622269343897
  0
LINE
  8
_1-2_
  6
CONTINUOUS
 62
    7
 10
298.25843206100239
 20
170.24472245151071
 11
297.25843206100239
 21
170.24472245151071
  0
LINE
  8
_1-2_
  6
CONTINUOUS
 62
    7
 10
291.6334320610025
 20
166.99472245151071
 11
291.6334320610025
 21
168.74472245151073
  0
LINE
  8
_1-2_
  6
CONTINUOUS
 62
    7
 10
296.3834320610025
 20
166.99472245151071
 11
296.3834320610025
 21
166.49472245151071
  0
LINE
  8
_1-2_
  6
CONTINUOUS
 62
    7
 10
295.75843206100239
 20
169.49472245151071
 11
295.75843206100239
 21
170.09472245151067
  0
LINE
  8
_1-2_
  6
CONTINUOUS
 62
    7
 10
296.57663011253629
 20
171.21439236562082
 11
296.57663011253629
 21
170.57799626255291
  0
LINE
  8
_1-2_
  6
CONTINUOUS
 62
    7
 10
295.94023400946844
 20
171.21439236562076
 11
295.94023400946844
 21
170.57799626255288
  0
LINE
  8
_1-2_
  6
CONTINUOUS
 62
    7
 10
296.25843206100239
 20
170.57799626255288
 11
296.57663011253629
 21
170.57799626255291
  0
LINE
  8
_1-2_
  6
CONTINUOUS
 62
    7
 10
296.25843206100233
 20
170.57799626255288
 11
295.94023400946844
 21
170.57799626255288
  0
ARC
  8
_1-2_
  6
CONTINUOUS
 62
    7
 10
296.29378740006166
 20
171.70936711245138
 40
0.8544003745317488
 50
245.55604521958269
 51
267.51044707800099
  0
LINE
  8
_1-2_
  6
CONTINUOUS
 62
    7
 10
294.25843206100239
 20
170.74472245151071
 11
294.85843206100241
 21
170.74472245151071
  0
ARC
  8
_1-2_
  6
CONTINUOUS
 62
    7
 10
295.76345731417177
 20
171.24974770468008
 40
0.180277563773203
 50
348.69006752598107
 51
101.30993247401767
  0
ARC
  8
_1-2_
  6
CONTINUOUS
 62
    7
 10
296.25843206100233
 20
171.74472245151071
 40
0.8732124598286503
 50
158.62937773065632
 51
201.37062226934315
  0
LINE
  8
_1-2_
  6
CONTINUOUS
 62
    7
 10
295.72810224515137
 20
172.06315984346167
 11
294.58876823478573
 21
172.06444531185007
  0
LINE
  8
_1-2_
  6
CONTINUOUS
 62
    7
 10
295.72810224515137
 20
171.42628505955968
 11
294.58876823478573
 21
171.42499959117131
  0
LINE
  8
_1-2_
  6
CONTINUOUS
 62
    7
 10
294.25843206100239
 20
170.24472245151071
 11
295.25843206100239
 21
170.24472245151071
  0
ARC
  8
_1-2_
  6
CONTINUOUS
 62
    7
 10
306.50843206100233
 20
187.49472245151068
 40
1.7000000000000023
 50
315.00000000000034
 51
135.00000000000036
  0
ARC
  8
_1-2_
  6
CONTINUOUS
 62
    7
 10
306.50843206100233
 20
187.49472245151068
 40
1.7000000000000023
 50
135.00000000000034
 51
315.00000000000034
  0
LINE
  8
_1-2_
  6
CONTINUOUS
 62
    7
 10
310.63343206100239
 20
189.74472245151071
 11
310.63343206100239
 21
184.49472245151071
  0
LINE
  8
_1-2_
  6
CONTINUOUS
 62
    7
 10
311.13343206100239
 20
189.74472245151071
 11
311.13343206100239
 21
184.49472245151065
  0
LINE
  8
_1-2_
  6
CONTINUOUS
 62
    7
 10
308.50843206100239
 20
185.24472245151071
 11
308.50843206100239
 21
189.74472245151071
  0
LINE
  8
_1-2_
  6
CONTINUOUS
 62
    7
 10
309.25843206100239
 20
185.24472245151071
 11
309.25843206100239
 21
189.74472245151071
  0
LINE
  8
_1-2_
  6
CONTINUOUS
 62
    7
 10
304.50843206100233
 20
189.74472245151076
 11
304.50843206100233
 21
185.24472245151076
  0
ARC
  8
_1-2_
  6
CONTINUOUS
 62
    7
 10
296.25843206100233
 20
187.49472245151068
 40
1.7000000000000023
 50
315.00000000000034
 51
135.00000000000036
  0
ARC
  8
_1-2_
  6
CONTINUOUS
 62
    7
 10
296.25843206100233
 20
187.49472245151068
 40
1.7000000000000023
 50
135.00000000000034
 51
315.00000000000034
  0
LINE
  8
_1-2_
  6
CONTINUOUS
 62
    7
 10
298.25843206100239
 20
185.24472245151065
 11
298.25843206100239
 21
189.74472245151068
  0
LINE
  8
_1-2_
  6
CONTINUOUS
 62
    7
 10
294.25843206100233
 20
185.24472245151071
 11
294.25843206100233
 21
189.74472245151071
  0
LINE
  8
_1-2_
  6
CONTINUOUS
 62
    7
 10
293.50843206100233
 20
185.24472245151071
 11
293.50843206100233
 21
189.74472245151071
  0
LINE
  8
_1-2_
  6
CONTINUOUS
 62
    7
 10
311.13343206100239
 20
179.99472245151071
 11
303.88343206100233
 21
179.99472245151071
  0
LINE
  8
_1-2_
  6
CONTINUOUS
 62
    7
 10
311.13343206100239
 20
174.74472245151071
 11
303.88343206100233
 21
174.74472245151071
  0
LINE
  8
_1-2_
  6
CONTINUOUS
 62
    7
 10
311.13343206100239
 20
173.99472245151071
 11
303.88343206100233
 21
173.99472245151071
  0
LINE
  8
_1-2_
  6
CONTINUOUS
 62
    7
 10
305.33392230420594
 20
179.24472245151071
 11
303.88343206100233
 21
179.24472245151071
  0
LINE
  8
_1-2_
  6
CONTINUOUS
 62
    7
 10
291.63343206100239
 20
184.49472245151071
 11
298.88343206100233
 21
184.49472245151071
  0
LINE
  8
_1-2_
  6
CONTINUOUS
 62
    7
 10
311.13343206100239
 20
185.24472245151071
 11
303.88343206100233
 21
185.24472245151071
  0
LINE
  8
_1-2_
  6
CONTINUOUS
 62
    7
 10
306.00843206100233
 20
179.99472245151065
 11
306.00843206100233
 21
180.59472245151067
  0
LINE
  8
_1-2_
  6
CONTINUOUS
 62
    7
 10
307.00843206100233
 20
179.99472245151065
 11
307.00843206100233
 21
180.59472245151067
  0
LINE
  8
_1-2_
  6
CONTINUOUS
 62
    7
 10
304.50843206100239
 20
184.49472245151076
 11
304.50843206100233
 21
179.99472245151076
  0
ARC
  8
_1-2_
  6
CONTINUOUS
 62
    7
 10
306.50843206100239
 20
182.24472245151065
 40
1.7000000000000023
 50
135.00000000000034
 51
315.00000000000034
  0
LINE
  8
_1-2_
  6
CONTINUOUS
 62
    7
 10
309.25843206100239
 20
179.99472245151071
 11
309.25843206100239
 21
184.49472245151071
  0
LINE
  8
_1-2_
  6
CONTINUOUS
 62
    7
 10
310.63343206100239
 20
179.15913645447966
 11
310.63343206100239
 21
184.49472245151071
  0
LINE
  8
_1-2_
  6
CONTINUOUS
 62
    7
 10
308.50843206100239
 20
179.99472245151071
 11
308.50843206100239
 21
184.49472245151071
  0
LINE
  8
_1-2_
  6
CONTINUOUS
 62
    7
 10
310.43294181779879
 20
179.24472245151071
 11
305.33392230420594
 21
179.24472245151071
  0
LINE
  8
_1-2_
  6
CONTINUOUS
 62
    7
 10
308.50843206100239
 20
172.74472245151071
 11
307.90843206100237
 21
172.74472245151071
  0
LINE
  8
_1-2_
  6
CONTINUOUS
 62
    7
 10
308.50843206100239
 20
173.24472245151071
 11
307.50843206100239
 21
173.24472245151071
  0
LINE
  8
_1-2_
  6
CONTINUOUS
 62
    7
 10
308.50843206100239
 20
175.99472245151065
 11
307.90843206100237
 21
175.99472245151065
  0
LINE
  8
_1-2_
  6
CONTINUOUS
 62
    7
 10
308.50843206100239
 20
175.49472245151071
 11
307.50843206100239
 21
175.49472245151071
  0
LINE
  8
_1-2_
  6
CONTINUOUS
 62
    7
 10
308.50843206100239
 20
177.99472245151065
 11
307.90843206100237
 21
177.99472245151065
  0
LINE
  8
_1-2_
  6
CONTINUOUS
 62
    7
 10
308.50843206100239
 20
178.49472245151065
 11
307.50843206100239
 21
178.49472245151065
  0
ARC
  8
_1-2_
  6
CONTINUOUS
 62
    7
 10
306.50843206100239
 20
176.99472245151065
 40
1.7000000000000023
 50
315.00000000000034
 51
135.00000000000036
  0
LINE
  8
_1-2_
  6
CONTINUOUS
 62
    7
 10
309.25843206100239
 20
174.74472245151071
 11
309.25843206100239
 21
179.24472245151071
  0
LINE
  8
_1-2_
  6
CONTINUOUS
 62
    7
 10
308.50843206100239
 20
174.74472245151071
 11
308.50843206100239
 21
179.24472245151071
  0
LINE
  8
_1-2_
  6
CONTINUOUS
 62
    7
 10
311.13343206100239
 20
179.24472245151071
 11
310.43294181779879
 21
179.24472245151071
  0
LINE
  8
_1-2_
  6
CONTINUOUS
 62
    7
 10
306.19023400946844
 20
176.46439236562076
 11
306.19023400946844
 21
175.82799626255291
  0
LINE
  8
_1-2_
  6
CONTINUOUS
 62
    7
 10
306.82663011253629
 20
176.46439236562082
 11
306.82663011253634
 21
175.82799626255291
  0
ARC
  8
_1-2_
  6
CONTINUOUS
 62
    7
 10
306.50843206100239
 20
176.99472245151065
 40
1.7000000000000023
 50
135.00000000000034
 51
315.00000000000034
  0
LINE
  8
_1-2_
  6
CONTINUOUS
 62
    7
 10
304.50843206100239
 20
178.84039392705574
 11
304.50843206100233
 21
174.74472245151076
  0
LINE
  8
_1-2_
  6
CONTINUOUS
 62
    7
 10
304.50843206100239
 20
175.49472245151071
 11
305.50843206100239
 21
175.49472245151071
  0
LINE
  8
_1-2_
  6
CONTINUOUS
 62
    7
 10
304.50843206100239
 20
173.24472245151071
 11
305.50843206100239
 21
173.24472245151071
  0
LINE
  8
_1-2_
  6
CONTINUOUS
 62
    7
 10
306.50843206100245
 20
172.9114486404685
 11
306.82663011253634
 21
172.9114486404685
  0
ARC
  8
_1-2_
  6
CONTINUOUS
 62
    7
 10
306.47307672194301
 20
171.78007779057003
 40
0.8544003745317488
 50
65.556045219581022
 51
87.510447077998634
  0
ARC
  8
_1-2_
  6
CONTINUOUS
 62
    7
 10
306.54378740006166
 20
171.78007779057003
 40
0.8544003745317488
 50
92.489552922001379
 51
114.44395478041896
  0
LINE
  8
_1-2_
  6
CONTINUOUS
 62
    7
 10
306.50843206100228
 20
172.9114486404685
 11
306.19023400946838
 21
172.9114486404685
  0
LINE
  8
_1-2_
  6
CONTINUOUS
 62
    7
 10
306.00843206100233
 20
173.99472245151071
 11
306.00843206100233
 21
173.39472245151068
  0
LINE
  8
_1-2_
  6
CONTINUOUS
 62
    7
 10
307.00843206100233
 20
173.99472245151071
 11
307.00843206100233
 21
173.39472245151068
  0
LINE
  8
_1-2_
  6
CONTINUOUS
 62
    7
 10
306.19023400946844
 20
172.27505253740059
 11
306.19023400946832
 21
172.91144864046844
  0
LINE
  8
_1-2_
  6
CONTINUOUS
 62
    7
 10
306.82663011253634
 20
172.27505253740059
 11
306.82663011253634
 21
172.9114486404685
  0
LINE
  8
_1-2_
  6
CONTINUOUS
 62
    7
 10
306.00843206100233
 20
174.74472245151071
 11
306.00843206100233
 21
175.34472245151067
  0
LINE
  8
_1-2_
  6
CONTINUOUS
 62
    7
 10
307.00843206100233
 20
174.74472245151071
 11
307.00843206100233
 21
175.34472245151067
  0
ARC
  8
_1-2_
  6
CONTINUOUS
 62
    7
 10
306.47307672194301
 20
176.95936711245138
 40
0.8544003745317488
 50
272.48955292199889
 51
294.44395478041712
  0
LINE
  8
_1-2_
  6
CONTINUOUS
 62
    7
 10
306.50843206100239
 20
175.82799626255291
 11
306.82663011253634
 21
175.82799626255291
  0
LINE
  8
_1-2_
  6
CONTINUOUS
 62
    7
 10
306.50843206100233
 20
175.82799626255291
 11
306.19023400946844
 21
175.82799626255291
  0
ARC
  8
_1-2_
  6
CONTINUOUS
 62
    7
 10
306.54378740006166
 20
176.95936711245138
 40
0.8544003745317488
 50
245.55604521958269
 51
267.51044707800099
  0
LINE
  8
_1-2_
  6
CONTINUOUS
 62
    7
 10
303.88343206100233
 20
173.99472245151071
 11
303.88343206100233
 21
174.74472245151071
  0
LINE
  8
_1-2_
  6
CONTINUOUS
 62
    7
 10
304.50843206100239
 20
172.74472245151071
 11
305.10843206100236
 21
172.74472245151071
  0
LINE
  8
_1-2_
  6
CONTINUOUS
 62
    7
 10
304.50843206100239
 20
175.99472245151071
 11
305.10843206100236
 21
175.99472245151071
  0
LINE
  8
_1-2_
  6
CONTINUOUS
 62
    7
 10
305.97810224515137
 20
176.67628505955968
 11
304.83876823478573
 21
176.67499959117134
  0
LINE
  8
_1-2_
  6
CONTINUOUS
 62
    7
 10
305.97810224515137
 20
177.31315984346167
 11
304.83876823478573
 21
177.31444531185007
  0
LINE
  8
_1-2_
  6
CONTINUOUS
 62
    7
 10
304.50843206100239
 20
178.49472245151071
 11
305.50843206100239
 21
178.49472245151071
  0
ARC
  8
_1-2_
  6
CONTINUOUS
 62
    7
 10
306.01345731417171
 20
177.48969719834127
 40
0.180277563773203
 50
258.69006752598477
 51
11.309932474021442
  0
ARC
  8
_1-2_
  6
CONTINUOUS
 62
    7
 10
306.50843206100239
 20
176.99472245151065
 40
0.8732124598286503
 50
158.62937773065632
 51
201.37062226934315
  0
ARC
  8
_1-2_
  6
CONTINUOUS
 62
    7
 10
306.50843206100239
 20
176.99472245151071
 40
0.8732124598286503
 50
338.62937773065721
 51
21.370622269343897
  0
ARC
  8
_1-2_
  6
CONTINUOUS
 62
    7
 10
307.00340680783295
 20
177.48969719834127
 40
0.180277563773203
 50
168.690067525979
 51
281.3099324740159
  0
LINE
  8
_1-2_
  6
CONTINUOUS
 62
    7
 10
307.03876187685335
 20
176.67628505955971
 11
308.178095887219
 21
176.67499959117137
  0
LINE
  8
_1-2_
  6
CONTINUOUS
 62
    7
 10
306.19023400946844
 20
177.52505253740056
 11
306.19023400946832
 21
178.16144864046844
  0
LINE
  8
_1-2_
  6
CONTINUOUS
 62
    7
 10
307.03876214689228
 20
177.3129205030446
 11
308.17013299679075
 21
177.3129205030446
  0
LINE
  8
_1-2_
  6
CONTINUOUS
 62
    7
 10
306.50843206100245
 20
178.1614486404685
 11
306.82663011253634
 21
178.16144864046844
  0
LINE
  8
_1-2_
  6
CONTINUOUS
 62
    7
 10
306.82663011253634
 20
177.52505253740059
 11
306.82663011253634
 21
178.16144864046844
  0
ARC
  8
_1-2_
  6
CONTINUOUS
 62
    7
 10
306.47307672194301
 20
177.03007779057003
 40
0.8544003745317488
 50
65.556045219581022
 51
87.510447077998634
  0
ARC
  8
_1-2_
  6
CONTINUOUS
 62
    7
 10
306.54378740006166
 20
177.03007779057003
 40
0.8544003745317488
 50
92.489552922001379
 51
114.44395478041896
  0
LINE
  8
_1-2_
  6
CONTINUOUS
 62
    7
 10
306.50843206100228
 20
178.16144864046844
 11
306.19023400946838
 21
178.16144864046844
  0
ARC
  8
_1-2_
  6
CONTINUOUS
 62
    7
 10
306.01345731417177
 20
176.49974770468008
 40
0.180277563773203
 50
348.69006752598107
 51
101.30993247401767
  0
ARC
  8
_1-2_
  6
CONTINUOUS
 62
    7
 10
307.00340680783295
 20
176.49974770468011
 40
0.180277563773203
 50
78.690067525982243
 51
191.30993247401929
  0
LINE
  8
_1-2_
  6
CONTINUOUS
 62
    7
 10
306.00843206100233
 20
179.24472245151065
 11
306.00843206100233
 21
178.64472245151068
  0
LINE
  8
_1-2_
  6
CONTINUOUS
 62
    7
 10
307.00843206100233
 20
179.24472245151065
 11
307.00843206100233
 21
178.64472245151068
  0
LINE
  8
_1-2_
  6
CONTINUOUS
 62
    7
 10
304.50843206100239
 20
177.99472245151071
 11
305.10843206100236
 21
177.99472245151071
  0
LINE
  8
_1-2_
  6
CONTINUOUS
 62
    7
 10
303.88343206100233
 20
179.24472245151071
 11
303.88343206100233
 21
179.99472245151071
  0
LINE
  8
_1-2_
  6
CONTINUOUS
 62
    7
 10
304.50843206100239
 20
179.24472245151076
 11
304.50843206100239
 21
178.84039392705551
  0
LINE
  8
_1-2_
  6
CONTINUOUS
 62
    7
 10
308.50843206100239
 20
188.49472245151068
 11
307.90843206100237
 21
188.49472245151068
  0
ARC
  8
_1-2_
  6
CONTINUOUS
 62
    7
 10
306.50843206100239
 20
182.24472245151065
 40
1.7000000000000023
 50
315.00000000000034
 51
135.00000000000036
  0
LINE
  8
_1-2_
  6
CONTINUOUS
 62
    7
 10
308.50843206100239
 20
180.74472245151065
 11
307.50843206100239
 21
180.74472245151065
  0
LINE
  8
_1-2_
  6
CONTINUOUS
 62
    7
 10
308.50843206100239
 20
181.24472245151065
 11
307.90843206100237
 21
181.24472245151065
  0
LINE
  8
_1-2_
  6
CONTINUOUS
 62
    7
 10
308.50843206100239
 20
183.24472245151065
 11
307.90843206100237
 21
183.24472245151065
  0
LINE
  8
_1-2_
  6
CONTINUOUS
 62
    7
 10
308.50843206100239
 20
183.74472245151065
 11
307.50843206100239
 21
183.74472245151065
  0
LINE
  8
_1-2_
  6
CONTINUOUS
 62
    7
 10
308.50843206100239
 20
185.99472245151068
 11
307.50843206100239
 21
185.99472245151068
  0
LINE
  8
_1-2_
  6
CONTINUOUS
 62
    7
 10
308.50843206100239
 20
186.49472245151068
 11
307.90843206100231
 21
186.49472245151068
  0
LINE
  8
_1-2_
  6
CONTINUOUS
 62
    7
 10
303.88343206100233
 20
184.49472245151071
 11
303.88343206100233
 21
185.24472245151071
  0
LINE
  8
_1-2_
  6
CONTINUOUS
 62
    7
 10
304.50843206100239
 20
183.74472245151071
 11
305.50843206100239
 21
183.74472245151071
  0
LINE
  8
_1-2_
  6
CONTINUOUS
 62
    7
 10
304.50843206100239
 20
180.74472245151071
 11
305.50843206100239
 21
180.74472245151071
  0
LINE
  8
_1-2_
  6
CONTINUOUS
 62
    7
 10
305.97810224515137
 20
182.56315984346167
 11
304.83876823478573
 21
182.56444531185007
  0
LINE
  8
_1-2_
  6
CONTINUOUS
 62
    7
 10
305.97810224515137
 20
181.92628505955968
 11
304.83876823478573
 21
181.92499959117137
  0
ARC
  8
_1-2_
  6
CONTINUOUS
 62
    7
 10
306.50843206100239
 20
182.24472245151071
 40
0.8732124598286503
 50
338.62937773065721
 51
21.370622269343897
  0
ARC
  8
_1-2_
  6
CONTINUOUS
 62
    7
 10
306.50843206100239
 20
182.24472245151065
 40
0.8732124598286503
 50
158.62937773065632
 51
201.37062226934315
  0
ARC
  8
_1-2_
  6
CONTINUOUS
 62
    7
 10
306.01345731417171
 20
182.73969719834127
 40
0.180277563773203
 50
258.69006752598477
 51
11.309932474021442
  0
ARC
  8
_1-2_
  6
CONTINUOUS
 62
    7
 10
307.00340680783295
 20
182.73969719834127
 40
0.180277563773203
 50
168.690067525979
 51
281.3099324740159
  0
LINE
  8
_1-2_
  6
CONTINUOUS
 62
    7
 10
306.19023400946844
 20
181.71439236562076
 11
306.19023400946844
 21
181.07799626255285
  0
LINE
  8
_1-2_
  6
CONTINUOUS
 62
    7
 10
306.82663011253629
 20
181.71439236562076
 11
306.82663011253634
 21
181.07799626255291
  0
ARC
  8
_1-2_
  6
CONTINUOUS
 62
    7
 10
306.47307672194301
 20
182.20936711245141
 40
0.8544003745317488
 50
272.48955292199889
 51
294.44395478041712
  0
ARC
  8
_1-2_
  6
CONTINUOUS
 62
    7
 10
306.54378740006166
 20
182.20936711245141
 40
0.8544003745317488
 50
245.55604521958269
 51
267.51044707800099
  0
LINE
  8
_1-2_
  6
CONTINUOUS
 62
    7
 10
306.50843206100239
 20
181.07799626255285
 11
306.82663011253634
 21
181.07799626255291
  0
LINE
  8
_1-2_
  6
CONTINUOUS
 62
    7
 10
306.50843206100233
 20
181.07799626255285
 11
306.19023400946844
 21
181.07799626255285
  0
ARC
  8
_1-2_
  6
CONTINUOUS
 62
    7
 10
306.01345731417177
 20
181.74974770468008
 40
0.180277563773203
 50
348.69006752598107
 51
101.30993247401767
  0
ARC
  8
_1-2_
  6
CONTINUOUS
 62
    7
 10
307.00340680783295
 20
181.74974770468014
 40
0.180277563773203
 50
78.690067525982243
 51
191.30993247401929
  0
LINE
  8
_1-2_
  6
CONTINUOUS
 62
    7
 10
307.03876187685335
 20
181.92628505955968
 11
308.178095887219
 21
181.92499959117137
  0
LINE
  8
_1-2_
  6
CONTINUOUS
 62
    7
 10
306.19023400946844
 20
182.77505253740054
 11
306.19023400946832
 21
183.41144864046844
  0
LINE
  8
_1-2_
  6
CONTINUOUS
 62
    7
 10
306.50843206100245
 20
183.4114486404685
 11
306.82663011253634
 21
183.41144864046844
  0
LINE
  8
_1-2_
  6
CONTINUOUS
 62
    7
 10
306.82663011253634
 20
182.77505253740059
 11
306.82663011253634
 21
183.41144864046844
  0
ARC
  8
_1-2_
  6
CONTINUOUS
 62
    7
 10
306.47307672194301
 20
182.28007779057003
 40
0.8544003745317488
 50
65.556045219581022
 51
87.510447077998634
  0
ARC
  8
_1-2_
  6
CONTINUOUS
 62
    7
 10
306.54378740006166
 20
182.28007779057003
 40
0.8544003745317488
 50
92.489552922001379
 51
114.44395478041896
  0
LINE
  8
_1-2_
  6
CONTINUOUS
 62
    7
 10
306.50843206100228
 20
183.41144864046844
 11
306.19023400946838
 21
183.41144864046844
  0
LINE
  8
_1-2_
  6
CONTINUOUS
 62
    7
 10
306.00843206100233
 20
184.49472245151065
 11
306.00843206100233
 21
183.89472245151068
  0
LINE
  8
_1-2_
  6
CONTINUOUS
 62
    7
 10
307.00843206100233
 20
184.49472245151065
 11
307.00843206100233
 21
183.89472245151068
  0
LINE
  8
_1-2_
  6
CONTINUOUS
 62
    7
 10
307.03876214689228
 20
182.5629205030446
 11
308.17013299679075
 21
182.5629205030446
  0
LINE
  8
_1-2_
  6
CONTINUOUS
 62
    7
 10
304.50843206100239
 20
181.24472245151071
 11
305.10843206100236
 21
181.24472245151071
  0
LINE
  8
_1-2_
  6
CONTINUOUS
 62
    7
 10
304.50843206100239
 20
183.24472245151071
 11
305.10843206100241
 21
183.24472245151071
  0
LINE
  8
_1-2_
  6
CONTINUOUS
 62
    7
 10
305.97810224515137
 20
187.17628505955966
 11
304.83876823478567
 21
187.17499959117137
  0
LINE
  8
_1-2_
  6
CONTINUOUS
 62
    7
 10
305.97810224515131
 20
187.81315984346167
 11
304.83876823478567
 21
187.81444531185007
  0
LINE
  8
_1-2_
  6
CONTINUOUS
 62
    7
 10
304.50843206100239
 20
185.99472245151071
 11
305.50843206100239
 21
185.99472245151071
  0
ARC
  8
_1-2_
  6
CONTINUOUS
 62
    7
 10
306.47307672194301
 20
187.45936711245136
 40
0.8544003745317488
 50
272.48955292199889
 51
294.44395478041712
  0
ARC
  8
_1-2_
  6
CONTINUOUS
 62
    7
 10
306.54378740006171
 20
187.45936711245136
 40
0.8544003745317488
 50
245.55604521958269
 51
267.51044707800099
  0
LINE
  8
_1-2_
  6
CONTINUOUS
 62
    7
 10
306.82663011253629
 20
186.96439236562076
 11
306.82663011253629
 21
186.32799626255291
  0
LINE
  8
_1-2_
  6
CONTINUOUS
 62
    7
 10
306.19023400946844
 20
186.96439236562076
 11
306.19023400946844
 21
186.32799626255288
  0
LINE
  8
_1-2_
  6
CONTINUOUS
 62
    7
 10
306.50843206100239
 20
186.32799626255288
 11
306.82663011253629
 21
186.32799626255291
  0
LINE
  8
_1-2_
  6
CONTINUOUS
 62
    7
 10
307.00843206100233
 20
185.24472245151065
 11
307.00843206100233
 21
185.84472245151067
  0
LINE
  8
_1-2_
  6
CONTINUOUS
 62
    7
 10
306.00843206100233
 20
185.24472245151065
 11
306.00843206100233
 21
185.84472245151067
  0
LINE
  8
_1-2_
  6
CONTINUOUS
 62
    7
 10
306.50843206100233
 20
186.32799626255288
 11
306.19023400946844
 21
186.32799626255288
  0
ARC
  8
_1-2_
  6
CONTINUOUS
 62
    7
 10
306.47307672194301
 20
187.53007779057003
 40
0.8544003745317488
 50
65.556045219581022
 51
87.510447077998634
  0
LINE
  8
_1-2_
  6
CONTINUOUS
 62
    7
 10
306.50843206100245
 20
188.66144864046853
 11
306.82663011253634
 21
188.66144864046847
  0
LINE
  8
_1-2_
  6
CONTINUOUS
 62
    7
 10
306.82663011253634
 20
188.02505253740062
 11
306.82663011253634
 21
188.66144864046847
  0
ARC
  8
_1-2_
  6
CONTINUOUS
 62
    7
 10
307.00340680783301
 20
187.98969719834127
 40
0.180277563773203
 50
168.690067525979
 51
281.3099324740159
  0
ARC
  8
_1-2_
  6
CONTINUOUS
 62
    7
 10
306.50843206100233
 20
187.49472245151071
 40
0.8732124598286503
 50
338.62937773065721
 51
21.370622269343897
  0
LINE
  8
_1-2_
  6
CONTINUOUS
 62
    7
 10
307.03876187685335
 20
187.17628505955966
 11
308.178095887219
 21
187.17499959117137
  0
ARC
  8
_1-2_
  6
CONTINUOUS
 62
    7
 10
307.00340680783295
 20
186.99974770468011
 40
0.180277563773203
 50
78.690067525982243
 51
191.30993247401929
  0
LINE
  8
_1-2_
  6
CONTINUOUS
 62
    7
 10
307.03876214689228
 20
187.81292050304463
 11
308.17013299679075
 21
187.81292050304463
  0
LINE
  8
_1-2_
  6
CONTINUOUS
 62
    7
 10
306.19023400946838
 20
188.02505253740051
 11
306.19023400946832
 21
188.66144864046847
  0
ARC
  8
_1-2_
  6
CONTINUOUS
 62
    7
 10
306.01345731417177
 20
186.99974770468006
 40
0.180277563773203
 50
348.69006752598107
 51
101.30993247401767
  0
ARC
  8
_1-2_
  6
CONTINUOUS
 62
    7
 10
306.50843206100233
 20
187.49472245151068
 40
0.8732124598286503
 50
158.62937773065632
 51
201.37062226934315
  0
ARC
  8
_1-2_
  6
CONTINUOUS
 62
    7
 10
306.01345731417177
 20
187.98969719834127
 40
0.180277563773203
 50
258.69006752598477
 51
11.309932474021442
  0
ARC
  8
_1-2_
  6
CONTINUOUS
 62
    7
 10
306.54378740006166
 20
187.53007779057003
 40
0.8544003745317488
 50
92.489552922001379
 51
114.44395478041896
  0
LINE
  8
_1-2_
  6
CONTINUOUS
 62
    7
 10
306.50843206100228
 20
188.66144864046847
 11
306.19023400946832
 21
188.66144864046847
  0
LINE
  8
_1-2_
  6
CONTINUOUS
 62
    7
 10
304.50843206100239
 20
186.49472245151071
 11
305.10843206100241
 21
186.49472245151071
  0
LINE
  8
_1-2_
  6
CONTINUOUS
 62
    7
 10
304.50843206100239
 20
188.49472245151071
 11
305.10843206100241
 21
188.49472245151071
  0
LINE
  8
_1-2_
  6
CONTINUOUS
 62
    7
 10
295.75843206100239
 20
179.99472245151065
 11
295.75843206100239
 21
180.59472245151067
  0
LINE
  8
_1-2_
  6
CONTINUOUS
 62
    7
 10
293.50843206100239
 20
179.99472245151071
 11
293.50843206100239
 21
184.49472245151071
  0
LINE
  8
_1-2_
  6
CONTINUOUS
 62
    7
 10
294.25843206100239
 20
179.99472245151071
 11
294.25843206100239
 21
184.19422900909984
  0
LINE
  8
_1-2_
  6
CONTINUOUS
 62
    7
 10
296.75843206100239
 20
179.99472245151065
 11
296.75843206100239
 21
180.59472245151067
  0
LINE
  8
_1-2_
  6
CONTINUOUS
 62
    7
 10
298.25843206100239
 20
179.99472245151065
 11
298.25843206100239
 21
184.49472245151065
  0
ARC
  8
_1-2_
  6
CONTINUOUS
 62
    7
 10
296.25843206100233
 20
182.24472245151065
 40
1.7000000000000023
 50
135.00000000000034
 51
315.00000000000034
  0
LINE
  8
_1-2_
  6
CONTINUOUS
 62
    7
 10
298.19290708031348
 20
179.99472245151071
 11
291.63343206100239
 21
179.99472245151071
  0
LINE
  8
_1-2_
  6
CONTINUOUS
 62
    7
 10
298.38343206100239
 20
179.24472245151071
 11
291.63343206100239
 21
179.24472245151071
  0
ARC
  8
_1-2_
  6
CONTINUOUS
 62
    7
 10
296.25843206100233
 20
176.99472245151065
 40
1.7000000000000023
 50
135.00000000000034
 51
315.00000000000034
  0
ARC
  8
_1-2_
  6
CONTINUOUS
 62
    7
 10
296.75340680783295
 20
177.48969719834127
 40
0.180277563773203
 50
168.690067525979
 51
281.3099324740159
  0
ARC
  8
_1-2_
  6
CONTINUOUS
 62
    7
 10
296.22307672194301
 20
171.78007779057003
 40
0.8544003745317488
 50
65.556045219581022
 51
87.510447077998634
  0
ARC
  8
_1-2_
  6
CONTINUOUS
 62
    7
 10
296.75340680783295
 20
176.49974770468011
 40
0.180277563773203
 50
78.690067525982243
 51
191.30993247401929
  0
ARC
  8
_1-2_
  6
CONTINUOUS
 62
    7
 10
296.22307672194301
 20
176.95936711245138
 40
0.8544003745317488
 50
272.48955292199889
 51
294.44395478041712
  0
ARC
  8
_1-2_
  6
CONTINUOUS
 62
    7
 10
296.22307672194301
 20
177.03007779057003
 40
0.8544003745317488
 50
65.556045219581022
 51
87.510447077998634
  0
ARC
  8
_1-2_
  6
CONTINUOUS
 62
    7
 10
296.25843206100233
 20
176.99472245151065
 40
1.7000000000000023
 50
315.00000000000034
 51
135.00000000000036
  0
LINE
  8
_1-2_
  6
CONTINUOUS
 62
    7
 10
298.25843206100239
 20
174.74472245151071
 11
298.25843206100239
 21
179.24472245151065
  0
LINE
  8
_1-2_
  6
CONTINUOUS
 62
    7
 10
298.88343206100239
 20
173.99472245151071
 11
298.88343206100239
 21
174.74472245151071
  0
LINE
  8
_1-2_
  6
CONTINUOUS
 62
    7
 10
298.25843206100239
 20
172.74472245151071
 11
297.65843206100237
 21
172.74472245151071
  0
LINE
  8
_1-2_
  6
CONTINUOUS
 62
    7
 10
298.25843206100239
 20
173.24472245151071
 11
297.25843206100239
 21
173.24472245151071
  0
LINE
  8
_1-2_
  6
CONTINUOUS
 62
    7
 10
296.75843206100239
 20
173.99472245151071
 11
296.75843206100239
 21
173.39472245151068
  0
LINE
  8
_1-2_
  6
CONTINUOUS
 62
    7
 10
298.25843206100239
 20
175.99472245151065
 11
297.65843206100237
 21
175.99472245151065
  0
LINE
  8
_1-2_
  6
CONTINUOUS
 62
    7
 10
298.25843206100239
 20
175.49472245151071
 11
297.25843206100239
 21
175.49472245151071
  0
LINE
  8
_1-2_
  6
CONTINUOUS
 62
    7
 10
296.75843206100239
 20
174.74472245151071
 11
296.75843206100239
 21
175.34472245151067
  0
LINE
  8
_1-2_
  6
CONTINUOUS
 62
    7
 10
296.78876214689222
 20
177.3129205030446
 11
297.92013299679075
 21
177.3129205030446
  0
LINE
  8
_1-2_
  6
CONTINUOUS
 62
    7
 10
296.78876187685335
 20
176.67628505955971
 11
297.928095887219
 21
176.67499959117137
  0
ARC
  8
_1-2_
  6
CONTINUOUS
 62
    7
 10
296.25843206100233
 20
176.99472245151071
 40
0.8732124598286503
 50
338.62937773065721
 51
21.370622269343897
  0
LINE
  8
_1-2_
  6
CONTINUOUS
 62
    7
 10
298.25843206100239
 20
177.99472245151065
 11
297.65843206100237
 21
177.99472245151065
  0
LINE
  8
_1-2_
  6
CONTINUOUS
 62
    7
 10
298.88343206100239
 20
179.24472245151071
 11
298.88343206100239
 21
179.99472245151071
  0
LINE
  8
_1-2_
  6
CONTINUOUS
 62
    7
 10
296.75843206100239
 20
179.24472245151065
 11
296.75843206100239
 21
178.64472245151068
  0
LINE
  8
_1-2_
  6
CONTINUOUS
 62
    7
 10
298.25843206100239
 20
178.49472245151065
 11
297.25843206100239
 21
178.49472245151065
  0
LINE
  8
_1-2_
  6
CONTINUOUS
 62
    7
 10
296.57663011253629
 20
176.46439236562082
 11
296.57663011253629
 21
175.82799626255291
  0
LINE
  8
_1-2_
  6
CONTINUOUS
 62
    7
 10
295.94023400946844
 20
176.46439236562076
 11
295.94023400946844
 21
175.82799626255291
  0
LINE
  8
_1-2_
  6
CONTINUOUS
 62
    7
 10
293.50843206100239
 20
174.74472245151071
 11
293.50843206100239
 21
179.24472245151071
  0
LINE
  8
_1-2_
  6
CONTINUOUS
 62
    7
 10
294.25843206100239
 20
174.74472245151071
 11
294.25843206100239
 21
179.24472245151071
  0
LINE
  8
_1-2_
  6
CONTINUOUS
 62
    7
 10
296.25843206100245
 20
172.9114486404685
 11
296.57663011253634
 21
172.9114486404685
  0
ARC
  8
_1-2_
  6
CONTINUOUS
 62
    7
 10
296.29378740006166
 20
171.78007779057003
 40
0.8544003745317488
 50
92.489552922001379
 51
114.44395478041896
  0
LINE
  8
_1-2_
  6
CONTINUOUS
 62
    7
 10
296.25843206100228
 20
172.9114486404685
 11
295.94023400946838
 21
172.9114486404685
  0
LINE
  8
_1-2_
  6
CONTINUOUS
 62
    7
 10
294.25843206100239
 20
172.74472245151071
 11
294.85843206100241
 21
172.74472245151071
  0
LINE
  8
_1-2_
  6
CONTINUOUS
 62
    7
 10
295.75843206100239
 20
173.99472245151071
 11
295.75843206100239
 21
173.39472245151068
  0
LINE
  8
_1-2_
  6
CONTINUOUS
 62
    7
 10
294.25843206100239
 20
173.24472245151071
 11
295.25843206100239
 21
173.24472245151071
  0
LINE
  8
_1-2_
  6
CONTINUOUS
 62
    7
 10
296.57663011253634
 20
172.27505253740059
 11
296.57663011253634
 21
172.9114486404685
  0
LINE
  8
_1-2_
  6
CONTINUOUS
 62
    7
 10
295.94023400946838
 20
172.27505253740059
 11
295.94023400946838
 21
172.91144864046844
  0
LINE
  8
_1-2_
  6
CONTINUOUS
 62
    7
 10
295.75843206100239
 20
174.74472245151071
 11
295.75843206100239
 21
175.34472245151067
  0
LINE
  8
_1-2_
  6
CONTINUOUS
 62
    7
 10
296.25843206100239
 20
175.82799626255291
 11
296.57663011253629
 21
175.82799626255291
  0
LINE
  8
_1-2_
  6
CONTINUOUS
 62
    7
 10
296.25843206100233
 20
175.82799626255291
 11
295.94023400946844
 21
175.82799626255291
  0
ARC
  8
_1-2_
  6
CONTINUOUS
 62
    7
 10
296.29378740006166
 20
176.95936711245138
 40
0.8544003745317488
 50
245.55604521958269
 51
267.51044707800099
  0
LINE
  8
_1-2_
  6
CONTINUOUS
 62
    7
 10
294.25843206100239
 20
175.49472245151071
 11
295.25843206100239
 21
175.49472245151071
  0
LINE
  8
_1-2_
  6
CONTINUOUS
 62
    7
 10
294.25843206100239
 20
175.99472245151071
 11
294.85843206100241
 21
175.99472245151071
  0
ARC
  8
_1-2_
  6
CONTINUOUS
 62
    7
 10
295.76345731417177
 20
177.48969719834127
 40
0.180277563773203
 50
258.69006752598477
 51
11.309932474021442
  0
ARC
  8
_1-2_
  6
CONTINUOUS
 62
    7
 10
296.25843206100233
 20
176.99472245151065
 40
0.8732124598286503
 50
158.62937773065632
 51
201.37062226934315
  0
LINE
  8
_1-2_
  6
CONTINUOUS
 62
    7
 10
295.72810224515137
 20
176.67628505955968
 11
294.58876823478573
 21
176.67499959117134
  0
LINE
  8
_1-2_
  6
CONTINUOUS
 62
    7
 10
296.25843206100245
 20
178.1614486404685
 11
296.57663011253634
 21
178.16144864046844
  0
LINE
  8
_1-2_
  6
CONTINUOUS
 62
    7
 10
296.57663011253634
 20
177.52505253740059
 11
296.57663011253634
 21
178.16144864046844
  0
ARC
  8
_1-2_
  6
CONTINUOUS
 62
    7
 10
296.29378740006166
 20
177.03007779057003
 40
0.8544003745317488
 50
92.489552922001379
 51
114.44395478041896
  0
LINE
  8
_1-2_
  6
CONTINUOUS
 62
    7
 10
295.94023400946838
 20
177.52505253740056
 11
295.94023400946838
 21
178.16144864046844
  0
LINE
  8
_1-2_
  6
CONTINUOUS
 62
    7
 10
296.25843206100228
 20
178.16144864046844
 11
295.94023400946838
 21
178.16144864046844
  0
LINE
  8
_1-2_
  6
CONTINUOUS
 62
    7
 10
294.25843206100239
 20
177.99472245151071
 11
294.85843206100241
 21
177.99472245151071
  0
LINE
  8
_1-2_
  6
CONTINUOUS
 62
    7
 10
295.72810224515137
 20
177.31315984346167
 11
294.58876823478573
 21
177.31444531185007
  0
ARC
  8
_1-2_
  6
CONTINUOUS
 62
    7
 10
295.76345731417177
 20
176.49974770468008
 40
0.180277563773203
 50
348.69006752598107
 51
101.30993247401767
  0
LINE
  8
_1-2_
  6
CONTINUOUS
 62
    7
 10
295.75843206100239
 20
179.24472245151065
 11
295.75843206100239
 21
178.64472245151068
  0
LINE
  8
_1-2_
  6
CONTINUOUS
 62
    7
 10
294.25843206100239
 20
178.49472245151071
 11
295.25843206100239
 21
178.49472245151071
  0
ARC
  8
_1-2_
  6
CONTINUOUS
 62
    7
 10
296.75340680783301
 20
187.98969719834127
 40
0.180277563773203
 50
168.690067525979
 51
281.3099324740159
  0
ARC
  8
_1-2_
  6
CONTINUOUS
 62
    7
 10
296.75340680783295
 20
186.99974770468011
 40
0.180277563773203
 50
78.690067525982243
 51
191.30993247401929
  0
ARC
  8
_1-2_
  6
CONTINUOUS
 62
    7
 10
296.22307672194307
 20
187.53007779057003
 40
0.8544003745317488
 50
65.556045219581022
 51
87.510447077998634
  0
ARC
  8
_1-2_
  6
CONTINUOUS
 62
    7
 10
296.25843206100233
 20
182.24472245151065
 40
1.7000000000000023
 50
326.76455490418686
 51
121.35706320434195
  0
ARC
  8
_1-2_
  6
CONTINUOUS
 62
    7
 10
296.22307672194301
 20
182.20936711245141
 40
0.8544003745317488
 50
272.48955292199889
 51
294.44395478041712
  0
ARC
  8
_1-2_
  6
CONTINUOUS
 62
    7
 10
296.75340680783295
 20
181.74974770468014
 40
0.180277563773203
 50
78.690067525982243
 51
191.30993247401929
  0
ARC
  8
_1-2_
  6
CONTINUOUS
 62
    7
 10
296.22307672194301
 20
182.28007779057003
 40
0.8544003745317488
 50
65.556045219581022
 51
87.510447077998634
  0
ARC
  8
_1-2_
  6
CONTINUOUS
 62
    7
 10
296.75340680783295
 20
182.73969719834127
 40
0.180277563773203
 50
168.690067525979
 51
281.3099324740159
  0
ARC
  8
_1-2_
  6
CONTINUOUS
 62
    7
 10
296.22307672194307
 20
187.45936711245136
 40
0.8544003745317488
 50
272.48955292199889
 51
294.44395478041712
  0
LINE
  8
_1-2_
  6
CONTINUOUS
 62
    7
 10
298.88343206100233
 20
184.49472245151071
 11
298.88343206100233
 21
185.24472245151071
  0
ARC
  8
_1-2_
  6
CONTINUOUS
 62
    7
 10
296.25843206100233
 20
182.24472245151071
 40
0.8732124598286503
 50
354.90761741720899
 51
21.370622269343936
  0
LINE
  8
_1-2_
  6
CONTINUOUS
 62
    7
 10
296.78876187685335
 20
181.92628505955968
 11
297.3056653267385
 21
181.92570185653181
  0
LINE
  8
_1-2_
  6
CONTINUOUS
 62
    7
 10
298.25843206100239
 20
180.74472245151065
 11
297.94558092632411
 21
180.74472245151065
  0
LINE
  8
_1-2_
  6
CONTINUOUS
 62
    7
 10
298.25843206100239
 20
181.24472245151065
 11
297.65843206100237
 21
181.24472245151065
  0
ARC
  8
_1-2_
  6
CONTINUOUS
 62
    7
 10
296.25843206100233
 20
182.24472245151065
 40
1.7000000000000023
 50
315.00000000000034
 51
326.7645549041868
  0
LINE
  8
_1-2_
  6
CONTINUOUS
 62
    7
 10
297.94558092632411
 20
180.74472245151065
 11
297.25843206100239
 21
180.74472245151065
  0
ARC
  8
_1-2_
  6
CONTINUOUS
 62
    7
 10
296.25843206100233
 20
182.24472245151071
 40
0.8732124598286503
 50
338.62937773065721
 51
354.90761741720893
  0
LINE
  8
_1-2_
  6
CONTINUOUS
 62
    7
 10
297.3056653267385
 20
181.92570185653181
 11
297.928095887219
 21
181.92499959117137
  0
LINE
  8
_1-2_
  6
CONTINUOUS
 62
    7
 10
298.25843206100239
 20
183.24472245151065
 11
297.65843206100237
 21
183.24472245151065
  0
LINE
  8
_1-2_
  6
CONTINUOUS
 62
    7
 10
298.25843206100239
 20
183.74472245151065
 11
297.25843206100239
 21
183.74472245151065
  0
LINE
  8
_1-2_
  6
CONTINUOUS
 62
    7
 10
296.75843206100239
 20
184.49472245151065
 11
296.75843206100239
 21
183.89472245151068
  0
LINE
  8
_1-2_
  6
CONTINUOUS
 62
    7
 10
296.78876214689222
 20
182.5629205030446
 11
297.92013299679075
 21
182.5629205030446
  0
LINE
  8
_1-2_
  6
CONTINUOUS
 62
    7
 10
298.25843206100239
 20
185.99472245151068
 11
297.25843206100239
 21
185.99472245151068
  0
LINE
  8
_1-2_
  6
CONTINUOUS
 62
    7
 10
296.75843206100239
 20
185.24472245151065
 11
296.75843206100239
 21
185.84472245151067
  0
LINE
  8
_1-2_
  6
CONTINUOUS
 62
    7
 10
298.25843206100239
 20
186.49472245151068
 11
297.65843206100237
 21
186.49472245151068
  0
LINE
  8
_1-2_
  6
CONTINUOUS
 62
    7
 10
298.25843206100239
 20
188.49472245151068
 11
297.65843206100237
 21
188.49472245151068
  0
ARC
  8
_1-2_
  6
CONTINUOUS
 62
    7
 10
296.25843206100233
 20
187.49472245151071
 40
0.8732124598286503
 50
338.62937773065721
 51
21.370622269343897
  0
LINE
  8
_1-2_
  6
CONTINUOUS
 62
    7
 10
296.78876187685335
 20
187.17628505955966
 11
297.928095887219
 21
187.17499959117137
  0
LINE
  8
_1-2_
  6
CONTINUOUS
 62
    7
 10
296.78876214689222
 20
187.81292050304463
 11
297.92013299679075
 21
187.81292050304463
  0
ARC
  8
_1-2_
  6
CONTINUOUS
 62
    7
 10
296.25843206100233
 20
182.24472245151065
 40
0.8732124598286503
 50
158.62937773065632
 51
201.37062226934315
  0
ARC
  8
_1-2_
  6
CONTINUOUS
 62
    7
 10
295.76345731417177
 20
182.73969719834127
 40
0.180277563773203
 50
258.69006752598477
 51
11.309932474021442
  0
LINE
  8
_1-2_
  6
CONTINUOUS
 62
    7
 10
296.57663011253629
 20
181.71439236562076
 11
296.57663011253629
 21
181.07799626255291
  0
ARC
  8
_1-2_
  6
CONTINUOUS
 62
    7
 10
296.29378740006166
 20
182.20936711245141
 40
0.8544003745317488
 50
245.55604521958269
 51
267.51044707800099
  0
LINE
  8
_1-2_
  6
CONTINUOUS
 62
    7
 10
295.94023400946844
 20
181.71439236562076
 11
295.94023400946844
 21
181.07799626255285
  0
LINE
  8
_1-2_
  6
CONTINUOUS
 62
    7
 10
296.25843206100239
 20
181.07799626255285
 11
296.57663011253629
 21
181.07799626255291
  0
LINE
  8
_1-2_
  6
CONTINUOUS
 62
    7
 10
296.25843206100233
 20
181.07799626255285
 11
295.94023400946844
 21
181.07799626255285
  0
LINE
  8
_1-2_
  6
CONTINUOUS
 62
    7
 10
294.25843206100239
 20
180.74472245151071
 11
295.25843206100239
 21
180.74472245151071
  0
LINE
  8
_1-2_
  6
CONTINUOUS
 62
    7
 10
294.25843206100239
 20
181.24472245151071
 11
294.85843206100241
 21
181.24472245151071
  0
ARC
  8
_1-2_
  6
CONTINUOUS
 62
    7
 10
295.76345731417177
 20
181.74974770468008
 40
0.180277563773203
 50
348.69006752598107
 51
101.30993247401767
  0
LINE
  8
_1-2_
  6
CONTINUOUS
 62
    7
 10
295.72810224515137
 20
181.92628505955968
 11
294.58876823478573
 21
181.92499959117137
  0
ARC
  8
_1-2_
  6
CONTINUOUS
 62
    7
 10
296.25843206100233
 20
182.24472245151065
 40
1.7000000000000023
 50
121.35706320434195
 51
135.00000000000034
  0
LINE
  8
_1-2_
  6
CONTINUOUS
 62
    7
 10
296.25843206100245
 20
183.4114486404685
 11
296.57663011253634
 21
183.41144864046844
  0
LINE
  8
_1-2_
  6
CONTINUOUS
 62
    7
 10
296.57663011253634
 20
182.77505253740059
 11
296.57663011253634
 21
183.41144864046844
  0
ARC
  8
_1-2_
  6
CONTINUOUS
 62
    7
 10
296.29378740006166
 20
182.28007779057003
 40
0.8544003745317488
 50
92.489552922001379
 51
96.656893135938531
  0
LINE
  8
_1-2_
  6
CONTINUOUS
 62
    7
 10
295.94023400946838
 20
182.77505253740054
 11
295.94023400946838
 21
183.32681929443381
  0
LINE
  8
_1-2_
  6
CONTINUOUS
 62
    7
 10
296.25843206100228
 20
183.41144864046844
 11
295.94023400946838
 21
183.41144864046844
  0
LINE
  8
_1-2_
  6
CONTINUOUS
 62
    7
 10
295.94023400946838
 20
183.32681929443361
 11
295.94023400946838
 21
183.41144864046844
  0
ARC
  8
_1-2_
  6
CONTINUOUS
 62
    7
 10
296.29378740006166
 20
182.28007779057003
 40
0.8544003745317488
 50
96.656893135938517
 51
114.44395478041894
  0
LINE
  8
_1-2_
  6
CONTINUOUS
 62
    7
 10
294.25843206100239
 20
183.24472245151071
 11
294.85843206100241
 21
183.24472245151071
  0
LINE
  8
_1-2_
  6
CONTINUOUS
 62
    7
 10
294.25843206100239
 20
184.1942290090995
 11
294.25843206100239
 21
184.49472245151071
  0
LINE
  8
_1-2_
  6
CONTINUOUS
 62
    7
 10
295.75843206100239
 20
184.49472245151065
 11
295.75843206100239
 21
183.89472245151068
  0
LINE
  8
_1-2_
  6
CONTINUOUS
 62
    7
 10
294.25843206100239
 20
183.74472245151071
 11
295.25843206100239
 21
183.74472245151071
  0
LINE
  8
_1-2_
  6
CONTINUOUS
 62
    7
 10
295.72810224515137
 20
182.56315984346167
 11
294.58876823478573
 21
182.56444531185007
  0
LINE
  8
_1-2_
  6
CONTINUOUS
 62
    7
 10
292.13343206100239
 20
184.49472245151071
 11
292.13343206100239
 21
184.48951185565167
  0
ARC
  8
_1-2_
  6
CONTINUOUS
 62
    7
 10
296.29378740006171
 20
187.45936711245136
 40
0.8544003745317488
 50
245.55604521958269
 51
267.51044707800099
  0
LINE
  8
_1-2_
  6
CONTINUOUS
 62
    7
 10
295.94023400946844
 20
186.96439236562076
 11
295.94023400946844
 21
186.32799626255288
  0
LINE
  8
_1-2_
  6
CONTINUOUS
 62
    7
 10
296.57663011253629
 20
186.96439236562076
 11
296.57663011253629
 21
186.32799626255291
  0
LINE
  8
_1-2_
  6
CONTINUOUS
 62
    7
 10
294.25843206100233
 20
185.99472245151071
 11
295.25843206100233
 21
185.99472245151071
  0
LINE
  8
_1-2_
  6
CONTINUOUS
 62
    7
 10
295.75843206100239
 20
185.24472245151065
 11
295.75843206100239
 21
185.84472245151067
  0
LINE
  8
_1-2_
  6
CONTINUOUS
 62
    7
 10
296.25843206100233
 20
186.32799626255288
 11
295.94023400946844
 21
186.32799626255288
  0
LINE
  8
_1-2_
  6
CONTINUOUS
 62
    7
 10
296.25843206100239
 20
186.32799626255288
 11
296.57663011253629
 21
186.32799626255291
  0
LINE
  8
_1-2_
  6
CONTINUOUS
 62
    7
 10
294.25843206100233
 20
186.49472245151071
 11
294.85843206100236
 21
186.49472245151071
  0
LINE
  8
_1-2_
  6
CONTINUOUS
 62
    7
 10
295.72810224515137
 20
187.17628505955966
 11
294.58876823478567
 21
187.17499959117137
  0
LINE
  8
_1-2_
  6
CONTINUOUS
 62
    7
 10
295.72810224515131
 20
187.81315984346167
 11
294.58876823478567
 21
187.81444531185007
  0
LINE
  8
_1-2_
  6
CONTINUOUS
 62
    7
 10
295.94023400946838
 20
188.02505253740051
 11
295.94023400946832
 21
188.66144864046847
  0
LINE
  8
_1-2_
  6
CONTINUOUS
 62
    7
 10
296.57663011253629
 20
188.02505253740062
 11
296.57663011253634
 21
188.66144864046847
  0
ARC
  8
_1-2_
  6
CONTINUOUS
 62
    7
 10
295.76345731417177
 20
186.99974770468006
 40
0.180277563773203
 50
348.69006752598107
 51
101.30993247401767
  0
ARC
  8
_1-2_
  6
CONTINUOUS
 62
    7
 10
296.25843206100233
 20
187.49472245151068
 40
0.8732124598286503
 50
158.62937773065632
 51
201.37062226934315
  0
ARC
  8
_1-2_
  6
CONTINUOUS
 62
    7
 10
295.76345731417177
 20
187.98969719834127
 40
0.180277563773203
 50
258.69006752598477
 51
11.309932474021442
  0
ARC
  8
_1-2_
  6
CONTINUOUS
 62
    7
 10
296.29378740006166
 20
187.53007779057003
 40
0.8544003745317488
 50
92.489552922001379
 51
114.44395478041896
  0
LINE
  8
_1-2_
  6
CONTINUOUS
 62
    7
 10
296.25843206100228
 20
188.66144864046847
 11
295.94023400946832
 21
188.66144864046847
  0
LINE
  8
_1-2_
  6
CONTINUOUS
 62
    7
 10
296.25843206100245
 20
188.66144864046853
 11
296.57663011253634
 21
188.66144864046847
  0
LINE
  8
_1-2_
  6
CONTINUOUS
 62
    7
 10
294.25843206100233
 20
188.49472245151071
 11
294.85843206100236
 21
188.49472245151071
  0
LINE
  8
_1-2_
  6
CONTINUOUS
 62
    7
 10
308.50843206100239
 20
188.99472245151068
 11
307.50843206100239
 21
188.99472245151068
  0
LINE
  8
_1-2_
  6
CONTINUOUS
 62
    7
 10
304.50843206100239
 20
188.99472245151071
 11
305.50843206100239
 21
188.99472245151071
  0
LINE
  8
_1-2_
  6
CONTINUOUS
 62
    7
 10
307.00843206100233
 20
189.74472245151068
 11
307.00843206100233
 21
189.14472245151065
  0
LINE
  8
_1-2_
  6
CONTINUOUS
 62
    7
 10
306.00843206100233
 20
189.74472245151068
 11
306.00843206100233
 21
189.14472245151065
  0
LINE
  8
_1-2_
  6
CONTINUOUS
 62
    7
 10
298.25843206100239
 20
188.99472245151068
 11
297.25843206100239
 21
188.99472245151068
  0
LINE
  8
_1-2_
  6
CONTINUOUS
 62
    7
 10
296.75843206100239
 20
189.74472245151068
 11
296.75843206100239
 21
189.14472245151065
  0
LINE
  8
_1-2_
  6
CONTINUOUS
 62
    7
 10
294.25843206100233
 20
188.99472245151071
 11
295.25843206100233
 21
188.99472245151071
  0
LINE
  8
_1-2_
  6
CONTINUOUS
 62
    7
 10
295.75843206100239
 20
189.74472245151068
 11
295.75843206100239
 21
189.14472245151065
  0
LINE
  8
_1-2_
  6
CONTINUOUS
 62
    7
 10
291.63343206100239
 20
191.49472245151073
 11
291.63343206100233
 21
189.74472245151071
  0
LINE
  8
_1-2_
  6
CONTINUOUS
 62
    7
 10
311.13343206100239
 20
191.49472245151073
 11
311.13343206100233
 21
189.74472245151071
  0
LINE
  8
_1-2_
  6
CONTINUOUS
 62
    7
 10
299.38343206100239
 20
189.49472245151071
 11
303.38343206100233
 21
189.49472245151071
  0
LINE
  8
_1-2_
  6
CONTINUOUS
 62
    7
 10
303.38343206100239
 20
189.74472245151071
 11
311.13343206100233
 21
189.74472245151071
  0
LINE
  8
_1-2_
  6
CONTINUOUS
 62
    7
 10
303.38343206100239
 20
189.49472245151071
 11
303.38343206100233
 21
189.74472245151071
  0
LINE
  8
_1-2_
  6
CONTINUOUS
 62
    7
 10
291.63343206100233
 20
189.74472245151071
 11
299.38343206100239
 21
189.74472245151071
  0
LINE
  8
_1-2_
  6
CONTINUOUS
 62
    7
 10
299.38343206100233
 20
189.49472245151071
 11
299.38343206100233
 21
189.74472245151071
  0
LINE
  8
_1-2_
  6
CONTINUOUS
 62
    7
 10
311.13343206100239
 20
191.49472245151073
 11
291.63343206100239
 21
191.49472245151073
  0
LINE
  8
_1-2_
  6
CONTINUOUS
 62
    7
 10
295.63343206100233
 20
191.99472245151073
 11
307.13343206100233
 21
191.99472245151073
  0
LINE
  8
_1-2_
  6
CONTINUOUS
 62
    7
 10
304.38343206100233
 20
191.49472245151073
 11
298.38343206100233
 21
191.49472245151073
  0
ARC
  8
_1-2_
  6
CONTINUOUS
 62
    7
 10
301.38343206100233
 20
194.49472245151073
 40
1.3000000000000109
 50
180
 51
0
  0
LINE
  8
_1-2_
  6
CONTINUOUS
 62
    7
 10
311.13343206100239
 20
190.74472245151073
 11
291.63343206100239
 21
190.74472245151073
  0
CIRCLE
  8
_1-2_
  6
CONTINUOUS
 62
    7
 10
304.13343206100233
 20
194.64472245151077
 40
0.625
  0
LINE
  8
_1-2_
  6
CONTINUOUS
 62
    7
 10
307.13343206100233
 20
191.99472245151073
 11
307.13343206100233
 21
196.99472245151073
  0
LINE
  8
_1-2_
  6
CONTINUOUS
 62
    7
 10
305.38343206100239
 20
191.99472245151073
 11
305.38343206100239
 21
191.49472245151073
  0
LINE
  8
_1-2_
  6
CONTINUOUS
 62
    7
 10
306.38343206100239
 20
191.49472245151073
 11
306.38343206100239
 21
191.99472245151073
  0
LINE
  8
_1-2_
  6
CONTINUOUS
 62
    7
 10
303.88343206100233
 20
192.49472245151073
 11
304.38343206100233
 21
191.99472245151073
  0
LINE
  8
_1-2_
  6
CONTINUOUS
 62
    7
 10
303.88343206100233
 20
192.49472245151073
 11
303.38343206100233
 21
191.99472245151073
  0
LINE
  8
_1-2_
  6
CONTINUOUS
 62
    7
 10
304.38343206100233
 20
191.99472245151073
 11
304.38343206100239
 21
191.49472245151073
  0
LINE
  8
_1-2_
  6
CONTINUOUS
 62
    7
 10
307.13343206100233
 20
196.99472245151073
 11
302.68343206100234
 21
196.99472245151073
  0
LINE
  8
_1-2_
  6
CONTINUOUS
 62
    7
 10
302.68343206100234
 20
196.99472245151073
 11
302.68343206100234
 21
194.49472245151073
  0
LINE
  8
_1-2_
  6
CONTINUOUS
 62
    7
 10
300.08343206100232
 20
196.99472245151073
 11
295.63343206100233
 21
196.99472245151073
  0
CIRCLE
  8
_1-2_
  6
CONTINUOUS
 62
    7
 10
298.63343206100233
 20
194.64472245151077
 40
0.625
  0
LINE
  8
_1-2_
  6
CONTINUOUS
 62
    7
 10
298.88343206100233
 20
192.49472245151073
 11
299.38343206100233
 21
191.99472245151073
  0
LINE
  8
_1-2_
  6
CONTINUOUS
 62
    7
 10
298.88343206100233
 20
192.49472245151073
 11
298.38343206100233
 21
191.99472245151073
  0
LINE
  8
_1-2_
  6
CONTINUOUS
 62
    7
 10
298.38343206100233
 20
191.99472245151073
 11
298.38343206100233
 21
191.49472245151073
  0
LINE
  8
_1-2_
  6
CONTINUOUS
 62
    7
 10
297.38343206100233
 20
191.99472245151073
 11
297.38343206100233
 21
191.49472245151073
  0
LINE
  8
_1-2_
  6
CONTINUOUS
 62
    7
 10
300.08343206100232
 20
196.99472245151073
 11
300.08343206100232
 21
194.49472245151073
  0
LINE
  8
_1-2_
  6
CONTINUOUS
 62
    7
 10
295.63343206100233
 20
196.99472245151073
 11
295.63343206100233
 21
191.99472245151073
  0
LINE
  8
_1-2_
  6
CONTINUOUS
 62
    7
 10
296.38343206100233
 20
191.49472245151073
 11
296.38343206100233
 21
191.99472245151073
  0
LINE
  8
_1-2_
  6
CONTINUOUS
 62
    7
 10
304.25843206100245
 20
169.49472245151071
 11
304.25843206100239
 21
173.99472245151071
  0
LINE
  8
_1-2_
  6
CONTINUOUS
 62
    7
 10
298.50843206100233
 20
169.49472245151071
 11
298.50843206100239
 21
173.99472245151071
  0
LINE
  8
_1-2_
  6
CONTINUOUS
 62
    7
 10
298.88343206100233
 20
185.24472245151071
 11
291.63343206100239
 21
185.24472245151071
  0
LINE
  8
_1-2_
  6
CONTINUOUS
 62
    7
 10
303.88343206100233
 20
184.49472245151071
 11
311.13343206100239
 21
184.49472245151071
  0
LINE
  8
_1-2_
  6
CONTINUOUS
 62
    7
 10
298.88343206100239
 20
179.99472245151071
 11
298.19290708031348
 21
179.99472245151071
  0
LINE
  8
_1-2_
  6
CONTINUOUS
 62
    7
 10
298.88343206100239
 20
179.24472245151071
 11
298.38343206100239
 21
179.24472245151071
  0
LINE
  8
_1-2_
  6
CONTINUOUS
 62
    7
 10
298.88343206100239
 20
174.74472245151071
 11
291.63343206100239
 21
174.74472245151071
  0
LINE
  8
_1-2_
  6
CONTINUOUS
 62
    7
 10
298.88343206100239
 20
173.99472245151071
 11
291.63343206100239
 21
173.99472245151071
  0
LINE
  8
_1-2_
  6
CONTINUOUS
 62
    7
 10
298.88343206100239
 20
169.49472245151071
 11
291.63343206100239
 21
169.49472245151071
  0
LINE
  8
_1-2_
  6
CONTINUOUS
 62
    7
 10
297.64807655741611
 20
187.49472245151068
 11
294.89807655741617
 21
187.49472245151068
  0
LINE
  8
_1-2_
  6
CONTINUOUS
 62
    7
 10
296.25843206100233
 20
189.03007784181536
 11
296.25843206100233
 21
186.08007784181538
  0
LINE
  8
_1-2_
  6
CONTINUOUS
 62
    7
 10
305.08343222552935
 20
187.45936711245147
 11
307.83343222552929
 21
187.45936711245153
  0
LINE
  8
_1-2_
  6
CONTINUOUS
 62
    7
 10
306.47307672194307
 20
188.99472250275621
 11
306.47307672194312
 21
186.04472250275622
  0
LINE
  8
_1-1_
  6
CONTINUOUS
 62
    7
 10
288.50843206100239
 20
189.49472245151071
 11
288.50843206100239
 21
185.49472245151071
  0
LINE
  8
_1-1_
  6
CONTINUOUS
 62
    7
 10
288.50843206100239
 20
189.49472245151071
 11
288.50843206100239
 21
185.49472245151071
  0
LINE
  8
_1-1_
  6
CONTINUOUS
 62
    7
 10
288.50843206100239
 20
185.49472245151071
 11
293.50843206100239
 21
185.49472245151071
  0
LINE
  8
_1-1_
  6
CONTINUOUS
 62
    7
 10
293.50843206100239
 20
189.49472245151071
 11
288.50843206100239
 21
189.49472245151071
  0
LINE
  8
_1-1_
  6
CONTINUOUS
 62
    7
 10
293.50843206100239
 20
189.49472245151071
 11
293.50843206100239
 21
185.49472245151071
  0
LINE
  8
_1-1_
  6
CONTINUOUS
 62
    7
 10
288.50843206100239
 20
174.99472245151071
 11
288.50843206100239
 21
178.99472245151071
  0
LINE
  8
_1-1_
  6
CONTINUOUS
 62
    7
 10
288.50843206100239
 20
174.99472245151071
 11
288.50843206100239
 21
178.99472245151071
  0
LINE
  8
_1-1_
  6
CONTINUOUS
 62
    7
 10
288.50843206100239
 20
178.99472245151071
 11
293.50843206100239
 21
178.99472245151071
  0
LINE
  8
_1-1_
  6
CONTINUOUS
 62
    7
 10
293.50843206100239
 20
174.99472245151071
 11
288.50843206100239
 21
174.99472245151071
  0
LINE
  8
_1-1_
  6
CONTINUOUS
 62
    7
 10
293.50843206100239
 20
174.99472245151071
 11
293.50843206100239
 21
178.99472245151071
  0
LINE
  8
_1-1_
  6
CONTINUOUS
 62
    7
 10
288.50843206100239
 20
169.74472245151071
 11
288.50843206100239
 21
173.74472245151071
  0
LINE
  8
_1-1_
  6
CONTINUOUS
 62
    7
 10
288.50843206100239
 20
169.74472245151071
 11
288.50843206100239
 21
173.74472245151071
  0
LINE
  8
_1-1_
  6
CONTINUOUS
 62
    7
 10
288.50843206100239
 20
173.74472245151071
 11
293.50843206100239
 21
173.74472245151071
  0
LINE
  8
_1-1_
  6
CONTINUOUS
 62
    7
 10
293.50843206100239
 20
169.74472245151071
 11
288.50843206100239
 21
169.74472245151071
  0
LINE
  8
_1-1_
  6
CONTINUOUS
 62
    7
 10
293.50843206100239
 20
169.74472245151071
 11
293.50843206100239
 21
173.74472245151071
  0
ARC
  8
_1-1_
  6
CONTINUOUS
 62
    7
 10
290.30848410821511
 20
184.86972245151071
 40
3.5114686916836772
 50
120.83856112196042
 51
224.561172203642
  0
ARC
  8
_1-1_
  6
CONTINUOUS
 62
    7
 10
290.30848410821511
 20
174.36972245151071
 40
3.5114686916836772
 50
135.438827796357
 51
239.16143887803951
  0
ARC
  8
_1-1_
  6
CONTINUOUS
 62
    7
 10
290.30848410821511
 20
174.36972245151071
 40
2.8614686916836773
 50
128.98123139019736
 51
231.0187686098026
  0
ARC
  8
_1-1_
  6
CONTINUOUS
 62
    7
 10
290.30848410821511
 20
184.86972245151071
 40
2.8614686916836773
 50
128.98123139019736
 51
231.0187686098026
  0
LINE
  8
_1-2_
  6
CONTINUOUS
 62
    7
 10
291.63343206100239
 20
189.74472245151071
 11
291.63343206100239
 21
189.49472245151071
  0
LINE
  8
_1-2_
  6
CONTINUOUS
 62
    7
 10
291.63343206100239
 20
185.49472245151071
 11
291.63343206100239
 21
184.49472245151071
  0
LINE
  8
_1-2_
  6
CONTINUOUS
 62
    7
 10
292.13343206100233
 20
189.74472245151071
 11
292.13343206100233
 21
189.49472245151071
  0
LINE
  8
_1-2_
  6
CONTINUOUS
 62
    7
 10
292.13343206100233
 20
185.49472245151071
 11
292.13343206100233
 21
184.49472245151071
  0
LINE
  8
_1-2_
  6
CONTINUOUS
 62
    7
 10
292.13343206100239
 20
184.48951185565167
 11
292.13343206100239
 21
184.24472245151071
  0
LINE
  8
_1-2_
  6
CONTINUOUS
 62
    7
 10
291.63343206100233
 20
184.44766290140603
 11
291.63343206100233
 21
184.24472245151071
  0
LINE
  8
_1-2_
  6
CONTINUOUS
 62
    7
 10
292.13343206100239
 20
180.24472245151071
 11
292.13343206100239
 21
178.99472245151071
  0
LINE
  8
_1-2_
  6
CONTINUOUS
 62
    7
 10
291.63343206100239
 20
180.24472245151071
 11
291.63343206100239
 21
178.99472245151071
  0
LINE
  8
_1-2_
  6
CONTINUOUS
 62
    7
 10
292.13343206100239
 20
174.99472245151071
 11
292.13343206100239
 21
173.74472245151071
  0
LINE
  8
_1-2_
  6
CONTINUOUS
 62
    7
 10
292.13343206100239
 20
169.74472245151071
 11
292.13343206100239
 21
167.74472245151071
  0
LINE
  8
_1-2_
  6
CONTINUOUS
 62
    7
 10
291.63343206100245
 20
174.99472245151071
 11
291.63343206100245
 21
173.74472245151071
  0
LINE
  8
_1-2_
  6
CONTINUOUS
 62
    7
 10
291.6334320610025
 20
169.74472245151071
 11
291.6334320610025
 21
168.74472245151073
  0
LINE
  8
_1-1_
  6
CONTINUOUS
 62
    7
 10
345.82651300727758
 20
170.11972251306008
 11
365.06261750007763
 21
170.11972288721807
  0
LINE
  8
_1-1_
  6
CONTINUOUS
 62
    7
 10
346.06880657717755
 20
173.13824615886016
 11
344.5689216908276
 21
173.13824615886016
  0
LINE
  8
_1-1_
  6
CONTINUOUS
 62
    7
 10
365.56852826257755
 20
173.63824615886016
 11
366.3189216908276
 21
173.63824615886016
  0
LINE
  8
_1-1_
  6
CONTINUOUS
 62
    7
 10
365.56852826257755
 20
174.13824615886016
 11
366.3189216908276
 21
174.13824615886016
  0
LINE
  8
_1-1_
  6
CONTINUOUS
 62
    7
 10
366.3189216908276
 20
175.08332268581011
 11
365.56852826257755
 21
175.08332268581011
  0
LINE
  8
_1-1_
  6
CONTINUOUS
 62
    7
 10
366.3189216908276
 20
175.58332268581011
 11
365.56852826257755
 21
175.58332268581011
  0
LINE
  8
_1-1_
  6
CONTINUOUS
 62
    7
 10
366.3189216908276
 20
171.37703572811011
 11
366.3189216908276
 21
195.36240923646016
  0
LINE
  8
_1-1_
  6
CONTINUOUS
 62
    7
 10
365.56852826257755
 20
173.63824615886016
 11
365.56852826257755
 21
193.13824615886016
  0
LINE
  8
_1-1_
  6
CONTINUOUS
 62
    7
 10
365.56852826257755
 20
177.68332268581008
 11
366.3189216908276
 21
177.68332268581008
  0
LINE
  8
_1-1_
  6
CONTINUOUS
 62
    7
 10
365.56852826257755
 20
178.18332268581008
 11
366.3189216908276
 21
178.18332268581008
  0
LINE
  8
_1-1_
  6
CONTINUOUS
 62
    7
 10
366.3189216908276
 20
188.58332268581011
 11
365.56852826257755
 21
188.58332268581011
  0
LINE
  8
_1-1_
  6
CONTINUOUS
 62
    7
 10
366.3189216908276
 20
189.08332268581011
 11
365.56852826257755
 21
189.08332268581011
  0
LINE
  8
_1-1_
  6
CONTINUOUS
 62
    7
 10
346.06880657717755
 20
173.13824615886016
 11
346.06880657717755
 21
193.63824615886016
  0
LINE
  8
_1-1_
  6
CONTINUOUS
 62
    7
 10
345.56880657717755
 20
173.13824615886016
 11
345.56880657717755
 21
193.63824615886016
  0
LINE
  8
_1-1_
  6
CONTINUOUS
 62
    7
 10
365.56852826257755
 20
191.18332268581008
 11
366.3189216908276
 21
191.18332268581008
  0
LINE
  8
_1-1_
  6
CONTINUOUS
 62
    7
 10
365.56852826257755
 20
191.68332268581008
 11
366.3189216908276
 21
191.68332268581008
  0
LINE
  8
_1-1_
  6
CONTINUOUS
 62
    7
 10
345.0689216908276
 20
193.63824615886016
 11
345.0689216908276
 21
173.13824615886016
  0
LINE
  8
_1-1_
  6
CONTINUOUS
 62
    7
 10
344.5689216908276
 20
195.36240923646016
 11
344.5689216908276
 21
171.37703572811011
  0
LINE
  8
_1-1_
  6
CONTINUOUS
 62
    7
 10
366.3189216908276
 20
192.63824615886016
 11
365.56852826257755
 21
192.63824615886016
  0
LINE
  8
_1-1_
  6
CONTINUOUS
 62
    7
 10
366.3189216908276
 20
193.13824615886016
 11
365.56852826257755
 21
193.13824615886016
  0
LINE
  8
_1-1_
  6
CONTINUOUS
 62
    7
 10
346.06880657717755
 20
193.63824615886016
 11
344.5689216908276
 21
193.63824615886016
  0
LINE
  8
_1-1_
  6
CONTINUOUS
 62
    7
 10
365.06261752833717
 20
196.61972207732952
 11
345.82651300727758
 21
196.61972245156016
  0
ARC
  8
_1-1_
  6
CONTINUOUS
 62
    7
 10
345.82623493662759
 20
195.36240923646016
 40
1.2573132458
 50
89.987328318796883
 51
180
  0
ARC
  8
_1-1_
  6
CONTINUOUS
 62
    7
 10
365.06160844502755
 20
195.36240923646016
 40
1.2573132458
 50
0
 51
89.961204445895731
  0
ARC
  8
_1-1_
  6
CONTINUOUS
 62
    7
 10
365.06160844502755
 20
171.37703572811011
 40
1.2573132458
 50
270.03879555410424
 51
0
  0
ARC
  8
_1-1_
  6
CONTINUOUS
 62
    7
 10
345.82623493662759
 20
171.37703572811011
 40
1.2573132458
 50
180
 51
270.01267168120307
  0
CIRCLE
  8
_1-1_
  6
CONTINUOUS
 62
    7
 10
345.82623493662759
 20
171.37703572811011
 40
0.775
  0
CIRCLE
  8
_1-1_
  6
CONTINUOUS
 62
    7
 10
359.09185567052753
 20
171.37703572811011
 40
0.775
  0
CIRCLE
  8
_1-1_
  6
CONTINUOUS
 62
    7
 10
345.82623493662759
 20
195.36240923646016
 40
0.775
  0
CIRCLE
  8
_1-1_
  6
CONTINUOUS
 62
    7
 10
359.09185567052753
 20
195.36219603901008
 40
0.775
  0
CIRCLE
  8
_1-1_
  6
CONTINUOUS
 62
    7
 10
350.56892169082755
 20
187.36972245151076
 40
3
  0
CIRCLE
  8
_1-1_
  6
CONTINUOUS
 62
    7
 10
350.5689216908276
 20
179.36972248859893
 40
3
  0
CIRCLE
  8
_1-1_
  6
CONTINUOUS
 62
    7
 10
350.56892169082755
 20
187.36972245151076
 40
1.6750000000000115
  0
CIRCLE
  8
_1-1_
  6
CONTINUOUS
 62
    7
 10
350.5689216908276
 20
179.36972248859893
 40
1.6750000000000115
  0
LINE
  8
_1-a_
  6
CONTINUOUS
 62
    4
 10
378.4695306936025
 20
196.61972230191508
 11
378.4695306936025
 21
170.11972277053553
  0
LINE
  8
_1-a_
  6
CONTINUOUS
 62
    4
 10
378.4695306936025
 20
196.61972230191508
 11
378.85775926125626
 21
195.1708335624815
  0
LINE
  8
_1-a_
  6
CONTINUOUS
 62
    4
 10
378.4695306936025
 20
196.61972230191508
 11
378.08130212594875
 21
195.1708335624815
  0
LINE
  8
_1-a_
  6
CONTINUOUS
 62
    4
 10
378.4695306936025
 20
170.11972277053553
 11
378.08130212594875
 21
171.56861150996911
  0
LINE
  8
_1-a_
  6
CONTINUOUS
 62
    4
 10
378.4695306936025
 20
170.11972277053553
 11
378.85775926125626
 21
171.56861150996911
  0
TEXT
  8
_1-a_
 62
    7
 10
378.12974556399814
 20
181.88507106093595
 40
4
 41
1
 50
90
  1
53
  0
LINE
  8
_1-1_
  6
CENTER1
 62
    4
 10
228.76754086462614
 20
175.85605160281511
 11
228.76754086462614
 21
177.35605160281511
  0
LINE
  8
_1-1_
  6
CENTER1
 62
    4
 10
134.01755495762614
 20
176.60605160281517
 11
135.51755495762614
 21
176.60605160281517
  0
LINE
  8
_1-1_
  6
CENTER1
 62
    4
 10
134.76755495762614
 20
189.35605160281517
 11
134.76755495762614
 21
190.85605160281517
  0
LINE
  8
_1-1_
  6
CENTER1
 62
    4
 10
134.01755495762614
 20
190.10605160281517
 11
135.51755495762614
 21
190.10605160281517
  0
LINE
  8
_1-1_
  6
CENTER1
 62
    4
 10
134.76755495762614
 20
175.85605160281517
 11
134.76755495762614
 21
177.35605160281517
  0
LINE
  8
_1-1_
  6
CENTER1
 62
    4
 10
228.01754086462614
 20
190.10605160281511
 11
229.51754086462614
 21
190.10605160281511
  0
LINE
  8
_1-1_
  6
CENTER1
 62
    4
 10
228.76754086462614
 20
189.35605160281511
 11
228.76754086462614
 21
190.85605160281511
  0
LINE
  8
_1-1_
  6
CENTER1
 62
    4
 10
228.01754086462614
 20
176.60605160281511
 11
229.51754086462614
 21
176.60605160281511
  0
LINE
  8
_1-a_
  6
CONTINUOUS
 62
    4
 10
84.244946010346936
 20
170.18346761896623
 11
87.809946010346948
 21
170.18346761896623
  0
LINE
  8
_1-2_
  6
CONTINUOUS
 62
    7
 10
301.48343206100241
 20
183.49472245151071
 11
301.48343206100241
 21
180.99472245151071
  0
LINE
  8
_1-2_
  6
CONTINUOUS
 62
    7
 10
301.28343206100242
 20
183.49472245151071
 11
301.28343206100237
 21
180.99472245151071
  0
LINE
  8
_1-2_
  6
CONTINUOUS
 62
    7
 10
301.28343206100237
 20
180.99472245151071
 11
301.48343206100241
 21
180.99472245151071
  0
LINE
  8
_1-2_
  6
CONTINUOUS
 62
    7
 10
301.48343206100241
 20
183.49472245151071
 11
301.28343206100242
 21
183.49472245151071
  0
LINE
  8
_1-2_
  6
CONTINUOUS
 62
    7
 10
301.28343206100242
 20
176.89472245151068
 11
300.13343206100239
 21
176.89472245151068
  0
LINE
  8
_1-2_
  6
CONTINUOUS
 62
    7
 10
300.13343206100239
 20
177.09472245151073
 11
300.13343206100239
 21
176.89472245151068
  0
LINE
  8
_1-2_
  6
CONTINUOUS
 62
    7
 10
301.28343206100242
 20
177.09472245151073
 11
300.13343206100239
 21
177.09472245151073
  0
LINE
  8
_1-2_
  6
CONTINUOUS
 62
    7
 10
301.28343206100242
 20
176.89472245151068
 11
301.28343206100237
 21
175.74472245151071
  0
LINE
  8
_1-2_
  6
CONTINUOUS
 62
    7
 10
301.28343206100237
 20
175.74472245151071
 11
301.48343206100241
 21
175.74472245151071
  0
LINE
  8
_1-2_
  6
CONTINUOUS
 62
    7
 10
301.48343206100241
 20
176.89472245151068
 11
301.48343206100241
 21
175.74472245151071
  0
LINE
  8
_1-2_
  6
CONTINUOUS
 62
    7
 10
302.63343206100239
 20
176.89472245151068
 11
301.48343206100241
 21
176.89472245151068
  0
LINE
  8
_1-2_
  6
CONTINUOUS
 62
    7
 10
302.63343206100239
 20
176.89472245151068
 11
302.63343206100239
 21
177.09472245151073
  0
LINE
  8
_1-2_
  6
CONTINUOUS
 62
    7
 10
302.63343206100239
 20
177.09472245151073
 11
301.48343206100241
 21
177.09472245151073
  0
LINE
  8
_1-2_
  6
CONTINUOUS
 62
    7
 10
301.48343206100241
 20
178.24472245151071
 11
301.48343206100241
 21
177.09472245151073
  0
LINE
  8
_1-2_
  6
CONTINUOUS
 62
    7
 10
301.48343206100241
 20
178.24472245151071
 11
301.28343206100242
 21
178.24472245151071
  0
LINE
  8
_1-2_
  6
CONTINUOUS
 62
    7
 10
301.28343206100242
 20
178.24472245151071
 11
301.28343206100242
 21
177.09472245151073
  0
LINE
  8
_1-2_
  6
CONTINUOUS
 62
    7
 10
301.28343206100242
 20
171.64472245151071
 11
300.13343206100239
 21
171.64472245151071
  0
LINE
  8
_1-2_
  6
CONTINUOUS
 62
    7
 10
300.13343206100239
 20
171.84472245151073
 11
300.13343206100239
 21
171.64472245151071
  0
LINE
  8
_1-2_
  6
CONTINUOUS
 62
    7
 10
301.28343206100242
 20
171.84472245151073
 11
300.13343206100239
 21
171.84472245151073
  0
LINE
  8
_1-2_
  6
CONTINUOUS
 62
    7
 10
301.28343206100242
 20
171.64472245151071
 11
301.28343206100237
 21
170.49472245151071
  0
LINE
  8
_1-2_
  6
CONTINUOUS
 62
    7
 10
301.28343206100237
 20
170.49472245151071
 11
301.48343206100241
 21
170.49472245151071
  0
LINE
  8
_1-2_
  6
CONTINUOUS
 62
    7
 10
301.48343206100241
 20
171.64472245151071
 11
301.48343206100241
 21
170.49472245151071
  0
LINE
  8
_1-2_
  6
CONTINUOUS
 62
    7
 10
302.63343206100239
 20
171.64472245151071
 11
301.48343206100241
 21
171.64472245151071
  0
LINE
  8
_1-2_
  6
CONTINUOUS
 62
    7
 10
302.63343206100239
 20
171.64472245151071
 11
302.63343206100239
 21
171.84472245151073
  0
LINE
  8
_1-2_
  6
CONTINUOUS
 62
    7
 10
302.63343206100239
 20
171.84472245151073
 11
301.48343206100241
 21
171.84472245151073
  0
LINE
  8
_1-2_
  6
CONTINUOUS
 62
    7
 10
301.48343206100241
 20
172.99472245151071
 11
301.48343206100241
 21
171.84472245151073
  0
LINE
  8
_1-2_
  6
CONTINUOUS
 62
    7
 10
301.48343206100241
 20
172.99472245151071
 11
301.28343206100242
 21
172.99472245151071
  0
LINE
  8
_1-2_
  6
CONTINUOUS
 62
    7
 10
301.28343206100242
 20
172.99472245151071
 11
301.28343206100242
 21
171.84472245151073
  0
LINE
  8
_1-2_
  6
CONTINUOUS
 62
    7
 10
301.48343206100241
 20
188.74472245151071
 11
301.48343206100241
 21
186.24472245151071
  0
LINE
  8
_1-2_
  6
CONTINUOUS
 62
    7
 10
301.28343206100242
 20
188.74472245151071
 11
301.28343206100237
 21
186.24472245151071
  0
LINE
  8
_1-2_
  6
CONTINUOUS
 62
    7
 10
301.28343206100237
 20
186.24472245151071
 11
301.48343206100241
 21
186.24472245151071
  0
LINE
  8
_1-2_
  6
CONTINUOUS
 62
    7
 10
301.48343206100241
 20
188.74472245151071
 11
301.28343206100242
 21
188.74472245151071
  0
LINE
  8
_1-a_
  6
CONTINUOUS
 62
    4
 10
320.21084388249289
 20
166.99472245151071
 11
320.21084388249289
 21
191.49472245151073
  0
LINE
  8
_1-a_
  6
CONTINUOUS
 62
    4
 10
320.21084388249289
 20
166.99472245151071
 11
319.82261531483914
 21
168.44361119094429
  0
LINE
  8
_1-a_
  6
CONTINUOUS
 62
    4
 10
320.21084388249289
 20
166.99472245151071
 11
320.5990724501467
 21
168.44361119094429
  0
LINE
  8
_1-a_
  6
CONTINUOUS
 62
    4
 10
320.21084388249289
 20
191.49472245151073
 11
320.5990724501467
 21
190.04583371207712
  0
LINE
  8
_1-a_
  6
CONTINUOUS
 62
    4
 10
320.21084388249289
 20
191.49472245151073
 11
319.82261531483914
 21
190.04583371207712
  0
LINE
  8
_1-a_
  6
CONTINUOUS
 62
    4
 10
321.21084388249289
 20
166.99472245151071
 11
311.88028595810635
 21
166.99472245151071
  0
LINE
  8
_1-a_
  6
CONTINUOUS
 62
    4
 10
321.21084388249289
 20
191.49472245151073
 11
311.88028595810635
 21
191.49472245151073
  0
TEXT
  8
_1-a_
 62
    7
 10
319.71084388249289
 20
177.11972245151071
 40
4
 41
1
 50
90
  1
49
  0
LINE
  8
_1-2_
  6
CENTER2
 62
    4
 10
301.38343206100233
 20
164.41798862679746
 11
301.38343206100233
 21
162.73027247879525
  0
LINE
  8
_1-2_
  6
CENTER2
 62
    4
 10
302.23343189647545
 20
163.61972245151071
 11
300.28343189647546
 21
163.61972245151071
  0
LINE
  8
_1-2_
  6
CENTER2
 62
    4
 10
301.38343206100233
 20
195.66798862679749
 11
301.38343206100233
 21
193.98027247879525
  0
LINE
  8
_1-2_
  6
CENTER2
 62
    4
 10
302.28343189647546
 20
194.86972245151073
 11
300.43343189647544
 21
194.86972245151073
  0
LINE
  8
_1-a_
  6
CONTINUOUS
 62
    4
 10
326.78439125329964
 20
163.61972245151071
 11
326.78439125329964
 21
194.86972245151073
  0
LINE
  8
_1-a_
  6
CONTINUOUS
 62
    4
 10
326.78439125329964
 20
163.61972245151071
 11
326.39616268564583
 21
165.06861119094432
  0
LINE
  8
_1-a_
  6
CONTINUOUS
 62
    4
 10
326.78439125329964
 20
163.61972245151071
 11
327.1726198209534
 21
165.06861119094432
  0
LINE
  8
_1-a_
  6
CONTINUOUS
 62
    4
 10
326.78439125329964
 20
194.86972245151073
 11
327.1726198209534
 21
193.42083371207712
  0
LINE
  8
_1-a_
  6
CONTINUOUS
 62
    4
 10
326.78439125329964
 20
194.86972245151073
 11
326.39616268564583
 21
193.42083371207712
  0
LINE
  8
_1-a_
  6
CONTINUOUS
 62
    4
 10
327.78439125329964
 20
163.61972245151071
 11
303.15028988263259
 21
163.61972245151071
  0
LINE
  8
_1-a_
  6
CONTINUOUS
 62
    4
 10
327.78439125329964
 20
194.86972245151073
 11
303.15028988263259
 21
194.86972245151073
  0
TEXT
  8
_1-a_
 62
    7
 10
326.28439125329964
 20
174.86972245151071
 40
4
 41
1
 50
90
  1
62.5
  0
LINE
  8
_1-a_
  6
CONTINUOUS
 62
    4
 10
332.83175922803945
 20
161.49472245151071
 11
332.83175922803945
 21
196.99472245151073
  0
LINE
  8
_1-a_
  6
CONTINUOUS
 62
    4
 10
332.83175922803945
 20
161.49472245151071
 11
332.4435306603857
 21
162.94361119094432
  0
LINE
  8
_1-a_
  6
CONTINUOUS
 62
    4
 10
332.83175922803945
 20
161.49472245151071
 11
333.21998779569321
 21
162.94361119094432
  0
LINE
  8
_1-a_
  6
CONTINUOUS
 62
    4
 10
332.83175922803945
 20
196.99472245151073
 11
333.21998779569321
 21
195.54583371207712
  0
LINE
  8
_1-a_
  6
CONTINUOUS
 62
    4
 10
332.83175922803945
 20
196.99472245151073
 11
332.4435306603857
 21
195.54583371207712
  0
LINE
  8
_1-a_
  6
CONTINUOUS
 62
    4
 10
333.83175922803945
 20
161.49472245151071
 11
307.59325410897213
 21
161.49472245151071
  0
LINE
  8
_1-a_
  6
CONTINUOUS
 62
    4
 10
333.83175922803945
 20
196.99472245151073
 11
307.59325410897213
 21
196.99472245151073
  0
TEXT
  8
_1-a_
 62
    7
 10
332.33175922803945
 20
177.11972245151071
 40
4
 41
1
 50
90
  1
71
  0
LINE
  8
_1-a_
  6
CONTINUOUS
 62
    4
 10
367.34659882319283
 20
196.61972230191508
 11
378.9695306936025
 21
196.61972230191508
  0
LINE
  8
_1-a_
  6
CONTINUOUS
 62
    4
 10
367.34659882319283
 20
170.11972277053553
 11
378.9695306936025
 21
170.11972277053553
  0
LINE
  8
_1-a_
  6
CONTINUOUS
 62
    4
 10
133.52977568080578
 20
190.10605160281517
 11
125.73981394566266
 21
190.10605160281517
  0
LINE
  8
_1-a_
  6
CONTINUOUS
 62
    4
 10
133.52977568080578
 20
176.60605160281517
 11
125.73981394566271
 21
176.60605160281517
  0
LINE
  8
_1-a_
  6
CONTINUOUS
 62
    4
 10
130.26754791112614
 20
173.60112812976512
 11
121.25528270528306
 21
173.60112812976512
  0
LINE
  8
_1-a_
  6
CONTINUOUS
 62
    4
 10
130.26754791112614
 20
193.10112812976512
 11
121.255282705283
 21
193.10112812976512
  0
LINE
  8
_1-a_
  6
CONTINUOUS
 62
    4
 10
131.45504791112614
 20
175.55605160281515
 11
128.95444512569429
 21
175.55605160281515
  0
LINE
  8
_1-a_
  6
CONTINUOUS
 62
    4
 10
131.45504791112614
 20
177.65605160281518
 11
128.95444512569429
 21
177.65605160281518
  0
LINE
  8
_1-a_
  6
CONTINUOUS
 62
    4
 10
102.70994601034695
 20
176.23792733374023
 11
102.70994601034695
 21
164.20511654132218
  0
LINE
  8
_1-a_
  6
CONTINUOUS
 62
    4
 10
84.244946010346936
 20
176.635714741078
 11
84.244946010346936
 21
169.68346761896623
  0
LINE
  8
_1-a_
  6
CONTINUOUS
 62
    4
 10
134.76755495762611
 20
175.1995134020226
 11
134.76755495762611
 21
164.42115846557555
  0
LINE
  8
_1-a_
  6
CONTINUOUS
 62
    4
 10
228.76754086462614
 20
175.1995134020226
 11
228.76754086462614
 21
164.42115846557555
  0
LINE
  8
_1-a_
  6
CONTINUOUS
 62
    4
 10
300.08343206100232
 20
200.70735921511641
 11
295.08343206100232
 21
200.70735921511641
  0
LINE
  8
_1-a_
  6
CONTINUOUS
 62
    4
 10
302.68343206100234
 20
200.70735921511641
 11
307.68343206100234
 21
200.70735921511641
  0
LINE
  8
_1-a_
  6
CONTINUOUS
 62
    4
 10
300.08343206100232
 20
200.70735921511641
 11
302.68343206100234
 21
200.70735921511641
  0
LINE
  8
_1-a_
  6
CONTINUOUS
 62
    4
 10
300.08343206100232
 20
200.70735921511641
 11
298.63454332156874
 21
200.31913064746265
  0
LINE
  8
_1-a_
  6
CONTINUOUS
 62
    4
 10
300.08343206100232
 20
200.70735921511641
 11
298.63454332156874
 21
201.09558778277022
  0
LINE
  8
_1-a_
  6
CONTINUOUS
 62
    4
 10
302.68343206100234
 20
200.70735921511641
 11
304.13232080043593
 21
201.09558778277022
  0
LINE
  8
_1-a_
  6
CONTINUOUS
 62
    4
 10
302.68343206100234
 20
200.70735921511641
 11
304.13232080043593
 21
200.31913064746265
  0
LINE
  8
_1-a_
  6
CONTINUOUS
 62
    4
 10
300.08343206100232
 20
201.70735921511641
 11
300.08343206100232
 21
197.6995640718693
  0
LINE
  8
_1-a_
  6
CONTINUOUS
 62
    4
 10
302.68343206100234
 20
201.70735921511641
 11
302.68343206100234
 21
197.6995640718693
  0
TEXT
  8
_1-a_
 62
    7
 10
298.13343206100233
 20
201.20735921511641
 40
4
 41
1
 50
0
  1
5.2
  0
LINE
  8
_1-a_
  6
CONTINUOUS
 62
    4
 10
308.59774312797304
 20
191.92885520662329
 11
315.27048144721482
 21
203.525167431325
  0
TEXT
  8
_1-a_
 62
    7
 10
314.56491274977406
 20
203.8349590999152
 40
4
 41
1
 50
0
  1
⑤
  0
LINE
  8
_1-a_
  6
CONTINUOUS
 62
    4
 10
308.59774312797304
 20
191.92885520662329
 11
309.65686458133632
 21
192.99105186780508
  0
LINE
  8
_1-a_
  6
CONTINUOUS
 62
    4
 10
308.59774312797304
 20
191.92885520662329
 11
308.98387088168783
 21
193.37830522570337
  0
TEXT
  8
_1-a_
 62
    7
 10
301.75801469542494
 20
153.55847989485397
 40
4
 41
1
 50
0
  1
極性表示
  0
LINE
  8
_1-a_
  6
CONTINUOUS
 62
    4
 10
303.10312467077886
 20
170.47909707287561
 11
308.69313908575429
 21
158.8518670897267
  0
LINE
  8
_1-a_
  6
CONTINUOUS
 62
    4
 10
303.10312467077886
 20
170.47909707287561
 11
303.38102816045022
 21
169.00506530577271
  0
LINE
  8
_1-a_
  6
CONTINUOUS
 62
    4
 10
303.10312467077886
 20
170.47909707287561
 11
304.0808120361861
 21
169.34149986141494
  0
CIRCLE
  8
_1-1_
  6
CONTINUOUS
 62
    7
 10
198.01754791112614
 20
185.61972230191503
 40
0.5
  0
TEXT
  8
_1-a_
 62
    7
 10
198.48343149170355
 20
202.1827815864062
 40
4
 41
1
 50
0
  1
Tcﾎﾟｲﾝﾄ
  0
LINE
  8
_1-a_
  6
CONTINUOUS
 62
    4
 10
198.40150293899151
 20
186.29320607762815
 11
199.35987218001037
 21
187.44712479134631
  0
LINE
  8
_1-a_
  6
CONTINUOUS
 62
    4
 10
198.40150293899151
 20
186.29320607762815
 11
198.65451569106036
 21
187.77171361811974
  0
LINE
  8
_1-a_
  6
CONTINUOUS
 62
    4
 10
198.40150293899151
 20
186.29320607762815
 11
205.48343149170355
 21
201.6827815864062
  0
LINE
  8
_1-a_
  6
CONTINUOUS
 62
    4
 10
291.63343206100239
 20
226.54543865136218
 11
291.63343206100239
 21
197.40449746513365
  0
TEXT
  8
_1-a_
 62
    7
 10
102.63124685333855
 20
227.07187115646576
 40
4
 41
1
 50
0
  1
150±10
  0
LINE
  8
_1-a_
  6
CONTINUOUS
 62
    4
 10
84.244946010346936
 20
226.54543868716149
 11
85.693834749780549
 21
226.15721011950768
  0
LINE
  8
_1-a_
  6
CONTINUOUS
 62
    4
 10
84.244946010346936
 20
226.54543868716149
 11
85.693834749780549
 21
226.93366725481524
  0
TEXT
  8
_1-a_
 62
    7
 10
244.81177911259453
 20
227.07187112066645
 40
4
 41
1
 50
0
  1
140±20
  0
LINE
  8
_1-a_
  6
CONTINUOUS
 62
    4
 10
291.63343206100239
 20
226.54543865136218
 11
290.18454332156875
 21
226.93366721901594
  0
LINE
  8
_1-a_
  6
CONTINUOUS
 62
    4
 10
291.63343206100239
 20
226.54543865136218
 11
290.18454332156875
 21
226.15721008370837
  0
LINE
  8
_1-a_
  6
CONTINUOUS
 62
    4
 10
291.63343206100239
 20
226.54543865136218
 11
293.08232080043597
 21
226.93366721901594
  0
LINE
  8
_1-a_
  6
CONTINUOUS
 62
    4
 10
291.63343206100239
 20
226.54543865136218
 11
293.08232080043597
 21
226.15721008370837
  0
LINE
  8
_1-a_
  6
CONTINUOUS
 62
    4
 10
311.13343206100239
 20
226.54543865136218
 11
309.68454332156875
 21
226.15721008370837
  0
LINE
  8
_1-a_
  6
CONTINUOUS
 62
    4
 10
311.13343206100239
 20
226.54543865136218
 11
309.68454332156875
 21
226.93366721901594
  0
LINE
  8
_1-a_
  6
CONTINUOUS
 62
    4
 10
291.63343206100239
 20
226.54543865136218
 11
311.13343206100239
 21
226.54543865136218
  0
LINE
  8
_1-a_
  6
CONTINUOUS
 62
    4
 10
311.13343206100239
 20
227.04543865136218
 11
311.13343206100239
 21
192.12147126075643
  0
LINE
  8
_1-a_
  6
CONTINUOUS
 62
    4
 10
291.63343206100239
 20
192.12147126075643
 11
291.63343206100239
 21
227.04543865136218
  0
LINE
  8
_1-a_
  6
CONTINUOUS
 62
    4
 10
84.244946010346936
 20
181.96490690684004
 11
84.244946010346936
 21
227.04543865136218
  0
LINE
  8
_1-a_
  6
CONTINUOUS
 62
    4
 10
276.85601031406281
 20
211.86309383001844
 11
275.40712157462922
 21
211.47486526236463
  0
LINE
  8
_1-a_
  6
CONTINUOUS
 62
    4
 10
276.85601031406281
 20
211.86309383001844
 11
275.40712157462922
 21
212.25132239767219
  0
TEXT
  8
_1-a_
 62
    7
 10
244.81177911259453
 20
212.36309383001844
 40
4
 41
1
 50
0
  1
140±20
  0
LINE
  8
_1-a_
  6
CONTINUOUS
 62
    4
 10
276.85601031406281
 20
212.36309383001844
 11
276.85601031406281
 21
198.11972230191503
  0
LINE
  8
_1-9_
  6
CONTINUOUS
 62
    7
 10
45.474268811214074
 20
33.591709791256988
 11
140.4742688112141
 21
33.591709791256988
  0
TEXT
  8
_1-9_
 62
    7
 10
45.974268811214074
 20
56.591709791256988
 40
4
 41
1
 50
0
  1
使用環境
  0
TEXT
  8
_1-9_
 62
    7
 10
50.599268811214102
 20
46.591709791256988
 40
4
 41
1
 50
0
  1
-40～70℃
  0
LINE
  8
_1-9_
  6
CONTINUOUS
 62
    7
 10
45.474268811214074
 20
56.091709791256988
 11
45.474268811214074
 21
46.091709791256988
  0
LINE
  8
_1-9_
  6
CONTINUOUS
 62
    7
 10
75.474268811214074
 20
56.091709791256988
 11
75.474268811214074
 21
46.091709791256988
  0
TEXT
  8
_1-9_
 62
    7
 10
76.724268811214074
 20
51.591709791256988
 40
4
 41
1
 50
0
  1
動作湿度
  0
TEXT
  8
_1-9_
 62
    7
 10
77.849268811214074
 20
46.591709791256988
 40
4
 41
1
 50
0
  1
5～95％
  0
LINE
  8
_1-9_
  6
CONTINUOUS
 62
    7
 10
75.474268811214074
 20
56.091709791256988
 11
75.474268811214074
 21
46.091709791256988
  0
LINE
  8
_1-9_
  6
CONTINUOUS
 62
    7
 10
95.474268811214102
 20
56.091709791256988
 11
95.474268811214102
 21
46.091709791256988
  0
LINE
  8
_1-9_
  6
CONTINUOUS
 62
    7
 10
45.474268811214074
 20
56.091709791256988
 11
45.474268811214074
 21
46.091709791256988
  0
TEXT
  8
_1-9_
 62
    7
 10
96.974268811214102
 20
51.591709791256988
 40
4
 41
1
 50
0
  1
最大Tc温度
  0
TEXT
  8
_1-9_
 62
    7
 10
103.7242688112141
 20
46.591709791256988
 40
4
 41
1
 50
0
  1
85℃
  0
LINE
  8
_1-9_
  6
CONTINUOUS
 62
    7
 10
45.474268811214074
 20
56.091709791256988
 11
120.4742688112141
 21
56.091709791256988
  0
LINE
  8
_1-9_
  6
CONTINUOUS
 62
    7
 10
120.4742688112141
 20
56.091709791256988
 11
120.4742688112141
 21
46.091709791256988
  0
LINE
  8
_1-9_
  6
CONTINUOUS
 62
    7
 10
45.474268811214074
 20
46.091709791256988
 11
120.4742688112141
 21
46.091709791256988
  0
LINE
  8
_1-9_
  6
CONTINUOUS
 62
    7
 10
45.474268811214074
 20
51.091709791256988
 11
120.4742688112141
 21
51.091709791256988
  0
TEXT
  8
_1-9_
 62
    7
 10
45.974268811214074
 20
84.09170979125696
 40
4
 41
1
 50
0
  1
電気特性
  0
TEXT
  8
_1-9_
 62
    7
 10
45.974268811214074
 20
39.091709791256988
 40
4
 41
1
 50
0
  1
保護機能
  0
TEXT
  8
_1-9_
 62
    7
 10
46.974268811214074
 20
34.091709791256988
 40
4
 41
1
 50
0
  1
過電圧保護
  0
LINE
  8
_1-9_
  6
CONTINUOUS
 62
    7
 10
45.474268811214074
 20
38.591709791256988
 11
140.4742688112141
 21
38.591709791256988
  0
TEXT
  8
_1-9_
 62
    7
 10
71.974268811214074
 20
34.091709791256988
 40
4
 41
1
 50
0
  1
過負荷保護
  0
TEXT
  8
_1-9_
 62
    7
 10
96.724268811214102
 20
34.091709791256988
 40
4
 41
1
 50
0
  1
短絡保護
  0
TEXT
  8
_1-9_
 62
    7
 10
116.9742688112141
 20
34.091709791256988
 40
4
 41
1
 50
0
  1
過昇温保護
  0
LINE
  8
_1-9_
  6
CONTINUOUS
 62
    7
 10
45.474268811214074
 20
38.591709791256988
 11
45.474268811214074
 21
33.591709791256988
  0
LINE
  8
_1-9_
  6
CONTINUOUS
 62
    7
 10
95.474268811214102
 20
38.591709791256988
 11
95.474268811214102
 21
33.591709791256988
  0
LINE
  8
_1-9_
  6
CONTINUOUS
 62
    7
 10
45.474268811214074
 20
38.591709791256988
 11
45.474268811214074
 21
33.591709791256988
  0
LINE
  8
_1-9_
  6
CONTINUOUS
 62
    7
 10
70.474268811214074
 20
38.591709791256988
 11
70.474268811214074
 21
33.591709791256988
  0
LINE
  8
_1-9_
  6
CONTINUOUS
 62
    7
 10
115.4742688112141
 20
38.591709791256988
 11
115.4742688112141
 21
33.591709791256988
  0
LINE
  8
_1-9_
  6
CONTINUOUS
 62
    7
 10
45.474268811214074
 20
33.591709791256988
 11
140.4742688112141
 21
33.591709791256988
  0
LINE
  8
_1-9_
  6
CONTINUOUS
 62
    7
 10
140.4742688112141
 20
38.591709791256988
 11
140.4742688112141
 21
33.591709791256988
  0
LINE
  8
_1-9_
  6
CONTINUOUS
 62
    7
 10
80.474268811214074
 20
83.59170979125696
 11
80.474268811214074
 21
63.591709791256988
  0
LINE
  8
_1-9_
  6
CONTINUOUS
 62
    7
 10
45.474268811214074
 20
83.59170979125696
 11
45.474268811214074
 21
63.591709791256988
  0
TEXT
  8
_1-9_
 62
    7
 10
58.724268811214102
 20
79.09170979125696
 40
4
 41
1
 50
0
  1
型番
  0
LINE
  8
_1-9_
  6
CONTINUOUS
 62
    7
 10
100.4742688112141
 20
83.59170979125696
 11
100.4742688112141
 21
63.591709791256988
  0
TEXT
  8
_1-9_
 62
    7
 10
81.724268811214074
 20
79.09170979125696
 40
4
 41
1
 50
0
  1
出力電力
  0
TEXT
  8
_1-9_
 62
    7
 10
102.7242688112141
 20
69.091709791256988
 40
4
 41
1
 50
0
  1
DC24.2V
  0
TEXT
  8
_1-9_
 62
    7
 10
121.7242688112141
 20
79.09170979125696
 40
4
 41
1
 50
0
  1
出力電流
  0
LINE
  8
_1-9_
  6
CONTINUOUS
 62
    7
 10
120.4742688112141
 20
83.59170979125696
 11
120.4742688112141
 21
63.591709791256988
  0
TEXT
  8
_1-9_
 62
    7
 10
101.7242688112141
 20
79.09170979125696
 40
4
 41
1
 50
0
  1
出力電圧
  0
LINE
  8
_1-9_
  6
CONTINUOUS
 62
    7
 10
140.4742688112141
 20
83.59170979125696
 11
140.4742688112141
 21
63.591709791256988
  0
TEXT
  8
_1-9_
 62
    7
 10
141.7242688112141
 20
79.09170979125696
 40
4
 41
1
 50
0
  1
入力電圧
  0
TEXT
  8
_1-9_
 62
    7
 10
144.9742688112141
 20
71.591709791256988
 40
4
 41
1
 50
0
  1
AC100
  0
TEXT
  8
_1-9_
 62
    7
 10
143.8492688112141
 20
66.591709791256988
 40
4
 41
1
 50
0
  1
～242V
  0
LINE
  8
_1-9_
  6
CONTINUOUS
 62
    7
 10
215.4742688112141
 20
83.59170979125696
 11
215.4742688112141
 21
63.591709791256988
  0
TEXT
  8
_1-9_
 62
    7
 10
197.7242688112141
 20
69.091709791256988
 40
4
 41
1
 50
0
  1
50/60Hz
  0
TEXT
  8
_1-9_
 62
    7
 10
198.9742688112141
 20
79.09170979125696
 40
4
 41
1
 50
0
  1
周波数
  0
LINE
  8
_1-9_
  6
CONTINUOUS
 62
    7
 10
195.4742688112141
 20
83.59170979125696
 11
195.4742688112141
 21
63.591709791256988
  0
LINE
  8
_1-9_
  6
CONTINUOUS
 62
    7
 10
160.4742688112141
 20
83.59170979125696
 11
160.4742688112141
 21
63.591709791256988
  0
LINE
  8
_1-9_
  6
CONTINUOUS
 62
    7
 10
160.4742688112141
 20
73.59170979125696
 11
195.4742688112141
 21
73.59170979125696
  0
LINE
  8
_1-9_
  6
CONTINUOUS
 62
    7
 10
160.4742688112141
 20
68.591709791256988
 11
195.4742688112141
 21
68.591709791256988
  0
LINE
  8
_1-9_
  6
CONTINUOUS
 62
    7
 10
240.47426881121407
 20
83.59170979125696
 11
240.47426881121407
 21
63.591709791256988
  0
TEXT
  8
_1-9_
 62
    7
 10
218.0992688112141
 20
79.09170979125696
 40
4
 41
1
 50
0
  1
効率/力率
  0
TEXT
  8
_1-9_
 62
    7
 10
223.59926881121407
 20
66.591709791256988
 40
4
 41
1
 50
0
  1
0.95
  0
LINE
  8
_1-9_
  6
CONTINUOUS
 62
    7
 10
275.47426881121407
 20
83.59170979125696
 11
275.47426881121407
 21
63.591709791256988
  0
LINE
  8
_1-9_
  6
CONTINUOUS
 62
    7
 10
45.474268811214074
 20
83.59170979125696
 11
275.47426881121407
 21
83.59170979125696
  0
LINE
  8
_1-9_
  6
CONTINUOUS
 62
    7
 10
45.474268811214074
 20
78.59170979125696
 11
275.47426881121407
 21
78.59170979125696
  0
LINE
  8
_1-9_
  6
CONTINUOUS
 62
    7
 10
45.474268811214074
 20
63.591709791256988
 11
275.47426881121407
 21
63.591709791256988
  0
TEXT
  8
_1-9_
 62
    7
 10
249.22426881121407
 20
79.09170979125696
 40
4
 41
1
 50
0
  1
適合規格
  0
TEXT
  8
_1-9_
 62
    7
 10
242.47426881121407
 20
74.09170979125696
 40
4
 41
1
 50
0
  1
電気用品安全法
  0
TEXT
  8
_1-9_
 62
    7
 10
252.47426881121407
 20
69.091709791256988
 40
4
 41
1
 50
0
  1
(PSE)
  0
TEXT
  8
_1-9_
 62
    7
 10
253.59926881121407
 20
64.091709791256988
 40
4
 41
1
 50
0
  1
RoHS
  0
TEXT
  8
_1-a_
 62
    7
 10
71.224268811214074
 20
46.591709791256988
 40
2.5
 41
1
 50
0
  1
※1
  0
TEXT
  8
_1-9_
 62
    7
 10
47.224268811214102
 20
51.591709791256988
 40
4
 41
1
 50
0
  1
使用環境温度
  0
TEXT
  8
_1-a_
 62
    7
 10
112.6831139459806
 20
46.591709791256988
 40
2.5
 41
1
 50
0
  1
※2
  0
TEXT
  8
_1-a_
 62
    7
 10
121.9742688112141
 20
49.424022931941749
 40
3
 41
1
 50
0
  1
※2 周囲を囲ってご使用される場合にはTcポイント85℃以下になる様にご注意ください。
  0
TEXT
  8
_1-a_
 62
    7
 10
121.9742688112141
 20
53.424022931941749
 40
3
 41
1
 50
0
  1
※1 正規取り付け方向・ＬＥＤ負荷80％時の使用温度範囲
  0
TEXT
  8
_1-a_
 62
    7
 10
121.9742688112141
 20
45.674022931941749
 40
3
 41
1
 50
0
  1
※ 推奨調光器及び配線図は電源トランスの取扱説明書またはＦＫＫホームページをご確認下さい。
  0
TEXT
  8
_1-9_
 62
    7
 10
169.2242688112141
 20
79.09170979125696
 40
4
 41
1
 50
0
  1
入力電流
  0
LINE
  8
_0-0_
  6
CONTINUOUS
 62
    7
 10
272.2937476591411
 20
261.39372423268019
 11
272.2937476591411
 21
256.3983432160324
  0
LINE
  8
_0-0_
  6
CONTINUOUS
 62
    7
 10
272.2937476591411
 20
256.3983432160324
 11
392.37124071700645
 21
256.3983432160324
  0
LINE
  8
_0-0_
  6
CONTINUOUS
 62
    7
 10
392.37124071700645
 20
261.40382319403238
 11
272.2937476591411
 21
261.40382319403238
  0
TEXT
  8
_f-0_
 62
    7
 10
350.61627920569526
 20
28.967648892650259
 40
6.0066000000000059
 41
0.9999999999999986
 50
0
  1
F1229030
  0
TEXT
  8
_f-0_
 62
    7
 10
318.04403237005777
 20
50.251506480975933
 40
4.0044000000000039
 41
1.0000000000000004
 50
0
  1
原田
  0
TEXT
  8
_f-0_
 62
    7
 10
303.10411421337573
 20
50.251506480975933
 40
4.0044000000000039
 41
1.0000000000000037
 50
0
  1
原田
  0
TEXT
  8
_f-0_
 62
    7
 10
335.42671305124656
 20
50.251506480975933
 40
4.0044000000000039
 41
1.0000000000000004
 50
0
  1
長
  0
TEXT
  8
_f-0_
 62
    7
 10
351.55010400295452
 20
77.821854101930597
 40
4.0044000000000039
 41
1
 50
0
  1
1.0mm^u2 x 2芯
  0
TEXT
  8
_f-0_
 62
    7
 10
351.55010400295452
 20
72.776310331064166
 40
4.0044000000000039
 41
1
 50
0
  1
1.0mm^u2 x 2芯
  0
TEXT
  8
_f-0_
 62
    7
 10
351.55010400295452
 20
67.730766560197793
 40
4.0043999999999968
 41
1.0000000000000013
 50
0
  1
1.25mm^u2 x 3芯
  0
TEXT
  8
_f-0_
 62
    7
 10
303.92087124217744
 20
88.08232928529253
 40
3.2000000000000001
 41
1
 50
0
  1
調光接続コネクター
  0
TEXT
  8
_f-0_
 62
    7
 10
303.92087124217744
 20
83.08232928529253
 40
3.5
 41
1
 50
0
  1
出力側接続端子台
  0
TEXT
  8
_f-0_
 62
    7
 10
303.92087124217744
 20
77.821854101930597
 40
4.0044000000000039
 41
0.9999999999999984
 50
0
  1
調光信号線
  0
TEXT
  8
_f-0_
 62
    7
 10
303.92087124217744
 20
72.776310331064166
 40
4.0044000000000039
 41
0.9999999999999984
 50
0
  1
DC2次側出力線
  0
TEXT
  8
_f-0_
 62
    7
 10
303.92087124217744
 20
67.730766560197793
 40
4.0043999999999968
 41
1.0000000000000002
 50
0
  1
AC1次側入力線
  0
TEXT
  8
_f-0_
 62
    7
 10
303.92087124217744
 20
62.68522278933139
 40
4.0044000000000039
 41
1
 50
0
  1
本体
  0
TEXT
  8
_f-0_
 62
    7
 10
347.8223746742052
 20
50.596586112312337
 40
3.00330000000001
 41
0.9999999999999974
 50
0
  1
2022年 9月 8日
  0
TEXT
  8
_1-a_
 62
    7
 10
299.25843206100239
 20
227.04543865136218
 40
4
 41
1
 50
0
  1
39
  0
TEXT
  8
_1-9_
 62
    7
 10
87.224268811214088
 20
69.091709791256988
 40
4
 41
1
 50
0
  1
90W
  0
TEXT
  8
_1-9_
 62
    7
 10
124.9742688112141
 20
69.091709791256988
 40
4
 41
1
 50
0
  1
3.75A
  0
TEXT
  8
_1-9_
 62
    7
 10
223.72426881121413
 20
71.591709791256988
 40
4
 41
1
 50
0
  1
87％
  0
TEXT
  8
_1-9_
 62
    7
 10
163.4742688112141
 20
74.091709791256988
 40
4
 41
1
 50
0
  1
1.03A(AC100V)
  0
TEXT
  8
_1-9_
 62
    7
 10
163.4742688112141
 20
69.091709791256988
 40
4
 41
1
 50
0
  1
0.49A(AC200V)
  0
TEXT
  8
_1-9_
 62
    7
 10
163.4742688112141
 20
64.091709791256988
 40
4
 41
1
 50
0
  1
0.42A(AC242V)
  0
TEXT
  8
_f-0_
 62
    7
 10
351.55010400295452
 20
88.08232928529253
 40
4
 41
1
 50
0
  1
WAGO製 LC-1 x 2個
  0
TEXT
  8
_f-0_
 62
    7
 10
351.55010400295452
 20
83.08232928529253
 40
4
 41
1
 50
0
  1
壬生電機DTK-20×4P
  0
TEXT
  8
_f-0_
 62
    7
 10
347.82174071700649
 20
40.123175199571647
 40
4
 41
1
 50
0
  1
OT90/100-200/24-G3-T
  0
TEXT
  8
_1-9_
 62
    7
 10
55.224268811214102
 20
66.591709791256988
 40
4
 41
1
 50
0
  1
24-G3-T
  0
TEXT
  8
_1-9_
 62
    7
 10
48.47426881121413
 20
71.591709791256988
 40
4
 41
1
 50
0
  1
OT90/100-200/
  0
LINE
  8
_0-0_
  6
CONTINUOUS
 62
    7
 10
17.781820079489023
 20
95.76832510029584
 11
17.781820079489023
 21
179.66332510029587
  0
LINE
  8
_0-0_
  6
CONTINUOUS
 62
    7
 10
23.950570079489011
 20
256.84919260029585
 11
23.950570079489011
 21
205.03169260029591
  0
LINE
  8
_0-0_
  6
CONTINUOUS
 62
    7
 10
17.781820079489023
 20
205.03169260029591
 11
17.781820079489023
 21
256.84919260029585
  0
LINE
  8
_0-0_
  6
CONTINUOUS
 62
    7
 10
23.950570079489011
 20
179.66332510029587
 11
23.950570079489011
 21
95.76832510029584
  0
LINE
  8
_0-0_
  6
CONTINUOUS
 62
    7
 10
17.781820079489023
 20
256.84919260029585
 11
30.001197687221406
 21
256.84919260029585
  0
LINE
  8
_0-0_
  6
CONTINUOUS
 62
    7
 10
17.781820079489023
 20
239.57669260029587
 11
30.001197687221406
 21
239.57669260029587
  0
LINE
  8
_0-0_
  6
CONTINUOUS
 62
    7
 10
30.001197687221406
 20
222.30419260029589
 11
17.781820079489023
 21
222.30419260029589
  0
LINE
  8
_0-0_
  6
CONTINUOUS
 62
    7
 10
30.001197687221406
 20
205.03169260029591
 11
17.781820079489023
 21
205.03169260029591
  0
LINE
  8
_0-0_
  6
CONTINUOUS
 62
    7
 10
17.781820079489023
 20
179.66332510029587
 11
30.001197687221406
 21
179.66332510029587
  0
LINE
  8
_0-0_
  6
CONTINUOUS
 62
    7
 10
17.781820079489023
 20
164.85832510029587
 11
30.001197687221406
 21
164.85832510029587
  0
LINE
  8
_0-0_
  6
CONTINUOUS
 62
    7
 10
30.001197687221406
 20
150.05332510029586
 11
17.781820079489023
 21
150.05332510029586
  0
LINE
  8
_0-0_
  6
CONTINUOUS
 62
    7
 10
17.781820079489023
 20
135.24832510029585
 11
30.001197687221406
 21
135.24832510029585
  0
LINE
  8
_0-0_
  6
CONTINUOUS
 62
    7
 10
30.001197687221406
 20
120.44332510029587
 11
17.781820079489023
 21
120.44332510029587
  0
LINE
  8
_0-0_
  6
CONTINUOUS
 62
    7
 10
17.781820079489023
 20
105.63832510029587
 11
30.001197687221406
 21
105.63832510029587
  0
LINE
  8
_0-0_
  6
CONTINUOUS
 62
    7
 10
30.001197687221406
 20
95.76832510029584
 11
17.781820079489023
 21
95.76832510029584
  0
TEXT
  8
_0-0_
 62
    7
 10
28.826508883355188
 20
243.04294036779589
 40
3.7012499999999874
 41
0.6984130000000019
 50
90
  1
JIS  2級
  0
TEXT
  8
_0-0_
 62
    7
 10
22.716820079489025
 20
240.50200818467084
 40
3.7012500000000159
 41
0.8333329999999975
 50
90
  1
ネジの等級
  0
TEXT
  8
_0-0_
 62
    7
 10
28.797090092028497
 20
226.9109012814585
 40
3.7012499999999897
 41
0.8680560000000048
 50
89.580999999999789
  1
±0.1
  0
TEXT
  8
_0-0_
 62
    7
 10
22.716820079489025
 20
222.30418828217085
 40
3.7012499999999874
 41
0.6666670000000022
 50
90
  1
偏心又は片寄り
  0
TEXT
  8
_0-0_
 62
    7
 10
22.699348860590589
 20
210.57315316716972
 40
3.7012500000000518
 41
0.8333329999999942
 50
89.676000000000001
  1
角度
  0
TEXT
  8
_0-0_
 62
    7
 10
28.806790169460157
 20
209.64279943933513
 40
3.7012500000000154
 41
0.8680559999999943
 50
89.719000000000036
  1
±30'
  0
TEXT
  8
_0-0_
 62
    7
 10
28.826508883355188
 20
168.24470976279584
 40
3.7012499999999874
 41
0.868056000000005
 50
90
  1
±0.8
  0
TEXT
  8
_0-0_
 62
    7
 10
23.677382579489005
 20
167.18482510029585
 40
2.5380000000000109
 41
0.9999999999999968
 50
90
  1
1000以下
  0
TEXT
  8
_0-0_
 62
    7
 10
20.649455724590495
 20
166.56316255635323
 40
2.5379999999999753
 41
1.0000000000000086
 50
90.56699999999985
  1
250をこえ
  0
TEXT
  8
_0-0_
 62
    7
 10
28.826508883355188
 20
153.43970976279584
 40
3.7012500000000159
 41
0.8680559999999971
 50
90
  1
±0.5
  0
TEXT
  8
_0-0_
 62
    7
 10
23.677382579489005
 20
153.01432510029584
 40
2.5380000000000109
 41
0.9999999999999952
 50
90
  1
250以下
  0
TEXT
  8
_0-0_
 62
    7
 10
20.553368330335445
 20
152.37007941807007
 40
2.5380000000000064
 41
0.9999999999999954
 50
89.553000000000167
  1
63をこえ
  0
TEXT
  8
_0-0_
 62
    7
 10
23.677382579489005
 20
138.84382510029587
 40
2.5380000000000109
 41
0.9999999999999942
 50
90
  1
63以下
  0
TEXT
  8
_0-0_
 62
    7
 10
28.826508883355188
 20
138.63470976279586
 40
3.7012500000000159
 41
0.8680559999999946
 50
90
  1
±0.3
  0
TEXT
  8
_0-0_
 62
    7
 10
20.548308231416456
 20
137.56385892056849
 40
2.5379999999999887
 41
1.0000000000000042
 50
89.496000000000009
  1
16をこえ
  0
TEXT
  8
_0-0_
 62
    7
 10
23.677382579489005
 20
124.03882510029586
 40
2.5380000000000109
 41
0.9999999999999981
 50
90
  1
16以下
  0
TEXT
  8
_0-0_
 62
    7
 10
28.826508883355188
 20
123.82970976279585
 40
3.7012499999999874
 41
0.868056000000004
 50
90
  1
±0.2
  0
TEXT
  8
_0-0_
 62
    7
 10
20.572839695303002
 20
123.3986123106363
 40
2.5380000000000042
 41
0.9999999999999996
 50
89.740000000000094
  1
4をこえ
  0
TEXT
  8
_0-0_
 62
    7
 10
28.811917078086764
 20
109.01801794576164
 40
3.7012500000000447
 41
0.8680559999999907
 50
89.792000000000271
  1
±0.1
  0
TEXT
  8
_0-0_
 62
    7
 10
22.716820079489025
 20
108.41426445092088
 40
3.7012500000000159
 41
0.8333329999999965
 50
90
  1
４以下
  0
TEXT
  8
_0-0_
 62
    7
 10
22.716820079489025
 20
97.618951334045874
 40
3.7012500000000159
 41
0.8333329999999943
 50
90
  1
寸法
  0
TEXT
  8
_0-0_
 62
    7
 10
28.80767918207789
 20
96.069276943818891
 40
3.7012499999999279
 41
0.8333330000000178
 50
89.766999999999882
  1
寸法差
  0
LINE
  8
_1-1_
  6
CONTINUOUS
 62
    7
 10
137.51754791112611
 20
122.74138398354497
 11
131.26754791112605
 21
122.74138398354497
  0
LINE
  8
_1-1_
  6
CONTINUOUS
 62
    7
 10
136.76754791112611
 20
123.49177741179497
 11
131.26754791112605
 21
123.49177741179497
  0
ARC
  8
_1-1_
  6
CONTINUOUS
 62
    7
 10
136.26754791112611
 20
143.99138398354494
 40
0.5
 50
90
 51
180
  0
ARC
  8
_1-1_
  6
CONTINUOUS
 62
    7
 10
136.26754791112611
 20
143.49149909719494
 40
0.5
 50
180
 51
270
  0
LINE
  8
_1-1_
  6
CONTINUOUS
 62
    7
 10
137.51754791112611
 20
144.49138398354494
 11
136.26754791112611
 21
144.49138398354494
  0
LINE
  8
_1-1_
  6
CONTINUOUS
 62
    7
 10
137.51754791112611
 20
143.23379266709491
 11
136.76754791112611
 21
143.23379266709491
  0
LINE
  8
_1-1_
  6
CONTINUOUS
 62
    7
 10
136.76754791112611
 20
142.99149909719494
 11
136.26754791112611
 21
142.99149909719494
  0
LINE
  8
_1-1_
  6
CONTINUOUS
 62
    7
 10
135.76754791112611
 20
143.99138398354494
 11
135.76754791112611
 21
143.49149909719494
  0
LINE
  8
_1-1_
  6
CONTINUOUS
 62
    7
 10
136.76754791112611
 20
144.49138398354494
 11
136.76754791112611
 21
123.49177741179497
  0
LINE
  8
_1-1_
  6
CONTINUOUS
 62
    7
 10
137.51754791112611
 20
144.49138398354494
 11
137.51754791112611
 21
122.74138398354497
  0
LINE
  8
_1-1_
  6
CONTINUOUS
 62
    7
 10
137.51754791112611
 20
123.99784588984496
 11
136.76754791112611
 21
123.99784588984496
  0
LINE
  8
_1-1_
  6
CONTINUOUS
 62
    7
 10
137.51754791112611
 20
128.74138398354497
 11
137.51754791112611
 21
144.49138398354494
  0
LINE
  8
_1-1_
  6
CONTINUOUS
 62
    7
 10
137.51754791112611
 20
128.74138398354497
 11
137.51754791112611
 21
144.49138398354494
  0
LINE
  8
_1-1_
  6
CONTINUOUS
 62
    7
 10
138.01754791112611
 20
128.74138398354497
 11
138.01754791112611
 21
144.49138398644504
  0
LINE
  8
_1-1_
  6
CONTINUOUS
 62
    7
 10
113.4016474971271
 20
140.76638398354498
 11
136.76754791112608
 21
140.76638398354498
  0
LINE
  8
_1-1_
  6
CONTINUOUS
 62
    7
 10
113.40164749712721
 20
136.71638398354491
 11
136.76754791112608
 21
136.71638398354491
  0
LINE
  8
_1-a_
  6
CONTINUOUS
 62
    4
 10
135.76754791112614
 20
144.491383983545
 11
124.90627035793795
 21
144.491383983545
  0
LINE
  8
_1-1_
  6
CONTINUOUS
 62
    7
 10
136.76754791112611
 20
173.1382462667151
 11
136.76754791112611
 21
196.61972230191503
  0
LINE
  8
_1-1_
  6
CONTINUOUS
 62
    7
 10
137.51754791112611
 20
170.13913905541505
 11
137.51754791112611
 21
171.06023748846507
  0
LINE
  8
_1-1_
  6
CONTINUOUS
 62
    7
 10
137.51754791112611
 20
171.06857759361503
 11
137.51754791112611
 21
195.03976474696503
  0
LINE
  8
_1-1_
  6
CONTINUOUS
 62
    7
 10
137.51754791112611
 20
195.04923162391503
 11
137.51754791112611
 21
196.61965151811511
  0
LINE
  8
_1-1_
  6
CONTINUOUS
 62
    7
 10
137.51754791112611
 20
170.11972287836505
 11
136.76754791112611
 21
170.11972287836505
  0
LINE
  8
_1-1_
  6
CONTINUOUS
 62
    7
 10
137.51754791112611
 20
171.37703583596498
 11
136.76754791112611
 21
171.37703583596498
  0
LINE
  8
_1-1_
  6
CONTINUOUS
 62
    7
 10
137.51754791112611
 20
170.11972287836505
 11
137.51754791112611
 21
196.61972230191503
  0
LINE
  8
_1-1_
  6
CONTINUOUS
 62
    7
 10
136.76754791112611
 20
170.11972287836505
 11
136.76754791112611
 21
173.1382462667151
  0
LINE
  8
_1-1_
  6
CONTINUOUS
 62
    7
 10
137.51754791112611
 20
195.36240934431509
 11
136.76754791112611
 21
195.36240934431509
  0
LINE
  8
_1-1_
  6
CONTINUOUS
 62
    7
 10
137.51754791112611
 20
196.61972230191503
 11
136.76754791112611
 21
196.61972230191503
  0
LINE
  8
_1-1_
  6
CONTINUOUS
 62
    7
 10
137.51754791112611
 20
196.61965151811511
 11
138.01754791112611
 21
196.61972230191503
  0
LINE
  8
_1-1_
  6
CONTINUOUS
 62
    7
 10
138.01754791112611
 20
196.61972230191503
 11
138.01754791112611
 21
170.13906827161503
  0
LINE
  8
_1-1_
  6
CONTINUOUS
 62
    7
 10
138.01754791112611
 20
170.13906827161503
 11
137.51754791112611
 21
170.13913905541505
  0
LINE
  8
_1-1_
  6
CONTINUOUS
 62
    7
 10
136.76754791112611
 20
183.15612221587616
 11
136.76754791112611
 21
175.55612221597613
  0
LINE
  8
_1-1_
  6
CONTINUOUS
 62
    7
 10
137.51754791112611
 20
170.13913905541505
 11
137.51754791112611
 21
171.06023748846507
  0
LINE
  8
_1-1_
  6
CONTINUOUS
 62
    7
 10
137.51754791112611
 20
171.06857759361503
 11
137.51754791112611
 21
195.03976474696503
  0
LINE
  8
_1-1_
  6
CONTINUOUS
 62
    7
 10
137.51754791112611
 20
195.04923162391503
 11
137.51754791112611
 21
196.61965151811511
  0
LINE
  8
_1-1_
  6
CONTINUOUS
 62
    7
 10
137.51754791112611
 20
170.11972287836505
 11
136.76754791112611
 21
170.11972287836505
  0
LINE
  8
_1-1_
  6
CONTINUOUS
 62
    7
 10
137.51754791112611
 20
171.37703583596498
 11
136.76754791112611
 21
171.37703583596498
  0
LINE
  8
_1-1_
  6
CONTINUOUS
 62
    7
 10
137.51754791112611
 20
170.11972287836505
 11
137.51754791112611
 21
196.61972230191503
  0
LINE
  8
_1-1_
  6
CONTINUOUS
 62
    7
 10
136.76754791112611
 20
170.11972287836505
 11
136.76754791112611
 21
173.1382462667151
  0
LINE
  8
_1-1_
  6
CONTINUOUS
 62
    7
 10
136.76754791112611
 20
173.1382462667151
 11
136.76754791112611
 21
196.61972230191503
  0
LINE
  8
_1-1_
  6
CONTINUOUS
 62
    7
 10
137.51754791112611
 20
195.36240934431509
 11
136.76754791112611
 21
195.36240934431509
  0
LINE
  8
_1-1_
  6
CONTINUOUS
 62
    7
 10
137.51754791112611
 20
196.61972230191503
 11
136.76754791112611
 21
196.61972230191503
  0
LINE
  8
_1-1_
  6
CONTINUOUS
 62
    7
 10
136.76754791112611
 20
191.20266829156207
 11
136.76754791112611
 21
183.60266829166209
  0
LINE
  8
_1-1_
  6
CONTINUOUS
 62
    7
 10
136.76754791112611
 20
188.82519788968795
 11
136.76754791112611
 21
185.98013869353621
  0
LINE
  8
_1-1_
  6
CONTINUOUS
 62
    7
 10
136.76754791112611
 20
191.20266829156207
 11
136.76754791112611
 21
183.60266829166209
  0
LINE
  8
_1-1_
  6
CONTINUOUS
 62
    7
 10
137.51754791112611
 20
196.61965151811511
 11
136.76754791112611
 21
196.61965151811511
  0
LINE
  8
_1-1_
  6
CONTINUOUS
 62
    7
 10
137.51754791112611
 20
195.36233856051512
 11
136.76754791112611
 21
195.36233856051512
  0
LINE
  8
_1-1_
  6
CONTINUOUS
 62
    7
 10
136.76754791112611
 20
193.60112812976507
 11
135.76754791112611
 21
193.60112812976507
  0
LINE
  8
_1-1_
  6
CONTINUOUS
 62
    7
 10
137.51754791112611
 20
196.61965151811511
 11
137.51754791112611
 21
170.11965209456508
  0
LINE
  8
_1-1_
  6
CONTINUOUS
 62
    7
 10
136.76754791112611
 20
196.61965151811511
 11
136.76754791112611
 21
193.10112812976507
  0
LINE
  8
_1-1_
  6
CONTINUOUS
 62
    7
 10
136.76754791112611
 20
173.60112812976507
 11
136.76754791112611
 21
170.11965209456508
  0
LINE
  8
_1-1_
  6
CONTINUOUS
 62
    7
 10
136.26754791112611
 20
193.60112812976507
 11
136.26754791112611
 21
193.10112812976507
  0
LINE
  8
_1-1_
  6
CONTINUOUS
 62
    7
 10
136.26754791112611
 20
173.60112812976507
 11
136.26754791112611
 21
173.10112812976507
  0
LINE
  8
_1-1_
  6
CONTINUOUS
 62
    7
 10
135.76754791112611
 20
193.60112812976507
 11
135.76754791112611
 21
193.10112812976507
  0
LINE
  8
_1-1_
  6
CONTINUOUS
 62
    7
 10
135.76754791112611
 20
190.8313571327651
 11
135.76754791112611
 21
189.38074607286512
  0
LINE
  8
_1-1_
  6
CONTINUOUS
 62
    7
 10
135.76754791112611
 20
183.9684804667151
 11
135.76754791112611
 21
182.74362273886509
  0
LINE
  8
_1-1_
  6
CONTINUOUS
 62
    7
 10
135.76754791112611
 20
177.3313571327651
 11
135.76754791112611
 21
175.88074607286512
  0
LINE
  8
_1-1_
  6
CONTINUOUS
 62
    7
 10
135.76754791112611
 20
173.60112812976507
 11
135.76754791112611
 21
173.10112812976507
  0
LINE
  8
_1-1_
  6
CONTINUOUS
 62
    7
 10
136.76754791112611
 20
173.10112812976507
 11
135.76754791112611
 21
173.10112812976507
  0
LINE
  8
_1-1_
  6
CONTINUOUS
 62
    7
 10
137.51754791112611
 20
171.37696505216507
 11
136.76754791112611
 21
171.37696505216507
  0
LINE
  8
_1-1_
  6
CONTINUOUS
 62
    7
 10
137.51754791112611
 20
170.11965209456508
 11
136.76754791112611
 21
170.11965209456508
  0
LINE
  8
_1-1_
  6
CONTINUOUS
 62
    7
 10
135.76754791112611
 20
173.1382462667151
 11
135.76754791112611
 21
193.60112812976507
  0
LINE
  8
_1-1_
  6
CONTINUOUS
 62
    7
 10
136.76754791112611
 20
193.10112812976507
 11
131.76754791112611
 21
193.10112812976507
  0
LINE
  8
_1-1_
  6
CONTINUOUS
 62
    7
 10
135.01755495762611
 20
191.15605160281512
 11
131.76754791112611
 21
191.15605160281512
  0
LINE
  8
_1-1_
  6
CONTINUOUS
 62
    7
 10
131.76754791112611
 20
189.0560516028151
 11
135.01755495762611
 21
189.0560516028151
  0
LINE
  8
_1-1_
  6
CONTINUOUS
 62
    7
 10
134.91755495762609
 20
184.40605160281512
 11
132.91755495762609
 21
184.40605160281512
  0
LINE
  8
_1-1_
  6
CONTINUOUS
 62
    7
 10
132.91755495762609
 20
182.3060516028151
 11
134.91755495762609
 21
182.3060516028151
  0
LINE
  8
_1-1_
  6
CONTINUOUS
 62
    7
 10
131.76754791112611
 20
175.5560516028151
 11
135.01755495762611
 21
175.5560516028151
  0
LINE
  8
_1-1_
  6
CONTINUOUS
 62
    7
 10
136.76754791112611
 20
173.60112812976507
 11
131.76754791112611
 21
173.60112812976507
  0
ARC
  8
_1-1_
  6
CONTINUOUS
 62
    7
 10
135.01755495762611
 20
190.10605160281511
 40
1.05
 50
270
 51
315.95868950293566
  0
ARC
  8
_1-1_
  6
CONTINUOUS
 62
    7
 10
135.01755495762611
 20
190.10605160281511
 40
1.05
 50
44.41585800785571
 51
90
  0
ARC
  8
_1-1_
  6
CONTINUOUS
 62
    7
 10
134.91755495762609
 20
183.35605160281511
 40
1.05
 50
270
 51
324.04877744135956
  0
ARC
  8
_1-1_
  6
CONTINUOUS
 62
    7
 10
134.91755495762609
 20
183.35605160281511
 40
1.05
 50
35.773146667025045
 51
90
  0
ARC
  8
_1-1_
  6
CONTINUOUS
 62
    7
 10
135.01755495762611
 20
176.60605160281511
 40
1.05
 50
270
 51
315.58414199214428
  0
ARC
  8
_1-1_
  6
DASHED1
 62
    7
 10
134.91610478941177
 20
183.35806932766297
 40
1.05
 50
324.18378212853474
 51
35.637557862680857
  0
ARC
  8
_1-1_
  6
DASHED1
 62
    7
 10
135.01290663665932
 20
190.10127731050516
 40
1.05
 50
315.9477464833788
 51
44.052253516620623
  0
LINE
  8
_1-1_
  6
CONTINUOUS
 62
    7
 10
113.40164749712721
 20
177.33112221592614
 11
135.76754791112611
 21
177.33112221592614
  0
LINE
  8
_1-1_
  6
CONTINUOUS
 62
    7
 10
113.40164749712721
 20
181.38112221592615
 11
135.76754791112611
 21
181.38112221592615
  0
LINE
  8
_1-1_
  6
DASHED1
 62
    7
 10
135.76754791112611
 20
181.38112221592615
 11
136.76754791112611
 21
181.38112221592615
  0
LINE
  8
_1-1_
  6
DASHED1
 62
    7
 10
135.76754791112611
 20
177.3313571327651
 11
136.76754791112611
 21
177.3313571327651
  0
ARC
  8
_1-1_
  6
DASHED1
 62
    7
 10
135.01755495762611
 20
176.60605160281511
 40
1.05
 50
315.58414199214331
 51
90.000000000000554
  0
LINE
  8
_1-1_
  6
DASHED1
 62
    7
 10
131.76754791112611
 20
177.65605160281512
 11
135.01755495762611
 21
177.65605160281512
  0
LINE
  8
_1-a_
  6
CONTINUOUS
 62
    4
 10
136.76754791112611
 20
226.54543865136218
 11
138.2164366505597
 21
226.15721008370837
  0
LINE
  8
_1-a_
  6
CONTINUOUS
 62
    4
 10
136.76754791112611
 20
226.54543865136218
 11
138.2164366505597
 21
226.93366721901594
  0
LINE
  8
_1-a_
  6
CONTINUOUS
 62
    4
 10
136.76754791112611
 20
226.54543868716149
 11
135.3186591716925
 21
226.93366725481524
  0
LINE
  8
_1-a_
  6
CONTINUOUS
 62
    4
 10
136.76754791112611
 20
226.54543868716149
 11
135.3186591716925
 21
226.15721011950768
  0
LINE
  8
_1-a_
  6
CONTINUOUS
 62
    4
 10
84.244946010346936
 20
226.54543868716149
 11
136.76754791112611
 21
226.54543868716149
  0
LINE
  8
_1-a_
  6
CONTINUOUS
 62
    4
 10
136.76754791112611
 20
198.11972230191503
 11
136.76754791112611
 21
227.04543865136218
  0
LINE
  8
_1-1_
  6
CONTINUOUS
 62
    7
 10
250.99343457523104
 20
185.69472245151058
 11
227.76754791112614
 21
185.69472245151058
  0
LINE
  8
_1-1_
  6
CONTINUOUS
 62
    7
 10
226.01754791112614
 20
170.13913905541505
 11
226.01754791112614
 21
171.06023748846507
  0
LINE
  8
_1-1_
  6
CONTINUOUS
 62
    7
 10
226.01754791112614
 20
171.06857759361503
 11
226.01754791112614
 21
195.03976474696503
  0
LINE
  8
_1-1_
  6
CONTINUOUS
 62
    7
 10
226.01754791112614
 20
195.04923162391503
 11
226.01754791112614
 21
196.61965151811511
  0
LINE
  8
_1-1_
  6
CONTINUOUS
 62
    7
 10
226.01754791112614
 20
170.11972287836505
 11
226.76754791112614
 21
170.11972287836505
  0
LINE
  8
_1-1_
  6
CONTINUOUS
 62
    7
 10
226.01754791112614
 20
171.37703583596498
 11
226.76754791112614
 21
171.37703583596498
  0
LINE
  8
_1-1_
  6
CONTINUOUS
 62
    7
 10
226.01754791112614
 20
170.11972287836505
 11
226.01754791112614
 21
196.61972230191503
  0
LINE
  8
_1-1_
  6
CONTINUOUS
 62
    7
 10
226.76754791112614
 20
170.11972287836505
 11
226.76754791112614
 21
173.1382462667151
  0
LINE
  8
_1-1_
  6
CONTINUOUS
 62
    7
 10
226.76754791112614
 20
173.1382462667151
 11
226.76754791112614
 21
196.61972230191503
  0
LINE
  8
_1-1_
  6
CONTINUOUS
 62
    7
 10
226.01754791112614
 20
195.36240934431509
 11
226.76754791112614
 21
195.36240934431509
  0
LINE
  8
_1-1_
  6
CONTINUOUS
 62
    7
 10
226.01754791112614
 20
196.61972230191503
 11
226.76754791112614
 21
196.61972230191503
  0
LINE
  8
_1-1_
  6
CONTINUOUS
 62
    7
 10
226.01754791112614
 20
196.61965151811511
 11
225.51754791112614
 21
196.61972230191503
  0
LINE
  8
_1-1_
  6
CONTINUOUS
 62
    7
 10
225.51754791112614
 20
196.61972230191503
 11
225.51754791112614
 21
170.13906827161503
  0
LINE
  8
_1-1_
  6
CONTINUOUS
 62
    7
 10
225.51754791112614
 20
170.13906827161503
 11
226.01754791112614
 21
170.13913905541505
  0
LINE
  8
_1-1_
  6
CONTINUOUS
 62
    7
 10
226.76754791112614
 20
191.20266829156207
 11
226.76754791112614
 21
183.60266829166209
  0
LINE
  8
_1-1_
  6
CONTINUOUS
 62
    7
 10
226.76754791112614
 20
188.82519788968795
 11
226.76754791112614
 21
185.98013869353621
  0
LINE
  8
_1-1_
  6
CONTINUOUS
 62
    7
 10
226.76754791112614
 20
191.20266829156207
 11
226.76754791112614
 21
183.60266829166209
  0
LINE
  8
_1-1_
  6
CONTINUOUS
 62
    7
 10
226.01754791112614
 20
196.61965151811511
 11
226.76754791112614
 21
196.61965151811511
  0
LINE
  8
_1-1_
  6
CONTINUOUS
 62
    7
 10
226.01754791112614
 20
195.36233856051512
 11
226.76754791112614
 21
195.36233856051512
  0
LINE
  8
_1-1_
  6
CONTINUOUS
 62
    7
 10
226.76754791112614
 20
193.60112812976507
 11
227.76754791112614
 21
193.60112812976507
  0
LINE
  8
_1-1_
  6
CONTINUOUS
 62
    7
 10
226.76754791112614
 20
193.10112812976507
 11
231.76754791112614
 21
193.10112812976507
  0
LINE
  8
_1-1_
  6
CONTINUOUS
 62
    7
 10
228.51754086462614
 20
191.15605160281512
 11
231.76754791112614
 21
191.15605160281512
  0
LINE
  8
_1-1_
  6
CONTINUOUS
 62
    7
 10
231.76754791112614
 20
189.0560516028151
 11
228.51754086462614
 21
189.0560516028151
  0
LINE
  8
_1-1_
  6
CONTINUOUS
 62
    7
 10
226.01754791112614
 20
196.61965151811511
 11
226.01754791112614
 21
170.11965209456508
  0
LINE
  8
_1-1_
  6
CONTINUOUS
 62
    7
 10
226.76754791112614
 20
196.61965151811511
 11
226.76754791112614
 21
193.10112812976507
  0
LINE
  8
_1-1_
  6
CONTINUOUS
 62
    7
 10
226.76754791112614
 20
173.60112812976507
 11
226.76754791112614
 21
170.11965209456508
  0
LINE
  8
_1-1_
  6
CONTINUOUS
 62
    7
 10
227.26754791112614
 20
193.60112812976507
 11
227.26754791112614
 21
193.10112812976507
  0
LINE
  8
_1-1_
  6
CONTINUOUS
 62
    7
 10
227.26754791112614
 20
173.60112812976507
 11
227.26754791112614
 21
173.10112812976507
  0
LINE
  8
_1-1_
  6
CONTINUOUS
 62
    7
 10
228.6175408646261
 20
184.40605160281512
 11
230.6175408646261
 21
184.40605160281512
  0
LINE
  8
_1-1_
  6
CONTINUOUS
 62
    7
 10
227.76754791112614
 20
190.8313571327651
 11
227.76754791112614
 21
189.38074607286512
  0
LINE
  8
_1-1_
  6
CONTINUOUS
 62
    7
 10
227.76754791112614
 20
183.9684804667151
 11
227.76754791112614
 21
182.74362273886509
  0
LINE
  8
_1-1_
  6
CONTINUOUS
 62
    7
 10
227.76754791112614
 20
177.3313571327651
 11
227.76754791112614
 21
175.88074607286512
  0
LINE
  8
_1-1_
  6
CONTINUOUS
 62
    7
 10
227.76754791112614
 20
173.60112812976507
 11
227.76754791112614
 21
173.10112812976507
  0
LINE
  8
_1-1_
  6
CONTINUOUS
 62
    7
 10
230.6175408646261
 20
182.3060516028151
 11
228.6175408646261
 21
182.3060516028151
  0
LINE
  8
_1-1_
  6
CONTINUOUS
 62
    7
 10
231.76754791112614
 20
177.65605160281512
 11
228.51754086462614
 21
177.65605160281512
  0
LINE
  8
_1-1_
  6
CONTINUOUS
 62
    7
 10
231.76754791112614
 20
175.5560516028151
 11
228.51754086462614
 21
175.5560516028151
  0
LINE
  8
_1-1_
  6
CONTINUOUS
 62
    7
 10
226.76754791112614
 20
173.60112812976507
 11
231.76754791112614
 21
173.60112812976507
  0
LINE
  8
_1-1_
  6
CONTINUOUS
 62
    7
 10
226.76754791112614
 20
173.10112812976507
 11
227.76754791112614
 21
173.10112812976507
  0
LINE
  8
_1-1_
  6
CONTINUOUS
 62
    7
 10
226.01754791112614
 20
171.37696505216507
 11
226.76754791112614
 21
171.37696505216507
  0
LINE
  8
_1-1_
  6
CONTINUOUS
 62
    7
 10
226.01754791112614
 20
170.11965209456508
 11
226.76754791112614
 21
170.11965209456508
  0
ARC
  8
_1-1_
  6
CONTINUOUS
 62
    7
 10
228.51754086462614
 20
176.60605160281511
 40
1.05
 50
90
 51
135.58414199214428
  0
ARC
  8
_1-1_
  6
CONTINUOUS
 62
    7
 10
228.51754086462614
 20
176.60605160281511
 40
1.05
 50
224.04131049706461
 51
270
  0
ARC
  8
_1-1_
  6
CONTINUOUS
 62
    7
 10
228.6175408646261
 20
183.35605160281511
 40
1.05
 50
90
 51
144.04877744135288
  0
ARC
  8
_1-1_
  6
CONTINUOUS
 62
    7
 10
228.6175408646261
 20
183.35605160281511
 40
1.05
 50
215.95122255864708
 51
270
  0
ARC
  8
_1-1_
  6
CONTINUOUS
 62
    7
 10
228.51754086462614
 20
190.10605160281511
 40
1.05
 50
90
 51
135.95868950293427
  0
ARC
  8
_1-1_
  6
CONTINUOUS
 62
    7
 10
228.51754086462614
 20
190.10605160281511
 40
1.05
 50
224.41585800785574
 51
270
  0
ARC
  8
_1-1_
  6
DASHED1
 62
    7
 10
228.52215887456657
 20
190.11085722457801
 40
1.05
 50
136.32237285341378
 51
224.05463223819251
  0
ARC
  8
_1-1_
  6
DASHED1
 62
    7
 10
228.61899579469218
 20
183.35806272907646
 40
1.05
 50
144.18422616301202
 51
215.81577383698797
  0
ARC
  8
_1-1_
  6
DASHED1
 62
    7
 10
228.51754086462614
 20
176.60605160281511
 40
1.05
 50
135.58414199214428
 51
224.41585800785571
  0
LINE
  8
_1-1_
  6
CONTINUOUS
 62
    7
 10
250.99343457523116
 20
181.04472248859889
 11
227.76754791112614
 21
181.04472248859889
  0
LINE
  8
_1-1_
  6
DASHED1
 62
    7
 10
227.76754791112614
 20
177.69472248859892
 11
226.76754791112614
 21
177.69472248859892
  0
LINE
  8
_1-1_
  6
DASHED1
 62
    7
 10
227.76754791112614
 20
181.04472248859889
 11
226.76754791112614
 21
181.04472248859889
  0
LINE
  8
_1-1_
  6
DASHED1
 62
    7
 10
227.76754791112614
 20
189.04472245151077
 11
226.76754791112614
 21
189.04472245151077
  0
LINE
  8
_1-1_
  6
DASHED1
 62
    7
 10
227.76754791112614
 20
185.69472245151058
 11
226.76754791112614
 21
185.69472245151058
  0
LINE
  8
_1-1_
  6
CONTINUOUS
 62
    7
 10
227.76754791112614
 20
193.60112812976507
 11
227.76754791112614
 21
193.10112812976507
  0
LINE
  8
_1-1_
  6
CONTINUOUS
 62
    7
 10
227.76754791112614
 20
173.1382462667151
 11
227.76754791112614
 21
193.60112812976507
  0
LINE
  8
_1-1_
  6
CONTINUOUS
 62
    7
 10
234.0899708703094
 20
177.69472248859892
 11
227.76754791112614
 21
177.69472248859892
  0
LINE
  8
_1-1_
  6
CONTINUOUS
 62
    7
 10
234.0899708703094
 20
189.04472245151077
 11
227.76754791112614
 21
189.04472245151077
  0
LINE
  8
_1-1_
  6
CONTINUOUS
 62
    7
 10
225.51754791112614
 20
170.13906827161503
 11
138.01754791112611
 21
170.13906827161503
  0
LINE
  8
_1-1_
  6
CONTINUOUS
 62
    7
 10
225.51754791112614
 20
170.68064985876497
 11
138.01754791112611
 21
170.68064985876497
  0
LINE
  8
_1-1_
  6
CONTINUOUS
 62
    7
 10
225.51754791112614
 20
170.79803713981505
 11
138.01754791112611
 21
170.79803713981505
  0
LINE
  8
_1-1_
  6
CONTINUOUS
 62
    7
 10
225.51754791112614
 20
171.02924928596507
 11
138.01754791112611
 21
171.02924928596507
  0
LINE
  8
_1-1_
  6
CONTINUOUS
 62
    7
 10
225.51754791112614
 20
171.06023748846507
 11
138.01754791112611
 21
171.06023748846507
  0
LINE
  8
_1-1_
  6
CONTINUOUS
 62
    7
 10
225.51754791112614
 20
171.71902582656503
 11
138.01754791112611
 21
171.71902582656503
  0
LINE
  8
_1-1_
  6
CONTINUOUS
 62
    7
 10
225.51754791112614
 20
171.83273537251511
 11
138.01754791112611
 21
171.83273537251511
  0
LINE
  8
_1-1_
  6
CONTINUOUS
 62
    7
 10
225.51754791112614
 20
172.31811971411502
 11
138.01754791112611
 21
172.31811971411502
  0
LINE
  8
_1-1_
  6
CONTINUOUS
 62
    7
 10
225.51754791112614
 20
172.45328339641503
 11
138.01754791112611
 21
172.45328339641503
  0
LINE
  8
_1-1_
  6
CONTINUOUS
 62
    7
 10
225.51754791112614
 20
194.30550717711503
 11
138.01754791112611
 21
194.30550717711503
  0
LINE
  8
_1-1_
  6
CONTINUOUS
 62
    7
 10
225.51754791112614
 20
194.44067085941497
 11
138.01754791112611
 21
194.44067085941497
  0
LINE
  8
_1-1_
  6
CONTINUOUS
 62
    7
 10
225.51754791112614
 20
194.92605520101506
 11
138.01754791112611
 21
194.92605520101506
  0
LINE
  8
_1-1_
  6
CONTINUOUS
 62
    7
 10
225.51754791112614
 20
195.03976474696503
 11
138.01754791112611
 21
195.03976474696503
  0
LINE
  8
_1-1_
  6
CONTINUOUS
 62
    7
 10
225.51754791112614
 20
195.6985530850651
 11
138.01754791112611
 21
195.6985530850651
  0
LINE
  8
_1-1_
  6
CONTINUOUS
 62
    7
 10
225.51754791112614
 20
195.72954128756509
 11
138.01754791112611
 21
195.72954128756509
  0
LINE
  8
_1-1_
  6
CONTINUOUS
 62
    7
 10
225.51754791112614
 20
195.96075343371501
 11
138.01754791112611
 21
195.96075343371501
  0
LINE
  8
_1-1_
  6
CONTINUOUS
 62
    7
 10
225.51754791112614
 20
196.07814071476502
 11
138.01754791112611
 21
196.07814071476502
  0
LINE
  8
_1-1_
  6
CONTINUOUS
 62
    7
 10
225.51754791112614
 20
196.61972230191503
 11
138.01754791112611
 21
196.61972230191503
  0
LINE
  8
_1-1_
  6
CONTINUOUS
 62
    7
 10
225.51754791112614
 20
174.63865478511502
 11
138.01754791112611
 21
174.63865478511502
  0
LINE
  8
_1-1_
  6
CONTINUOUS
 62
    7
 10
225.51754791112614
 20
173.64004798736505
 11
138.01754791112611
 21
173.64004798736505
  0
LINE
  8
_1-1_
  6
CONTINUOUS
 62
    7
 10
225.51754791112614
 20
173.88865478506522
 11
138.01754791112611
 21
173.88865478506522
  0
LINE
  8
_1-1_
  6
CONTINUOUS
 62
    7
 10
225.51754791112614
 20
174.39004798731502
 11
138.01754791112611
 21
174.39004798731502
  0
LINE
  8
_1-1_
  6
CONTINUOUS
 62
    7
 10
225.51754791112614
 20
192.12799080221503
 11
138.01754791112611
 21
192.12799080221503
  0
LINE
  8
_1-1_
  6
CONTINUOUS
 62
    7
 10
225.51754791112614
 20
193.12659759996506
 11
138.01754791112611
 21
193.12659759996506
  0
LINE
  8
_1-1_
  6
CONTINUOUS
 62
    7
 10
225.51754791112614
 20
192.87799080226488
 11
138.01754791112611
 21
192.87799080226488
  0
LINE
  8
_1-1_
  6
CONTINUOUS
 62
    7
 10
225.51754791112614
 20
192.37659760001503
 11
138.01754791112611
 21
192.37659760001503
  0
LINE
  8
_1-1_
  6
CONTINUOUS
 62
    4
 10
225.51754791112614
 20
128.74138398354497
 11
225.51754791112614
 21
144.49138398644504
  0
LINE
  8
_1-1_
  6
CONTINUOUS
 62
    7
 10
225.51754791112614
 20
128.74138398354497
 11
225.51754791112614
 21
144.49138398354494
  0
LINE
  8
_1-1_
  6
CONTINUOUS
 62
    7
 10
226.01754791112614
 20
122.74138398354497
 11
232.26754791112614
 21
122.74138398354497
  0
LINE
  8
_1-1_
  6
CONTINUOUS
 62
    7
 10
226.76754791112614
 20
123.49177741179497
 11
232.26754791112614
 21
123.49177741179497
  0
LINE
  8
_1-1_
  6
CONTINUOUS
 62
    7
 10
226.01754791112614
 20
123.99784588984496
 11
226.76754791112614
 21
123.99784588984496
  0
LINE
  8
_1-1_
  6
CONTINUOUS
 62
    7
 10
226.01754791112614
 20
144.49138398354494
 11
226.01754791112608
 21
122.74138398354497
  0
LINE
  8
_1-1_
  6
CONTINUOUS
 62
    7
 10
226.76754791112614
 20
144.49138398354494
 11
226.76754791112614
 21
123.49177741179497
  0
LINE
  8
_1-1_
  6
CONTINUOUS
 62
    7
 10
227.76754791112614
 20
143.99138398354494
 11
227.76754791112614
 21
143.49149909719494
  0
LINE
  8
_1-1_
  6
CONTINUOUS
 62
    7
 10
226.76754791112614
 20
142.99149909719494
 11
227.26754791112614
 21
142.99149909719494
  0
LINE
  8
_1-1_
  6
CONTINUOUS
 62
    7
 10
226.01754791112614
 20
143.23379266709491
 11
226.76754791112614
 21
143.23379266709491
  0
LINE
  8
_1-1_
  6
CONTINUOUS
 62
    7
 10
226.01754791112614
 20
144.49138398354494
 11
227.26754791112614
 21
144.49138398354494
  0
ARC
  8
_1-1_
  6
CONTINUOUS
 62
    7
 10
227.26754791112614
 20
143.49149909719494
 40
0.5
 50
270
 51
0
  0
ARC
  8
_1-1_
  6
CONTINUOUS
 62
    7
 10
227.26754791112614
 20
143.99138398354494
 40
0.5
 50
0
 51
90
  0
LINE
  8
_1-1_
  6
CONTINUOUS
 62
    7
 10
226.01754791112614
 20
128.74138398354497
 11
226.01754791112614
 21
144.49138398354494
  0
LINE
  8
_1-1_
  6
CONTINUOUS
 62
    7
 10
250.99343457523116
 20
140.16638398354496
 11
226.76754791112614
 21
140.16638398354496
  0
LINE
  8
_1-1_
  6
CONTINUOUS
 62
    7
 10
250.99343457523121
 20
136.81638398354502
 11
226.76754791112614
 21
136.81638398354502
  0
LINE
  8
_1-a_
  6
CONTINUOUS
 62
    4
 10
228.26754791112625
 20
128.74138398354506
 11
239.53809780284524
 21
128.74138398354506
  0
LINE
  8
_1-a_
  6
CONTINUOUS
 62
    4
 10
228.26754791112625
 20
144.491383983545
 11
239.53809780284524
 21
144.491383983545
  0
LINE
  8
_1-a_
  6
CONTINUOUS
 62
    4
 10
226.76754791112614
 20
226.54543865136218
 11
228.21643665055978
 21
226.15721008370837
  0
LINE
  8
_1-a_
  6
CONTINUOUS
 62
    4
 10
226.76754791112614
 20
226.54543865136218
 11
228.21643665055978
 21
226.93366721901594
  0
LINE
  8
_1-a_
  6
CONTINUOUS
 62
    4
 10
226.76754791112614
 20
226.54543865136218
 11
225.31865917169255
 21
226.93366721901594
  0
LINE
  8
_1-a_
  6
CONTINUOUS
 62
    4
 10
226.76754791112614
 20
226.54543865136218
 11
225.31865917169255
 21
226.15721008370837
  0
LINE
  8
_1-a_
  6
CONTINUOUS
 62
    4
 10
226.76754791112614
 20
226.54543865136218
 11
291.63343206100239
 21
226.54543865136218
  0
LINE
  8
_1-a_
  6
CONTINUOUS
 62
    4
 10
226.76754791112614
 20
198.11972230191503
 11
226.76754791112614
 21
227.04543865136218
  0
LINE
  8
_1-a_
  6
CONTINUOUS
 62
    4
 10
226.76754791112614
 20
211.86309383001844
 11
276.85601031406281
 21
211.86309383001844
  0
LINE
  8
_1-a_
  6
CONTINUOUS
 62
    4
 10
226.76754791112614
 20
211.86309383001844
 11
228.21643665055978
 21
212.25132239767219
  0
LINE
  8
_1-a_
  6
CONTINUOUS
 62
    4
 10
226.76754791112614
 20
211.86309383001844
 11
228.21643665055978
 21
211.47486526236463
  0
LINE
  8
_1-a_
  6
CONTINUOUS
 62
    4
 10
226.76754791112614
 20
211.86309383001844
 11
226.76754791112614
 21
198.11972230191503
  0
LINE
  8
_1-1_
  6
CONTINUOUS
 62
    7
 10
225.51754791112614
 20
132.20744313429509
 11
138.01754791112611
 21
132.20744313429509
  0
LINE
  8
_1-1_
  6
CONTINUOUS
 62
    7
 10
225.51754791112614
 20
132.35744313429501
 11
138.01754791112611
 21
132.35744313429501
  0
LINE
  8
_1-1_
  6
CONTINUOUS
 62
    7
 10
225.51754791112614
 20
132.75744313429501
 11
138.01754791112611
 21
132.75744313429501
  0
LINE
  8
_1-1_
  6
CONTINUOUS
 62
    7
 10
225.51754791112614
 20
132.90744313429496
 11
138.01754791112611
 21
132.90744313429496
  0
LINE
  8
_1-1_
  6
CONTINUOUS
 62
    7
 10
225.51754791112614
 20
133.85744313429501
 11
138.01754791112611
 21
133.85744313429501
  0
LINE
  8
_1-1_
  6
CONTINUOUS
 62
    7
 10
225.51754791112614
 20
134.00744313429501
 11
138.01754791112611
 21
134.00744313429501
  0
LINE
  8
_1-1_
  6
CONTINUOUS
 62
    7
 10
225.51754791112614
 20
134.40744313429496
 11
138.01754791112611
 21
134.40744313429496
  0
LINE
  8
_1-1_
  6
CONTINUOUS
 62
    7
 10
225.51754791112614
 20
134.55744313429497
 11
138.01754791112611
 21
134.55744313429497
  0
LINE
  8
_1-1_
  6
CONTINUOUS
 62
    7
 10
225.51754791112614
 20
135.45744313429509
 11
138.01754791112611
 21
135.45744313429509
  0
LINE
  8
_1-1_
  6
CONTINUOUS
 62
    7
 10
225.51754791112614
 20
135.60744313429501
 11
138.01754791112611
 21
135.60744313429501
  0
LINE
  8
_1-1_
  6
CONTINUOUS
 62
    7
 10
225.51754791112614
 20
136.00744313429501
 11
138.01754791112611
 21
136.00744313429501
  0
LINE
  8
_1-1_
  6
CONTINUOUS
 62
    7
 10
225.51754791112614
 20
136.15744313429496
 11
138.01754791112611
 21
136.15744313429496
  0
LINE
  8
_1-1_
  6
CONTINUOUS
 62
    7
 10
225.51754791112614
 20
137.05744313429497
 11
138.01754791112611
 21
137.05744313429497
  0
LINE
  8
_1-1_
  6
CONTINUOUS
 62
    7
 10
225.51754791112614
 20
137.20744313429509
 11
138.01754791112611
 21
137.20744313429509
  0
LINE
  8
_1-1_
  6
CONTINUOUS
 62
    7
 10
225.51754791112614
 20
137.60744313429501
 11
138.01754791112611
 21
137.60744313429501
  0
LINE
  8
_1-1_
  6
CONTINUOUS
 62
    7
 10
225.51754791112614
 20
137.75744313429501
 11
138.01754791112611
 21
137.75744313429501
  0
LINE
  8
_1-1_
  6
CONTINUOUS
 62
    7
 10
225.51754791112614
 20
138.65744313429496
 11
138.01754791112611
 21
138.65744313429496
  0
LINE
  8
_1-1_
  6
CONTINUOUS
 62
    7
 10
225.51754791112614
 20
138.80744313429497
 11
138.01754791112611
 21
138.80744313429497
  0
LINE
  8
_1-1_
  6
CONTINUOUS
 62
    7
 10
225.51754791112614
 20
139.20744313429509
 11
138.01754791112611
 21
139.20744313429509
  0
LINE
  8
_1-1_
  6
CONTINUOUS
 62
    7
 10
225.51754791112614
 20
139.35744313429501
 11
138.01754791112611
 21
139.35744313429501
  0
LINE
  8
_1-1_
  6
CONTINUOUS
 62
    7
 10
225.51754791112614
 20
140.25744313429501
 11
138.01754791112611
 21
140.25744313429501
  0
LINE
  8
_1-1_
  6
CONTINUOUS
 62
    7
 10
225.51754791112614
 20
140.40744313429496
 11
138.01754791112611
 21
140.40744313429496
  0
LINE
  8
_1-1_
  6
CONTINUOUS
 62
    7
 10
226.01754791112614
 20
144.49138398354494
 11
137.51754791112608
 21
144.49138398354494
  0
LINE
  8
_1-1_
  6
CONTINUOUS
 62
    7
 10
225.51754791112614
 20
142.211508577345
 11
137.51754791112608
 21
142.211508577345
  0
LINE
  8
_1-1_
  6
CONTINUOUS
 62
    7
 10
225.51754791112614
 20
140.95744313429509
 11
137.51754791112608
 21
140.95744313429509
  0
LINE
  8
_1-1_
  6
CONTINUOUS
 62
    7
 10
225.51754791112614
 20
140.80744313429497
 11
137.51754791112608
 21
140.80744313429497
  0
LINE
  8
_1-1_
  6
CONTINUOUS
 62
    7
 10
226.01754791112614
 20
128.74138398354497
 11
137.51754791112608
 21
128.74138398354497
  0
LINE
  8
_1-1_
  6
CONTINUOUS
 62
    7
 10
225.51754791112614
 20
131.37666640604501
 11
137.51754791112608
 21
131.37666640604501
  0
LINE
  8
_1-1_
  6
CONTINUOUS
 62
    7
 10
225.51754791112614
 20
131.16260951989505
 11
137.51754791112608
 21
131.16260951989505
  0
LINE
  8
_1-1_
  6
CONTINUOUS
 62
    7
 10
225.51754791112614
 20
131.02125938974501
 11
137.51754791112608
 21
131.02125938974501
  0
LINE
  8
_1-a_
  6
CONTINUOUS
 62
    4
 10
136.76754791112611
 20
226.54543865136218
 11
226.76754791112614
 21
226.54543865136218
  0
TEXT
  8
_1-a_
 62
    7
 10
178.51754791112614
 20
227.04543865136218
 40
4
 41
1
 50
0
  1
180
  0
ENDSEC
  0
EOF
