  0
SECTION
  2
HEADER
  9
$ACADVER
  1
AC1009
  9
$INSBASE
 10
0
 20
0
 30
0
  9
$EXTMIN
 10
0
 20
0
  9
$EXTMAX
 10
420
 20
297
  9
$LIMMIN
 10
0
 20
0
  9
$LIMMAX
 10
420
 20
297
  9
$LTSCALE
 40
1
  0
ENDSEC
  0
SECTION
  2
TABLES
  0
TABLE
  2
LTYPE
 70
     9
  0
LTYPE
  2
CONTINUOUS
 70
    64
  3
実線
 72
    65
 73
     0
 40
0.0
  0
LTYPE
  2
DASHED1
 70
    64
  3
--  --  --  --  --  --  --  --  
 72
    65
 73
     2
 40
2.5
 49
1.25
 49
-1.25
  0
LTYPE
  2
DASHED2
 70
    64
  3
----    ----    ----    ----    
 72
    65
 73
     2
 40
5.0
 49
2.5
 49
-2.5
  0
LTYPE
  2
DASHED3
 70
    64
  3
------  ------  ------  ------  
 72
    65
 73
     2
 40
5.0
 49
3.75
 49
-1.25
  0
LTYPE
  2
CENTER1
 70
    64
  3
----- - ----- - ----- - ----- - 
 72
    65
 73
     4
 40
10.0
 49
6.25
 49
-1.25
 49
1.25
 49
-1.25
  0
LTYPE
  2
CENTER2
 70
    64
  3
----------  --  ----------  --  
 72
    65
 73
     4
 40
20.0
 49
12.5
 49
-2.5
 49
2.5
 49
-2.5
  0
LTYPE
  2
PHANTOM1
 70
    64
  3
--- - - --- - - --- - - --- - - 
 72
    65
 73
     6
 40
10.0
 49
3.25
 49
-1.25
 49
1.25
 49
-1.25
 49
1.25
 49
-1.25
  0
LTYPE
  2
PHANTOM2
 70
    64
  3
--------  -  -  --------  -  -  
 72
    65
 73
     6
 40
20.0
 49
10.0
 49
-2.5
 49
1.25
 49
-2.5
 49
1.25
 49
-2.5
  0
LTYPE
  2
DOT
 70
    64
  3
-   -   -   -   -   -   -   -   
 72
    65
 73
     2
 40
2.5
 49
0.625
 49
-1.875
  0
LTYPE
  2
DUMMY
 70
    64
  3
ダミー
 72
    65
 73
     0
 40
0.0
  0
LTYPE
  2
RAND1
 70
    64
  3
ランダム線1
 72
    65
 73
     4
 40
10.0
 49
1.0
 49
-2.0
 49
3.0
 49
-4.0
  0
LTYPE
  2
RAND2
 70
    64
  3
ランダム線2
 72
    65
 73
     4
 40
14.0
 49
2.0
 49
-3.0
 49
4.0
 49
-5.0
  0
LTYPE
  2
RAND3
 70
    64
  3
ランダム線3
 72
    65
 73
     4
 40
18.0
 49
3.0
 49
-4.0
 49
5.0
 49
-6.0
  0
LTYPE
  2
RAND4
 70
    64
  3
ランダム線4
 72
    65
 73
     4
 40
22.0
 49
4.0
 49
-5.0
 49
6.0
 49
-7.0
  0
LTYPE
  2
RAND5
 70
    64
  3
ランダム線5
 72
    65
 73
     4
 40
26.0
 49
5.0
 49
-6.0
 49
7.0
 49
-8.0
  0
LTYPE
  2
LONG1
 70
    64
  3
----------  --  ----------  --  
 72
    65
 73
     4
 40
40.0
 49
32.5
 49
-2.5
 49
2.5
 49
-2.5
  0
LTYPE
  2
LONG2
 70
    64
  3
--------  -  -  --------  -  -  
 72
    65
 73
     6
 40
40.0
 49
30.0
 49
-2.5
 49
1.25
 49
-2.5
 49
1.25
 49
-2.5
  0
LTYPE
  2
LONG3
 70
    64
  3
+++++++++++++++..+++++++++++++++
 72
    65
 73
     2
 40
40.0
 49
37.5
 49
-2.5
  0
LTYPE
  2
LONG4
 70
    64
  3
+++++++++++++++..+++++++++++++++
 72
    65
 73
     2
 40
80.0
 49
75.0
 49
-5.0
  0
LTYPE
  2
LONG5
 70
    64
  3
----------  --  ----------  --  
 72
    65
 73
     4
 40
60.0
 49
37.5
 49
-7.5
 49
7.5
 49
-7.5
  0
LTYPE
  2
dashed
 70
   64
  3
-------   -------------   ------
 72
   65
 73
    2
 40
7.5
 49
6
 49
-1.5
  0
LTYPE
  2
dashed_spaced
 70
   64
  3
----        --------        ----
 72
   65
 73
    2
 40
12
 49
6
 49
-6
  0
LTYPE
  2
long_dashed_dotted
 70
   64
  3
------------- --- --------------
 72
   65
 73
    4
 40
15.25
 49
12
 49
-1.5
 49
0.25
 49
-1.5
  0
LTYPE
  2
long_dashed_double-dotted
 70
   64
  3
----------- --- --- ------------
 72
   65
 73
    6
 40
17
 49
12
 49
-1.5
 49
0.25
 49
-1.5
 49
0.25
 49
-1.5
  0
LTYPE
  2
long_dashed_triplicate-dotted
 70
   64
  3
--------- --- --- --- ----------
 72
   65
 73
    8
 40
18.75
 49
12
 49
-1.5
 49
0.25
 49
-1.5
 49
0.25
 49
-1.5
 49
0.25
 49
-1.5
  0
LTYPE
  2
dotted
 70
   64
  3
   -       -       -       -    
 72
   65
 73
    2
 40
1.75
 49
0.25
 49
-1.5
  0
LTYPE
  2
chain
 70
   64
  3
-------------- -- --------------
 72
   65
 73
    4
 40
18.5
 49
12
 49
-1.5
 49
3.5
 49
-1.5
  0
LTYPE
  2
chain_double_dash
 70
   64
  3
------------ -- -- -------------
 72
   65
 73
    6
 40
23.5
 49
12
 49
-1.5
 49
3.5
 49
-1.5
 49
3.5
 49
-1.5
  0
LTYPE
  2
dashed_dotted
 70
   64
  3
-----------     -     ----------
 72
   65
 73
    4
 40
9.25
 49
6
 49
-1.5
 49
0.25
 49
-1.5
  0
LTYPE
  2
double-dashed_dotted
 70
   64
  3
------   -----------   -   -----
 72
   65
 73
    6
 40
16.75
 49
6
 49
-1.5
 49
6
 49
-1.5
 49
0.25
 49
-1.5
  0
LTYPE
  2
dashed_double-dotted
 70
   64
  3
---------    -    -    ---------
 72
   65
 73
    6
 40
11
 49
6
 49
-1.5
 49
0.25
 49
-1.5
 49
0.25
 49
-1.5
  0
LTYPE
  2
double-dashed_double-dotted
 70
   64
  3
-----   ---------   -   -   ----
 72
   65
 73
    8
 40
18.5
 49
6
 49
-1.5
 49
6
 49
-1.5
 49
0.25
 49
-1.5
 49
0.25
 49
-1.5
  0
LTYPE
  2
dashed_triplicate-dotted
 70
   64
  3
-------    -    -    -    ------
 72
   65
 73
    8
 40
12.75
 49
6
 49
-1.5
 49
0.25
 49
-1.5
 49
0.25
 49
-1.5
 49
0.25
 49
-1.5
  0
LTYPE
  2
double-dashed_triplicate-dotted
 70
   64
  3
-----  ---------  -  -  -  -----
 72
   65
 73
   10
 40
20.25
 49
6
 49
-1.5
 49
6
 49
-1.5
 49
0.25
 49
-1.5
 49
0.25
 49
-1.5
 49
0.25
 49
-1.5
  0
LTYPE
  2
undefined
 70
   64
  3
--------------------------------
 72
   65
 73
    0
 40
0
  0
LTYPE
  2
_
 70
   64
  3
                                
 72
   65
 73
    0
 40
0
  0
LTYPE
  2
__18
 70
   64
  3
                                
 72
   65
 73
    0
 40
0
  0
LTYPE
  2
__19
 70
   64
  3
                                
 72
   65
 73
    0
 40
0
  0
LTYPE
  2
__20
 70
   64
  3
                                
 72
   65
 73
    0
 40
0
  0
LTYPE
  2
__21
 70
   64
  3
                                
 72
   65
 73
    0
 40
0
  0
LTYPE
  2
__22
 70
   64
  3
                                
 72
   65
 73
    0
 40
0
  0
LTYPE
  2
__23
 70
   64
  3
                                
 72
   65
 73
    0
 40
0
  0
LTYPE
  2
__24
 70
   64
  3
                                
 72
   65
 73
    0
 40
0
  0
LTYPE
  2
__25
 70
   64
  3
                                
 72
   65
 73
    0
 40
0
  0
LTYPE
  2
__26
 70
   64
  3
                                
 72
   65
 73
    0
 40
0
  0
LTYPE
  2
__27
 70
   64
  3
                                
 72
   65
 73
    0
 40
0
  0
LTYPE
  2
__28
 70
   64
  3
                                
 72
   65
 73
    0
 40
0
  0
LTYPE
  2
__29
 70
   64
  3
                                
 72
   65
 73
    0
 40
0
  0
LTYPE
  2
__30
 70
   64
  3
                                
 72
   65
 73
    0
 40
0
  0
LTYPE
  2
__31
 70
   64
  3
                                
 72
   65
 73
    0
 40
0
  0
LTYPE
  2
__32
 70
   64
  3
                                
 72
   65
 73
    0
 40
0
  0
ENDTAB
  0
TABLE
  2
STYLE
  5
3
100
AcDbSymbolTable
 70
     1
  0
STYLE
  5
10
100
AcDbSymbolTableRecord
100
AcDbTextStyleTableRecord
  2
STANDARD
 70
     0
 40
0.0
 41
1.0
 50
0.0
 71
     0
 42
0.2
  3
txt
  4
bigfont.shx
  0
STYLE
  5
26
100
AcDbSymbolTableRecord
100
AcDbTextStyleTableRecord
  2
TATEGAKI
 70
    68
 40
0.0
 41
1.0
 50
0.0
 71
     0
 42
1.0
  3
txt
  4
bigfont.shx
  0
ENDTAB
  0
TABLE
  2
LAYER
 70
    6
  0
LAYER
  2
_0-0_
 70
   64
 62
    7
  6
CONTINUOUS
  0
LAYER
  2
_1-1_
 70
   64
 62
    7
  6
CONTINUOUS
  0
LAYER
  2
_1-9_
 70
   64
 62
    7
  6
CONTINUOUS
  0
LAYER
  2
_1-a_
 70
   64
 62
    7
  6
CONTINUOUS
  0
LAYER
  2
_f-0_
 70
   64
 62
    7
  6
CONTINUOUS
  0
LAYER
  2
ADD_LINE
 70
   64
 62
    7
  6
CONTINUOUS
  0
ENDTAB
  0
ENDSEC
  0
SECTION
  2
BLOCKS
  0
ENDSEC
  0
SECTION
  2
ENTITIES
  0
LINE
  8
_0-0_
  6
CONTINUOUS
 62
    7
 10
276.69514166441751
 20
264.38537458592179
 11
396.80297210711734
 21
264.38537458592179
  0
LINE
  8
_0-0_
  6
CONTINUOUS
 62
    7
 10
396.80297210711734
 20
269.39085456392183
 11
276.69515768201739
 21
269.39085456392183
  0
LINE
  8
_1-1_
  6
CONTINUOUS
 62
    7
 10
79.092396690477329
 20
183.58324284806207
 11
78.342003262227336
 21
183.58324284806207
  0
LINE
  8
_1-1_
  6
CONTINUOUS
 62
    7
 10
79.092396690477329
 20
183.58324284806207
 11
78.342003262227336
 21
183.58324284806207
  0
LINE
  8
_1-1_
  6
CONTINUOUS
 62
    7
 10
79.092396690477329
 20
183.58324284806207
 11
79.092396690477329
 21
164.08324284806209
  0
LINE
  8
_1-1_
  6
CONTINUOUS
 62
    7
 10
79.092396690477329
 20
165.53816632111215
 11
78.342003262227336
 21
165.53816632111215
  0
LINE
  8
_1-1_
  6
CONTINUOUS
 62
    7
 10
79.092396690477329
 20
166.03816632111215
 11
78.342003262227336
 21
166.03816632111215
  0
LINE
  8
_1-1_
  6
CONTINUOUS
 62
    7
 10
78.342003262227336
 20
168.13816632111215
 11
79.092396690477329
 21
168.13816632111215
  0
LINE
  8
_1-1_
  6
CONTINUOUS
 62
    7
 10
78.342003262227336
 20
168.63816632111215
 11
79.092396690477329
 21
168.63816632111215
  0
LINE
  8
_0-0_
  6
CONTINUOUS
 62
    7
 10
396.80297210711734
 20
35.093704660014367
 11
34.432929077332346
 21
35.093704660014367
  0
LINE
  8
_0-0_
  6
CONTINUOUS
 62
    7
 10
34.432929077332346
 20
35.093704660014367
 11
34.432929077332346
 21
274.79368314512186
  0
LINE
  8
_0-0_
  6
CONTINUOUS
 62
    7
 10
396.80297210711734
 20
274.79368314512186
 11
396.80297210711734
 21
35.093704660014367
  0
LINE
  8
_0-0_
  6
CONTINUOUS
 62
    7
 10
34.432929077332346
 20
274.79368314512186
 11
396.80297210711734
 21
274.79368314512186
  0
TEXT
  8
_0-0_
 62
    7
 10
304.20229139727854
 20
63.119475111724412
 40
3.0032999999999847
 41
1.0000000000000046
 50
-0.0000025044783313
  1
設計
  7
TATEGAKI
  0
TEXT
  8
_0-0_
 62
    7
 10
319.20137724322586
 20
63.119475111724398
 40
3.0032999999999847
 41
1.0000000000000046
 50
-0.0000025044786013
  1
製図
  7
TATEGAKI
  0
TEXT
  8
_0-0_
 62
    7
 10
334.20046308917306
 20
63.119475111724398
 40
3.0032999999999847
 41
1.0000000000000046
 50
-0.0000025044783313
  1
検図
  7
TATEGAKI
  0
TEXT
  8
_0-0_
 62
    7
 10
324.29083179644851
 20
53.391571591331043
 40
3.0032999999999883
 41
1.0000000000000128
 50
-0.0000025044780613
  1
材質
  7
TATEGAKI
  0
TEXT
  8
_0-0_
 62
    7
 10
313.74868101318349
 20
38.365433911913612
 40
3.2035199999999974
 41
1.0000000000000011
 50
0
  1
ＦＫＫ株式会社
  0
TEXT
  8
_0-0_
 62
    7
 10
349.32972737445146
 20
63.200594136573329
 40
3.0032999999999847
 41
1.0000000000000046
 50
-0.0000025044783313
  1
作図
  7
TATEGAKI
  0
TEXT
  8
_0-0_
 62
    7
 10
349.25383832415849
 20
53.391571591331057
 40
3.0032999999999883
 41
1.0000000000000128
 50
-0.0000025044778055
  1
品名
  7
TATEGAKI
  0
TEXT
  8
_0-0_
 62
    7
 10
349.37671503924633
 20
43.228717112876466
 40
3.0032999999999994
 41
1.0000000000000091
 50
-0.0000025044783313
  1
図番
  7
TATEGAKI
  0
TEXT
  8
_0-0_
 62
    7
 10
379.06143195819163
 20
63.138313713027443
 40
3.0032999999999994
 41
0.9999999999999902
 50
-0.0000025044786013
  1
尺度
  7
TATEGAKI
  0
TEXT
  8
_f-0_
 62
    7
 10
322.47576376016866
 20
58.23853785086537
 40
4.0044000000000039
 41
1.0000000000000004
 50
0
  1
藤島
  0
TEXT
  8
_f-0_
 62
    7
 10
307.53584560348667
 20
58.23853785086537
 40
4.0044000000000039
 41
1.0000000000000037
 50
0
  1
森田
  0
TEXT
  8
_f-0_
 62
    7
 10
345.08549239854005
 20
80.823239628935326
 40
4.0044000000000039
 41
1.0000000000000088
 50
0
  1
ー
  0
TEXT
  8
_f-0_
 62
    7
 10
345.08549239854005
 20
75.519084936723132
 40
4.004400000000011
 41
1.0000000000000071
 50
0
  1
ー
  0
TEXT
  8
_f-0_
 62
    7
 10
345.08549239854005
 20
85.825103890951496
 40
4.0044000000000039
 41
1.0000000000000088
 50
0
  1
ー
  0
TEXT
  8
_f-0_
 62
    7
 10
302.91031795998992
 20
86.226598933625922
 40
4.0043999999999968
 41
0.9999999999999982
 50
0
  1
④
  0
TEXT
  8
_f-0_
 62
    7
 10
302.91031795998992
 20
80.944793173965194
 40
4.0044000000000039
 41
0.9999999999999964
 50
0
  1
③
  0
TEXT
  8
_f-0_
 62
    7
 10
302.91031795998992
 20
75.920579979397558
 40
4.0044000000000039
 41
0.9999999999999964
 50
0
  1
②
  0
TEXT
  8
_f-0_
 62
    7
 10
302.91031795998992
 20
70.749029154490685
 40
4.0043999999999968
 41
0.9999999999999982
 50
0
  1
①
  0
TEXT
  8
_f-0_
 62
    7
 10
309.67542993650602
 20
70.800597325109421
 40
4.0044000000000039
 41
1
 50
0
  1
本体
  0
TEXT
  8
_f-0_
 62
    7
 10
341.66455149854255
 20
70.855848936486609
 40
4.0043999999999968
 41
1.0000000000000024
 50
0
  1
アルミ
  0
TEXT
  8
_f-0_
 62
    7
 10
309.67542993650602
 20
80.94127307650973
 40
4.0044000000000039
 41
0.9999999999999984
 50
0
  1
DC2次側出力線
  0
TEXT
  8
_f-0_
 62
    7
 10
309.67542993650602
 20
75.615017739746718
 40
4.0043999999999968
 41
1.0000000000000002
 50
0
  1
AC1次側入力線
  0
TEXT
  8
_f-0_
 62
    7
 10
309.67542993650602
 20
85.942858839165253
 40
4.0044000000000039
 41
0.9999999999999986
 50
0
  1
調光信号線
  0
TEXT
  8
_f-0_
 62
    7
 10
357.02708358074687
 20
86.032594596959967
 40
4.0044000000000039
 41
1
 50
0
  1
1.0mm^u2
  0
TEXT
  8
_f-0_
 62
    7
 10
357.02708358074687
 20
86.102986497000642
 40
4.0044000000000039
 41
1
 50
0
  1
1.0mm^u2 x 2芯
  0
TEXT
  8
_f-0_
 62
    7
 10
357.02708358074687
 20
75.726575642731617
 40
4.0043999999999968
 41
1.0000000000000013
 50
0
  1
1.25mm^u2 x 3芯
  0
TEXT
  8
_f-0_
 62
    7
 10
357.02708358074687
 20
80.820722010808196
 40
4.0044000000000039
 41
1
 50
0
  1
1.0mm^u2 x 2芯
  0
TEXT
  8
_f-0_
 62
    7
 10
344.07963957222102
 20
65.684298111579749
 40
4.0044000000000039
 41
1.0000000000000046
 50
0
  1
材質
  0
TEXT
  8
_f-0_
 62
    7
 10
317.28066622701464
 20
65.584845211100798
 40
4.0043999999999968
 41
0.9999999999999993
 50
0
  1
部品名
  0
TEXT
  8
_f-0_
 62
    7
 10
371.68857646917911
 20
65.748758324853156
 40
4.0044000000000039
 41
1
 50
0
  1
仕様
  0
TEXT
  8
_f-0_
 62
    7
 10
385.68623270026091
 20
57.873159417685641
 40
4.0044000000000039
 41
0.999999999999994
 50
0
  1
1:2
  0
LINE
  8
_0-0_
  6
CONTINUOUS
 62
    7
 10
321.72050265826499
 20
65.126710388354467
 11
321.72050265826499
 21
55.115708478907777
  0
LINE
  8
_0-0_
  6
CONTINUOUS
 62
    7
 10
396.80297210711734
 20
45.104704660014377
 11
301.69847210711736
 21
45.104704660014377
  0
LINE
  8
_0-0_
  6
CONTINUOUS
 62
    7
 10
396.80297210711734
 20
55.115708478907777
 11
301.69847210711736
 21
55.115708478907777
  0
LINE
  8
_0-0_
  6
CONTINUOUS
 62
    7
 10
316.71497210711743
 20
65.126710388354467
 11
316.71497210711743
 21
55.115708478907777
  0
LINE
  8
_0-0_
  6
CONTINUOUS
 62
    7
 10
331.73147210711738
 20
65.126710388354467
 11
331.73147210711738
 21
55.115708478907777
  0
LINE
  8
_0-0_
  6
CONTINUOUS
 62
    7
 10
326.72597210711739
 20
55.115708478907777
 11
326.72597210711739
 21
45.104704660014377
  0
LINE
  8
_0-0_
  6
CONTINUOUS
 62
    7
 10
321.72050265826499
 20
55.115708478907777
 11
321.72050265826499
 21
45.104704660014377
  0
LINE
  8
_0-0_
  6
CONTINUOUS
 62
    7
 10
381.78650265826502
 20
65.126710388354467
 11
381.78650265826502
 21
55.115708478907777
  0
LINE
  8
_0-0_
  6
CONTINUOUS
 62
    7
 10
376.78097210711746
 20
65.126710388354467
 11
376.78097210711746
 21
55.115708478907777
  0
LINE
  8
_0-0_
  6
CONTINUOUS
 62
    7
 10
311.73247712115551
 20
48.38752283647463
 11
318.74017712115551
 21
46.88586710813449
  0
LINE
  8
_0-0_
  6
CONTINUOUS
 62
    7
 10
318.74017712115551
 20
52.892469017581206
 11
318.74017712115551
 21
46.88586710813449
  0
LINE
  8
_0-0_
  6
CONTINUOUS
 62
    7
 10
311.73247712115551
 20
51.390819017581179
 11
318.74017712115551
 21
52.892469017581206
  0
LINE
  8
_0-0_
  6
CONTINUOUS
 62
    7
 10
311.73247712115551
 20
51.390819017581179
 11
311.73247712115551
 21
48.38752283647463
  0
LINE
  8
_0-0_
  6
CONTINUOUS
 62
    7
 10
346.74797210711744
 20
55.115708478907777
 11
346.74797210711744
 21
35.093704660014367
  0
LINE
  8
_0-0_
  6
CONTINUOUS
 62
    7
 10
351.75347210711743
 20
55.115708478907777
 11
351.75347210711743
 21
35.093704660014367
  0
LINE
  8
_0-0_
  6
CONTINUOUS
 62
    7
 10
396.80296409831726
 20
65.126710388354467
 11
353.51204108962065
 21
65.126710388354467
  0
LINE
  8
_0-0_
  6
CONTINUOUS
 62
    7
 10
351.75347210711743
 20
65.108513174244222
 11
351.75347210711743
 21
55.115708478907777
  0
LINE
  8
_0-0_
  6
CENTER2
 62
    7
 10
306.72694657000806
 20
53.893572836474632
 11
306.72694657000806
 21
45.884769017581191
  0
LINE
  8
_0-0_
  6
CENTER2
 62
    7
 10
320.74234657000806
 20
49.889170927027905
 11
306.72039285019968
 21
49.889170927027905
  0
LINE
  8
_0-0_
  6
CENTER2
 62
    7
 10
306.72039285019968
 20
49.889170927027905
 11
302.72257712115555
 21
49.889170927027905
  0
LINE
  8
_0-0_
  6
CONTINUOUS
 62
    7
 10
346.74797210711744
 20
65.126710388354467
 11
346.74797210711744
 21
35.093704660014367
  0
LINE
  8
_0-0_
  6
CONTINUOUS
 62
    7
 10
306.7039721071174
 20
65.126710388354467
 11
306.7039721071174
 21
55.115708478907777
  0
LINE
  8
_0-0_
  6
CONTINUOUS
 62
    7
 10
336.73700265826505
 20
65.126710388354467
 11
336.73700265826505
 21
55.115708478907777
  0
LINE
  8
_0-0_
  6
CONTINUOUS
 62
    7
 10
396.80296409831726
 20
65.126710388354467
 11
301.69847210711736
 21
65.126710388354467
  0
LINE
  8
_0-0_
  6
CONTINUOUS
 62
    7
 10
301.69847210711736
 20
65.126710388354467
 11
301.69847210711736
 21
35.093704660014367
  0
LINE
  8
_0-0_
  6
CONTINUOUS
 62
    4
 10
326.72597210711739
 20
55.115708478907777
 11
346.74797210711744
 21
45.104704660014377
  0
LINE
  8
_0-0_
  6
CONTINUOUS
 62
    7
 10
396.80296599688801
 20
75.217797930087243
 11
301.69847210711736
 21
75.217797930087243
  0
LINE
  8
_0-0_
  6
CONTINUOUS
 62
    7
 10
396.80296599688801
 20
80.263341700953617
 11
301.69847210711736
 21
80.263341700953617
  0
LINE
  8
_0-0_
  6
CONTINUOUS
 62
    7
 10
396.80296599688801
 20
70.172254159220841
 11
301.69847210711736
 21
70.172254159220841
  0
LINE
  8
_0-0_
  6
CONTINUOUS
 62
    7
 10
396.80296599688801
 20
85.308885471820033
 11
301.69847210711736
 21
85.308885471820033
  0
LINE
  8
_0-0_
  6
CONTINUOUS
 62
    7
 10
301.69847210711736
 20
90.569360655181966
 11
301.69847210711736
 21
70.172254159220841
  0
LINE
  8
_0-0_
  6
CONTINUOUS
 62
    7
 10
396.80296599688801
 20
90.569360655181966
 11
301.69847210711736
 21
90.569360655181966
  0
LINE
  8
_0-0_
  6
CONTINUOUS
 62
    7
 10
307.85260263228838
 20
90.569360655181966
 11
307.85260263228838
 21
70.172254159220841
  0
LINE
  8
_0-0_
  6
CONTINUOUS
 62
    7
 10
338.97445403078631
 20
90.569360655181966
 11
338.97445403078631
 21
70.172254159220841
  0
LINE
  8
_0-0_
  6
CONTINUOUS
 62
    7
 10
355.48183539306546
 20
90.569360655181966
 11
355.48183539306546
 21
70.172254159220841
  0
LINE
  8
_0-0_
  6
CONTINUOUS
 62
    7
 10
334.29747559637394
 20
85.194862151610166
 11
334.29747559637394
 21
83.964017632169586
  0
LINE
  8
_0-0_
  6
CONTINUOUS
 62
    7
 10
338.97445403078631
 20
70.172254159220841
 11
338.97445403078631
 21
65.126710388354467
  0
LINE
  8
_0-0_
  6
CONTINUOUS
 62
    7
 10
301.69847210711736
 20
70.172254159220841
 11
301.69847210711736
 21
65.126710388354467
  0
LINE
  8
_0-0_
  6
CONTINUOUS
 62
    7
 10
307.85260263228838
 20
70.172254159220841
 11
307.85260263228838
 21
65.126710388354467
  0
LINE
  8
_0-0_
  6
CONTINUOUS
 62
    7
 10
355.48183539306546
 20
70.172254159220841
 11
355.48183539306546
 21
65.126710388354467
  0
CIRCLE
  8
_0-0_
  6
CONTINUOUS
 62
    7
 10
306.72694657000806
 20
49.889170927027905
 40
1.5016500000000003
  0
CIRCLE
  8
_0-0_
  6
CONTINUOUS
 62
    7
 10
306.72694657000806
 20
49.889170927027905
 40
3.0033000000000007
  0
LINE
  8
_1-1_
  6
CONTINUOUS
 62
    7
 10
240.37315504695391
 20
124.46245829047788
 11
240.37315504695391
 21
123.71206486222789
  0
LINE
  8
_1-1_
  6
CONTINUOUS
 62
    7
 10
240.87315504695391
 20
124.46245829047788
 11
240.87315504695391
 21
123.71206486222789
  0
LINE
  8
_1-1_
  6
CONTINUOUS
 62
    7
 10
157.87315504695385
 20
124.46245829047788
 11
157.87315504695385
 21
123.71206486222789
  0
LINE
  8
_1-1_
  6
CONTINUOUS
 62
    7
 10
157.37315504695385
 20
124.46245829047788
 11
157.37315504695385
 21
123.71206486222789
  0
LINE
  8
_1-1_
  6
CONTINUOUS
 62
    7
 10
98.834411945777333
 20
187.10183710697316
 11
79.598465168527326
 21
187.10183684952318
  0
LINE
  8
_1-1_
  6
CONTINUOUS
 62
    7
 10
78.342003262227336
 20
185.84452389192318
 11
78.342003262227336
 21
161.85915038357313
  0
LINE
  8
_1-1_
  6
CONTINUOUS
 62
    7
 10
100.09200326222733
 20
161.85915038357313
 11
100.09200326222733
 21
185.84452389192318
  0
LINE
  8
_1-1_
  6
CONTINUOUS
 62
    7
 10
79.598465168527326
 20
160.60183742597314
 11
98.834411945777333
 21
160.60183716847313
  0
ARC
  8
_1-1_
  6
CONTINUOUS
 62
    7
 10
98.834690016427316
 20
161.85915038357313
 40
1.2573132458
 50
269.98732831879692
 51
0.0000000000000127
  0
ARC
  8
_1-1_
  6
CONTINUOUS
 62
    7
 10
79.599316508027328
 20
161.85915038357313
 40
1.2573132458
 50
180
 51
269.9612044458957
  0
ARC
  8
_1-1_
  6
CONTINUOUS
 62
    7
 10
79.599316508027328
 20
185.84452389192318
 40
1.2573132458
 50
90.038795554097703
 51
180
  0
ARC
  8
_1-1_
  6
CONTINUOUS
 62
    7
 10
98.834690016427316
 20
185.84452389192318
 40
1.2573132458
 50
0
 51
90.012671681196593
  0
CIRCLE
  8
_1-1_
  6
CONTINUOUS
 62
    7
 10
98.834690016427316
 20
185.84452389192318
 40
0.775
  0
CIRCLE
  8
_1-1_
  6
CONTINUOUS
 62
    7
 10
85.569069282527379
 20
185.84452389192318
 40
0.775
  0
CIRCLE
  8
_1-1_
  6
CONTINUOUS
 62
    7
 10
98.834690016427316
 20
161.85915038357313
 40
0.775
  0
CIRCLE
  8
_1-1_
  6
CONTINUOUS
 62
    7
 10
85.569069282527379
 20
161.85936358102318
 40
0.775
  0
CIRCLE
  8
_1-1_
  6
CONTINUOUS
 62
    7
 10
94.318829084727383
 20
169.8382369342232
 40
3
  0
LINE
  8
_1-1_
  6
CONTINUOUS
 62
    7
 10
128.81555314617475
 20
167.81323693422319
 11
137.09184155709181
 21
167.81323693422319
  0
LINE
  8
_1-1_
  6
CONTINUOUS
 62
    7
 10
128.81555314617475
 20
171.8632369342232
 11
137.09184155709181
 21
171.8632369342232
  0
ARC
  8
_1-1_
  6
CONTINUOUS
 62
    7
 10
136.18448323365382
 20
170.91663949313019
 40
1.3112382859709474
 50
313.78751140684818
 51
46.212488593147334
  0
ARC
  8
_1-1_
  6
CONTINUOUS
 62
    7
 10
138.28614352841788
 20
168.89163949313029
 40
1.6091330826783989
 50
137.91934105329269
 51
222.0806589467088
  0
ARC
  8
_1-1_
  6
CONTINUOUS
 62
    7
 10
138.59989630951702
 20
170.91663949313019
 40
1.3112382859709279
 50
313.78751140684727
 51
46.212488593148236
  0
ARC
  8
_1-1_
  6
CONTINUOUS
 62
    7
 10
140.70155660428136
 20
168.89163949313018
 40
1.6091330826787175
 50
137.9193410532975
 51
222.0806589466932
  0
LINE
  8
_1-1_
  6
CONTINUOUS
 62
    7
 10
128.81555314617475
 20
171.8632369342232
 11
128.81555314617475
 21
167.81323693422319
  0
LINE
  8
_1-1_
  6
CONTINUOUS
 62
    7
 10
113.91555314617477
 20
169.16208448191159
 11
113.91555314617477
 21
168.3827492406933
  0
LINE
  8
_1-1_
  6
CONTINUOUS
 62
    7
 10
113.91555314617477
 20
168.61782945937505
 11
110.35055314617477
 21
168.61782945937505
  0
LINE
  8
_1-1_
  6
CONTINUOUS
 62
    7
 10
110.35055314617477
 20
168.61782945937505
 11
110.35055314617477
 21
168.88527113982925
  0
LINE
  8
_1-1_
  6
CONTINUOUS
 62
    7
 10
110.35055314617477
 20
168.88527113982925
 11
113.91555314617477
 21
168.88527113982925
  0
LINE
  8
_1-1_
  6
CONTINUOUS
 62
    7
 10
113.91555314617477
 20
168.88527113982925
 11
113.91555314617477
 21
168.61782945937505
  0
LINE
  8
_1-1_
  6
CONTINUOUS
 62
    7
 10
128.81555314617475
 20
168.3827492406933
 11
113.91555314617477
 21
168.3827492406933
  0
LINE
  8
_1-1_
  6
CONTINUOUS
 62
    7
 10
128.81555314617475
 20
169.16208448191159
 11
113.91555314617477
 21
169.16208448191159
  0
LINE
  8
_1-1_
  6
CONTINUOUS
 62
    7
 10
113.91555314617477
 20
170.22790455483234
 11
113.91555314617477
 21
169.44856931361405
  0
LINE
  8
_1-1_
  6
CONTINUOUS
 62
    7
 10
113.91555314617477
 20
169.70451609399609
 11
110.35055314617477
 21
169.70451609399609
  0
LINE
  8
_1-1_
  6
CONTINUOUS
 62
    7
 10
110.35055314617477
 20
169.70451609399609
 11
110.35055314617477
 21
169.97195777445028
  0
LINE
  8
_1-1_
  6
CONTINUOUS
 62
    7
 10
110.35055314617477
 20
169.97195777445028
 11
113.91555314617477
 21
169.97195777445028
  0
LINE
  8
_1-1_
  6
CONTINUOUS
 62
    7
 10
113.91555314617477
 20
169.97195777445028
 11
113.91555314617477
 21
169.70451609399609
  0
LINE
  8
_1-1_
  6
CONTINUOUS
 62
    7
 10
128.81555314617475
 20
169.44856931361405
 11
113.91555314617477
 21
169.44856931361405
  0
LINE
  8
_1-1_
  6
CONTINUOUS
 62
    7
 10
128.81555314617475
 20
170.22790455483234
 11
113.91555314617477
 21
170.22790455483234
  0
LINE
  8
_1-1_
  6
CONTINUOUS
 62
    7
 10
113.91555314617477
 20
171.2238349672194
 11
113.91555314617477
 21
170.44449972600111
  0
LINE
  8
_1-1_
  6
CONTINUOUS
 62
    7
 10
113.91555314617477
 20
170.67957994468284
 11
110.35055314617477
 21
170.67957994468284
  0
LINE
  8
_1-1_
  6
CONTINUOUS
 62
    7
 10
110.35055314617477
 20
170.67957994468284
 11
110.35055314617477
 21
170.94702162513704
  0
LINE
  8
_1-1_
  6
CONTINUOUS
 62
    7
 10
110.35055314617477
 20
170.94702162513704
 11
113.91555314617477
 21
170.94702162513704
  0
LINE
  8
_1-1_
  6
CONTINUOUS
 62
    7
 10
113.91555314617477
 20
170.94702162513704
 11
113.91555314617477
 21
170.67957994468284
  0
LINE
  8
_1-1_
  6
CONTINUOUS
 62
    7
 10
128.81555314617475
 20
170.44449972600111
 11
113.91555314617477
 21
170.44449972600111
  0
LINE
  8
_1-1_
  6
CONTINUOUS
 62
    7
 10
128.81555314617475
 20
171.2238349672194
 11
113.91555314617477
 21
171.2238349672194
  0
LINE
  8
_1-1_
  6
CONTINUOUS
 62
    7
 10
240.87315504695391
 20
183.08324284806207
 11
240.87315504695391
 21
182.13816632111212
  0
LINE
  8
_1-1_
  6
CONTINUOUS
 62
    7
 10
240.87315504695391
 20
165.53816632111215
 11
240.87315504695391
 21
164.58324284806209
  0
ARC
  8
_1-1_
  6
CONTINUOUS
 62
    7
 10
239.22314800045393
 20
173.83816632111214
 40
1.05
 50
270
 51
90
  0
ARC
  8
_1-1_
  6
CONTINUOUS
 62
    7
 10
240.37315504695391
 20
164.58324284806209
 40
0.5
 50
270
 51
0
  0
ARC
  8
_1-1_
  6
CONTINUOUS
 62
    7
 10
240.37315504695391
 20
183.08324284806207
 40
0.5
 50
0
 51
90
  0
ARC
  8
_1-1_
  6
CONTINUOUS
 62
    7
 10
240.37315504695391
 20
182.13816632111212
 40
0.5
 50
270
 51
0
  0
ARC
  8
_1-1_
  6
CONTINUOUS
 62
    7
 10
240.37315504695391
 20
165.53816632111215
 40
0.5
 50
0
 51
90
  0
LINE
  8
_1-1_
  6
CONTINUOUS
 62
    7
 10
157.37315504695385
 20
183.08324284806207
 11
157.37315504695385
 21
182.13816632111212
  0
LINE
  8
_1-1_
  6
CONTINUOUS
 62
    7
 10
157.37315504695385
 20
165.53816632111215
 11
157.37315504695385
 21
164.58324284806209
  0
ARC
  8
_1-1_
  6
CONTINUOUS
 62
    7
 10
159.02316209345389
 20
173.83816632111214
 40
1.05
 50
90
 51
270
  0
ARC
  8
_1-1_
  6
CONTINUOUS
 62
    7
 10
157.87315504695385
 20
164.58324284806209
 40
0.5
 50
180
 51
270
  0
ARC
  8
_1-1_
  6
CONTINUOUS
 62
    7
 10
157.87315504695385
 20
183.08324284806207
 40
0.5
 50
90
 51
180
  0
ARC
  8
_1-1_
  6
CONTINUOUS
 62
    7
 10
157.87315504695385
 20
182.13816632111212
 40
0.5
 50
180
 51
270
  0
ARC
  8
_1-1_
  6
CONTINUOUS
 62
    7
 10
157.87315504695385
 20
179.03816632111215
 40
0.5
 50
90
 51
180
  0
ARC
  8
_1-1_
  6
CONTINUOUS
 62
    7
 10
157.87315504695385
 20
165.53816632111215
 40
0.5
 50
90
 51
180
  0
CIRCLE
  8
_1-1_
  6
CONTINUOUS
 62
    7
 10
94.318829084727383
 20
169.8382369342232
 40
2.0249999999999999
  0
ARC
  8
_1-1_
  6
CONTINUOUS
 62
    7
 10
262.79593068626985
 20
178.85307237076983
 40
0.7564777124710839
 50
117.04364040052128
 51
242.95635959947668
  0
ARC
  8
_1-1_
  6
CONTINUOUS
 62
    7
 10
322.77052418037237
 20
161.85915044640714
 40
1.2573132458
 50
270.03879555410424
 51
0
  0
LINE
  8
_1-1_
  6
CONTINUOUS
 62
    7
 10
269.33820492129342
 20
176.17683716980781
 11
262.45198370628196
 21
176.17683716980781
  0
LINE
  8
_1-1_
  6
CONTINUOUS
 62
    7
 10
269.33820492129342
 20
179.5268371698078
 11
262.45198370628196
 21
179.5268371698078
  0
ARC
  8
_1-1_
  6
CONTINUOUS
 62
    7
 10
261.42567736026853
 20
177.17807237076985
 40
1.4337979786263044
 50
315.70844298875596
 51
44.291557011254347
  0
ARC
  8
_1-1_
  6
CONTINUOUS
 62
    7
 10
260.38051761040668
 20
178.85307237076983
 40
0.7564777124710839
 50
117.04364040052128
 51
242.95635959947668
  0
ARC
  8
_1-1_
  6
CONTINUOUS
 62
    7
 10
259.01026428440565
 20
177.17807237076993
 40
1.4337979786259775
 50
315.70844298873691
 51
44.291557011259079
  0
LINE
  8
_1-1_
  6
CONTINUOUS
 62
    7
 10
269.33820492129342
 20
179.5268371698078
 11
269.33820492129342
 21
176.17683716980781
  0
LINE
  8
_1-1_
  6
CONTINUOUS
 62
    7
 10
303.5354287426224
 20
160.60183723135713
 11
322.77153323542245
 21
160.6018376055151
  0
LINE
  8
_1-1_
  6
CONTINUOUS
 62
    7
 10
324.02783742617248
 20
161.85915044640714
 11
324.02783742617248
 21
185.84452395475716
  0
LINE
  8
_1-1_
  6
CONTINUOUS
 62
    7
 10
302.27783742617242
 20
185.84452395475716
 11
302.27783742617242
 21
161.85915044640714
  0
LINE
  8
_1-1_
  6
CONTINUOUS
 62
    7
 10
322.77153326368204
 20
187.10183679562652
 11
303.5354287426224
 21
187.10183716985716
  0
ARC
  8
_1-1_
  6
CONTINUOUS
 62
    7
 10
303.53515067197241
 20
185.84452395475716
 40
1.2573132458
 50
89.987328318796883
 51
180
  0
ARC
  8
_1-1_
  6
CONTINUOUS
 62
    7
 10
322.77052418037237
 20
185.84452395475716
 40
1.2573132458
 50
0
 51
89.961204445895731
  0
ARC
  8
_1-1_
  6
CONTINUOUS
 62
    7
 10
303.53515067197241
 20
161.85915044640714
 40
1.2573132458
 50
180
 51
270.01267168120307
  0
CIRCLE
  8
_1-1_
  6
CONTINUOUS
 62
    7
 10
303.53515067197241
 20
161.85915044640714
 40
0.775
  0
CIRCLE
  8
_1-1_
  6
CONTINUOUS
 62
    7
 10
316.80077140587241
 20
161.85915044640714
 40
0.775
  0
CIRCLE
  8
_1-1_
  6
CONTINUOUS
 62
    7
 10
303.53515067197241
 20
185.84452395475716
 40
0.775
  0
CIRCLE
  8
_1-1_
  6
CONTINUOUS
 62
    7
 10
316.80077140587241
 20
185.84431075730714
 40
0.775
  0
CIRCLE
  8
_1-1_
  6
CONTINUOUS
 62
    7
 10
308.27783742617236
 20
177.85183716980779
 40
3
  0
CIRCLE
  8
_1-1_
  6
CONTINUOUS
 62
    7
 10
308.27783742617248
 20
169.85183720689599
 40
3
  0
LINE
  8
_1-1_
  6
CONTINUOUS
 62
    7
 10
269.33820492129336
 20
168.17683720689603
 11
262.4519837062819
 21
168.17683720689603
  0
LINE
  8
_1-1_
  6
CONTINUOUS
 62
    7
 10
269.33820492129336
 20
171.52683720689594
 11
262.4519837062819
 21
171.52683720689594
  0
ARC
  8
_1-1_
  6
CONTINUOUS
 62
    7
 10
262.79445359547378
 20
170.85415669249033
 40
0.7548408437969265
 50
116.9812017089786
 51
243.01879829102139
  0
ARC
  8
_1-1_
  6
CONTINUOUS
 62
    7
 10
261.42331684048843
 20
169.17915669249035
 40
1.4362450598639224
 50
315.74323936765381
 51
44.256760632356645
  0
ARC
  8
_1-1_
  6
CONTINUOUS
 62
    7
 10
260.37904051961055
 20
170.8541566924903
 40
0.754840843796952
 50
116.98120170897759
 51
243.01879829102037
  0
ARC
  8
_1-1_
  6
CONTINUOUS
 62
    7
 10
259.00790376462526
 20
169.1791566924904
 40
1.4362450598638589
 50
315.74323936764341
 51
44.256760632356666
  0
LINE
  8
_1-1_
  6
CONTINUOUS
 62
    7
 10
269.33820492129336
 20
171.52683720689594
 11
269.33820492129336
 21
168.17683720689603
  0
LINE
  8
_1-1_
  6
CONTINUOUS
 62
    7
 10
284.24029815607821
 20
177.530239991379
 11
284.24029815607821
 21
176.75090475016068
  0
LINE
  8
_1-1_
  6
CONTINUOUS
 62
    7
 10
284.24029815607821
 20
177.00685153054274
 11
287.80586409675368
 21
177.00685153054274
  0
LINE
  8
_1-1_
  6
CONTINUOUS
 62
    7
 10
287.80586409675368
 20
177.00685153054274
 11
287.80586409675368
 21
177.27429321099694
  0
LINE
  8
_1-1_
  6
CONTINUOUS
 62
    7
 10
287.80586409675368
 20
177.27429321099694
 11
284.24029815607821
 21
177.27429321099694
  0
LINE
  8
_1-1_
  6
CONTINUOUS
 62
    7
 10
284.24029815607821
 20
177.27429321099694
 11
284.24029815607821
 21
177.00685153054274
  0
LINE
  8
_1-1_
  6
CONTINUOUS
 62
    7
 10
269.33820492129342
 20
176.75090475016068
 11
284.24029815607821
 21
176.75090475016068
  0
LINE
  8
_1-1_
  6
CONTINUOUS
 62
    7
 10
269.33820492129342
 20
177.530239991379
 11
284.24029815607821
 21
177.530239991379
  0
LINE
  8
_1-1_
  6
CONTINUOUS
 62
    7
 10
284.24029815607821
 20
178.9527695894549
 11
284.24029815607821
 21
178.17343434823661
  0
LINE
  8
_1-1_
  6
CONTINUOUS
 62
    7
 10
284.24029815607821
 20
178.42938112861858
 11
287.80586409675368
 21
178.42938112861858
  0
LINE
  8
_1-1_
  6
CONTINUOUS
 62
    7
 10
287.80586409675368
 20
178.42938112861858
 11
287.80586409675368
 21
178.69682280907284
  0
LINE
  8
_1-1_
  6
CONTINUOUS
 62
    7
 10
287.80586409675368
 20
178.69682280907284
 11
284.24029815607821
 21
178.69682280907284
  0
LINE
  8
_1-1_
  6
CONTINUOUS
 62
    7
 10
284.24029815607821
 20
178.69682280907284
 11
284.24029815607821
 21
178.42938112861858
  0
LINE
  8
_1-1_
  6
CONTINUOUS
 62
    7
 10
269.33820492129342
 20
178.17343434823661
 11
284.24029815607821
 21
178.17343434823661
  0
LINE
  8
_1-1_
  6
CONTINUOUS
 62
    7
 10
269.33820492129342
 20
178.9527695894549
 11
284.24029815607821
 21
178.9527695894549
  0
LINE
  8
_1-1_
  6
CONTINUOUS
 62
    7
 10
284.24029815607821
 20
169.5324085977318
 11
284.24029815607821
 21
168.75307335651351
  0
LINE
  8
_1-1_
  6
CONTINUOUS
 62
    7
 10
284.24029815607821
 20
169.00902013689554
 11
287.80586409675368
 21
169.00902013689554
  0
LINE
  8
_1-1_
  6
CONTINUOUS
 62
    7
 10
287.80586409675368
 20
169.00902013689554
 11
287.80586409675368
 21
169.27646181734974
  0
LINE
  8
_1-1_
  6
CONTINUOUS
 62
    7
 10
287.80586409675368
 20
169.27646181734974
 11
284.24029815607821
 21
169.27646181734974
  0
LINE
  8
_1-1_
  6
CONTINUOUS
 62
    7
 10
284.24029815607821
 20
169.27646181734974
 11
284.24029815607821
 21
169.00902013689554
  0
LINE
  8
_1-1_
  6
CONTINUOUS
 62
    7
 10
269.33820492129336
 20
168.75307335651351
 11
284.24029815607821
 21
168.75307335651351
  0
LINE
  8
_1-1_
  6
CONTINUOUS
 62
    7
 10
269.33820492129336
 20
169.5324085977318
 11
284.24029815607821
 21
169.5324085977318
  0
LINE
  8
_1-1_
  6
CONTINUOUS
 62
    7
 10
284.24029815607821
 20
170.95493819580764
 11
284.24029815607821
 21
170.1756029545894
  0
LINE
  8
_1-1_
  6
CONTINUOUS
 62
    7
 10
284.24029815607821
 20
170.43154973497141
 11
287.80586409675368
 21
170.43154973497141
  0
LINE
  8
_1-1_
  6
CONTINUOUS
 62
    7
 10
287.80586409675368
 20
170.43154973497141
 11
287.80586409675368
 21
170.69899141542563
  0
LINE
  8
_1-1_
  6
CONTINUOUS
 62
    7
 10
287.80586409675368
 20
170.69899141542563
 11
284.24029815607821
 21
170.69899141542563
  0
LINE
  8
_1-1_
  6
CONTINUOUS
 62
    7
 10
284.24029815607821
 20
170.69899141542563
 11
284.24029815607821
 21
170.43154973497141
  0
LINE
  8
_1-1_
  6
CONTINUOUS
 62
    7
 10
269.33820492129336
 20
170.1756029545894
 11
284.24029815607821
 21
170.1756029545894
  0
LINE
  8
_1-1_
  6
CONTINUOUS
 62
    7
 10
269.33820492129336
 20
170.95493819580764
 11
284.24029815607821
 21
170.95493819580764
  0
CIRCLE
  8
_1-1_
  6
CONTINUOUS
 62
    7
 10
308.27783742617236
 20
177.85183716980779
 40
1.6750000000000115
  0
CIRCLE
  8
_1-1_
  6
CONTINUOUS
 62
    7
 10
308.27783742617248
 20
169.85183720689599
 40
1.6750000000000115
  0
LINE
  8
_1-1_
  6
CONTINUOUS
 62
    7
 10
244.68583022382597
 20
176.17683716980781
 11
247.2902337056488
 21
176.17683716980781
  0
LINE
  8
_1-1_
  6
CONTINUOUS
 62
    7
 10
244.68583022382597
 20
191.41891174104551
 11
247.2902337056488
 21
191.41891174104551
  0
LINE
  8
_1-1_
  6
CONTINUOUS
 62
    7
 10
247.2902337056488
 20
176.17683716980781
 11
247.2902337056488
 21
191.41891174104551
  0
LINE
  8
_1-1_
  6
CONTINUOUS
 62
    7
 10
244.68583022382597
 20
191.41891174104551
 11
244.68583022382597
 21
176.17683716980781
  0
TEXT
  8
_1-1_
 62
    7
 10
245.07613657956434
 20
190.91859124645975
 40
1.8
 41
1
 50
-90
  1
調光信号(無極性)
  0
LINE
  8
_1-1_
  6
CONTINUOUS
 62
    7
 10
244.68583022382597
 20
156.28476263565821
 11
247.2902337056488
 21
156.28476263565821
  0
LINE
  8
_1-1_
  6
CONTINUOUS
 62
    7
 10
244.68583022382597
 20
171.52683720689594
 11
247.2902337056488
 21
171.52683720689594
  0
LINE
  8
_1-1_
  6
CONTINUOUS
 62
    7
 10
247.2902337056488
 20
156.28476263565821
 11
247.2902337056488
 21
171.52683720689594
  0
LINE
  8
_1-1_
  6
CONTINUOUS
 62
    7
 10
244.68583022382597
 20
171.52683720689594
 11
244.68583022382597
 21
156.28476263565821
  0
TEXT
  8
_1-1_
 62
    7
 10
245.06261891443378
 20
171.18963583039897
 40
1.8
 41
1
 50
-90
  1
出力 + 赤 - 黒
  0
LINE
  8
_1-1_
  6
CONTINUOUS
 62
    7
 10
260.03657063041856
 20
168.17683720689595
 11
247.2902337056488
 21
168.17683720689595
  0
LINE
  8
_1-1_
  6
CONTINUOUS
 62
    7
 10
260.03657063041879
 20
179.5268371698078
 11
247.2902337056488
 21
179.5268371698078
  0
ARC
  8
_1-1_
  6
CONTINUOUS
 62
    7
 10
240.37315504695391
 20
179.03816632111215
 40
0.5
 50
77.779899553192421
 51
90
  0
ARC
  8
_1-1_
  6
CONTINUOUS
 62
    7
 10
240.37315504695391
 20
168.63816632111215
 40
0.5
 50
270
 51
292.68215622722249
  0
ARC
  8
_1-1_
  6
DASHED1
 62
    7
 10
240.37315504695391
 20
168.63816632111215
 40
0.5
 50
292.68215622722249
 51
0
  0
ARC
  8
_1-1_
  6
DASHED1
 62
    7
 10
240.37315504695391
 20
179.03816632111215
 40
0.5
 50
0
 51
77.779899553192421
  0
LINE
  8
_1-1_
  6
CONTINUOUS
 62
    7
 10
240.87315504695391
 20
176.17683716980781
 11
240.87315504695391
 21
171.52683720689594
  0
LINE
  8
_1-1_
  6
DASHED1
 62
    7
 10
240.87315504695391
 20
171.52683720689594
 11
240.87315504695391
 21
168.63816632111215
  0
LINE
  8
_1-1_
  6
DASHED1
 62
    7
 10
240.87315504695391
 20
176.17683716980781
 11
240.87315504695391
 21
179.03816632111215
  0
LINE
  8
_1-1_
  6
CONTINUOUS
 62
    7
 10
157.37315504695385
 20
179.03816632111215
 11
157.37315504695385
 21
171.8632369342232
  0
LINE
  8
_1-1_
  6
DASHED1
 62
    7
 10
157.37315504695385
 20
168.63816632111215
 11
157.37315504695385
 21
171.8632369342232
  0
ARC
  8
_1-1_
  6
DASHED1
 62
    7
 10
157.87315504695385
 20
168.63816632111215
 40
0.5
 50
180
 51
270
  0
LINE
  8
_1-1_
  6
CONTINUOUS
 62
    7
 10
78.342003262227336
 20
164.08324284806209
 11
79.092396690477329
 21
164.08324284806209
  0
LINE
  8
_1-1_
  6
CONTINUOUS
 62
    7
 10
78.342003262227336
 20
182.13816632111212
 11
79.092396690477329
 21
182.13816632111212
  0
LINE
  8
_1-1_
  6
CONTINUOUS
 62
    7
 10
78.342003262227336
 20
181.63816632111212
 11
79.092396690477329
 21
181.63816632111212
  0
LINE
  8
_1-1_
  6
CONTINUOUS
 62
    7
 10
79.092396690477329
 20
179.53816632111215
 11
78.342003262227336
 21
179.53816632111215
  0
LINE
  8
_1-1_
  6
CONTINUOUS
 62
    7
 10
79.092396690477329
 20
179.03816632111215
 11
78.342003262227336
 21
179.03816632111215
  0
LINE
  8
_1-1_
  6
CONTINUOUS
 62
    7
 10
324.02783742617248
 20
183.58324284806207
 11
323.27744399792243
 21
183.58324284806207
  0
LINE
  8
_1-1_
  6
CONTINUOUS
 62
    7
 10
323.27744399792243
 20
164.08324284806209
 11
324.02783742617248
 21
164.08324284806209
  0
LINE
  8
_1-1_
  6
CONTINUOUS
 62
    7
 10
323.27744399792243
 20
164.58324284806209
 11
324.02783742617248
 21
164.58324284806209
  0
LINE
  8
_1-1_
  6
CONTINUOUS
 62
    7
 10
324.02783742617248
 20
165.52831937501204
 11
323.27744399792243
 21
165.52831937501204
  0
LINE
  8
_1-1_
  6
CONTINUOUS
 62
    7
 10
324.02783742617248
 20
166.02831937501204
 11
323.27744399792243
 21
166.02831937501204
  0
LINE
  8
_1-1_
  6
CONTINUOUS
 62
    7
 10
323.27744399792243
 20
164.08324284806209
 11
323.27744399792243
 21
183.58324284806207
  0
LINE
  8
_1-1_
  6
CONTINUOUS
 62
    7
 10
323.27744399792243
 20
168.12831937501204
 11
324.02783742617248
 21
168.12831937501204
  0
LINE
  8
_1-1_
  6
CONTINUOUS
 62
    7
 10
323.27744399792243
 20
168.62831937501204
 11
324.02783742617248
 21
168.62831937501204
  0
LINE
  8
_1-1_
  6
CONTINUOUS
 62
    7
 10
324.02783742617248
 20
179.02831937501204
 11
323.27744399792243
 21
179.02831937501204
  0
LINE
  8
_1-1_
  6
CONTINUOUS
 62
    7
 10
324.02783742617248
 20
179.52831937501204
 11
323.27744399792243
 21
179.52831937501204
  0
LINE
  8
_1-1_
  6
CONTINUOUS
 62
    7
 10
323.27744399792243
 20
181.62831937501204
 11
324.02783742617248
 21
181.62831937501204
  0
LINE
  8
_1-1_
  6
CONTINUOUS
 62
    7
 10
323.27744399792243
 20
182.12831937501204
 11
324.02783742617248
 21
182.12831937501204
  0
LINE
  8
_1-1_
  6
CONTINUOUS
 62
    7
 10
324.02783742617248
 20
183.08324284806207
 11
323.27744399792243
 21
183.08324284806207
  0
LINE
  8
_1-1_
  6
CONTINUOUS
 62
    7
 10
303.77772231252237
 20
163.58324284806209
 11
302.27783742617242
 21
163.58324284806209
  0
LINE
  8
_1-1_
  6
CONTINUOUS
 62
    7
 10
303.77772231252237
 20
163.58324284806209
 11
303.77772231252237
 21
184.08324284806207
  0
LINE
  8
_1-1_
  6
CONTINUOUS
 62
    7
 10
303.27772231252237
 20
163.58324284806209
 11
303.27772231252237
 21
184.08324284806207
  0
LINE
  8
_1-1_
  6
CONTINUOUS
 62
    7
 10
302.77783742617242
 20
184.08324284806207
 11
302.77783742617242
 21
163.58324284806209
  0
LINE
  8
_1-1_
  6
CONTINUOUS
 62
    7
 10
303.77772231252237
 20
184.08324284806207
 11
302.27783742617242
 21
184.08324284806207
  0
LINE
  8
_1-1_
  6
CONTINUOUS
 62
    7
 10
98.592118375877333
 20
184.08324284806207
 11
100.09200326222733
 21
184.08324284806207
  0
LINE
  8
_1-1_
  6
CONTINUOUS
 62
    7
 10
98.592118375877333
 20
184.08324284806207
 11
98.592118375877333
 21
163.58324284806209
  0
LINE
  8
_1-1_
  6
CONTINUOUS
 62
    7
 10
99.092118375877333
 20
184.08324284806207
 11
99.092118375877333
 21
163.58324284806209
  0
LINE
  8
_1-1_
  6
CONTINUOUS
 62
    7
 10
99.592003262227336
 20
163.58324284806209
 11
99.592003262227336
 21
184.08324284806207
  0
LINE
  8
_1-1_
  6
CONTINUOUS
 62
    7
 10
98.592118375877333
 20
163.58324284806209
 11
100.09200326222733
 21
163.58324284806209
  0
LINE
  8
_1-1_
  6
CONTINUOUS
 62
    7
 10
79.092396690477329
 20
183.08324284806207
 11
78.342003262227336
 21
183.08324284806207
  0
LINE
  8
_1-1_
  6
CONTINUOUS
 62
    7
 10
79.092396690477329
 20
164.58324284806209
 11
78.342003262227336
 21
164.58324284806209
  0
TEXT
  8
_0-0_
 62
    7
 10
387.38558718879284
 20
270.36063530671492
 40
3.2035199999999974
 41
0.9999999999999992
 50
0
  1
検印
  0
TEXT
  8
_0-0_
 62
    7
 10
377.52486453277936
 20
270.2969958248031
 40
3.2035199999999974
 41
1.0000000000000082
 50
0
  1
担当
  0
TEXT
  8
_0-0_
 62
    7
 10
334.7083420660175
 20
270.60513880892193
 40
3.0032999999999674
 41
1.0000000000000122
 50
0
  1
訂　正　記　事
  0
TEXT
  8
_0-0_
 62
    7
 10
293.86545225281724
 20
270.60513880892193
 40
3.0032999999999674
 41
1.0000000000000104
 50
0
  1
年　月　日
  0
TEXT
  8
_0-0_
 62
    7
 10
280.1534340468786
 20
264.93840757127208
 40
3.0033000000000242
 41
0.9999999999999811
 50
0
  1
1
  0
TEXT
  8
_0-0_
 62
    7
 10
278.49723984465197
 20
270.57116060926966
 40
3.0032999999999958
 41
1.0000000000000019
 50
0
  1
Ｎｏ
  0
LINE
  8
_0-0_
  6
CONTINUOUS
 62
    7
 10
316.73914967321729
 20
274.79368314512186
 11
316.73914967321729
 21
269.39085456392183
  0
LINE
  8
_0-0_
  6
CONTINUOUS
 62
    7
 10
276.72547904925198
 20
274.78358418376967
 11
276.72547904925198
 21
269.38075560256964
  0
LINE
  8
_0-0_
  6
CONTINUOUS
 62
    7
 10
286.7364870580518
 20
274.78358418376967
 11
286.7364870580518
 21
269.38075560256964
  0
LINE
  8
_0-0_
  6
CONTINUOUS
 62
    7
 10
281.01846405008211
 20
269.22477120826971
 11
283.27093905008212
 21
264.71981920606964
  0
LINE
  8
_0-0_
  6
CONTINUOUS
 62
    7
 10
281.01846405008211
 20
269.22477120826971
 11
278.76599705888224
 21
264.71981920606964
  0
LINE
  8
_0-0_
  6
CONTINUOUS
 62
    7
 10
278.77855825140909
 20
264.70355251457215
 11
283.28350024260896
 21
264.70355251457215
  0
LINE
  8
_1-1_
  6
CONTINUOUS
 62
    7
 10
128.81555314617475
 20
137.66389068472793
 11
137.09184155709181
 21
137.66389068472793
  0
LINE
  8
_1-1_
  6
CONTINUOUS
 62
    7
 10
128.81555314617475
 20
141.71389068472794
 11
137.09184155709181
 21
141.71389068472794
  0
ARC
  8
_1-1_
  6
CONTINUOUS
 62
    7
 10
136.18448323365382
 20
140.76729324363492
 40
1.3112382859709474
 50
313.78751140684818
 51
46.212488593147334
  0
ARC
  8
_1-1_
  6
CONTINUOUS
 62
    7
 10
138.28614352841788
 20
138.74229324363503
 40
1.6091330826783989
 50
137.91934105329269
 51
222.0806589467088
  0
ARC
  8
_1-1_
  6
CONTINUOUS
 62
    7
 10
138.59989630951702
 20
140.76729324363492
 40
1.3112382859709279
 50
313.78751140684727
 51
46.212488593148236
  0
ARC
  8
_1-1_
  6
CONTINUOUS
 62
    7
 10
140.70155660428136
 20
138.74229324363491
 40
1.6091330826787175
 50
137.9193410532975
 51
222.0806589466932
  0
LINE
  8
_1-1_
  6
CONTINUOUS
 62
    7
 10
128.81555314617475
 20
141.71389068472794
 11
128.81555314617475
 21
137.66389068472793
  0
LINE
  8
_1-1_
  6
CONTINUOUS
 62
    7
 10
113.91555314617477
 20
139.01273823241632
 11
113.91555314617477
 21
138.23340299119803
  0
LINE
  8
_1-1_
  6
CONTINUOUS
 62
    7
 10
113.91555314617477
 20
138.46848320987979
 11
110.35055314617477
 21
138.46848320987979
  0
LINE
  8
_1-1_
  6
CONTINUOUS
 62
    7
 10
110.35055314617477
 20
138.46848320987979
 11
110.35055314617477
 21
138.73592489033399
  0
LINE
  8
_1-1_
  6
CONTINUOUS
 62
    7
 10
110.35055314617477
 20
138.73592489033399
 11
113.91555314617477
 21
138.73592489033399
  0
LINE
  8
_1-1_
  6
CONTINUOUS
 62
    7
 10
113.91555314617477
 20
138.73592489033399
 11
113.91555314617477
 21
138.46848320987979
  0
LINE
  8
_1-1_
  6
CONTINUOUS
 62
    7
 10
128.81555314617475
 20
138.23340299119803
 11
113.91555314617477
 21
138.23340299119803
  0
LINE
  8
_1-1_
  6
CONTINUOUS
 62
    7
 10
128.81555314617475
 20
139.01273823241632
 11
113.91555314617477
 21
139.01273823241632
  0
LINE
  8
_1-1_
  6
CONTINUOUS
 62
    7
 10
113.91555314617477
 20
140.07855830533708
 11
113.91555314617477
 21
139.29922306411879
  0
LINE
  8
_1-1_
  6
CONTINUOUS
 62
    7
 10
113.91555314617477
 20
139.55516984450082
 11
110.35055314617477
 21
139.55516984450082
  0
LINE
  8
_1-1_
  6
CONTINUOUS
 62
    7
 10
110.35055314617477
 20
139.55516984450082
 11
110.35055314617477
 21
139.82261152495502
  0
LINE
  8
_1-1_
  6
CONTINUOUS
 62
    7
 10
110.35055314617477
 20
139.82261152495502
 11
113.91555314617477
 21
139.82261152495502
  0
LINE
  8
_1-1_
  6
CONTINUOUS
 62
    7
 10
113.91555314617477
 20
139.82261152495502
 11
113.91555314617477
 21
139.55516984450082
  0
LINE
  8
_1-1_
  6
CONTINUOUS
 62
    7
 10
128.81555314617475
 20
139.29922306411879
 11
113.91555314617477
 21
139.29922306411879
  0
LINE
  8
_1-1_
  6
CONTINUOUS
 62
    7
 10
128.81555314617475
 20
140.07855830533708
 11
113.91555314617477
 21
140.07855830533708
  0
LINE
  8
_1-1_
  6
CONTINUOUS
 62
    7
 10
113.91555314617477
 20
141.07448871772413
 11
113.91555314617477
 21
140.29515347650584
  0
LINE
  8
_1-1_
  6
CONTINUOUS
 62
    7
 10
113.91555314617477
 20
140.53023369518757
 11
110.35055314617477
 21
140.53023369518757
  0
LINE
  8
_1-1_
  6
CONTINUOUS
 62
    7
 10
110.35055314617477
 20
140.53023369518757
 11
110.35055314617477
 21
140.79767537564177
  0
LINE
  8
_1-1_
  6
CONTINUOUS
 62
    7
 10
110.35055314617477
 20
140.79767537564177
 11
113.91555314617477
 21
140.79767537564177
  0
LINE
  8
_1-1_
  6
CONTINUOUS
 62
    7
 10
113.91555314617477
 20
140.79767537564177
 11
113.91555314617477
 21
140.53023369518757
  0
LINE
  8
_1-1_
  6
CONTINUOUS
 62
    7
 10
128.81555314617475
 20
140.29515347650584
 11
113.91555314617477
 21
140.29515347650584
  0
LINE
  8
_1-1_
  6
CONTINUOUS
 62
    7
 10
128.81555314617475
 20
141.07448871772413
 11
113.91555314617477
 21
141.07448871772413
  0
LINE
  8
_1-1_
  6
CONTINUOUS
 62
    7
 10
289.78175385062422
 20
138.95231784910257
 11
289.78175385062422
 21
138.68487616864837
  0
LINE
  8
_1-1_
  6
CONTINUOUS
 62
    7
 10
293.34731979129969
 20
138.95231784910257
 11
289.78175385062422
 21
138.95231784910257
  0
LINE
  8
_1-1_
  6
CONTINUOUS
 62
    7
 10
293.34731979129969
 20
138.68487616864837
 11
293.34731979129969
 21
138.95231784910257
  0
LINE
  8
_1-1_
  6
CONTINUOUS
 62
    7
 10
289.78175385062422
 20
138.68487616864837
 11
293.34731979129969
 21
138.68487616864837
  0
LINE
  8
_1-1_
  6
CONTINUOUS
 62
    7
 10
274.87966061583944
 20
137.78706486222785
 11
262.45198370628196
 21
137.78706486222785
  0
LINE
  8
_1-1_
  6
CONTINUOUS
 62
    7
 10
274.87966061583944
 20
141.13706486222787
 11
262.45198370628196
 21
141.13706486222787
  0
ARC
  8
_1-1_
  6
CONTINUOUS
 62
    7
 10
262.74975173957579
 20
140.49719853603269
 40
0.7057582568062443
 50
114.9553729531992
 51
245.04462704680079
  0
ARC
  8
_1-1_
  6
CONTINUOUS
 62
    7
 10
261.35187938021579
 20
138.82219853603271
 40
1.5105400527209482
 50
316.74284832057333
 51
43.257151679431245
  0
ARC
  8
_1-1_
  6
CONTINUOUS
 62
    7
 10
260.33433866371257
 20
140.49719853603269
 40
0.7057582568062443
 50
114.9553729531992
 51
245.04462704680079
  0
ARC
  8
_1-1_
  6
CONTINUOUS
 62
    7
 10
258.93646630435267
 20
138.82219853603277
 40
1.5105400527208456
 50
316.74284832057122
 51
43.257151679432638
  0
LINE
  8
_1-1_
  6
CONTINUOUS
 62
    7
 10
274.87966061583944
 20
141.13706486222787
 11
274.87966061583944
 21
137.78706486222785
  0
LINE
  8
_1-1_
  6
CONTINUOUS
 62
    7
 10
289.78175385062422
 20
139.2082646294846
 11
289.78175385062422
 21
138.42892938826631
  0
LINE
  8
_1-1_
  6
CONTINUOUS
 62
    7
 10
274.87966061583944
 20
138.42892938826631
 11
289.78175385062422
 21
138.42892938826631
  0
LINE
  8
_1-1_
  6
CONTINUOUS
 62
    7
 10
274.87966061583944
 20
139.2082646294846
 11
289.78175385062422
 21
139.2082646294846
  0
LINE
  8
_1-1_
  6
CONTINUOUS
 62
    7
 10
289.78175385062422
 20
140.63079422756047
 11
289.78175385062422
 21
139.85145898634215
  0
LINE
  8
_1-1_
  6
CONTINUOUS
 62
    7
 10
289.78175385062422
 20
140.10740576672421
 11
293.34731979129969
 21
140.10740576672421
  0
LINE
  8
_1-1_
  6
CONTINUOUS
 62
    7
 10
293.34731979129969
 20
140.10740576672421
 11
293.34731979129969
 21
140.37484744717846
  0
LINE
  8
_1-1_
  6
CONTINUOUS
 62
    7
 10
293.34731979129969
 20
140.37484744717846
 11
289.78175385062422
 21
140.37484744717846
  0
LINE
  8
_1-1_
  6
CONTINUOUS
 62
    7
 10
289.78175385062422
 20
140.37484744717846
 11
289.78175385062422
 21
140.10740576672421
  0
LINE
  8
_1-1_
  6
CONTINUOUS
 62
    7
 10
274.87966061583944
 20
139.85145898634215
 11
289.78175385062422
 21
139.85145898634215
  0
LINE
  8
_1-1_
  6
CONTINUOUS
 62
    7
 10
274.87966061583944
 20
140.63079422756047
 11
289.78175385062422
 21
140.63079422756047
  0
TEXT
  8
_f-0_
 62
    7
 10
337.74847644415859
 20
58.23853785086537
 40
4.0044000000000039
 41
1.0000000000000004
 50
0
  1
原田
  0
TEXT
  8
_f-0_
 62
    7
 10
352.25410606431614
 20
58.583617482201773
 40
3.00330000000001
 41
0.9999999999999976
 50
0
  1
2021年11月22日
  0
TEXT
  8
_f-0_
 62
    7
 10
353.54082455893978
 20
47.981332164233592
 40
4
 41
1
 50
0
  1
OT 60/100-200/24-G3
  0
TEXT
  8
_0-0_
 62
    7
 10
393.34920448337675
 20
46.673903195751407
 40
3.0033000000000242
 41
0.9999999999999811
 50
0
  1
1
  0
LINE
  8
_0-0_
  6
CONTINUOUS
 62
    7
 10
394.21423448658026
 20
50.960266832749042
 11
396.46670948658027
 21
46.455314830548971
  0
LINE
  8
_0-0_
  6
CONTINUOUS
 62
    7
 10
394.21423448658026
 20
50.960266832749042
 11
391.96176749538039
 21
46.455314830548971
  0
LINE
  8
_0-0_
  6
CONTINUOUS
 62
    7
 10
391.97432868790724
 20
46.439048139051479
 11
396.47927067910711
 21
46.439048139051479
  0
TEXT
  8
_0-0_
 62
    7
 10
293.86545225281724
 20
265.22962942802439
 40
3.0032999999999674
 41
1.0000000000000133
 50
0
  1
2022 . 4. 18
  0
LINE
  8
_0-0_
  6
CONTINUOUS
 62
    7
 10
22.213551469599934
 20
103.75535647018527
 11
22.213551469599934
 21
187.6503564701853
  0
LINE
  8
_0-0_
  6
CONTINUOUS
 62
    7
 10
28.382301469599923
 20
264.8362239701853
 11
28.382301469599923
 21
213.01872397018533
  0
LINE
  8
_0-0_
  6
CONTINUOUS
 62
    7
 10
22.213551469599934
 20
213.01872397018533
 11
22.213551469599934
 21
264.8362239701853
  0
LINE
  8
_0-0_
  6
CONTINUOUS
 62
    7
 10
28.382301469599923
 20
187.6503564701853
 11
28.382301469599923
 21
103.75535647018527
  0
LINE
  8
_0-0_
  6
CONTINUOUS
 62
    7
 10
22.213551469599934
 20
264.8362239701853
 11
34.432929077332346
 21
264.8362239701853
  0
LINE
  8
_0-0_
  6
CONTINUOUS
 62
    7
 10
22.213551469599934
 20
247.56372397018532
 11
34.432929077332346
 21
247.56372397018532
  0
LINE
  8
_0-0_
  6
CONTINUOUS
 62
    7
 10
34.432929077332346
 20
230.29122397018531
 11
22.213551469599934
 21
230.29122397018531
  0
LINE
  8
_0-0_
  6
CONTINUOUS
 62
    7
 10
34.432929077332346
 20
213.01872397018533
 11
22.213551469599934
 21
213.01872397018533
  0
LINE
  8
_0-0_
  6
CONTINUOUS
 62
    7
 10
22.213551469599934
 20
187.6503564701853
 11
34.432929077332346
 21
187.6503564701853
  0
LINE
  8
_0-0_
  6
CONTINUOUS
 62
    7
 10
22.213551469599934
 20
172.84535647018529
 11
34.432929077332346
 21
172.84535647018529
  0
LINE
  8
_0-0_
  6
CONTINUOUS
 62
    7
 10
34.432929077332346
 20
158.04035647018528
 11
22.213551469599934
 21
158.04035647018528
  0
LINE
  8
_0-0_
  6
CONTINUOUS
 62
    7
 10
22.213551469599934
 20
143.2353564701853
 11
34.432929077332346
 21
143.2353564701853
  0
LINE
  8
_0-0_
  6
CONTINUOUS
 62
    7
 10
34.432929077332346
 20
128.43035647018533
 11
22.213551469599934
 21
128.43035647018533
  0
LINE
  8
_0-0_
  6
CONTINUOUS
 62
    7
 10
22.213551469599934
 20
113.6253564701853
 11
34.432929077332346
 21
113.6253564701853
  0
LINE
  8
_0-0_
  6
CONTINUOUS
 62
    7
 10
34.432929077332346
 20
103.75535647018527
 11
22.213551469599934
 21
103.75535647018527
  0
TEXT
  8
_0-0_
 62
    7
 10
33.2582402734661
 20
251.02997173768528
 40
3.7012499999999874
 41
0.698413000000002
 50
90
  1
JIS  2級
  0
TEXT
  8
_0-0_
 62
    7
 10
27.148551469599937
 20
248.48903955456029
 40
3.7012500000000159
 41
0.8333329999999976
 50
90
  1
ネジの等級
  0
TEXT
  8
_0-0_
 62
    7
 10
33.228821482139437
 20
234.89793265134795
 40
3.7012499999999897
 41
0.8680560000000048
 50
89.580999999999988
  1
±0.1
  0
TEXT
  8
_0-0_
 62
    7
 10
27.148551469599937
 20
230.2912196520603
 40
3.7012499999999874
 41
0.6666670000000022
 50
90
  1
偏心又は片寄り
  0
TEXT
  8
_0-0_
 62
    7
 10
27.131080250701501
 20
218.56018453705914
 40
3.7012500000000518
 41
0.8333329999999942
 50
89.676000000000001
  1
角度
  0
TEXT
  8
_0-0_
 62
    7
 10
33.238521559571069
 20
217.62983080922458
 40
3.7012500000000154
 41
0.8680559999999944
 50
89.719000000000036
  1
±30'
  0
TEXT
  8
_0-0_
 62
    7
 10
33.2582402734661
 20
176.2317411326853
 40
3.7012499999999874
 41
0.8680560000000051
 50
90
  1
±0.8
  0
TEXT
  8
_0-0_
 62
    7
 10
28.109113969599917
 20
175.1718564701853
 40
2.5380000000000109
 41
0.9999999999999968
 50
90
  1
1000以下
  0
TEXT
  8
_0-0_
 62
    7
 10
25.081187114701435
 20
174.55019392624265
 40
2.5379999999999753
 41
1.0000000000000086
 50
90.566999999999993
  1
250をこえ
  0
TEXT
  8
_0-0_
 62
    7
 10
33.258240273466128
 20
161.42674113268529
 40
3.7012500000000159
 41
0.8680559999999972
 50
90
  1
±0.5
  0
TEXT
  8
_0-0_
 62
    7
 10
28.109113969599917
 20
161.00135647018529
 40
2.5380000000000109
 41
0.9999999999999952
 50
90
  1
250以下
  0
TEXT
  8
_0-0_
 62
    7
 10
24.985099720446356
 20
160.35711078795952
 40
2.5380000000000064
 41
0.9999999999999954
 50
89.553000000000011
  1
63をこえ
  0
TEXT
  8
_0-0_
 62
    7
 10
28.109113969599917
 20
146.83085647018532
 40
2.5380000000000109
 41
0.9999999999999942
 50
90
  1
63以下
  0
TEXT
  8
_0-0_
 62
    7
 10
33.258240273466128
 20
146.62174113268531
 40
3.7012500000000159
 41
0.8680559999999946
 50
90
  1
±0.3
  0
TEXT
  8
_0-0_
 62
    7
 10
24.980039621527367
 20
145.55089029045794
 40
2.5379999999999887
 41
1.0000000000000042
 50
89.496000000000009
  1
16をこえ
  0
TEXT
  8
_0-0_
 62
    7
 10
28.109113969599917
 20
132.02585647018531
 40
2.5380000000000109
 41
0.9999999999999981
 50
90
  1
16以下
  0
TEXT
  8
_0-0_
 62
    7
 10
33.2582402734661
 20
131.8167411326853
 40
3.7012499999999874
 41
0.868056000000004
 50
90
  1
±0.2
  0
TEXT
  8
_0-0_
 62
    7
 10
25.004571085413942
 20
131.38564368052576
 40
2.5380000000000042
 41
0.9999999999999997
 50
89.740000000000094
  1
4をこえ
  0
TEXT
  8
_0-0_
 62
    7
 10
33.243648468197676
 20
117.00504931565107
 40
3.7012500000000447
 41
0.8680559999999907
 50
89.792000000000086
  1
±0.1
  0
TEXT
  8
_0-0_
 62
    7
 10
27.148551469599937
 20
116.40129582081031
 40
3.7012500000000159
 41
0.8333329999999965
 50
90
  1
４以下
  0
TEXT
  8
_0-0_
 62
    7
 10
27.148551469599937
 20
105.60598270393531
 40
3.7012500000000159
 41
0.8333329999999943
 50
90
  1
寸法
  0
TEXT
  8
_0-0_
 62
    7
 10
33.23941057218883
 20
104.05630831370832
 40
3.7012499999999279
 41
0.8333330000000178
 50
89.767000000000066
  1
寸法差
  0
ARC
  8
_1-1_
  6
CONTINUOUS
 62
    7
 10
161.12316209345388
 20
167.08816632111214
 40
1.05
 50
270
 51
315.58414199214428
  0
LINE
  8
_1-1_
  6
DASHED1
 62
    7
 10
157.87315504695385
 20
168.13816632111215
 11
161.12316209345388
 21
168.13816632111215
  0
LINE
  8
_1-1_
  6
CONTINUOUS
 62
    7
 10
163.62315504695388
 20
160.62125377371208
 11
163.62315504695388
 21
161.5423522067621
  0
LINE
  8
_1-1_
  6
CONTINUOUS
 62
    7
 10
163.62315504695388
 20
161.55069231191205
 11
163.62315504695388
 21
185.52187946526203
  0
LINE
  8
_1-1_
  6
CONTINUOUS
 62
    7
 10
163.62315504695388
 20
185.53134634221203
 11
163.62315504695388
 21
187.10176623641211
  0
LINE
  8
_1-1_
  6
CONTINUOUS
 62
    7
 10
163.62315504695388
 20
160.6018375966621
 11
162.87315504695388
 21
160.6018375966621
  0
LINE
  8
_1-1_
  6
CONTINUOUS
 62
    7
 10
163.62315504695388
 20
161.85915055426204
 11
162.87315504695388
 21
161.85915055426204
  0
LINE
  8
_1-1_
  6
CONTINUOUS
 62
    7
 10
163.62315504695388
 20
160.6018375966621
 11
163.62315504695388
 21
187.10183702021208
  0
LINE
  8
_1-1_
  6
CONTINUOUS
 62
    7
 10
162.87315504695388
 20
160.6018375966621
 11
162.87315504695388
 21
163.62036098501215
  0
LINE
  8
_1-1_
  6
CONTINUOUS
 62
    7
 10
162.87315504695388
 20
163.62036098501215
 11
162.87315504695388
 21
187.10183702021208
  0
LINE
  8
_1-1_
  6
CONTINUOUS
 62
    7
 10
163.62315504695388
 20
185.84452406261215
 11
162.87315504695388
 21
185.84452406261215
  0
LINE
  8
_1-1_
  6
CONTINUOUS
 62
    7
 10
163.62315504695388
 20
187.10183702021208
 11
162.87315504695388
 21
187.10183702021208
  0
LINE
  8
_1-1_
  6
CONTINUOUS
 62
    7
 10
163.62315504695388
 20
187.10176623641211
 11
164.12315504695388
 21
187.10183702021208
  0
LINE
  8
_1-1_
  6
CONTINUOUS
 62
    7
 10
164.12315504695388
 20
187.10183702021208
 11
164.12315504695388
 21
160.62118298991208
  0
LINE
  8
_1-1_
  6
CONTINUOUS
 62
    7
 10
164.12315504695388
 20
160.62118298991208
 11
163.62315504695388
 21
160.62125377371208
  0
LINE
  8
_1-1_
  6
CONTINUOUS
 62
    7
 10
162.87315504695388
 20
173.63823693417319
 11
162.87315504695388
 21
166.03823693427318
  0
LINE
  8
_1-1_
  6
CONTINUOUS
 62
    7
 10
163.62315504695388
 20
160.62125377371208
 11
163.62315504695388
 21
161.5423522067621
  0
LINE
  8
_1-1_
  6
CONTINUOUS
 62
    7
 10
163.62315504695388
 20
161.55069231191205
 11
163.62315504695388
 21
185.52187946526203
  0
LINE
  8
_1-1_
  6
CONTINUOUS
 62
    7
 10
163.62315504695388
 20
185.53134634221203
 11
163.62315504695388
 21
187.10176623641211
  0
LINE
  8
_1-1_
  6
CONTINUOUS
 62
    7
 10
163.62315504695388
 20
160.6018375966621
 11
162.87315504695388
 21
160.6018375966621
  0
LINE
  8
_1-1_
  6
CONTINUOUS
 62
    7
 10
163.62315504695388
 20
161.85915055426204
 11
162.87315504695388
 21
161.85915055426204
  0
LINE
  8
_1-1_
  6
CONTINUOUS
 62
    7
 10
163.62315504695388
 20
160.6018375966621
 11
163.62315504695388
 21
187.10183702021208
  0
LINE
  8
_1-1_
  6
CONTINUOUS
 62
    7
 10
162.87315504695388
 20
160.6018375966621
 11
162.87315504695388
 21
163.62036098501215
  0
LINE
  8
_1-1_
  6
CONTINUOUS
 62
    7
 10
162.87315504695388
 20
163.62036098501215
 11
162.87315504695388
 21
187.10183702021208
  0
LINE
  8
_1-1_
  6
CONTINUOUS
 62
    7
 10
161.87315504695388
 20
163.62036098501215
 11
161.87315504695388
 21
184.12036098501215
  0
LINE
  8
_1-1_
  6
CONTINUOUS
 62
    7
 10
163.62315504695388
 20
185.84452406261215
 11
162.87315504695388
 21
185.84452406261215
  0
LINE
  8
_1-1_
  6
CONTINUOUS
 62
    7
 10
163.62315504695388
 20
187.10183702021208
 11
162.87315504695388
 21
187.10183702021208
  0
LINE
  8
_1-1_
  6
CONTINUOUS
 62
    7
 10
162.87315504695388
 20
181.68478300985907
 11
162.87315504695388
 21
174.08478300995915
  0
LINE
  8
_1-1_
  6
CONTINUOUS
 62
    7
 10
162.87315504695388
 20
179.30731260798501
 11
162.87315504695388
 21
176.46225341183324
  0
LINE
  8
_1-1_
  6
CONTINUOUS
 62
    7
 10
162.87315504695388
 20
181.68478300985907
 11
162.87315504695388
 21
174.08478300995915
  0
LINE
  8
_1-1_
  6
CONTINUOUS
 62
    7
 10
163.62315504695388
 20
187.10176623641211
 11
162.87315504695388
 21
187.10176623641211
  0
LINE
  8
_1-1_
  6
CONTINUOUS
 62
    7
 10
163.62315504695388
 20
185.84445327881212
 11
162.87315504695388
 21
185.84445327881212
  0
LINE
  8
_1-1_
  6
CONTINUOUS
 62
    7
 10
162.87315504695388
 20
184.08324284806207
 11
161.87315504695388
 21
184.08324284806207
  0
LINE
  8
_1-1_
  6
CONTINUOUS
 62
    7
 10
162.87315504695388
 20
183.58324284806207
 11
157.87315504695385
 21
183.58324284806207
  0
LINE
  8
_1-1_
  6
CONTINUOUS
 62
    7
 10
161.12316209345388
 20
181.63816632111212
 11
157.87315504695385
 21
181.63816632111212
  0
LINE
  8
_1-1_
  6
CONTINUOUS
 62
    7
 10
157.87315504695385
 20
179.53816632111215
 11
161.12316209345388
 21
179.53816632111215
  0
LINE
  8
_1-1_
  6
CONTINUOUS
 62
    7
 10
163.62315504695388
 20
187.10176623641211
 11
163.62315504695388
 21
160.6017668128621
  0
LINE
  8
_1-1_
  6
CONTINUOUS
 62
    7
 10
162.87315504695388
 20
187.10176623641211
 11
162.87315504695388
 21
183.58324284806207
  0
LINE
  8
_1-1_
  6
CONTINUOUS
 62
    7
 10
162.87315504695388
 20
164.08324284806209
 11
162.87315504695388
 21
160.6017668128621
  0
LINE
  8
_1-1_
  6
CONTINUOUS
 62
    7
 10
162.37315504695388
 20
184.08324284806207
 11
162.37315504695388
 21
183.58324284806207
  0
LINE
  8
_1-1_
  6
CONTINUOUS
 62
    7
 10
162.37315504695388
 20
164.08324284806209
 11
162.37315504695388
 21
163.58324284806209
  0
LINE
  8
_1-1_
  6
CONTINUOUS
 62
    7
 10
161.02316209345386
 20
174.88816632111215
 11
159.02316209345389
 21
174.88816632111215
  0
LINE
  8
_1-1_
  6
CONTINUOUS
 62
    7
 10
161.87315504695388
 20
184.08324284806207
 11
161.87315504695388
 21
183.58324284806207
  0
LINE
  8
_1-1_
  6
CONTINUOUS
 62
    7
 10
161.87315504695388
 20
181.31347185106216
 11
161.87315504695388
 21
179.86286079116214
  0
LINE
  8
_1-1_
  6
CONTINUOUS
 62
    7
 10
161.87315504695388
 20
174.45059518501216
 11
161.87315504695388
 21
173.22573745716215
  0
LINE
  8
_1-1_
  6
CONTINUOUS
 62
    7
 10
161.87315504695388
 20
167.81347185106216
 11
161.87315504695388
 21
166.36286079116214
  0
LINE
  8
_1-1_
  6
CONTINUOUS
 62
    7
 10
161.87315504695388
 20
164.08324284806209
 11
161.87315504695388
 21
163.58324284806209
  0
LINE
  8
_1-1_
  6
CONTINUOUS
 62
    7
 10
159.02316209345389
 20
172.78816632111215
 11
161.02316209345386
 21
172.78816632111215
  0
LINE
  8
_1-1_
  6
CONTINUOUS
 62
    7
 10
157.87315504695385
 20
166.03816632111215
 11
161.12316209345388
 21
166.03816632111215
  0
LINE
  8
_1-1_
  6
CONTINUOUS
 62
    7
 10
162.87315504695388
 20
164.08324284806209
 11
157.87315504695385
 21
164.08324284806209
  0
LINE
  8
_1-1_
  6
CONTINUOUS
 62
    7
 10
162.87315504695388
 20
163.58324284806209
 11
161.87315504695388
 21
163.58324284806209
  0
LINE
  8
_1-1_
  6
CONTINUOUS
 62
    7
 10
163.62315504695388
 20
161.8590797704621
 11
162.87315504695388
 21
161.8590797704621
  0
LINE
  8
_1-1_
  6
CONTINUOUS
 62
    7
 10
163.62315504695388
 20
160.6017668128621
 11
162.87315504695388
 21
160.6017668128621
  0
ARC
  8
_1-1_
  6
CONTINUOUS
 62
    7
 10
161.02316209345386
 20
173.83816632111214
 40
1.05
 50
270
 51
324.22685333075844
  0
ARC
  8
_1-1_
  6
CONTINUOUS
 62
    7
 10
161.02316209345386
 20
173.83816632111214
 40
1.05
 50
35.773146667024498
 51
90
  0
ARC
  8
_1-1_
  6
CONTINUOUS
 62
    7
 10
161.12316209345388
 20
180.58816632111211
 40
1.05
 50
270
 51
315.58414199214428
  0
ARC
  8
_1-1_
  6
CONTINUOUS
 62
    7
 10
161.12316209345388
 20
180.58816632111211
 40
1.05
 50
44.41585800785571
 51
90
  0
ARC
  8
_1-1_
  6
DASHED1
 62
    7
 10
161.12316209345391
 20
167.08816632111214
 40
1.05
 50
315.58414199214331
 51
43.673142343615481
  0
ARC
  8
_1-1_
  6
DASHED1
 62
    7
 10
161.12316209345391
 20
167.08816632111214
 40
1.05
 50
44.415858007856392
 51
90.000000000000582
  0
ARC
  8
_1-1_
  6
DASHED1
 62
    7
 10
161.02025945742869
 20
173.83816632108715
 40
1.05
 50
324.3194442063388
 51
35.680555793661191
  0
ARC
  8
_1-1_
  6
DASHED1
 62
    7
 10
161.11392393047884
 20
180.58816632111214
 40
1.05
 50
316.30913215139844
 51
43.690867848601548
  0
LINE
  8
_1-1_
  6
CONTINUOUS
 62
    7
 10
139.50725463295503
 20
167.81323693422319
 11
161.87315504695388
 21
167.81323693422319
  0
LINE
  8
_1-1_
  6
CONTINUOUS
 62
    7
 10
139.50725463295503
 20
171.8632369342232
 11
161.87315504695388
 21
171.8632369342232
  0
LINE
  8
_1-1_
  6
DASHED1
 62
    7
 10
161.87315504695388
 20
171.8632369342232
 11
162.87315504695388
 21
171.8632369342232
  0
LINE
  8
_1-1_
  6
DASHED1
 62
    7
 10
161.87315504695388
 20
167.81323693422319
 11
162.87315504695388
 21
167.81323693422319
  0
LINE
  8
_1-1_
  6
CONTINUOUS
 62
    7
 10
163.62315504695388
 20
145.46206486222789
 11
162.37315504695388
 21
145.46206486222789
  0
LINE
  8
_1-1_
  6
CONTINUOUS
 62
    7
 10
163.62315504695388
 20
129.71206486222789
 11
163.62315504695388
 21
145.46206486222789
  0
LINE
  8
_1-1_
  6
CONTINUOUS
 62
    4
 10
164.12315504695388
 20
129.71206486222789
 11
164.12315504695388
 21
145.46206486512795
  0
LINE
  8
_1-1_
  6
CONTINUOUS
 62
    7
 10
164.12315504695388
 20
129.71206486222789
 11
164.12315504695388
 21
145.46206486222789
  0
LINE
  8
_1-1_
  6
CONTINUOUS
 62
    7
 10
163.62315504695388
 20
129.71206486222789
 11
163.62315504695388
 21
145.46206486222789
  0
LINE
  8
_1-1_
  6
CONTINUOUS
 62
    7
 10
163.62315504695388
 20
124.96852676852788
 11
162.87315504695388
 21
124.96852676852788
  0
LINE
  8
_1-1_
  6
CONTINUOUS
 62
    7
 10
163.62315504695388
 20
145.46206486222789
 11
163.62315504695388
 21
123.71206486222789
  0
LINE
  8
_1-1_
  6
CONTINUOUS
 62
    7
 10
162.87315504695388
 20
145.46206486222789
 11
162.87315504695388
 21
124.46245829047788
  0
LINE
  8
_1-1_
  6
CONTINUOUS
 62
    7
 10
161.87315504695388
 20
144.96206486222789
 11
161.87315504695388
 21
144.46217997587788
  0
LINE
  8
_1-1_
  6
CONTINUOUS
 62
    7
 10
162.87315504695388
 20
143.96217997587788
 11
162.37315504695388
 21
143.96217997587788
  0
LINE
  8
_1-1_
  6
CONTINUOUS
 62
    7
 10
163.62315504695388
 20
144.20447354577785
 11
162.87315504695388
 21
144.20447354577785
  0
ARC
  8
_1-1_
  6
CONTINUOUS
 62
    7
 10
162.37315504695388
 20
144.46217997587788
 40
0.5
 50
180
 51
270
  0
ARC
  8
_1-1_
  6
CONTINUOUS
 62
    7
 10
162.37315504695388
 20
144.96206486222789
 40
0.5
 50
90
 51
180
  0
LINE
  8
_1-1_
  6
CONTINUOUS
 62
    7
 10
162.87315504695388
 20
124.46245829047788
 11
157.37315504695385
 21
124.46245829047788
  0
LINE
  8
_1-1_
  6
CONTINUOUS
 62
    7
 10
163.62315504695388
 20
123.71206486222789
 11
157.37315504695385
 21
123.71206486222789
  0
LINE
  8
_1-1_
  6
CONTINUOUS
 62
    7
 10
139.50725463295503
 20
137.66389068472793
 11
162.87315504695388
 21
137.66389068472793
  0
LINE
  8
_1-1_
  6
CONTINUOUS
 62
    7
 10
139.50725463295503
 20
141.71389068472794
 11
162.87315504695388
 21
141.71389068472794
  0
LINE
  8
_1-1_
  6
CONTINUOUS
 62
    4
 10
234.12315504695391
 20
129.71206486222789
 11
234.12315504695391
 21
145.46206486512795
  0
LINE
  8
_1-1_
  6
CONTINUOUS
 62
    7
 10
234.12315504695391
 20
129.71206486222789
 11
234.12315504695391
 21
145.46206486222789
  0
LINE
  8
_1-1_
  6
CONTINUOUS
 62
    7
 10
234.62315504695391
 20
123.71206486222789
 11
240.87315504695391
 21
123.71206486222789
  0
LINE
  8
_1-1_
  6
CONTINUOUS
 62
    7
 10
235.37315504695391
 20
124.46245829047788
 11
240.87315504695391
 21
124.46245829047788
  0
LINE
  8
_1-1_
  6
CONTINUOUS
 62
    7
 10
234.62315504695391
 20
124.96852676852788
 11
235.37315504695391
 21
124.96852676852788
  0
LINE
  8
_1-1_
  6
CONTINUOUS
 62
    7
 10
234.62315504695391
 20
145.46206486222789
 11
234.62315504695391
 21
123.71206486222789
  0
LINE
  8
_1-1_
  6
CONTINUOUS
 62
    7
 10
235.37315504695391
 20
145.46206486222789
 11
235.37315504695391
 21
124.46245829047788
  0
LINE
  8
_1-1_
  6
CONTINUOUS
 62
    7
 10
236.37315504695391
 20
144.96206486222789
 11
236.37315504695391
 21
144.46217997587788
  0
LINE
  8
_1-1_
  6
CONTINUOUS
 62
    7
 10
235.37315504695391
 20
143.96217997587788
 11
235.87315504695391
 21
143.96217997587788
  0
LINE
  8
_1-1_
  6
CONTINUOUS
 62
    7
 10
234.62315504695391
 20
144.20447354577785
 11
235.37315504695391
 21
144.20447354577785
  0
LINE
  8
_1-1_
  6
CONTINUOUS
 62
    7
 10
234.62315504695391
 20
145.46206486222789
 11
235.87315504695391
 21
145.46206486222789
  0
ARC
  8
_1-1_
  6
CONTINUOUS
 62
    7
 10
235.87315504695391
 20
144.46217997587788
 40
0.5
 50
270
 51
0
  0
ARC
  8
_1-1_
  6
CONTINUOUS
 62
    7
 10
235.87315504695391
 20
144.96206486222789
 40
0.5
 50
0
 51
90
  0
LINE
  8
_1-1_
  6
CONTINUOUS
 62
    7
 10
234.62315504695391
 20
129.71206486222789
 11
234.62315504695391
 21
145.46206486222789
  0
LINE
  8
_1-1_
  6
CONTINUOUS
 62
    7
 10
234.62315504695391
 20
160.62125377371208
 11
234.62315504695391
 21
161.5423522067621
  0
LINE
  8
_1-1_
  6
CONTINUOUS
 62
    7
 10
234.62315504695391
 20
161.55069231191205
 11
234.62315504695391
 21
185.52187946526203
  0
LINE
  8
_1-1_
  6
CONTINUOUS
 62
    7
 10
234.62315504695391
 20
185.53134634221203
 11
234.62315504695391
 21
187.10176623641211
  0
LINE
  8
_1-1_
  6
CONTINUOUS
 62
    7
 10
234.62315504695391
 20
160.6018375966621
 11
235.37315504695391
 21
160.6018375966621
  0
LINE
  8
_1-1_
  6
CONTINUOUS
 62
    7
 10
234.62315504695391
 20
161.85915055426204
 11
235.37315504695391
 21
161.85915055426204
  0
LINE
  8
_1-1_
  6
CONTINUOUS
 62
    7
 10
234.62315504695391
 20
160.6018375966621
 11
234.62315504695391
 21
187.10183702021208
  0
LINE
  8
_1-1_
  6
CONTINUOUS
 62
    7
 10
235.37315504695391
 20
160.6018375966621
 11
235.37315504695391
 21
163.62036098501215
  0
LINE
  8
_1-1_
  6
CONTINUOUS
 62
    7
 10
235.37315504695391
 20
163.62036098501215
 11
235.37315504695391
 21
187.10183702021208
  0
LINE
  8
_1-1_
  6
CONTINUOUS
 62
    7
 10
234.62315504695391
 20
185.84452406261215
 11
235.37315504695391
 21
185.84452406261215
  0
LINE
  8
_1-1_
  6
CONTINUOUS
 62
    7
 10
234.62315504695391
 20
187.10183702021208
 11
235.37315504695391
 21
187.10183702021208
  0
LINE
  8
_1-1_
  6
CONTINUOUS
 62
    7
 10
234.62315504695391
 20
187.10176623641211
 11
234.12315504695391
 21
187.10183702021208
  0
LINE
  8
_1-1_
  6
CONTINUOUS
 62
    7
 10
234.12315504695391
 20
187.10183702021208
 11
234.12315504695391
 21
160.62118298991208
  0
LINE
  8
_1-1_
  6
CONTINUOUS
 62
    7
 10
234.12315504695391
 20
160.62118298991208
 11
234.62315504695391
 21
160.62125377371208
  0
LINE
  8
_1-1_
  6
CONTINUOUS
 62
    7
 10
235.37315504695391
 20
181.68478300985907
 11
235.37315504695391
 21
174.08478300995915
  0
LINE
  8
_1-1_
  6
CONTINUOUS
 62
    7
 10
235.37315504695391
 20
179.30731260798501
 11
235.37315504695391
 21
176.46225341183324
  0
LINE
  8
_1-1_
  6
CONTINUOUS
 62
    7
 10
235.37315504695391
 20
181.68478300985907
 11
235.37315504695391
 21
174.08478300995915
  0
LINE
  8
_1-1_
  6
CONTINUOUS
 62
    7
 10
234.62315504695391
 20
187.10176623641211
 11
235.37315504695391
 21
187.10176623641211
  0
LINE
  8
_1-1_
  6
CONTINUOUS
 62
    7
 10
234.62315504695391
 20
185.84445327881212
 11
235.37315504695391
 21
185.84445327881212
  0
LINE
  8
_1-1_
  6
CONTINUOUS
 62
    7
 10
235.37315504695391
 20
184.08324284806207
 11
236.37315504695391
 21
184.08324284806207
  0
LINE
  8
_1-1_
  6
CONTINUOUS
 62
    7
 10
235.37315504695391
 20
183.58324284806207
 11
240.37315504695391
 21
183.58324284806207
  0
LINE
  8
_1-1_
  6
CONTINUOUS
 62
    7
 10
237.1231480004539
 20
181.63816632111212
 11
240.37315504695391
 21
181.63816632111212
  0
LINE
  8
_1-1_
  6
CONTINUOUS
 62
    7
 10
240.37315504695391
 20
179.53816632111215
 11
237.1231480004539
 21
179.53816632111215
  0
LINE
  8
_1-1_
  6
CONTINUOUS
 62
    7
 10
234.62315504695391
 20
187.10176623641211
 11
234.62315504695391
 21
160.6017668128621
  0
LINE
  8
_1-1_
  6
CONTINUOUS
 62
    7
 10
235.37315504695391
 20
187.10176623641211
 11
235.37315504695391
 21
183.58324284806207
  0
LINE
  8
_1-1_
  6
CONTINUOUS
 62
    7
 10
235.37315504695391
 20
164.08324284806209
 11
235.37315504695391
 21
160.6017668128621
  0
LINE
  8
_1-1_
  6
CONTINUOUS
 62
    7
 10
235.87315504695391
 20
184.08324284806207
 11
235.87315504695391
 21
183.58324284806207
  0
LINE
  8
_1-1_
  6
CONTINUOUS
 62
    7
 10
235.87315504695391
 20
164.08324284806209
 11
235.87315504695391
 21
163.58324284806209
  0
LINE
  8
_1-1_
  6
CONTINUOUS
 62
    7
 10
237.22314800045393
 20
174.88816632111215
 11
239.22314800045393
 21
174.88816632111215
  0
LINE
  8
_1-1_
  6
CONTINUOUS
 62
    7
 10
236.37315504695391
 20
184.08324284806207
 11
236.37315504695391
 21
183.58324284806207
  0
LINE
  8
_1-1_
  6
CONTINUOUS
 62
    7
 10
236.37315504695391
 20
174.45059518501216
 11
236.37315504695391
 21
173.22573745716215
  0
LINE
  8
_1-1_
  6
CONTINUOUS
 62
    7
 10
236.37315504695391
 20
164.08324284806209
 11
236.37315504695391
 21
163.58324284806209
  0
LINE
  8
_1-1_
  6
CONTINUOUS
 62
    7
 10
239.22314800045393
 20
172.78816632111215
 11
237.22314800045393
 21
172.78816632111215
  0
LINE
  8
_1-1_
  6
CONTINUOUS
 62
    7
 10
240.37315504695391
 20
168.13816632111215
 11
237.1231480004539
 21
168.13816632111215
  0
LINE
  8
_1-1_
  6
CONTINUOUS
 62
    7
 10
240.37315504695391
 20
166.03816632111215
 11
237.1231480004539
 21
166.03816632111215
  0
LINE
  8
_1-1_
  6
CONTINUOUS
 62
    7
 10
235.37315504695391
 20
164.08324284806209
 11
240.37315504695391
 21
164.08324284806209
  0
LINE
  8
_1-1_
  6
CONTINUOUS
 62
    7
 10
235.37315504695391
 20
163.58324284806209
 11
236.37315504695391
 21
163.58324284806209
  0
LINE
  8
_1-1_
  6
CONTINUOUS
 62
    7
 10
234.62315504695391
 20
161.8590797704621
 11
235.37315504695391
 21
161.8590797704621
  0
LINE
  8
_1-1_
  6
CONTINUOUS
 62
    7
 10
234.62315504695391
 20
160.6017668128621
 11
235.37315504695391
 21
160.6017668128621
  0
LINE
  8
_1-1_
  6
CONTINUOUS
 62
    7
 10
236.37315504695391
 20
181.31347185106216
 11
236.37315504695391
 21
179.5268371698078
  0
ARC
  8
_1-1_
  6
CONTINUOUS
 62
    7
 10
237.1231480004539
 20
167.08816632111214
 40
1.05
 50
90
 51
135.58414199214428
  0
ARC
  8
_1-1_
  6
CONTINUOUS
 62
    7
 10
237.1231480004539
 20
167.08816632111214
 40
1.05
 50
224.04131049706435
 51
270
  0
ARC
  8
_1-1_
  6
DASHED1
 62
    7
 10
237.1277963214207
 20
167.09294061342208
 40
1.05
 50
135.9477464833802
 51
224.05225351661979
  0
ARC
  8
_1-1_
  6
CONTINUOUS
 62
    7
 10
237.1231480004539
 20
180.58816632111211
 40
1.05
 50
90
 51
135.58414199214428
  0
ARC
  8
_1-1_
  6
CONTINUOUS
 62
    7
 10
237.1231480004539
 20
180.58816632111211
 40
1.05
 50
224.41585800785571
 51
270
  0
ARC
  8
_1-1_
  6
CONTINUOUS
 62
    7
 10
237.22314800045393
 20
173.83816632111214
 40
1.05
 50
90
 51
144.22685333297539
  0
ARC
  8
_1-1_
  6
CONTINUOUS
 62
    7
 10
237.22314800045393
 20
173.83816632111214
 40
1.05
 50
215.77314666924141
 51
270
  0
ARC
  8
_1-1_
  6
DASHED1
 62
    7
 10
237.22314800045393
 20
173.83816632111214
 40
1.05
 50
144.04877744136092
 51
215.77314666924138
  0
ARC
  8
_1-1_
  6
DASHED1
 62
    7
 10
237.1277963214207
 20
180.59294061342211
 40
1.05
 50
135.9477464833802
 51
224.05225351661979
  0
LINE
  8
_1-1_
  6
CONTINUOUS
 62
    7
 10
244.68583022382597
 20
179.5268371698078
 11
236.37315504695391
 21
179.5268371698078
  0
LINE
  8
_1-1_
  6
CONTINUOUS
 62
    7
 10
260.0365706304185
 20
176.17683716980781
 11
236.37315504695391
 21
176.17683716980781
  0
LINE
  8
_1-1_
  6
DASHED1
 62
    7
 10
236.37315504695391
 20
176.17683716980781
 11
235.2227462094485
 21
176.17683716980781
  0
LINE
  8
_1-1_
  6
DASHED1
 62
    7
 10
236.37315504695391
 20
179.5268371698078
 11
235.30211314493237
 21
179.5268371698078
  0
LINE
  8
_1-1_
  6
CONTINUOUS
 62
    7
 10
260.03657063041873
 20
171.52683720689594
 11
236.37315504695391
 21
171.52683720689594
  0
LINE
  8
_1-1_
  6
CONTINUOUS
 62
    7
 10
244.68583022382597
 20
168.17683720689595
 11
236.37315504695391
 21
168.17683720689595
  0
LINE
  8
_1-1_
  6
DASHED1
 62
    7
 10
236.37315504695391
 20
171.52683720689594
 11
235.37315504695391
 21
171.52683720689594
  0
LINE
  8
_1-1_
  6
DASHED1
 62
    7
 10
236.37315504695391
 20
168.17683720689595
 11
235.37315504695391
 21
168.17683720689595
  0
LINE
  8
_1-1_
  6
CONTINUOUS
 62
    7
 10
236.37315504695391
 20
164.08324284806209
 11
236.37315504695391
 21
184.12036098501215
  0
LINE
  8
_1-1_
  6
CONTINUOUS
 62
    7
 10
260.03657063041873
 20
141.13706486222787
 11
235.37315504695391
 21
141.13706486222787
  0
LINE
  8
_1-1_
  6
CONTINUOUS
 62
    7
 10
260.03657063041873
 20
137.7870648622279
 11
235.37315504695391
 21
137.7870648622279
  0
LINE
  8
_1-1_
  6
CONTINUOUS
 62
    7
 10
234.12315504695391
 20
160.62118298991208
 11
164.12315504695388
 21
160.62118298991208
  0
LINE
  8
_1-1_
  6
CONTINUOUS
 62
    7
 10
234.12315504695391
 20
161.16276457706203
 11
164.12315504695388
 21
161.16276457706203
  0
LINE
  8
_1-1_
  6
CONTINUOUS
 62
    7
 10
234.12315504695391
 20
161.2801518581121
 11
164.12315504695388
 21
161.2801518581121
  0
LINE
  8
_1-1_
  6
CONTINUOUS
 62
    7
 10
234.12315504695391
 20
161.5113640042621
 11
164.12315504695388
 21
161.5113640042621
  0
LINE
  8
_1-1_
  6
CONTINUOUS
 62
    7
 10
234.12315504695391
 20
161.5423522067621
 11
164.12315504695388
 21
161.5423522067621
  0
LINE
  8
_1-1_
  6
CONTINUOUS
 62
    7
 10
234.12315504695391
 20
162.20114054486205
 11
164.12315504695388
 21
162.20114054486205
  0
LINE
  8
_1-1_
  6
CONTINUOUS
 62
    7
 10
234.12315504695391
 20
162.31485009081214
 11
164.12315504695388
 21
162.31485009081214
  0
LINE
  8
_1-1_
  6
CONTINUOUS
 62
    7
 10
234.12315504695391
 20
162.80023443241205
 11
164.12315504695388
 21
162.80023443241205
  0
LINE
  8
_1-1_
  6
CONTINUOUS
 62
    7
 10
234.12315504695391
 20
162.93539811471205
 11
164.12315504695388
 21
162.93539811471205
  0
LINE
  8
_1-1_
  6
CONTINUOUS
 62
    7
 10
234.12315504695391
 20
184.78762189541203
 11
164.12315504695388
 21
184.78762189541203
  0
LINE
  8
_1-1_
  6
CONTINUOUS
 62
    7
 10
234.12315504695391
 20
184.92278557771203
 11
164.12315504695388
 21
184.92278557771203
  0
LINE
  8
_1-1_
  6
CONTINUOUS
 62
    7
 10
234.12315504695391
 20
185.40816991931205
 11
164.12315504695388
 21
185.40816991931205
  0
LINE
  8
_1-1_
  6
CONTINUOUS
 62
    7
 10
234.12315504695391
 20
185.52187946526203
 11
164.12315504695388
 21
185.52187946526203
  0
LINE
  8
_1-1_
  6
CONTINUOUS
 62
    7
 10
234.12315504695391
 20
186.18066780336215
 11
164.12315504695388
 21
186.18066780336215
  0
LINE
  8
_1-1_
  6
CONTINUOUS
 62
    7
 10
234.12315504695391
 20
186.21165600586215
 11
164.12315504695388
 21
186.21165600586215
  0
LINE
  8
_1-1_
  6
CONTINUOUS
 62
    7
 10
234.12315504695391
 20
186.44286815201201
 11
164.12315504695388
 21
186.44286815201201
  0
LINE
  8
_1-1_
  6
CONTINUOUS
 62
    7
 10
234.12315504695391
 20
186.56025543306202
 11
164.12315504695388
 21
186.56025543306202
  0
LINE
  8
_1-1_
  6
CONTINUOUS
 62
    7
 10
234.12315504695391
 20
187.10183702021208
 11
164.12315504695388
 21
187.10183702021208
  0
LINE
  8
_1-1_
  6
CONTINUOUS
 62
    7
 10
234.12315504695391
 20
165.12076950341204
 11
164.12315504695388
 21
165.12076950341204
  0
LINE
  8
_1-1_
  6
CONTINUOUS
 62
    7
 10
234.12315504695391
 20
164.1221627056621
 11
164.12315504695388
 21
164.1221627056621
  0
LINE
  8
_1-1_
  6
CONTINUOUS
 62
    7
 10
234.12315504695391
 20
164.37076950336225
 11
164.12315504695388
 21
164.37076950336225
  0
LINE
  8
_1-1_
  6
CONTINUOUS
 62
    7
 10
234.12315504695391
 20
164.87216270561205
 11
164.12315504695388
 21
164.87216270561205
  0
LINE
  8
_1-1_
  6
CONTINUOUS
 62
    7
 10
234.12315504695391
 20
182.61010552051209
 11
164.12315504695388
 21
182.61010552051209
  0
LINE
  8
_1-1_
  6
CONTINUOUS
 62
    7
 10
234.12315504695391
 20
183.60871231826206
 11
164.12315504695388
 21
183.60871231826206
  0
LINE
  8
_1-1_
  6
CONTINUOUS
 62
    7
 10
234.12315504695391
 20
183.36010552056194
 11
164.12315504695388
 21
183.36010552056194
  0
LINE
  8
_1-1_
  6
CONTINUOUS
 62
    7
 10
234.12315504695391
 20
182.85871231831208
 11
164.12315504695388
 21
182.85871231831208
  0
LINE
  8
_1-1_
  6
CONTINUOUS
 62
    7
 10
234.62315504695391
 20
129.71206486222789
 11
163.62315504695388
 21
129.71206486222789
  0
LINE
  8
_1-1_
  6
CONTINUOUS
 62
    7
 10
234.62315504695391
 20
145.46206486222789
 11
163.62315504695388
 21
145.46206486222789
  0
LINE
  8
_1-1_
  6
CONTINUOUS
 62
    7
 10
234.12315504695391
 20
143.18218945602794
 11
163.62315504695388
 21
143.18218945602794
  0
LINE
  8
_1-1_
  6
CONTINUOUS
 62
    7
 10
234.12315504695391
 20
141.928124012978
 11
163.62315504695388
 21
141.928124012978
  0
LINE
  8
_1-1_
  6
CONTINUOUS
 62
    7
 10
234.12315504695391
 20
141.77812401297788
 11
163.62315504695388
 21
141.77812401297788
  0
LINE
  8
_1-1_
  6
CONTINUOUS
 62
    7
 10
234.12315504695391
 20
141.37812401297787
 11
163.62315504695388
 21
141.37812401297787
  0
LINE
  8
_1-1_
  6
CONTINUOUS
 62
    7
 10
234.12315504695391
 20
141.22812401297792
 11
163.62315504695388
 21
141.22812401297792
  0
LINE
  8
_1-1_
  6
CONTINUOUS
 62
    7
 10
234.12315504695391
 20
140.32812401297795
 11
163.62315504695388
 21
140.32812401297795
  0
LINE
  8
_1-1_
  6
CONTINUOUS
 62
    7
 10
234.12315504695391
 20
140.178124012978
 11
163.62315504695388
 21
140.178124012978
  0
LINE
  8
_1-1_
  6
CONTINUOUS
 62
    7
 10
234.12315504695391
 20
139.77812401297788
 11
163.62315504695388
 21
139.77812401297788
  0
LINE
  8
_1-1_
  6
CONTINUOUS
 62
    7
 10
234.12315504695391
 20
139.62812401297787
 11
163.62315504695388
 21
139.62812401297787
  0
LINE
  8
_1-1_
  6
CONTINUOUS
 62
    7
 10
234.12315504695391
 20
138.72812401297792
 11
163.62315504695388
 21
138.72812401297792
  0
LINE
  8
_1-1_
  6
CONTINUOUS
 62
    7
 10
234.12315504695391
 20
138.57812401297795
 11
163.62315504695388
 21
138.57812401297795
  0
LINE
  8
_1-1_
  6
CONTINUOUS
 62
    7
 10
234.12315504695391
 20
138.178124012978
 11
163.62315504695388
 21
138.178124012978
  0
LINE
  8
_1-1_
  6
CONTINUOUS
 62
    7
 10
234.12315504695391
 20
138.02812401297788
 11
163.62315504695388
 21
138.02812401297788
  0
LINE
  8
_1-1_
  6
CONTINUOUS
 62
    7
 10
234.12315504695391
 20
137.12812401297787
 11
163.62315504695388
 21
137.12812401297787
  0
LINE
  8
_1-1_
  6
CONTINUOUS
 62
    7
 10
234.12315504695391
 20
136.97812401297792
 11
163.62315504695388
 21
136.97812401297792
  0
LINE
  8
_1-1_
  6
CONTINUOUS
 62
    7
 10
234.12315504695391
 20
136.428124012978
 11
163.62315504695388
 21
136.428124012978
  0
LINE
  8
_1-1_
  6
CONTINUOUS
 62
    7
 10
234.12315504695391
 20
136.57812401297795
 11
163.62315504695388
 21
136.57812401297795
  0
LINE
  8
_1-1_
  6
CONTINUOUS
 62
    7
 10
234.12315504695391
 20
135.52812401297788
 11
163.62315504695388
 21
135.52812401297788
  0
LINE
  8
_1-1_
  6
CONTINUOUS
 62
    7
 10
234.12315504695391
 20
135.37812401297787
 11
163.62315504695388
 21
135.37812401297787
  0
LINE
  8
_1-1_
  6
CONTINUOUS
 62
    7
 10
234.12315504695391
 20
134.97812401297792
 11
163.62315504695388
 21
134.97812401297792
  0
LINE
  8
_1-1_
  6
CONTINUOUS
 62
    7
 10
234.12315504695391
 20
134.82812401297795
 11
163.62315504695388
 21
134.82812401297795
  0
LINE
  8
_1-1_
  6
CONTINUOUS
 62
    7
 10
234.12315504695391
 20
133.87812401297787
 11
163.62315504695388
 21
133.87812401297787
  0
LINE
  8
_1-1_
  6
CONTINUOUS
 62
    7
 10
234.12315504695391
 20
133.72812401297792
 11
163.62315504695388
 21
133.72812401297792
  0
LINE
  8
_1-1_
  6
CONTINUOUS
 62
    7
 10
234.12315504695391
 20
133.32812401297795
 11
163.62315504695388
 21
133.32812401297795
  0
LINE
  8
_1-1_
  6
CONTINUOUS
 62
    7
 10
234.12315504695391
 20
133.178124012978
 11
163.62315504695388
 21
133.178124012978
  0
LINE
  8
_1-1_
  6
CONTINUOUS
 62
    7
 10
234.12315504695391
 20
132.34734728472793
 11
163.62315504695388
 21
132.34734728472793
  0
LINE
  8
_1-1_
  6
CONTINUOUS
 62
    7
 10
234.12315504695391
 20
132.13329039857799
 11
163.62315504695388
 21
132.13329039857799
  0
LINE
  8
_1-1_
  6
CONTINUOUS
 62
    7
 10
234.12315504695391
 20
131.99194026842795
 11
163.62315504695388
 21
131.99194026842795
  0
LINE
  8
_1-9_
  6
CONTINUOUS
 62
    7
 10
49.906000201325014
 20
41.578741161146425
 11
144.90600020132501
 21
41.578741161146425
  0
TEXT
  8
_1-9_
 62
    7
 10
50.406000201325014
 20
64.57874116114641
 40
4
 41
1
 50
0
  1
使用環境
  0
TEXT
  8
_1-9_
 62
    7
 10
55.031000201325014
 20
54.57874116114641
 40
4
 41
1
 50
0
  1
-40～70℃
  0
LINE
  8
_1-9_
  6
CONTINUOUS
 62
    7
 10
49.906000201325014
 20
64.07874116114641
 11
49.906000201325014
 21
54.07874116114641
  0
LINE
  8
_1-9_
  6
CONTINUOUS
 62
    7
 10
79.906000201325014
 20
64.07874116114641
 11
79.906000201325014
 21
54.07874116114641
  0
TEXT
  8
_1-9_
 62
    7
 10
81.156000201325014
 20
59.57874116114641
 40
4
 41
1
 50
0
  1
動作湿度
  0
TEXT
  8
_1-9_
 62
    7
 10
82.281000201325014
 20
54.57874116114641
 40
4
 41
1
 50
0
  1
5～95％
  0
LINE
  8
_1-9_
  6
CONTINUOUS
 62
    7
 10
79.906000201325014
 20
64.07874116114641
 11
79.906000201325014
 21
54.07874116114641
  0
LINE
  8
_1-9_
  6
CONTINUOUS
 62
    7
 10
99.906000201325014
 20
64.07874116114641
 11
99.906000201325014
 21
54.07874116114641
  0
LINE
  8
_1-9_
  6
CONTINUOUS
 62
    7
 10
49.906000201325014
 20
64.07874116114641
 11
49.906000201325014
 21
54.07874116114641
  0
TEXT
  8
_1-9_
 62
    7
 10
101.40600020132501
 20
59.57874116114641
 40
4
 41
1
 50
0
  1
最大Tc温度
  0
TEXT
  8
_1-9_
 62
    7
 10
108.15600020132501
 20
54.57874116114641
 40
4
 41
1
 50
0
  1
85℃
  0
LINE
  8
_1-9_
  6
CONTINUOUS
 62
    7
 10
49.906000201325014
 20
64.07874116114641
 11
124.90600020132501
 21
64.07874116114641
  0
LINE
  8
_1-9_
  6
CONTINUOUS
 62
    7
 10
124.90600020132501
 20
64.07874116114641
 11
124.90600020132501
 21
54.07874116114641
  0
LINE
  8
_1-9_
  6
CONTINUOUS
 62
    7
 10
49.906000201325014
 20
54.07874116114641
 11
124.90600020132501
 21
54.07874116114641
  0
LINE
  8
_1-9_
  6
CONTINUOUS
 62
    7
 10
49.906000201325014
 20
59.07874116114641
 11
124.90600020132501
 21
59.07874116114641
  0
TEXT
  8
_1-9_
 62
    7
 10
50.406000201325014
 20
92.07874116114641
 40
4
 41
1
 50
0
  1
電気特性
  0
TEXT
  8
_1-9_
 62
    7
 10
50.406000201325014
 20
47.078741161146425
 40
4
 41
1
 50
0
  1
保護機能
  0
TEXT
  8
_1-9_
 62
    7
 10
51.406000201325014
 20
42.078741161146425
 40
4
 41
1
 50
0
  1
過電圧保護
  0
LINE
  8
_1-9_
  6
CONTINUOUS
 62
    7
 10
49.906000201325014
 20
46.578741161146425
 11
144.90600020132501
 21
46.578741161146425
  0
TEXT
  8
_1-9_
 62
    7
 10
76.406000201325014
 20
42.078741161146425
 40
4
 41
1
 50
0
  1
過負荷保護
  0
TEXT
  8
_1-9_
 62
    7
 10
101.15600020132501
 20
42.078741161146425
 40
4
 41
1
 50
0
  1
短絡保護
  0
TEXT
  8
_1-9_
 62
    7
 10
121.40600020132501
 20
42.078741161146425
 40
4
 41
1
 50
0
  1
過昇温保護
  0
LINE
  8
_1-9_
  6
CONTINUOUS
 62
    7
 10
49.906000201325014
 20
46.578741161146425
 11
49.906000201325014
 21
41.578741161146425
  0
LINE
  8
_1-9_
  6
CONTINUOUS
 62
    7
 10
99.906000201325014
 20
46.578741161146425
 11
99.906000201325014
 21
41.578741161146425
  0
LINE
  8
_1-9_
  6
CONTINUOUS
 62
    7
 10
49.906000201325014
 20
46.578741161146425
 11
49.906000201325014
 21
41.578741161146425
  0
LINE
  8
_1-9_
  6
CONTINUOUS
 62
    7
 10
74.906000201325014
 20
46.578741161146425
 11
74.906000201325014
 21
41.578741161146425
  0
LINE
  8
_1-9_
  6
CONTINUOUS
 62
    7
 10
119.90600020132501
 20
46.578741161146425
 11
119.90600020132501
 21
41.578741161146425
  0
LINE
  8
_1-9_
  6
CONTINUOUS
 62
    7
 10
49.906000201325014
 20
41.578741161146425
 11
144.90600020132501
 21
41.578741161146425
  0
LINE
  8
_1-9_
  6
CONTINUOUS
 62
    7
 10
144.90600020132501
 20
46.578741161146425
 11
144.90600020132501
 21
41.578741161146425
  0
LINE
  8
_1-9_
  6
CONTINUOUS
 62
    7
 10
84.906000201325014
 20
91.57874116114641
 11
84.906000201325014
 21
71.57874116114641
  0
LINE
  8
_1-9_
  6
CONTINUOUS
 62
    7
 10
49.906000201325014
 20
91.57874116114641
 11
49.906000201325014
 21
71.57874116114641
  0
LINE
  8
_1-9_
  6
CONTINUOUS
 62
    7
 10
104.90600020132501
 20
91.57874116114641
 11
104.90600020132501
 21
71.57874116114641
  0
TEXT
  8
_1-9_
 62
    7
 10
86.156000201325014
 20
87.07874116114641
 40
4
 41
1
 50
0
  1
出力電力
  0
TEXT
  8
_1-9_
 62
    7
 10
107.15600020132501
 20
77.078741161146425
 40
4
 41
1
 50
0
  1
DC24.2V
  0
TEXT
  8
_1-9_
 62
    7
 10
126.15600020132501
 20
87.07874116114641
 40
4
 41
1
 50
0
  1
出力電流
  0
LINE
  8
_1-9_
  6
CONTINUOUS
 62
    7
 10
124.90600020132501
 20
91.57874116114641
 11
124.90600020132501
 21
71.57874116114641
  0
TEXT
  8
_1-9_
 62
    7
 10
106.15600020132501
 20
87.07874116114641
 40
4
 41
1
 50
0
  1
出力電圧
  0
LINE
  8
_1-9_
  6
CONTINUOUS
 62
    7
 10
144.90600020132501
 20
91.57874116114641
 11
144.90600020132501
 21
71.57874116114641
  0
TEXT
  8
_1-9_
 62
    7
 10
146.15600020132501
 20
87.07874116114641
 40
4
 41
1
 50
0
  1
入力電圧
  0
TEXT
  8
_1-9_
 62
    7
 10
149.40600020132501
 20
79.578741161146425
 40
4
 41
1
 50
0
  1
AC100
  0
TEXT
  8
_1-9_
 62
    7
 10
148.28100020132501
 20
74.578741161146425
 40
4
 41
1
 50
0
  1
～242V
  0
LINE
  8
_1-9_
  6
CONTINUOUS
 62
    7
 10
219.90600020132501
 20
91.57874116114641
 11
219.90600020132501
 21
71.57874116114641
  0
TEXT
  8
_1-9_
 62
    7
 10
202.15600020132501
 20
77.078741161146425
 40
4
 41
1
 50
0
  1
50/60Hz
  0
TEXT
  8
_1-9_
 62
    7
 10
203.40600020132501
 20
87.07874116114641
 40
4
 41
1
 50
0
  1
周波数
  0
LINE
  8
_1-9_
  6
CONTINUOUS
 62
    7
 10
199.90600020132501
 20
91.57874116114641
 11
199.90600020132501
 21
71.57874116114641
  0
LINE
  8
_1-9_
  6
CONTINUOUS
 62
    7
 10
164.90600020132501
 20
91.57874116114641
 11
164.90600020132501
 21
71.57874116114641
  0
LINE
  8
_1-9_
  6
CONTINUOUS
 62
    7
 10
164.90600020132501
 20
81.57874116114641
 11
199.90600020132501
 21
81.57874116114641
  0
LINE
  8
_1-9_
  6
CONTINUOUS
 62
    7
 10
164.90600020132501
 20
76.578741161146425
 11
199.90600020132501
 21
76.578741161146425
  0
LINE
  8
_1-9_
  6
CONTINUOUS
 62
    7
 10
244.90600020132501
 20
91.57874116114641
 11
244.90600020132501
 21
71.57874116114641
  0
TEXT
  8
_1-9_
 62
    7
 10
222.53100020132501
 20
87.07874116114641
 40
4
 41
1
 50
0
  1
効率/力率
  0
TEXT
  8
_1-9_
 62
    7
 10
228.03100020132501
 20
74.578741161146425
 40
4
 41
1
 50
0
  1
0.95
  0
TEXT
  8
_1-a_
 62
    7
 10
75.656000201325014
 20
54.57874116114641
 40
2.5
 41
1
 50
0
  1
※1
  0
TEXT
  8
_1-9_
 62
    7
 10
51.656000201325014
 20
59.57874116114641
 40
4
 41
1
 50
0
  1
使用環境温度
  0
TEXT
  8
_1-a_
 62
    7
 10
117.11484533609151
 20
54.57874116114641
 40
2.5
 41
1
 50
0
  1
※2
  0
TEXT
  8
_1-a_
 62
    7
 10
126.40600020132501
 20
57.411054301831171
 40
3
 41
1
 50
0
  1
※2 周囲を囲ってご使用される場合にはTcポイント85℃以下になる様にご注意ください。
  0
TEXT
  8
_1-a_
 62
    7
 10
126.40600020132501
 20
61.411054301831171
 40
3
 41
1
 50
0
  1
※1 正規取り付け方向・ＬＥＤ負荷80％時の使用温度範囲
  0
TEXT
  8
_1-a_
 62
    7
 10
126.40600020132501
 20
53.661054301831171
 40
3
 41
1
 50
0
  1
※ 推奨調光器及び配線図は電源トランスの取扱説明書またはＦＫＫホームページをご確認下さい。
  0
TEXT
  8
_1-9_
 62
    7
 10
228.15600020132504
 20
79.578741161146425
 40
4
 41
1
 50
0
  1
86％
  0
TEXT
  8
_1-9_
 62
    7
 10
173.65600020132501
 20
87.07874116114641
 40
4
 41
1
 50
0
  1
入力電流
  0
TEXT
  8
_1-9_
 62
    7
 10
167.90600020132501
 20
82.07874116114641
 40
4
 41
1
 50
0
  1
0.70A(AC100V)
  0
TEXT
  8
_1-9_
 62
    7
 10
166.78100020132501
 20
77.078741161146425
 40
4
 41
1
 50
0
  1
0.342A(AC200V)
  0
TEXT
  8
_1-9_
 62
    7
 10
167.90600020132501
 20
72.07874116114641
 40
4
 41
1
 50
0
  1
0.29A(AC242V)
  0
TEXT
  8
_1-9_
 62
    7
 10
91.656000201324985
 20
77.078741161146425
 40
4
 41
1
 50
0
  1
60W
  0
TEXT
  8
_1-9_
 62
    7
 10
130.53100020132501
 20
77.078741161146425
 40
4
 41
1
 50
0
  1
2.5A
  0
TEXT
  8
_1-9_
 62
    7
 10
63.156000201325014
 20
87.07874116114641
 40
4
 41
1
 50
0
  1
型番
  0
TEXT
  8
_1-9_
 62
    7
 10
52.906000201325042
 20
79.578741161146425
 40
4
 41
1
 50
0
  1
OT60/100-200/
  0
LINE
  8
_1-9_
  6
CONTINUOUS
 62
    7
 10
289.90600020132501
 20
91.57874116114641
 11
289.90600020132501
 21
71.57874116114641
  0
TEXT
  8
_1-9_
 62
    7
 10
258.65600020132501
 20
87.07874116114641
 40
4
 41
1
 50
0
  1
適合規格
  0
TEXT
  8
_1-9_
 62
    7
 10
246.15600020132501
 20
82.07874116114641
 40
4
 41
1
 50
0
  1
電気用品安全法(PSE)
  0
TEXT
  8
_1-9_
 62
    7
 10
263.03100020132501
 20
77.078741161146425
 40
4
 41
1
 50
0
  1
RoHS
  0
TEXT
  8
_1-9_
 62
    7
 10
263.03100020132501
 20
72.07874116114641
 40
4
 41
1
 50
0
  1
IP66
  0
LINE
  8
_1-9_
  6
CONTINUOUS
 62
    7
 10
49.906000201325014
 20
91.57874116114641
 11
289.90600020132501
 21
91.57874116114641
  0
LINE
  8
_1-9_
  6
CONTINUOUS
 62
    7
 10
49.906000201325014
 20
86.57874116114641
 11
289.90600020132501
 21
86.57874116114641
  0
LINE
  8
_1-9_
  6
CONTINUOUS
 62
    7
 10
49.906000201325014
 20
71.57874116114641
 11
289.90600020132501
 21
71.57874116114641
  0
LINE
  8
_0-0_
  6
CONTINUOUS
 62
    7
 10
278.77854223380916
 20
259.68797357521998
 11
283.28348422500903
 21
259.68797357521998
  0
LINE
  8
_0-0_
  6
CONTINUOUS
 62
    7
 10
281.01844803248224
 20
264.20919226891754
 11
278.76598104128231
 21
259.70424026671747
  0
LINE
  8
_0-0_
  6
CONTINUOUS
 62
    7
 10
281.01844803248224
 20
264.20919226891754
 11
283.27092303248218
 21
259.70424026671747
  0
LINE
  8
_0-0_
  6
CONTINUOUS
 62
    7
 10
276.69512564681758
 20
259.36979564656962
 11
396.80295608951746
 21
259.36979564656962
  0
TEXT
  8
_0-0_
 62
    7
 10
280.15341802927872
 20
259.92282863191991
 40
3.0033000000000242
 41
0.9999999999999811
 50
0
  1
2
  0
TEXT
  8
_0-0_
 62
    7
 10
293.43970312258761
 20
260.21022429775138
 40
3.0032999999999674
 41
1.0000000000000133
 50
0
  1
2022 . 9. 16
  0
TEXT
  8
_0-0_
 62
    7
 10
377.56064967321742
 20
259.87253563556964
 40
4
 41
1
 50
0
  1
原田
  0
LINE
  8
_0-0_
  6
CONTINUOUS
 62
    7
 10
286.7364870580518
 20
269.38075560256964
 11
286.7364870580518
 21
259.36979564656962
  0
LINE
  8
_0-0_
  6
CONTINUOUS
 62
    7
 10
276.72547904925198
 20
269.38075560256964
 11
276.72547904925198
 21
259.36979564656962
  0
LINE
  8
_0-0_
  6
CONTINUOUS
 62
    7
 10
316.73914967321729
 20
269.39085456392183
 11
316.73914967321729
 21
259.36979564656962
  0
LINE
  8
_0-0_
  6
CONTINUOUS
 62
    7
 10
376.80514967321744
 20
274.79368314512186
 11
376.80514967321744
 21
259.36979564656962
  0
LINE
  8
_0-0_
  6
CONTINUOUS
 62
    7
 10
386.81614967321741
 20
274.79368314512186
 11
386.81614967321741
 21
259.36979564656962
  0
TEXT
  8
_0-0_
 62
    7
 10
377.56064967321742
 20
264.88811457492181
 40
4
 41
1
 50
0
  1
藤島
  0
TEXT
  8
_0-0_
 62
    7
 10
387.57164967321733
 20
264.88811457492181
 40
4
 41
1
 50
0
  1
原田
  0
LINE
  8
_0-0_
  6
CONTINUOUS
 62
    7
 10
50.566104846701307
 20
96.849861439789648
 11
55.071046837901207
 21
96.849861439789648
  0
LINE
  8
_0-0_
  6
CONTINUOUS
 62
    7
 10
52.806010645374385
 20
101.37108013348721
 11
50.55354365417449
 21
96.86612813128714
  0
LINE
  8
_0-0_
  6
CONTINUOUS
 62
    7
 10
52.806010645374385
 20
101.37108013348721
 11
55.058485645374361
 21
96.86612813128714
  0
TEXT
  8
_0-0_
 62
    7
 10
51.94098064217087
 20
97.084716496489576
 40
3.0033000000000242
 41
0.9999999999999811
 50
0
  1
2
  0
LINE
  8
_0-0_
  6
CONTINUOUS
 62
    7
 10
189.94617625031733
 20
217.37397380768203
 11
194.45111824151723
 21
217.37397380768203
  0
LINE
  8
_0-0_
  6
CONTINUOUS
 62
    7
 10
192.18608204899041
 20
221.89519250137959
 11
189.93361505779049
 21
217.39024049917952
  0
LINE
  8
_0-0_
  6
CONTINUOUS
 62
    7
 10
192.18608204899041
 20
221.89519250137959
 11
194.43855704899038
 21
217.39024049917952
  0
TEXT
  8
_0-0_
 62
    7
 10
191.32105204578689
 20
217.60882886438196
 40
3.0033000000000242
 41
0.9999999999999811
 50
0
  1
2
  0
TEXT
  8
_0-0_
 62
    7
 10
317.23914967321729
 20
264.88537458592179
 40
3.0032999999999674
 41
1.0000000000000133
 50
0
  1
品名の更新
  0
TEXT
  8
_f-0_
 62
    3
 10
355.0480105958062
 20
36.954680262539696
 40
6.0066000000000059
 41
0.9999999999999987
 50
0
  1
FC21A020-2
  0
CIRCLE
  8
_1-1_
  6
CONTINUOUS
 62
    7
 10
211.62315504695391
 20
176.10190780401202
 40
0.5
  0
LINE
  8
_1-a_
  6
CONTINUOUS
 62
    4
 10
276.4570774695893
 20
179.32193175637158
 11
269.80638622534968
 21
194.78614066574178
  0
LINE
  8
_1-a_
  6
CONTINUOUS
 62
    4
 10
162.87315504695388
 20
215.54192521868094
 11
235.37315504695391
 21
215.54192521868094
  0
TEXT
  8
_1-a_
 62
    7
 10
251.8035954139016
 20
151.02729224986723
 40
4
 41
1
 50
0
  1
③
  0
LINE
  8
_1-a_
  6
CONTINUOUS
 62
    4
 10
251.46503934631326
 20
167.76997871513432
 11
253.14122982250376
 21
156.09071604232326
  0
TEXT
  8
_1-a_
 62
    7
 10
254.91390260278132
 20
159.88188541216538
 40
2.3333333333333285
 41
1.0000000000000022
 50
0
  1
出力線 -:黒
  0
TEXT
  8
_1-a_
 62
    7
 10
254.91390260278132
 20
163.85607896055248
 40
2.3333333333333285
 41
1.0000000000000022
 50
0
  1
出力線 +:赤
  0
TEXT
  8
_1-a_
 62
    7
 10
254.91390260278132
 20
184.77555397326153
 40
2.1000000000000085
 41
0.9999999999999957
 50
0
  1
調光信号線:茶
  0
TEXT
  8
_1-a_
 62
    7
 10
254.91390260278132
 20
181.25555397326155
 40
2.0999999999999943
 41
1.0000000000000024
 50
0
  1
調光信号線:青
  0
TEXT
  8
_1-a_
 62
    7
 10
266.6782414907534
 20
195.61153749113861
 40
4
 41
1
 50
0
  1
④
  0
LINE
  8
_1-a_
  6
CONTINUOUS
 62
    4
 10
140.22867793270299
 20
171.97140585014503
 11
144.85171940735736
 21
192.00458557364731
  0
TEXT
  8
_1-a_
 62
    7
 10
143.53409694618662
 20
193.12737103191665
 40
4
 41
1
 50
0
  1
②
  0
TEXT
  8
_1-a_
 62
    7
 10
118.41422712435897
 20
179.15696385850822
 40
2.9400000000000403
 41
0.9999999999999866
 50
0
  1
AC/L(黒)
  0
TEXT
  8
_1-a_
 62
    7
 10
118.41422712435897
 20
184.50293572844475
 40
2.9399999999999977
 41
1.0000000000000006
 50
0
  1
FG (黄/緑)
  0
TEXT
  8
_1-a_
 62
    7
 10
118.41422712435897
 20
173.61554950108873
 40
2.9399999999999977
 41
1.0000000000000011
 50
0
  1
AC/N(白)
  0
LINE
  8
_1-a_
  6
CONTINUOUS
 62
    4
 10
156.37315504695391
 20
183.58324284806212
 11
147.04878518019086
 21
183.58324284806212
  0
LINE
  8
_1-a_
  6
CONTINUOUS
 62
    4
 10
155.9777313467066
 20
168.1381663211122
 11
155.9777313467066
 21
166.03816632111218
  0
LINE
  8
_1-a_
  6
CONTINUOUS
 62
    4
 10
156.37315504695391
 20
164.08324284806215
 11
147.04878518019086
 21
164.08324284806215
  0
LINE
  8
_1-a_
  6
CONTINUOUS
 62
    4
 10
155.87315504695391
 20
123.71206486222799
 11
150.88687749376578
 21
123.71206486222799
  0
LINE
  8
_1-a_
  6
CONTINUOUS
 62
    4
 10
157.37315504695385
 20
122.21206486222789
 11
157.37315504695385
 21
116.36464430838618
  0
LINE
  8
_1-a_
  6
CONTINUOUS
 62
    4
 10
240.87315504695391
 20
122.21206486222789
 11
240.87315504695391
 21
116.36464430838618
  0
LINE
  8
_1-a_
  6
CONTINUOUS
 62
    4
 10
110.35055314617477
 20
167.11782945937505
 11
110.35055314617477
 21
160.16558233726325
  0
LINE
  8
_1-a_
  6
CONTINUOUS
 62
    4
 10
113.91555314617477
 20
166.8827492406933
 11
113.91555314617477
 21
154.68723125961921
  0
LINE
  8
_1-a_
  6
CONTINUOUS
 62
    4
 10
128.81555314617475
 20
166.72004205203725
 11
128.81555314617475
 21
154.68723125961921
  0
LINE
  8
_1-a_
  6
CONTINUOUS
 62
    4
 10
157.56065504695391
 20
166.03816632111218
 11
155.3527313467066
 21
166.03816632111218
  0
LINE
  8
_1-a_
  6
CONTINUOUS
 62
    4
 10
157.56065504695391
 20
168.1381663211122
 11
155.3527313467066
 21
168.1381663211122
  0
LINE
  8
_1-a_
  6
CONTINUOUS
 62
    4
 10
237.3731480004539
 20
165.90080557646081
 11
237.3731480004539
 21
154.56223125961921
  0
LINE
  8
_1-a_
  6
CONTINUOUS
 62
    4
 10
110.35055314617477
 20
160.66558233726325
 11
103.01324073144081
 21
160.66558233726325
  0
LINE
  8
_1-a_
  6
CONTINUOUS
 62
    4
 10
113.91555314617477
 20
160.66558233726325
 11
116.91555314617477
 21
160.66558233726325
  0
LINE
  8
_1-a_
  6
CONTINUOUS
 62
    4
 10
113.91555314617477
 20
155.18723125961921
 11
128.81555314617475
 21
155.18723125961921
  0
LINE
  8
_1-a_
  6
CONTINUOUS
 62
    4
 10
151.51187749376578
 20
145.462064862228
 11
151.51187749376578
 21
123.71206486222799
  0
LINE
  8
_1-a_
  6
CONTINUOUS
 62
    4
 10
157.37315504695385
 20
116.98964430838618
 11
240.87315504695391
 21
116.98964430838618
  0
LINE
  8
_1-a_
  6
CONTINUOUS
 62
    4
 10
160.87316209345388
 20
155.18723125961921
 11
237.3731480004539
 21
155.18723125961921
  0
LINE
  8
_1-a_
  6
CONTINUOUS
 62
    4
 10
155.9777313467066
 20
168.1381663211122
 11
155.9777313467066
 21
170.6381663211122
  0
LINE
  8
_1-a_
  6
CONTINUOUS
 62
    4
 10
152.95571890584903
 20
180.58816632111216
 11
152.95571890584903
 21
167.08816632111219
  0
LINE
  8
_1-a_
  6
CONTINUOUS
 62
    4
 10
147.67378518019086
 20
183.58324284806212
 11
147.67378518019086
 21
164.08324284806215
  0
LINE
  8
_1-a_
  6
CONTINUOUS
 62
    4
 10
110.35055314617477
 20
160.66558233726325
 11
113.91555314617477
 21
160.66558233726325
  0
LINE
  8
_1-a_
  6
CONTINUOUS
 62
    4
 10
113.91555314617477
 20
160.66558233726325
 11
115.36444188560835
 21
161.05381090491704
  0
LINE
  8
_1-a_
  6
CONTINUOUS
 62
    4
 10
113.91555314617477
 20
160.66558233726325
 11
115.36444188560835
 21
160.27735376960947
  0
LINE
  8
_1-a_
  6
CONTINUOUS
 62
    4
 10
110.35055314617477
 20
160.66558233726325
 11
108.90166440674116
 21
160.27735376960947
  0
LINE
  8
_1-a_
  6
CONTINUOUS
 62
    4
 10
110.35055314617477
 20
160.66558233726325
 11
108.90166440674116
 21
161.05381090491704
  0
LINE
  8
_1-a_
  6
CONTINUOUS
 62
    4
 10
113.91555314617477
 20
155.18723125961921
 11
115.36444188560835
 21
155.57545982727299
  0
LINE
  8
_1-a_
  6
CONTINUOUS
 62
    4
 10
113.91555314617477
 20
155.18723125961921
 11
115.36444188560835
 21
154.79900269196542
  0
LINE
  8
_1-a_
  6
CONTINUOUS
 62
    4
 10
128.81555314617475
 20
155.18723125961921
 11
127.36666440674116
 21
154.79900269196542
  0
LINE
  8
_1-a_
  6
CONTINUOUS
 62
    4
 10
128.81555314617475
 20
155.18723125961921
 11
127.36666440674116
 21
155.57545982727299
  0
LINE
  8
_1-a_
  6
CONTINUOUS
 62
    4
 10
155.9777313467066
 20
166.03816632111218
 11
156.36595991436041
 21
164.58927758167857
  0
LINE
  8
_1-a_
  6
CONTINUOUS
 62
    4
 10
155.9777313467066
 20
166.03816632111218
 11
155.58950277905285
 21
164.58927758167857
  0
LINE
  8
_1-a_
  6
CONTINUOUS
 62
    4
 10
155.9777313467066
 20
168.1381663211122
 11
155.58950277905285
 21
169.58705506054579
  0
LINE
  8
_1-a_
  6
CONTINUOUS
 62
    4
 10
155.9777313467066
 20
168.1381663211122
 11
156.36595991436041
 21
169.58705506054579
  0
LINE
  8
_1-a_
  6
CONTINUOUS
 62
    4
 10
152.95571890584903
 20
167.08816632111219
 11
152.56749033819522
 21
168.53705506054578
  0
LINE
  8
_1-a_
  6
CONTINUOUS
 62
    4
 10
152.95571890584903
 20
167.08816632111219
 11
153.34394747350279
 21
168.53705506054578
  0
LINE
  8
_1-a_
  6
CONTINUOUS
 62
    4
 10
152.95571890584903
 20
180.58816632111216
 11
153.34394747350279
 21
179.13927758167858
  0
LINE
  8
_1-a_
  6
CONTINUOUS
 62
    4
 10
152.95571890584903
 20
180.58816632111216
 11
152.56749033819522
 21
179.13927758167858
  0
LINE
  8
_1-a_
  6
CONTINUOUS
 62
    4
 10
147.67378518019086
 20
183.58324284806212
 11
148.06201374784467
 21
182.13435410862854
  0
LINE
  8
_1-a_
  6
CONTINUOUS
 62
    4
 10
147.67378518019086
 20
183.58324284806212
 11
147.2855566125371
 21
182.13435410862854
  0
LINE
  8
_1-a_
  6
CONTINUOUS
 62
    4
 10
147.67378518019086
 20
164.08324284806215
 11
147.2855566125371
 21
165.53213158749574
  0
LINE
  8
_1-a_
  6
CONTINUOUS
 62
    4
 10
147.67378518019086
 20
164.08324284806215
 11
148.06201374784467
 21
165.53213158749574
  0
LINE
  8
_1-a_
  6
CONTINUOUS
 62
    4
 10
151.51187749376578
 20
145.462064862228
 11
151.90010606141953
 21
144.01317612279439
  0
LINE
  8
_1-a_
  6
CONTINUOUS
 62
    4
 10
151.51187749376578
 20
145.462064862228
 11
151.12364892611196
 21
144.01317612279439
  0
LINE
  8
_1-a_
  6
CONTINUOUS
 62
    4
 10
151.51187749376578
 20
123.71206486222799
 11
151.12364892611196
 21
125.16095360166158
  0
LINE
  8
_1-a_
  6
CONTINUOUS
 62
    4
 10
151.51187749376578
 20
123.71206486222799
 11
151.90010606141953
 21
125.16095360166158
  0
LINE
  8
_1-a_
  6
CONTINUOUS
 62
    4
 10
157.37315504695385
 20
116.98964430838618
 11
158.82204378638746
 21
117.37787287603997
  0
LINE
  8
_1-a_
  6
CONTINUOUS
 62
    4
 10
157.37315504695385
 20
116.98964430838618
 11
158.82204378638746
 21
116.6014157407324
  0
LINE
  8
_1-a_
  6
CONTINUOUS
 62
    4
 10
240.87315504695391
 20
116.98964430838618
 11
239.42426630752029
 21
116.6014157407324
  0
LINE
  8
_1-a_
  6
CONTINUOUS
 62
    4
 10
240.87315504695391
 20
116.98964430838618
 11
239.42426630752029
 21
117.37787287603997
  0
LINE
  8
_1-a_
  6
CONTINUOUS
 62
    4
 10
160.87316209345388
 20
155.18723125961921
 11
162.32205083288749
 21
155.57545982727299
  0
LINE
  8
_1-a_
  6
CONTINUOUS
 62
    4
 10
160.87316209345388
 20
155.18723125961921
 11
162.32205083288749
 21
154.79900269196542
  0
LINE
  8
_1-a_
  6
CONTINUOUS
 62
    4
 10
237.3731480004539
 20
155.18723125961921
 11
235.92425926102029
 21
154.79900269196542
  0
LINE
  8
_1-a_
  6
CONTINUOUS
 62
    4
 10
237.3731480004539
 20
155.18723125961921
 11
235.92425926102029
 21
155.57545982727299
  0
LINE
  8
_1-a_
  6
CONTINUOUS
 62
    4
 10
160.87316209345388
 20
165.90080557646081
 11
160.87316209345388
 21
154.56223125961921
  0
LINE
  8
_1-a_
  6
CONTINUOUS
 62
    4
 10
159.7245727896161
 20
167.08816632111219
 11
152.33071890584903
 21
167.08816632111219
  0
LINE
  8
_1-a_
  6
CONTINUOUS
 62
    4
 10
159.7245727896161
 20
180.58816632111216
 11
152.33071890584903
 21
180.58816632111216
  0
LINE
  8
_1-a_
  6
CONTINUOUS
 62
    4
 10
284.24029815607821
 20
167.25307335651351
 11
284.24029815607821
 21
154.68723125961921
  0
LINE
  8
_1-a_
  6
CONTINUOUS
 62
    4
 10
269.33820492129336
 20
166.93147617808469
 11
269.33820492129336
 21
154.68723125961921
  0
LINE
  8
_1-a_
  6
CONTINUOUS
 62
    4
 10
287.80586409675368
 20
167.50902013689554
 11
287.80586409675368
 21
160.17501789686446
  0
LINE
  8
_1-a_
  6
CONTINUOUS
 62
    4
 10
324.27137551987323
 20
160.60183748883255
 11
336.80344642894738
 21
160.60183748883255
  0
LINE
  8
_1-a_
  6
CONTINUOUS
 62
    4
 10
326.24301455853765
 20
187.10183702021214
 11
336.80344642894738
 21
187.10183702021214
  0
LINE
  8
_1-a_
  6
CONTINUOUS
 62
    4
 10
269.33820492129336
 20
155.18723125961921
 11
284.24029815607821
 21
155.18723125961921
  0
LINE
  8
_1-a_
  6
CONTINUOUS
 62
    4
 10
284.24029815607821
 20
160.67501789686446
 11
281.24029815607821
 21
160.67501789686446
  0
LINE
  8
_1-a_
  6
CONTINUOUS
 62
    4
 10
287.80586409675368
 20
160.67501789686446
 11
295.14317651148763
 21
160.67501789686446
  0
LINE
  8
_1-a_
  6
CONTINUOUS
 62
    4
 10
336.17844642894738
 20
187.10183702021214
 11
336.17844642894738
 21
160.60183748883255
  0
LINE
  8
_1-a_
  6
CONTINUOUS
 62
    4
 10
284.24029815607821
 20
160.67501789686446
 11
287.80586409675368
 21
160.67501789686446
  0
LINE
  8
_1-a_
  6
CONTINUOUS
 62
    4
 10
284.24029815607821
 20
167.25307335651351
 11
284.24029815607821
 21
160.17501789686446
  0
LINE
  8
_1-a_
  6
CONTINUOUS
 62
    4
 10
336.17844642894738
 20
187.10183702021214
 11
336.56667499660113
 21
185.65294828077853
  0
LINE
  8
_1-a_
  6
CONTINUOUS
 62
    4
 10
336.17844642894738
 20
187.10183702021214
 11
335.79021786129351
 21
185.65294828077853
  0
LINE
  8
_1-a_
  6
CONTINUOUS
 62
    4
 10
336.17844642894738
 20
160.60183748883255
 11
335.79021786129351
 21
162.05072622826614
  0
LINE
  8
_1-a_
  6
CONTINUOUS
 62
    4
 10
336.17844642894738
 20
160.60183748883255
 11
336.56667499660113
 21
162.05072622826614
  0
LINE
  8
_1-a_
  6
CONTINUOUS
 62
    4
 10
287.80586409675368
 20
160.67501789686446
 11
289.25475283618732
 21
161.06324646451824
  0
LINE
  8
_1-a_
  6
CONTINUOUS
 62
    4
 10
287.80586409675368
 20
160.67501789686446
 11
289.25475283618732
 21
160.28678932921067
  0
LINE
  8
_1-a_
  6
CONTINUOUS
 62
    4
 10
284.24029815607821
 20
160.67501789686446
 11
282.79140941664462
 21
160.28678932921067
  0
LINE
  8
_1-a_
  6
CONTINUOUS
 62
    4
 10
284.24029815607821
 20
160.67501789686446
 11
282.79140941664462
 21
161.06324646451824
  0
LINE
  8
_1-a_
  6
CONTINUOUS
 62
    4
 10
284.24029815607821
 20
155.18723125961921
 11
282.79140941664462
 21
154.79900269196542
  0
LINE
  8
_1-a_
  6
CONTINUOUS
 62
    4
 10
284.24029815607821
 20
155.18723125961921
 11
282.79140941664462
 21
155.57545982727299
  0
LINE
  8
_1-a_
  6
CONTINUOUS
 62
    4
 10
269.33820492129336
 20
155.18723125961921
 11
270.78709366072695
 21
155.57545982727299
  0
LINE
  8
_1-a_
  6
CONTINUOUS
 62
    4
 10
269.33820492129336
 20
155.18723125961921
 11
270.78709366072695
 21
154.79900269196542
  0
LINE
  8
_1-a_
  6
CONTINUOUS
 62
    4
 10
110.35055314617477
 20
215.54192521868094
 11
111.79944188560835
 21
215.93015378633469
  0
LINE
  8
_1-a_
  6
CONTINUOUS
 62
    4
 10
110.35055314617477
 20
215.54192521868094
 11
111.79944188560835
 21
215.15369665102713
  0
LINE
  8
_1-a_
  6
CONTINUOUS
 62
    4
 10
287.80586409675368
 20
215.54192521868094
 11
286.35697535732015
 21
215.15369665102713
  0
LINE
  8
_1-a_
  6
CONTINUOUS
 62
    4
 10
287.80586409675368
 20
215.54192521868094
 11
286.35697535732015
 21
215.93015378633469
  0
LINE
  8
_1-a_
  6
CONTINUOUS
 62
    4
 10
287.80586409675368
 20
181.70941329392229
 11
287.80586409675368
 21
216.04192521868094
  0
LINE
  8
_1-a_
  6
CONTINUOUS
 62
    4
 10
110.35055314617477
 20
172.44702162513704
 11
110.35055314617477
 21
216.04192521868094
  0
TEXT
  8
_1-a_
 62
    7
 10
126.88784960057172
 20
216.06835768798521
 40
4
 41
1
 50
0
  1
150±10
  0
TEXT
  8
_1-a_
 62
    7
 10
119.45417607799711
 20
155.71366372892339
 40
4
 41
1
 50
0
  1
50
  0
TEXT
  8
_1-a_
 62
    7
 10
103.05689693880776
 20
161.19201480656744
 40
4
 41
1
 50
0
  1
10
  0
TEXT
  8
_1-a_
 62
    7
 10
152.63810294404822
 20
173.75297030463869
 40
4
 41
1
 50
90
  1
27
  0
TEXT
  8
_1-a_
 62
    7
 10
147.33400005058652
 20
175.4182733833457
 40
4
 41
1
 50
90
  1
39
  0
TEXT
  8
_1-a_
 62
    7
 10
252.69019412473852
 20
216.06835768798521
 40
4
 41
1
 50
0
  1
150±10
  0
TEXT
  8
_1-a_
 62
    7
 10
274.4806829056564
 20
155.71366372892339
 40
4
 41
1
 50
0
  1
50
  0
TEXT
  8
_1-a_
 62
    7
 10
196.96171188014332
 20
117.32857677769042
 40
4
 41
1
 50
0
  1
167
  0
TEXT
  8
_1-a_
 62
    7
 10
193.34479527569342
 20
155.5270163892236
 40
4
 41
1
 50
0
  1
153
  0
TEXT
  8
_1-a_
 62
    7
 10
335.83866129934301
 20
172.36718577923301
 40
4
 41
1
 50
90
  1
53
  0
TEXT
  8
_1-a_
 62
    7
 10
290.84952030412068
 20
161.2014503661687
 40
4
 41
1
 50
0
  1
10
  0
TEXT
  8
_1-a_
 62
    7
 10
155.66011538490582
 20
155.88583085702754
 40
4
 41
1
 50
90
  1
4.2
  0
LINE
  8
_1-a_
  6
CONTINUOUS
 62
    4
 10
155.9777313467066
 20
166.03816632111218
 11
155.9777313467066
 21
155.38384631711375
  0
LINE
  8
_1-a_
  6
CONTINUOUS
 62
    7
 10
113.91555314617477
 20
166.8827492406933
 11
113.91555314617477
 21
160.16558233726325
  0
TEXT
  8
_1-a_
 62
    7
 10
151.17209236416141
 20
126.94303860925077
 40
4
 41
1
 50
90
  1
43.5
  0
LINE
  8
_1-a_
  6
CONTINUOUS
 62
    4
 10
248.12812006574881
 20
145.462064862228
 11
248.12812006574881
 21
129.712064862228
  0
LINE
  8
_1-a_
  6
CONTINUOUS
 62
    4
 10
248.12812006574881
 20
129.712064862228
 11
248.12812006574881
 21
119.33952186592921
  0
LINE
  8
_1-a_
  6
CONTINUOUS
 62
    4
 10
248.12812006574881
 20
145.462064862228
 11
248.12812006574881
 21
149.85083809891813
  0
TEXT
  8
_1-a_
 62
    7
 10
247.78833493614442
 20
120.23808269632235
 40
4
 41
1
 50
90
  1
31.5
  0
LINE
  8
_1-a_
  6
CONTINUOUS
 62
    4
 10
248.12812006574881
 20
145.462064862228
 11
247.73989149809503
 21
146.91095360166158
  0
LINE
  8
_1-a_
  6
CONTINUOUS
 62
    4
 10
248.12812006574881
 20
145.462064862228
 11
248.5163486334026
 21
146.91095360166158
  0
LINE
  8
_1-a_
  6
CONTINUOUS
 62
    4
 10
248.12812006574881
 20
129.712064862228
 11
248.5163486334026
 21
128.26317612279439
  0
LINE
  8
_1-a_
  6
CONTINUOUS
 62
    4
 10
248.12812006574881
 20
129.712064862228
 11
247.73989149809503
 21
128.26317612279439
  0
LINE
  8
_1-a_
  6
CONTINUOUS
 62
    4
 10
161.87315504695391
 20
145.462064862228
 11
150.88687749376578
 21
145.462064862228
  0
LINE
  8
_1-a_
  6
CONTINUOUS
 62
    4
 10
110.35055314617477
 20
215.54192521868094
 11
162.87315504695388
 21
215.54192521868094
  0
LINE
  8
_1-a_
  6
CONTINUOUS
 62
    4
 10
162.87315504695388
 20
215.54192521868094
 11
164.32204378638749
 21
215.93015378633469
  0
LINE
  8
_1-a_
  6
CONTINUOUS
 62
    4
 10
162.87315504695388
 20
215.54192521868094
 11
164.32204378638749
 21
215.15369665102713
  0
LINE
  8
_1-a_
  6
CONTINUOUS
 62
    4
 10
162.87315504695388
 20
215.54192521868094
 11
161.42426630752026
 21
215.15369665102713
  0
LINE
  8
_1-a_
  6
CONTINUOUS
 62
    4
 10
162.87315504695388
 20
215.54192521868094
 11
161.42426630752026
 21
215.93015378633469
  0
LINE
  8
_1-a_
  6
CONTINUOUS
 62
    4
 10
162.87315504695388
 20
188.60176623641211
 11
162.87315504695388
 21
216.04192521868094
  0
LINE
  8
_1-a_
  6
CONTINUOUS
 62
    4
 10
236.87315504695408
 20
129.712064862228
 11
248.75312006574881
 21
129.712064862228
  0
LINE
  8
_1-a_
  6
CONTINUOUS
 62
    4
 10
236.87315504695408
 20
145.462064862228
 11
248.75312006574881
 21
145.462064862228
  0
LINE
  8
_1-a_
  6
CONTINUOUS
 62
    4
 10
235.37315496778481
 20
215.54192521868094
 11
236.82204370721842
 21
215.93015378633469
  0
LINE
  8
_1-a_
  6
CONTINUOUS
 62
    4
 10
235.37315496778481
 20
215.54192521868094
 11
236.82204370721842
 21
215.15369665102713
  0
LINE
  8
_1-a_
  6
CONTINUOUS
 62
    4
 10
235.37315504695391
 20
215.54192521868094
 11
233.92426630752029
 21
215.15369665102713
  0
LINE
  8
_1-a_
  6
CONTINUOUS
 62
    4
 10
235.37315504695391
 20
215.54192521868094
 11
233.92426630752029
 21
215.93015378633469
  0
LINE
  8
_1-a_
  6
CONTINUOUS
 62
    4
 10
235.37315496778481
 20
215.54192521868094
 11
287.80586409675368
 21
215.54192521868094
  0
LINE
  8
_1-a_
  6
CONTINUOUS
 62
    4
 10
235.37315496778481
 20
188.60176623641211
 11
235.37315496778481
 21
216.04192521868094
  0
TEXT
  8
_1-a_
 62
    7
 10
212.03950059835429
 20
192.68572143205517
 40
4
 41
1
 50
0
  1
Tcﾎﾟｲﾝﾄ
  0
LINE
  8
_1-a_
  6
CONTINUOUS
 62
    4
 10
211.95757204564225
 20
176.79614592327712
 11
212.9159412866611
 21
177.95006463699527
  0
LINE
  8
_1-a_
  6
CONTINUOUS
 62
    4
 10
211.95757204564225
 20
176.79614592327712
 11
212.2105847977111
 21
178.27465346376871
  0
LINE
  8
_1-a_
  6
CONTINUOUS
 62
    4
 10
211.95757204564225
 20
176.79614592327712
 11
219.03950059835429
 21
192.18572143205517
  0
TEXT
  8
_1-a_
 62
    7
 10
202.98098770932693
 20
199.58639671192173
 40
4
 41
1
 50
0
  1
①
  0
LINE
  8
_1-a_
  6
CONTINUOUS
 62
    4
 10
203.56950110751768
 20
187.40362661463552
 11
204.78609096926882
 21
198.43404136117931
  0
TEXT
  8
_1-a_
 62
    7
 10
195.87315500751566
 20
216.04192520902523
 40
4
 41
1
 50
-0.0000000167645804
  1
145
  0
LINE
  8
_1-a_
  6
CONTINUOUS
 62
    4
 10
276.4570774695893
 20
179.32193175637158
 11
275.52800308597807
 21
180.49956531131022
  0
LINE
  8
_1-a_
  6
CONTINUOUS
 62
    4
 10
276.4570774695893
 20
179.32193175637158
 11
276.24129222884596
 21
180.80632952310304
  0
LINE
  8
_1-a_
  6
CONTINUOUS
 62
    4
 10
251.46503934631326
 20
167.76997871513432
 11
252.05516369452092
 21
166.39093801462817
  0
LINE
  8
_1-a_
  6
CONTINUOUS
 62
    4
 10
251.46503934631326
 20
167.76997871513432
 11
251.28658167299974
 21
166.28063226153949
  0
LINE
  8
_1-a_
  6
CONTINUOUS
 62
    4
 10
203.56950110751768
 20
187.40362661463552
 11
203.34245326535307
 21
188.88634347141174
  0
LINE
  8
_1-a_
  6
CONTINUOUS
 62
    4
 10
203.56950110751768
 20
187.40362661463552
 11
204.11423033671681
 21
188.80122100030544
  0
LINE
  8
_1-a_
  6
CONTINUOUS
 62
    4
 10
140.22867793270299
 20
171.97140585014503
 11
140.17618784167444
 21
173.47048716559922
  0
LINE
  8
_1-a_
  6
CONTINUOUS
 62
    4
 10
140.22867793270299
 20
171.97140585014503
 11
140.9327608381524
 21
173.29589339718123
  0
LINE
  8
_1-1_
  6
CENTER1
 62
    4
 10
236.6231480004539
 20
180.58816632111211
 11
238.1231480004539
 21
180.58816632111211
  0
LINE
  8
_1-1_
  6
CENTER1
 62
    4
 10
160.87316209345391
 20
179.83816632111219
 11
160.87316209345391
 21
181.33816632111216
  0
LINE
  8
_1-1_
  6
CENTER1
 62
    4
 10
160.12316209345391
 20
180.58816632111216
 11
161.62316209345391
 21
180.58816632111216
  0
LINE
  8
_1-1_
  6
CENTER1
 62
    4
 10
160.12316209345391
 20
167.08816632111219
 11
161.62316209345391
 21
167.08816632111219
  0
LINE
  8
_1-1_
  6
CENTER1
 62
    4
 10
160.87316209345391
 20
166.33816632111219
 11
160.87316209345391
 21
167.83816632111219
  0
LINE
  8
_1-1_
  6
CENTER1
 62
    4
 10
237.3731480004539
 20
179.83816632111214
 11
237.3731480004539
 21
181.33816632111211
  0
LINE
  8
_1-1_
  6
CENTER1
 62
    4
 10
237.3731480004539
 20
166.33816632111214
 11
237.3731480004539
 21
167.83816632111214
  0
LINE
  8
_1-1_
  6
CENTER1
 62
    4
 10
236.6231480004539
 20
167.08816632111214
 11
238.1231480004539
 21
167.08816632111214
  0
TEXT
  8
_0-0_
 62
    7
 10
317.23914967321729
 20
259.86979564656962
 40
3.0032999999999674
 41
1.0000000000000133
 50
0
  1
誤記修正・TC追記・スペック表追加
  0
LINE
  8
_0-0_
  6
CONTINUOUS
 62
    7
 10
212.16376558952828
 20
197.14052105847241
 11
216.6687075807282
 21
197.14052105847241
  0
LINE
  8
_0-0_
  6
CONTINUOUS
 62
    7
 10
214.40367138820136
 20
201.66173975216997
 11
212.15120439700146
 21
197.1567877499699
  0
LINE
  8
_0-0_
  6
CONTINUOUS
 62
    7
 10
214.40367138820136
 20
201.66173975216997
 11
216.65614638820136
 21
197.1567877499699
  0
TEXT
  8
_0-0_
 62
    7
 10
213.53864138499787
 20
197.37537611517234
 40
3.0033000000000242
 41
0.9999999999999811
 50
0
  1
2
  0
TEXT
  8
_1-9_
 62
    7
 10
61.906000201325014
 20
74.578741161146425
 40
4
 41
1
 50
0
  1
24-G3
  0
ENDSEC
  0
EOF
