  0
SECTION
  2
HEADER
  9
$ACADVER
  1
AC1009
  9
$INSBASE
 10
0
 20
0
 30
0
  9
$EXTMIN
 10
0
 20
0
  9
$EXTMAX
 10
420
 20
297
  9
$LIMMIN
 10
0
 20
0
  9
$LIMMAX
 10
420
 20
297
  9
$LTSCALE
 40
1
  0
ENDSEC
  0
SECTION
  2
TABLES
  0
TABLE
  2
LTYPE
 70
     9
  0
LTYPE
  2
CONTINUOUS
 70
    64
  3
実線
 72
    65
 73
     0
 40
0.0
  0
LTYPE
  2
DASHED1
 70
    64
  3
--  --  --  --  --  --  --  --  
 72
    65
 73
     2
 40
2.5
 49
1.25
 49
-1.25
  0
LTYPE
  2
DASHED2
 70
    64
  3
----    ----    ----    ----    
 72
    65
 73
     2
 40
5.0
 49
2.5
 49
-2.5
  0
LTYPE
  2
DASHED3
 70
    64
  3
------  ------  ------  ------  
 72
    65
 73
     2
 40
5.0
 49
3.75
 49
-1.25
  0
LTYPE
  2
CENTER1
 70
    64
  3
----- - ----- - ----- - ----- - 
 72
    65
 73
     4
 40
10.0
 49
6.25
 49
-1.25
 49
1.25
 49
-1.25
  0
LTYPE
  2
CENTER2
 70
    64
  3
----------  --  ----------  --  
 72
    65
 73
     4
 40
20.0
 49
12.5
 49
-2.5
 49
2.5
 49
-2.5
  0
LTYPE
  2
PHANTOM1
 70
    64
  3
--- - - --- - - --- - - --- - - 
 72
    65
 73
     6
 40
10.0
 49
3.25
 49
-1.25
 49
1.25
 49
-1.25
 49
1.25
 49
-1.25
  0
LTYPE
  2
PHANTOM2
 70
    64
  3
--------  -  -  --------  -  -  
 72
    65
 73
     6
 40
20.0
 49
10.0
 49
-2.5
 49
1.25
 49
-2.5
 49
1.25
 49
-2.5
  0
LTYPE
  2
DOT
 70
    64
  3
-   -   -   -   -   -   -   -   
 72
    65
 73
     2
 40
2.5
 49
0.625
 49
-1.875
  0
LTYPE
  2
DUMMY
 70
    64
  3
ダミー
 72
    65
 73
     0
 40
0.0
  0
LTYPE
  2
RAND1
 70
    64
  3
ランダム線1
 72
    65
 73
     4
 40
10.0
 49
1.0
 49
-2.0
 49
3.0
 49
-4.0
  0
LTYPE
  2
RAND2
 70
    64
  3
ランダム線2
 72
    65
 73
     4
 40
14.0
 49
2.0
 49
-3.0
 49
4.0
 49
-5.0
  0
LTYPE
  2
RAND3
 70
    64
  3
ランダム線3
 72
    65
 73
     4
 40
18.0
 49
3.0
 49
-4.0
 49
5.0
 49
-6.0
  0
LTYPE
  2
RAND4
 70
    64
  3
ランダム線4
 72
    65
 73
     4
 40
22.0
 49
4.0
 49
-5.0
 49
6.0
 49
-7.0
  0
LTYPE
  2
RAND5
 70
    64
  3
ランダム線5
 72
    65
 73
     4
 40
26.0
 49
5.0
 49
-6.0
 49
7.0
 49
-8.0
  0
LTYPE
  2
LONG1
 70
    64
  3
----------  --  ----------  --  
 72
    65
 73
     4
 40
40.0
 49
32.5
 49
-2.5
 49
2.5
 49
-2.5
  0
LTYPE
  2
LONG2
 70
    64
  3
--------  -  -  --------  -  -  
 72
    65
 73
     6
 40
40.0
 49
30.0
 49
-2.5
 49
1.25
 49
-2.5
 49
1.25
 49
-2.5
  0
LTYPE
  2
LONG3
 70
    64
  3
+++++++++++++++..+++++++++++++++
 72
    65
 73
     2
 40
40.0
 49
37.5
 49
-2.5
  0
LTYPE
  2
LONG4
 70
    64
  3
+++++++++++++++..+++++++++++++++
 72
    65
 73
     2
 40
80.0
 49
75.0
 49
-5.0
  0
LTYPE
  2
LONG5
 70
    64
  3
----------  --  ----------  --  
 72
    65
 73
     4
 40
60.0
 49
37.5
 49
-7.5
 49
7.5
 49
-7.5
  0
LTYPE
  2
dashed
 70
   64
  3
-------   -------------   ------
 72
   65
 73
    2
 40
7.5
 49
6
 49
-1.5
  0
LTYPE
  2
dashed_spaced
 70
   64
  3
----        --------        ----
 72
   65
 73
    2
 40
12
 49
6
 49
-6
  0
LTYPE
  2
long_dashed_dotted
 70
   64
  3
------------- --- --------------
 72
   65
 73
    4
 40
15.25
 49
12
 49
-1.5
 49
0.25
 49
-1.5
  0
LTYPE
  2
long_dashed_double-dotted
 70
   64
  3
----------- --- --- ------------
 72
   65
 73
    6
 40
17
 49
12
 49
-1.5
 49
0.25
 49
-1.5
 49
0.25
 49
-1.5
  0
LTYPE
  2
long_dashed_triplicate-dotted
 70
   64
  3
--------- --- --- --- ----------
 72
   65
 73
    8
 40
18.75
 49
12
 49
-1.5
 49
0.25
 49
-1.5
 49
0.25
 49
-1.5
 49
0.25
 49
-1.5
  0
LTYPE
  2
dotted
 70
   64
  3
   -       -       -       -    
 72
   65
 73
    2
 40
1.75
 49
0.25
 49
-1.5
  0
LTYPE
  2
chain
 70
   64
  3
-------------- -- --------------
 72
   65
 73
    4
 40
18.5
 49
12
 49
-1.5
 49
3.5
 49
-1.5
  0
LTYPE
  2
chain_double_dash
 70
   64
  3
------------ -- -- -------------
 72
   65
 73
    6
 40
23.5
 49
12
 49
-1.5
 49
3.5
 49
-1.5
 49
3.5
 49
-1.5
  0
LTYPE
  2
dashed_dotted
 70
   64
  3
-----------     -     ----------
 72
   65
 73
    4
 40
9.25
 49
6
 49
-1.5
 49
0.25
 49
-1.5
  0
LTYPE
  2
double-dashed_dotted
 70
   64
  3
------   -----------   -   -----
 72
   65
 73
    6
 40
16.75
 49
6
 49
-1.5
 49
6
 49
-1.5
 49
0.25
 49
-1.5
  0
LTYPE
  2
dashed_double-dotted
 70
   64
  3
---------    -    -    ---------
 72
   65
 73
    6
 40
11
 49
6
 49
-1.5
 49
0.25
 49
-1.5
 49
0.25
 49
-1.5
  0
LTYPE
  2
double-dashed_double-dotted
 70
   64
  3
-----   ---------   -   -   ----
 72
   65
 73
    8
 40
18.5
 49
6
 49
-1.5
 49
6
 49
-1.5
 49
0.25
 49
-1.5
 49
0.25
 49
-1.5
  0
LTYPE
  2
dashed_triplicate-dotted
 70
   64
  3
-------    -    -    -    ------
 72
   65
 73
    8
 40
12.75
 49
6
 49
-1.5
 49
0.25
 49
-1.5
 49
0.25
 49
-1.5
 49
0.25
 49
-1.5
  0
LTYPE
  2
double-dashed_triplicate-dotted
 70
   64
  3
-----  ---------  -  -  -  -----
 72
   65
 73
   10
 40
20.25
 49
6
 49
-1.5
 49
6
 49
-1.5
 49
0.25
 49
-1.5
 49
0.25
 49
-1.5
 49
0.25
 49
-1.5
  0
LTYPE
  2
undefined
 70
   64
  3
--------------------------------
 72
   65
 73
    0
 40
0
  0
LTYPE
  2
_
 70
   64
  3
                                
 72
   65
 73
    0
 40
0
  0
LTYPE
  2
__18
 70
   64
  3
                                
 72
   65
 73
    0
 40
0
  0
LTYPE
  2
__19
 70
   64
  3
                                
 72
   65
 73
    0
 40
0
  0
LTYPE
  2
__20
 70
   64
  3
                                
 72
   65
 73
    0
 40
0
  0
LTYPE
  2
__21
 70
   64
  3
                                
 72
   65
 73
    0
 40
0
  0
LTYPE
  2
__22
 70
   64
  3
                                
 72
   65
 73
    0
 40
0
  0
LTYPE
  2
__23
 70
   64
  3
                                
 72
   65
 73
    0
 40
0
  0
LTYPE
  2
__24
 70
   64
  3
                                
 72
   65
 73
    0
 40
0
  0
LTYPE
  2
__25
 70
   64
  3
                                
 72
   65
 73
    0
 40
0
  0
LTYPE
  2
__26
 70
   64
  3
                                
 72
   65
 73
    0
 40
0
  0
LTYPE
  2
__27
 70
   64
  3
                                
 72
   65
 73
    0
 40
0
  0
LTYPE
  2
__28
 70
   64
  3
                                
 72
   65
 73
    0
 40
0
  0
LTYPE
  2
__29
 70
   64
  3
                                
 72
   65
 73
    0
 40
0
  0
LTYPE
  2
__30
 70
   64
  3
                                
 72
   65
 73
    0
 40
0
  0
LTYPE
  2
__31
 70
   64
  3
                                
 72
   65
 73
    0
 40
0
  0
LTYPE
  2
__32
 70
   64
  3
                                
 72
   65
 73
    0
 40
0
  0
ENDTAB
  0
TABLE
  2
STYLE
  5
3
100
AcDbSymbolTable
 70
     1
  0
STYLE
  5
10
100
AcDbSymbolTableRecord
100
AcDbTextStyleTableRecord
  2
STANDARD
 70
     0
 40
0.0
 41
1.0
 50
0.0
 71
     0
 42
0.2
  3
txt
  4
bigfont.shx
  0
STYLE
  5
26
100
AcDbSymbolTableRecord
100
AcDbTextStyleTableRecord
  2
TATEGAKI
 70
    68
 40
0.0
 41
1.0
 50
0.0
 71
     0
 42
1.0
  3
txt
  4
bigfont.shx
  0
ENDTAB
  0
TABLE
  2
LAYER
 70
    9
  0
LAYER
  2
_0-0_
 70
   64
 62
    7
  6
CONTINUOUS
  0
LAYER
  2
_6-0_
 70
   64
 62
    7
  6
CONTINUOUS
  0
LAYER
  2
_6-e_
 70
   64
 62
    7
  6
CONTINUOUS
  0
LAYER
  2
_6-f_
 70
   64
 62
    7
  6
CONTINUOUS
  0
LAYER
  2
_7-1_
 70
   64
 62
    7
  6
CONTINUOUS
  0
LAYER
  2
_7-a_
 70
   64
 62
    7
  6
CONTINUOUS
  0
LAYER
  2
_7-b_
 70
   64
 62
    7
  6
CONTINUOUS
  0
LAYER
  2
_e-f_
 70
   64
 62
    7
  6
CONTINUOUS
  0
LAYER
  2
ADD_LINE
 70
   64
 62
    7
  6
CONTINUOUS
  0
ENDTAB
  0
ENDSEC
  0
SECTION
  2
BLOCKS
  0
ENDSEC
  0
SECTION
  2
ENTITIES
  0
LINE
  8
_7-b_
  6
CONTINUOUS
 62
    7
 10
277.6866612654137
 20
71.939608316091408
 11
277.6866612654137
 21
51.939608316091408
  0
LINE
  8
_6-e_
  6
CONTINUOUS
 62
    7
 10
307.2135767899806
 20
50.494578857844174
 11
307.2135767899806
 21
45.454579086726027
  0
LINE
  8
_6-e_
  6
CONTINUOUS
 62
    7
 10
402.213570686465
 20
55.53457862896235
 11
307.2135767899806
 21
55.53457862896235
  0
LINE
  8
_6-e_
  6
CONTINUOUS
 62
    7
 10
402.213570686465
 20
60.574578400080497
 11
307.2135767899806
 21
60.574578400080497
  0
LINE
  8
_6-e_
  6
CONTINUOUS
 62
    7
 10
402.213570686465
 20
50.494578857844174
 11
307.2135767899806
 21
50.494578857844174
  0
TEXT
  8
_6-e_
 62
    7
 10
379.21472874329009
 20
45.961054277623276
 40
4
 41
1
 50
0
  1
仕様
  0
TEXT
  8
_6-e_
 62
    7
 10
308.12745484530125
 20
50.955830853027862
 40
4
 41
1
 50
0
  1
①
  0
TEXT
  8
_6-e_
 62
    7
 10
308.05386697678699
 20
56.121699222728068
 40
4
 41
1
 50
0
  1
②
  0
TEXT
  8
_6-e_
 62
    7
 10
308.24519543492408
 20
61.140391855399769
 40
4
 41
1
 50
0
  1
③
  0
LINE
  8
_6-e_
  6
CONTINUOUS
 62
    7
 10
313.36094520988967
 20
50.494578857844174
 11
313.36094520988967
 21
45.454579086726027
  0
TEXT
  8
_6-e_
 62
    7
 10
314.11296854775656
 20
55.930370764591032
 40
4
 41
1
 50
0
  1
AC1次側入力線
  0
TEXT
  8
_6-e_
 62
    7
 10
322.87728368780346
 20
51.007342360987848
 40
4
 41
1
 50
0
  1
本体
  0
TEXT
  8
_6-e_
 62
    7
 10
320.66964763237604
 20
45.797321270179111
 40
4
 41
1
 50
0
  1
部品名
  0
TEXT
  8
_6-e_
 62
    7
 10
365.17281384076113
 20
51.060693565660642
 40
4
 41
1
 50
0
  1
ｼﾙﾊﾞｰｱﾙﾏｲﾄ処理
  0
LINE
  8
_6-e_
  6
CONTINUOUS
 62
    7
 10
360.93784338267664
 20
50.494578857844174
 11
360.93784338267664
 21
45.454579086726027
  0
LINE
  8
_6-e_
  6
CONTINUOUS
 62
    7
 10
344.44860018791183
 20
50.494578857844174
 11
344.44860018791183
 21
45.454579086726027
  0
TEXT
  8
_6-e_
 62
    7
 10
346.01275461731017
 20
51.062533262373506
 40
4
 41
1
 50
0
  1
アルミ
  0
TEXT
  8
_6-e_
 62
    7
 10
349.02299992115575
 20
45.896664892673328
 40
4
 41
1
 50
0
  1
材質
  0
TEXT
  8
_6-e_
 62
    7
 10
350.44392210198481
 20
61.018971872351244
 40
4
 41
1
 50
0
  1
ー
  0
TEXT
  8
_6-e_
 62
    7
 10
350.44392210198481
 20
55.720645339325386
 40
4
 41
1
 50
0
  1
ー
  0
TEXT
  8
_6-e_
 62
    7
 10
365.56878535667129
 20
55.858622592789714
 40
4
 41
1
 50
0
  1
PNCTF 0.75m㎡
  0
TEXT
  8
_6-e_
 62
    7
 10
363.58191290678661
 20
61.156949125815557
 40
4
 41
1
 50
0
  1
UL AWG17 1.07m㎡
  0
TEXT
  8
_6-e_
 62
    7
 10
314.11296854775656
 20
61.250773658171112
 40
4
 41
1
 50
0
  1
DC2次側出力線
  0
TEXT
  8
_6-f_
 62
    7
 10
390.91236157905734
 20
38.503957513116333
 40
4
 41
1
 50
0
  1
1
  0
TEXT
  8
_6-f_
 62
    7
 10
396.54183352039734
 20
38.570186594779158
 40
4
 41
1
 50
0
  1
2
  0
LINE
  8
_e-f_
  6
CONTINUOUS
 62
    7
 10
282.2377258597271
 20
262.05770611155878
 11
402.2135825120265
 21
262.05770611155878
  0
TEXT
  8
_e-f_
 62
    7
 10
382.73773348912163
 20
267.55768572677027
 40
4
 41
1
 50
0
  1
担当
  0
TEXT
  8
_e-f_
 62
    7
 10
392.73773348912163
 20
267.55768572677027
 40
4
 41
1
 50
0
  1
検印
  0
TEXT
  8
_e-f_
 62
    7
 10
284.00753939732476
 20
268.2467825352038
 40
3
 41
1
 50
0
  1
Ｎｏ
  0
TEXT
  8
_e-f_
 62
    7
 10
299.38916934117241
 20
268.27063583720575
 40
3
 41
1
 50
0
  1
年　月　日
  0
TEXT
  8
_e-f_
 62
    7
 10
340.18718112095757
 20
268.27063583720575
 40
3
 41
1
 50
0
  1
訂　正　記　事
  0
LINE
  8
_e-f_
  6
CONTINUOUS
 62
    7
 10
282.2377258597271
 20
267.05768572677027
 11
282.2377258597271
 21
262.05770611155878
  0
LINE
  8
_e-f_
  6
CONTINUOUS
 62
    7
 10
292.23773348912163
 20
267.05768572677027
 11
292.23773348912163
 21
262.05770611155878
  0
LINE
  8
_e-f_
  6
CONTINUOUS
 62
    7
 10
322.23773381694718
 20
267.05768572677027
 11
322.23773381694718
 21
262.05770611155878
  0
LINE
  8
_e-f_
  6
CONTINUOUS
 62
    7
 10
282.2377258597271
 20
272.45457753700526
 11
282.2377258597271
 21
267.05768572677027
  0
LINE
  8
_e-f_
  6
CONTINUOUS
 62
    7
 10
292.23773348912163
 20
272.45457753700526
 11
292.23773348912163
 21
267.05768572677027
  0
LINE
  8
_e-f_
  6
CONTINUOUS
 62
    7
 10
322.23773381694718
 20
272.45457753700526
 11
322.23773381694718
 21
267.05768572677027
  0
LINE
  8
_e-f_
  6
CONTINUOUS
 62
    7
 10
382.23773348912163
 20
272.45457753700526
 11
382.23773348912163
 21
262.05770611155878
  0
LINE
  8
_e-f_
  6
CONTINUOUS
 62
    7
 10
392.23773348912163
 20
272.45457753700526
 11
392.23773348912163
 21
262.05770611155878
  0
LINE
  8
_e-f_
  6
CONTINUOUS
 62
    7
 10
402.2135825120265
 20
267.05768572677027
 11
282.23774111851616
 21
267.05768572677027
  0
LINE
  8
_6-e_
  6
CONTINUOUS
 62
    7
 10
307.2135767899806
 20
65.614578171198672
 11
307.2135767899806
 21
50.494578857844174
  0
LINE
  8
_6-e_
  6
CONTINUOUS
 62
    7
 10
402.213570686465
 20
65.614578171198672
 11
307.2135767899806
 21
65.614578171198672
  0
LINE
  8
_6-e_
  6
CONTINUOUS
 62
    7
 10
313.36094520988967
 20
65.614578171198672
 11
313.36094520988967
 21
50.494578857844174
  0
LINE
  8
_6-e_
  6
CONTINUOUS
 62
    7
 10
344.44860018791183
 20
65.614578171198672
 11
344.44860018791183
 21
50.494578857844174
  0
LINE
  8
_6-e_
  6
CONTINUOUS
 62
    7
 10
360.93784338267664
 20
65.614578171198672
 11
360.93784338267664
 21
50.494578857844174
  0
TEXT
  8
_6-f_
 62
    7
 10
361.46553131542208
 20
28.094305874134064
 40
5
 41
1
 50
0
  1
JPVO-060024FA
  0
TEXT
  8
_6-0_
 62
    7
 10
362.97881693421777
 20
38.672148637802948
 40
3
 41
1
 50
0
  1
年　 月　 日
  0
TEXT
  8
_6-0_
 62
    7
 10
358.4600330350197
 20
38.069644117909859
 40
4
 41
1
 50
0
  1
21
  0
TEXT
  8
_6-0_
 62
    7
 10
373.53099443199016
 20
38.069644117909859
 40
4
 41
1
 50
0
  1
18
  0
TEXT
  8
_6-0_
 62
    7
 10
367.40135761325541
 20
38.069644117909859
 40
4
 41
1
 50
0
  1
3
  0
LINE
  8
_7-a_
  6
CONTINUOUS
 62
   18
 10
252.72063498729195
 20
226.05463668903138
 11
251.27174624785834
 21
225.66640812137762
  0
LINE
  8
_7-a_
  6
CONTINUOUS
 62
   18
 10
252.72063498729195
 20
226.05463668903138
 11
251.27174624785834
 21
226.44286525668519
  0
LINE
  8
_7-a_
  6
CONTINUOUS
 62
   18
 10
252.72063498729195
 20
226.55463668903138
 11
252.72063498729195
 21
209.03974677932129
  0
LINE
  8
_7-a_
  6
CONTINUOUS
 62
   18
 10
252.72063498729195
 20
226.05463668903138
 11
327.69797970580896
 21
226.05463668903138
  0
LINE
  8
_7-a_
  6
CONTINUOUS
 62
   18
 10
252.72063498729195
 20
226.05463668903138
 11
254.16952372672557
 21
226.44286525668519
  0
LINE
  8
_7-a_
  6
CONTINUOUS
 62
   18
 10
252.72063498729195
 20
226.05463668903138
 11
254.16952372672557
 21
225.66640812137762
  0
LINE
  8
_7-a_
  6
CONTINUOUS
 62
   18
 10
327.69797970580896
 20
226.05463668903138
 11
326.24909096637532
 21
225.66640812137762
  0
LINE
  8
_7-a_
  6
CONTINUOUS
 62
   18
 10
327.69797970580896
 20
226.05463668903138
 11
326.24909096637532
 21
226.44286525668519
  0
LINE
  8
_7-a_
  6
CONTINUOUS
 62
   18
 10
327.69797970580896
 20
226.55463668903138
 11
327.69797970580896
 21
191.57505096651885
  0
LINE
  8
_7-a_
  6
CONTINUOUS
 62
   18
 10
265.23850390167922
 20
199.33734939799808
 11
265.23850390167922
 21
196.33734939799808
  0
LINE
  8
_7-a_
  6
CONTINUOUS
 62
   18
 10
265.23850390167922
 20
199.33734939799808
 11
265.23850390167922
 21
201.43734939799816
  0
LINE
  8
_7-a_
  6
CONTINUOUS
 62
   18
 10
265.23850390167922
 20
199.33734939799808
 11
265.62673246933297
 21
197.88846065856449
  0
LINE
  8
_7-a_
  6
CONTINUOUS
 62
   18
 10
265.23850390167922
 20
199.33734939799808
 11
264.85027533402541
 21
197.88846065856449
  0
LINE
  8
_7-a_
  6
CONTINUOUS
 62
   18
 10
265.23850390167922
 20
201.43734939799816
 11
264.85027533402541
 21
202.88623813743174
  0
LINE
  8
_7-a_
  6
CONTINUOUS
 62
   18
 10
265.23850390167922
 20
201.43734939799816
 11
265.62673246933297
 21
202.88623813743174
  0
LINE
  8
_7-a_
  6
CONTINUOUS
 62
   18
 10
265.73850390167922
 20
199.33734939799808
 11
257.58777875557717
 21
199.33734939799808
  0
LINE
  8
_7-a_
  6
CONTINUOUS
 62
   18
 10
265.73850390167922
 20
201.43734939799816
 11
257.58777875557717
 21
201.43734939799816
  0
TEXT
  8
_7-a_
 62
    7
 10
264.73850390167922
 20
203.38623813743174
 40
4
 41
1
 50
90
  1
4.2
  0
LINE
  8
_7-a_
  6
CONTINUOUS
 62
   18
 10
265.23850390167922
 20
201.43734939799816
 11
265.23850390167922
 21
209.88623813743174
  0
TEXT
  8
_7-a_
 62
    7
 10
49.687392049150531
 20
197.96041187155913
 40
4
 41
1
 50
0
  1
PE (G/Y)
  0
TEXT
  8
_7-a_
 62
    7
 10
49.389361181667851
 20
192.79454350185892
 40
4
 41
1
 50
0
  1
AC/L(BLACK)
  0
TEXT
  8
_7-a_
 62
    7
 10
48.991986691690925
 20
187.23130064218179
 40
4
 41
1
 50
0
  1
AC/N(WHITE)
  0
TEXT
  8
_7-a_
 62
    7
 10
290.29171348037755
 20
197.62482707441608
 40
4
 41
1
 50
0
  1
③
  0
TEXT
  8
_7-a_
 62
    7
 10
336.75399832539471
 20
191.33056133482114
 40
4
 41
1
 50
0
  1
黒色配線：－極性
  0
TEXT
  8
_7-a_
 62
    7
 10
336.65465470290052
 20
184.47585138271892
 40
4
 41
1
 50
0
  1
赤色配線：＋極性
  0
TEXT
  8
_7-a_
 62
    7
 10
282.45930734655047
 20
226.55463668903138
 40
4
 41
1
 50
0
  1
150±10
  0
LINE
  8
_7-a_
  6
CONTINUOUS
 62
   18
 10
254.97063539505299
 20
169.18866623859503
 11
253.52174665561938
 21
168.80043767094124
  0
LINE
  8
_7-a_
  6
CONTINUOUS
 62
   18
 10
254.97063539505299
 20
169.18866623859503
 11
253.52174665561938
 21
169.57689480624881
  0
LINE
  8
_7-a_
  6
CONTINUOUS
 62
   18
 10
254.97063539505299
 20
168.68866623859503
 11
254.97063539505299
 21
182.59577193559914
  0
LINE
  8
_7-a_
  6
CONTINUOUS
 62
   18
 10
86.372541688759056
 20
226.05463668903138
 11
161.2206350296756
 21
226.05463668903138
  0
LINE
  8
_7-a_
  6
CONTINUOUS
 62
   18
 10
86.372541688759056
 20
226.05463668903138
 11
87.821430428192655
 21
226.44286525668519
  0
LINE
  8
_7-a_
  6
CONTINUOUS
 62
   18
 10
86.372541688759056
 20
226.05463668903138
 11
87.821430428192655
 21
225.66640812137762
  0
LINE
  8
_7-a_
  6
CONTINUOUS
 62
   18
 10
161.2206350296756
 20
226.05463668903138
 11
159.77174629024199
 21
225.66640812137762
  0
LINE
  8
_7-a_
  6
CONTINUOUS
 62
   18
 10
161.2206350296756
 20
226.05463668903138
 11
159.77174629024199
 21
226.44286525668519
  0
LINE
  8
_7-a_
  6
CONTINUOUS
 62
   18
 10
161.2206350296756
 20
226.55463668903138
 11
161.2206350296756
 21
209.03974677932129
  0
LINE
  8
_7-a_
  6
CONTINUOUS
 62
   18
 10
161.2206350296756
 20
226.05463668903138
 11
252.72063498729195
 21
226.05463668903138
  0
LINE
  8
_7-a_
  6
CONTINUOUS
 62
   18
 10
161.2206350296756
 20
226.05463668903138
 11
162.66952376910921
 21
226.44286525668519
  0
LINE
  8
_7-a_
  6
CONTINUOUS
 62
   18
 10
161.2206350296756
 20
226.05463668903138
 11
162.66952376910921
 21
225.66640812137762
  0
LINE
  8
_7-a_
  6
CONTINUOUS
 62
   18
 10
86.372541688759056
 20
226.55463668903138
 11
86.372541688759056
 21
199.01407539004929
  0
LINE
  8
_7-a_
  6
CONTINUOUS
 62
   18
 10
149.07964942996372
 20
185.3873394730748
 11
149.07964942996372
 21
200.3873394968067
  0
LINE
  8
_7-a_
  6
CONTINUOUS
 62
   18
 10
149.07964942996372
 20
185.3873394730748
 11
148.69142086230993
 21
186.83622821250841
  0
LINE
  8
_7-a_
  6
CONTINUOUS
 62
   18
 10
149.07964942996372
 20
185.3873394730748
 11
149.4678779976175
 21
186.83622821250841
  0
LINE
  8
_7-a_
  6
CONTINUOUS
 62
   18
 10
149.07964942996372
 20
200.3873394968067
 11
149.4678779976175
 21
198.93845075737309
  0
LINE
  8
_7-a_
  6
CONTINUOUS
 62
   18
 10
149.07964942996372
 20
200.3873394968067
 11
148.69142086230993
 21
198.93845075737309
  0
LINE
  8
_7-a_
  6
CONTINUOUS
 62
   18
 10
148.57964942996372
 20
185.3873394730748
 11
155.91837988677218
 21
185.3873394730748
  0
LINE
  8
_7-a_
  6
CONTINUOUS
 62
   18
 10
148.57964942996372
 20
200.3873394968067
 11
155.91837988677218
 21
200.3873394968067
  0
LINE
  8
_7-a_
  6
CONTINUOUS
 62
   18
 10
143.71956339624898
 20
181.63733909932406
 11
143.71956339624898
 21
204.13733987055744
  0
LINE
  8
_7-a_
  6
CONTINUOUS
 62
   18
 10
143.71956339624898
 20
181.63733909932406
 11
143.3313348285952
 21
183.08622783875767
  0
LINE
  8
_7-a_
  6
CONTINUOUS
 62
   18
 10
143.71956339624898
 20
181.63733909932406
 11
144.10779196390276
 21
183.08622783875767
  0
LINE
  8
_7-a_
  6
CONTINUOUS
 62
   18
 10
143.71956339624898
 20
204.13733987055744
 11
144.10779196390276
 21
202.68845113112382
  0
LINE
  8
_7-a_
  6
CONTINUOUS
 62
   18
 10
143.71956339624898
 20
204.13733987055744
 11
143.3313348285952
 21
202.68845113112382
  0
LINE
  8
_7-a_
  6
CONTINUOUS
 62
   18
 10
143.21956339624898
 20
181.63733909932406
 11
155.91837988677218
 21
181.63733909932406
  0
LINE
  8
_7-a_
  6
CONTINUOUS
 62
   18
 10
143.21956339624898
 20
204.13733987055744
 11
155.91837988677218
 21
204.13733987055744
  0
LINE
  8
_7-a_
  6
CONTINUOUS
 62
   18
 10
138.54430791542097
 20
177.88734444900404
 11
138.54430791542097
 21
207.88734444900404
  0
LINE
  8
_7-a_
  6
CONTINUOUS
 62
   18
 10
138.54430791542097
 20
177.88734444900404
 11
138.15607934776718
 21
179.33623318843763
  0
LINE
  8
_7-a_
  6
CONTINUOUS
 62
   18
 10
138.54430791542097
 20
177.88734444900404
 11
138.93253648307475
 21
179.33623318843763
  0
LINE
  8
_7-a_
  6
CONTINUOUS
 62
   18
 10
138.54430791542097
 20
207.88734444900404
 11
138.93253648307475
 21
206.43845570957043
  0
LINE
  8
_7-a_
  6
CONTINUOUS
 62
   18
 10
138.54430791542097
 20
207.88734444900404
 11
138.15607934776718
 21
206.43845570957043
  0
LINE
  8
_7-a_
  6
CONTINUOUS
 62
   18
 10
138.04430791542097
 20
177.88734444900404
 11
159.89223677383654
 21
177.88734444900404
  0
LINE
  8
_7-a_
  6
CONTINUOUS
 62
   18
 10
138.04430791542097
 20
207.88734444900404
 11
159.89223677383654
 21
207.88734444900404
  0
TEXT
  8
_7-a_
 62
    7
 10
148.57964942996372
 20
189.1716307429823
 40
4
 41
1
 50
90
  1
30
  0
TEXT
  8
_7-a_
 62
    7
 10
143.21956339624898
 20
189.1716307429823
 40
4
 41
1
 50
90
  1
45
  0
TEXT
  8
_7-a_
 62
    7
 10
138.04430791542097
 20
189.17163570704559
 40
4
 41
1
 50
90
  1
60
  0
TEXT
  8
_7-a_
 62
    7
 10
99.812735300494665
 20
204.9348619629502
 40
4
 41
1
 50
0
  1
②
  0
TEXT
  8
_7-a_
 62
    7
 10
116.04658835921733
 20
226.55463668903138
 40
4
 41
1
 50
0
  1
150±10
  0
LINE
  8
_7-a_
  6
CONTINUOUS
 62
   18
 10
158.97063670279689
 20
169.18866623859503
 11
254.97063539505299
 21
169.18866623859503
  0
LINE
  8
_7-a_
  6
CONTINUOUS
 62
   18
 10
158.97063670279689
 20
169.18866623859503
 11
160.4195254422305
 21
169.57689480624881
  0
LINE
  8
_7-a_
  6
CONTINUOUS
 62
   18
 10
158.97063670279689
 20
169.18866623859503
 11
160.4195254422305
 21
168.80043767094124
  0
LINE
  8
_7-a_
  6
CONTINUOUS
 62
   18
 10
158.97063670279689
 20
168.68866623859503
 11
158.97063670279689
 21
182.59577193559914
  0
TEXT
  8
_7-a_
 62
    7
 10
203.72063500848378
 20
226.55463668903138
 40
4
 41
1
 50
0
  1
183
  0
TEXT
  8
_7-a_
 62
    7
 10
203.72063604892494
 20
169.68866623859503
 40
4
 41
1
 50
0
  1
192
  0
LINE
  8
_7-a_
  6
CONTINUOUS
 62
   18
 10
110.39283109613056
 20
196.99151148101537
 11
103.83615201151108
 21
204.67408495390287
  0
LINE
  8
_7-a_
  6
CONTINUOUS
 62
   18
 10
110.39283109613056
 20
196.99151148101537
 11
109.15695266969807
 21
197.84157295825025
  0
LINE
  8
_7-a_
  6
CONTINUOUS
 62
   18
 10
110.39283109613056
 20
196.99151148101537
 11
109.74755972146832
 21
198.34562552829555
  0
LINE
  8
_7-a_
  6
CONTINUOUS
 62
   18
 10
290.92260651136825
 20
197.71418156744471
 11
287.79588965836796
 21
190.05911616871992
  0
LINE
  8
_7-a_
  6
CONTINUOUS
 62
   18
 10
287.79588965836796
 20
190.05911616871992
 11
287.98434648464035
 21
191.54723041992221
  0
LINE
  8
_7-a_
  6
CONTINUOUS
 62
   18
 10
287.79588965836796
 20
190.05911616871992
 11
288.70315518303755
 21
191.25363250085857
  0
LINE
  8
_7-a_
  6
CONTINUOUS
 62
   18
 10
256.97063562904736
 20
108.4829727828347
 11
255.52174688961378
 21
108.09474421518092
  0
LINE
  8
_7-a_
  6
CONTINUOUS
 62
   18
 10
256.97063562904736
 20
108.4829727828347
 11
255.52174688961378
 21
108.87120135048849
  0
LINE
  8
_7-a_
  6
CONTINUOUS
 62
   18
 10
256.97063562904736
 20
107.9829727828347
 11
256.97063562904736
 21
120.39967948210976
  0
LINE
  8
_7-a_
  6
CONTINUOUS
 62
   18
 10
147.51872298442262
 20
121.67261993758934
 11
147.51872298442262
 21
138.67261993758938
  0
LINE
  8
_7-a_
  6
CONTINUOUS
 62
   18
 10
147.51872298442262
 20
121.67261993758934
 11
147.13049441676884
 21
123.12150867702294
  0
LINE
  8
_7-a_
  6
CONTINUOUS
 62
   18
 10
147.51872298442262
 20
121.67261993758934
 11
147.9069515520764
 21
123.12150867702294
  0
LINE
  8
_7-a_
  6
CONTINUOUS
 62
   18
 10
147.51872298442262
 20
138.67261993758938
 11
147.9069515520764
 21
137.22373119815577
  0
LINE
  8
_7-a_
  6
CONTINUOUS
 62
   18
 10
147.51872298442262
 20
138.67261993758938
 11
147.13049441676884
 21
137.22373119815577
  0
LINE
  8
_7-a_
  6
CONTINUOUS
 62
   18
 10
147.01872298442262
 20
121.67261993758934
 11
156.06592006495367
 21
121.67261993758934
  0
LINE
  8
_7-a_
  6
CONTINUOUS
 62
   18
 10
147.01872298442262
 20
138.67261993758938
 11
159.60566835083017
 21
138.67261993758938
  0
TEXT
  8
_7-a_
 62
    7
 10
147.01872298442262
 20
123.59526113299357
 40
4
 41
1
 50
90
  1
34
  0
LINE
  8
_7-a_
  6
CONTINUOUS
 62
   18
 10
156.97063646775009
 20
108.4829727828347
 11
256.97063562904736
 21
108.4829727828347
  0
LINE
  8
_7-a_
  6
CONTINUOUS
 62
   18
 10
156.97063646775009
 20
108.4829727828347
 11
158.41952520718371
 21
108.87120135048849
  0
LINE
  8
_7-a_
  6
CONTINUOUS
 62
   18
 10
156.97063646775009
 20
108.4829727828347
 11
158.41952520718371
 21
108.09474421518092
  0
LINE
  8
_7-a_
  6
CONTINUOUS
 62
   18
 10
156.97063646775009
 20
107.9829727828347
 11
156.97063646775009
 21
120.39967948210976
  0
TEXT
  8
_7-a_
 62
    7
 10
203.72063604839874
 20
108.9829727828347
 40
4
 41
1
 50
0
  1
200
  0
ARC
  8
_7-1_
  6
CONTINUOUS
 62
    7
 10
256.72063711055778
 20
201.6873493979981
 40
0.25
 50
270
 51
0
  0
ARC
  8
_7-1_
  6
CONTINUOUS
 62
    7
 10
256.72063711055778
 20
199.08734939799808
 40
0.25
 50
0
 51
90
  0
LINE
  8
_7-1_
  6
CONTINUOUS
 62
    7
 10
256.72063711055778
 20
199.33734939799808
 11
254.97063687551076
 21
199.33734939799808
  0
ARC
  8
_7-1_
  6
CONTINUOUS
 62
    7
 10
254.97063687551076
 20
200.38734939799809
 40
1.0500000000000109
 50
90
 51
270
  0
LINE
  8
_7-1_
  6
CONTINUOUS
 62
    7
 10
254.97063687551076
 20
201.4373493979981
 11
256.72063711055778
 21
201.4373493979981
  0
LINE
  8
_7-1_
  6
CENTER2
 62
    7
 10
253.97063687551099
 20
200.38734939799809
 11
256.61449262191581
 21
200.38734939799809
  0
LINE
  8
_7-1_
  6
CENTER2
 62
    7
 10
254.97063687551093
 20
202.15965927793075
 11
254.97063687551093
 21
198.35271354679366
  0
ARC
  8
_7-1_
  6
CONTINUOUS
 62
    7
 10
255.47063710950538
 20
202.63734977174885
 40
1.5000000000000139
 50
0
 51
90
  0
LINE
  8
_7-1_
  6
CONTINUOUS
 62
    7
 10
256.97063711055773
 20
201.6873493979981
 11
256.97063710950538
 21
202.63734977174885
  0
ARC
  8
_7-1_
  6
CONTINUOUS
 62
    7
 10
256.72063563009976
 20
184.08734937426618
 40
0.25
 50
0
 51
90
  0
ARC
  8
_7-1_
  6
CONTINUOUS
 62
    7
 10
256.72063563009976
 20
186.68734937426626
 40
0.25
 50
270
 51
0
  0
LINE
  8
_7-1_
  6
CONTINUOUS
 62
    7
 10
256.72063563009976
 20
186.4373493742662
 11
254.97063539505279
 21
186.4373493742662
  0
ARC
  8
_7-1_
  6
CONTINUOUS
 62
    7
 10
254.97063539505279
 20
185.38734937426619
 40
1.0500000000000109
 50
90
 51
270
  0
LINE
  8
_7-1_
  6
CONTINUOUS
 62
    7
 10
254.97063539505279
 20
184.33734937426623
 11
256.72063563009976
 21
184.33734937426618
  0
LINE
  8
_7-1_
  6
CENTER2
 62
    7
 10
253.97063539505302
 20
185.38734937426619
 11
256.61449114145784
 21
185.38734937426619
  0
LINE
  8
_7-1_
  6
CENTER2
 62
    7
 10
254.97063539505296
 20
183.61503949433353
 11
254.97063539505296
 21
187.42198522547062
  0
ARC
  8
_7-1_
  6
CONTINUOUS
 62
    7
 10
255.47063562904739
 20
183.13734900051548
 40
1.5000000000000139
 50
270
 51
0
  0
LINE
  8
_7-1_
  6
CONTINUOUS
 62
    7
 10
256.97063563009976
 20
184.08734937426618
 11
256.97063562904736
 21
183.13734900051548
  0
ARC
  8
_7-1_
  6
CONTINUOUS
 62
    7
 10
256.72063711055778
 20
194.18734986985839
 40
0.25
 50
270
 51
0
  0
ARC
  8
_7-1_
  6
CONTINUOUS
 62
    7
 10
256.72063711055778
 20
191.58734986985831
 40
0.25
 50
0
 51
90
  0
LINE
  8
_7-1_
  6
CONTINUOUS
 62
    7
 10
256.72063711055778
 20
191.83734986985837
 11
254.97063687551076
 21
191.83734986985837
  0
ARC
  8
_7-1_
  6
CONTINUOUS
 62
    7
 10
254.97063687551076
 20
192.88734986985838
 40
1.0500000000000109
 50
90
 51
270
  0
LINE
  8
_7-1_
  6
CONTINUOUS
 62
    7
 10
254.97063687551076
 20
193.93734986985833
 11
256.72063711055778
 21
193.93734986985839
  0
LINE
  8
_7-1_
  6
CENTER2
 62
    7
 10
253.97063687551099
 20
192.88734986985838
 11
256.61449262191581
 21
192.88734986985838
  0
LINE
  8
_7-1_
  6
CENTER2
 62
    7
 10
254.97063687551093
 20
194.65965974979104
 11
254.97063687551093
 21
190.85271401865395
  0
LINE
  8
_7-1_
  6
CONTINUOUS
 62
    7
 10
256.97063711055773
 20
198.22957195938624
 11
256.97063711055773
 21
199.08734939799808
  0
LINE
  8
_7-1_
  6
CONTINUOUS
 62
    7
 10
256.97063711055773
 20
194.18734986985839
 11
256.97063710608
 21
198.22957195938624
  0
LINE
  8
_7-1_
  6
CONTINUOUS
 62
    7
 10
256.97063711055784
 20
186.68734937426626
 11
256.97063711055784
 21
187.55998564440858
  0
LINE
  8
_7-1_
  6
CONTINUOUS
 62
    7
 10
256.97063711055773
 20
191.21470325359945
 11
256.97063711055773
 21
191.58734986985831
  0
LINE
  8
_7-1_
  6
CONTINUOUS
 62
    7
 10
252.72063498729193
 20
205.88734444900399
 11
251.92063498729197
 21
205.88734444900399
  0
LINE
  8
_7-1_
  6
CONTINUOUS
 62
    7
 10
252.72063498729193
 20
204.88734444900399
 11
251.92063498729197
 21
204.88734444900399
  0
LINE
  8
_7-1_
  6
CONTINUOUS
 62
    7
 10
251.92063498729197
 20
205.88734444900399
 11
251.92063498729197
 21
204.88734444900399
  0
LINE
  8
_7-1_
  6
CONTINUOUS
 62
    7
 10
252.72063498729193
 20
205.88734444900399
 11
252.72063498729193
 21
204.88734444900399
  0
LINE
  8
_7-1_
  6
CONTINUOUS
 62
    7
 10
252.72063498729193
 20
206.88734444900399
 11
251.92063498729197
 21
206.88734444900399
  0
LINE
  8
_7-1_
  6
CONTINUOUS
 62
    7
 10
251.92063498729197
 20
206.88734444900399
 11
251.92063498729197
 21
205.88734444900399
  0
LINE
  8
_7-1_
  6
CONTINUOUS
 62
    7
 10
252.72063498729193
 20
206.88734444900399
 11
252.72063498729193
 21
205.88734444900399
  0
LINE
  8
_7-1_
  6
CONTINUOUS
 62
    7
 10
252.72063498729193
 20
207.88734444900404
 11
251.92063498729197
 21
207.88734444900404
  0
LINE
  8
_7-1_
  6
CONTINUOUS
 62
    7
 10
251.92063498729197
 20
207.88734444900404
 11
251.92063498729197
 21
206.88734444900399
  0
LINE
  8
_7-1_
  6
CONTINUOUS
 62
    7
 10
252.72063498729193
 20
207.88734444900404
 11
252.72063498729193
 21
206.88734444900399
  0
LINE
  8
_7-1_
  6
CONTINUOUS
 62
    7
 10
251.67063498729203
 20
205.88734444900399
 11
251.67063498729203
 21
204.88734444900399
  0
LINE
  8
_7-1_
  6
CONTINUOUS
 62
    7
 10
251.67063498729203
 20
205.88734444900399
 11
251.67063498729203
 21
206.88734444900399
  0
LINE
  8
_7-1_
  6
CONTINUOUS
 62
    7
 10
251.67063498729203
 20
207.88734444900404
 11
251.67063498729203
 21
206.88734444900399
  0
LINE
  8
_7-1_
  6
CONTINUOUS
 62
    7
 10
251.67063497541766
 20
205.03734462632786
 11
251.92063498729197
 21
205.03734462632786
  0
LINE
  8
_7-1_
  6
CONTINUOUS
 62
    7
 10
251.92063498729197
 20
205.88734444900399
 11
251.67063498729203
 21
205.88734444900399
  0
LINE
  8
_7-1_
  6
CONTINUOUS
 62
    7
 10
251.92063498729197
 20
207.73734469636332
 11
251.67063497541766
 21
207.73734469636332
  0
LINE
  8
_7-1_
  6
CONTINUOUS
 62
    7
 10
251.92063498729197
 20
206.88734444900399
 11
251.67063498729203
 21
206.88734444900399
  0
LINE
  8
_7-1_
  6
CONTINUOUS
 62
    7
 10
252.7900332968544
 20
205.04235831108877
 11
252.72063494985269
 21
205.03744520916592
  0
ARC
  8
_7-1_
  6
CONTINUOUS
 62
    7
 10
252.76850690299204
 20
205.34639721380881
 40
0.3048000000005047
 50
274.04986592817351
 51
340.43275363035661
  0
LINE
  8
_7-1_
  6
CONTINUOUS
 62
    7
 10
253.15330436778521
 20
205.6045414946879
 11
253.05153258004486
 21
205.23317009880196
  0
LINE
  8
_7-1_
  6
CONTINUOUS
 62
    7
 10
252.72063494985269
 20
207.48724360688578
 11
252.7900332968544
 21
207.48233058691869
  0
LINE
  8
_7-1_
  6
CONTINUOUS
 62
    7
 10
252.7900332968544
 20
205.29235831108883
 11
252.72063494985269
 21
205.28744478448282
  0
ARC
  8
_7-1_
  6
CONTINUOUS
 62
    7
 10
252.76850690299204
 20
205.59639721380887
 40
0.3048000000005097
 50
274.04986592817027
 51
340.43275363035667
  0
ARC
  8
_7-1_
  6
CONTINUOUS
 62
    7
 10
252.76850690299204
 20
207.17829168419928
 40
0.3048000000005075
 50
20.911833439961309
 51
85.950134071826454
  0
LINE
  8
_7-1_
  6
CONTINUOUS
 62
    7
 10
253.15330436778521
 20
205.85454107000481
 11
253.05153258004486
 21
205.48317060544144
  0
LINE
  8
_7-1_
  6
CONTINUOUS
 62
    7
 10
253.05322996364225
 20
207.28708423327435
 11
253.15369459194403
 21
206.91964161320578
  0
LINE
  8
_7-1_
  6
CONTINUOUS
 62
    7
 10
252.72063498729175
 20
205.88734444900399
 11
252.72063498729175
 21
206.88734444900399
  0
LINE
  8
_7-1_
  6
CONTINUOUS
 62
    7
 10
252.72063498729175
 20
204.88734444900399
 11
252.72063498729175
 21
205.88734444900399
  0
LINE
  8
_7-1_
  6
CONTINUOUS
 62
    7
 10
253.17027713963102
 20
205.60051352455269
 11
253.17234630556112
 21
205.59931956901203
  0
LINE
  8
_7-1_
  6
CONTINUOUS
 62
    7
 10
253.17234630556112
 20
205.59931956901203
 11
253.17233268496846
 21
205.59932701959263
  0
LINE
  8
_7-1_
  6
CONTINUOUS
 62
    7
 10
253.26239099585717
 20
206.0408242113794
 11
253.22389873535649
 21
205.81975151523005
  0
LINE
  8
_7-1_
  6
CONTINUOUS
 62
    7
 10
253.22389873535649
 20
205.81975151523005
 11
253.17027748887699
 21
205.60051538719784
  0
LINE
  8
_7-1_
  6
CONTINUOUS
 62
    7
 10
253.2168539785714
 20
206.0408242113794
 11
253.26239099585717
 21
206.0408242113794
  0
LINE
  8
_7-1_
  6
CONTINUOUS
 62
    7
 10
253.2168539785714
 20
206.4838646046723
 11
253.22366369282156
 21
206.45604041143309
  0
LINE
  8
_7-1_
  6
CONTINUOUS
 62
    7
 10
253.22366369282156
 20
206.45604041143309
 11
253.25246228230452
 21
206.29082471801888
  0
LINE
  8
_7-1_
  6
CONTINUOUS
 62
    7
 10
253.26239099585717
 20
206.0408242113794
 11
253.2168539785714
 21
206.0408242113794
  0
LINE
  8
_7-1_
  6
CONTINUOUS
 62
    7
 10
253.05322996364225
 20
207.28708423327435
 11
253.05322996364225
 21
206.38734444900404
  0
LINE
  8
_7-1_
  6
CONTINUOUS
 62
    7
 10
253.17027702321564
 20
206.2908237866963
 11
253.17234635719376
 21
206.38734444900404
  0
LINE
  8
_7-1_
  6
CONTINUOUS
 62
    7
 10
253.17027713963102
 20
205.85051403119217
 11
253.17234630556112
 21
205.84931914432894
  0
LINE
  8
_7-1_
  6
CONTINUOUS
 62
    7
 10
253.17234630556112
 20
205.84931914432894
 11
253.17233268496846
 21
205.84932659490954
  0
LINE
  8
_7-1_
  6
CONTINUOUS
 62
    7
 10
253.26239099585717
 20
206.29082471801888
 11
253.22389873535649
 21
206.06975202186953
  0
LINE
  8
_7-1_
  6
CONTINUOUS
 62
    7
 10
253.22389873535649
 20
206.06975202186953
 11
253.17027748887699
 21
205.85051496251475
  0
LINE
  8
_7-1_
  6
CONTINUOUS
 62
    7
 10
253.17027713963102
 20
206.29082471801888
 11
253.26239099585717
 21
206.29082471801888
  0
LINE
  8
_7-1_
  6
CONTINUOUS
 62
    7
 10
253.17234635719376
 20
206.38734444900404
 11
253.17027702321564
 21
206.2908237866963
  0
LINE
  8
_7-1_
  6
CONTINUOUS
 62
    7
 10
253.05322996364225
 20
206.38734444900404
 11
253.17234635719376
 21
206.38734444900404
  0
LINE
  8
_7-1_
  6
CONTINUOUS
 62
    7
 10
253.17027702321564
 20
206.48386553599488
 11
253.17234635719376
 21
206.38734444900404
  0
LINE
  8
_7-1_
  6
CONTINUOUS
 62
    7
 10
253.26239099585717
 20
206.4838646046723
 11
253.17027702321564
 21
206.4838646046723
  0
LINE
  8
_7-1_
  6
CONTINUOUS
 62
    7
 10
253.17027748887699
 20
206.92417342885386
 11
253.22366369282156
 21
206.70604091807257
  0
LINE
  8
_7-1_
  6
CONTINUOUS
 62
    7
 10
253.22366369282156
 20
206.70604091807257
 11
253.26239099585717
 21
206.4838646046723
  0
LINE
  8
_7-1_
  6
CONTINUOUS
 62
    7
 10
253.17027702321564
 20
206.4838646046723
 11
253.26239099585717
 21
206.4838646046723
  0
LINE
  8
_7-1_
  6
CONTINUOUS
 62
    7
 10
253.26239099585717
 20
206.29082471801888
 11
253.17027702321564
 21
206.2908237866963
  0
LINE
  8
_7-1_
  6
CONTINUOUS
 62
    7
 10
252.7900332968544
 20
205.29235831108883
 11
252.7900332968544
 21
205.04235831108877
  0
LINE
  8
_7-1_
  6
CONTINUOUS
 62
    7
 10
252.7900332968544
 20
206.38734444900404
 11
252.7900332968544
 21
205.29235831108883
  0
LINE
  8
_7-1_
  6
CONTINUOUS
 62
    7
 10
252.7900332968544
 20
207.48233058691869
 11
252.7900332968544
 21
206.38734444900404
  0
LINE
  8
_7-1_
  6
CONTINUOUS
 62
    7
 10
252.72063498729193
 20
178.88734444900404
 11
251.9206349872918
 21
178.88734444900404
  0
LINE
  8
_7-1_
  6
CONTINUOUS
 62
    7
 10
252.72063498729193
 20
177.88734444900404
 11
251.9206349872918
 21
177.88734444900404
  0
LINE
  8
_7-1_
  6
CONTINUOUS
 62
    7
 10
251.9206349872918
 20
178.88734444900404
 11
251.9206349872918
 21
177.88734444900404
  0
LINE
  8
_7-1_
  6
CONTINUOUS
 62
    7
 10
252.72063498729193
 20
178.88734444900404
 11
252.72063498729193
 21
177.88734444900404
  0
LINE
  8
_7-1_
  6
CONTINUOUS
 62
    7
 10
252.72063498729193
 20
179.88734444900404
 11
251.9206349872918
 21
179.88734444900404
  0
LINE
  8
_7-1_
  6
CONTINUOUS
 62
    7
 10
251.9206349872918
 20
179.88734444900404
 11
251.9206349872918
 21
178.88734444900404
  0
LINE
  8
_7-1_
  6
CONTINUOUS
 62
    7
 10
252.72063498729193
 20
179.88734444900404
 11
252.72063498729193
 21
178.88734444900404
  0
LINE
  8
_7-1_
  6
CONTINUOUS
 62
    7
 10
252.72063498729193
 20
180.88734444900404
 11
251.9206349872918
 21
180.88734444900404
  0
LINE
  8
_7-1_
  6
CONTINUOUS
 62
    7
 10
251.9206349872918
 20
180.88734444900404
 11
251.9206349872918
 21
179.88734444900404
  0
LINE
  8
_7-1_
  6
CONTINUOUS
 62
    7
 10
252.72063498729193
 20
180.88734444900404
 11
252.72063498729193
 21
179.88734444900404
  0
LINE
  8
_7-1_
  6
CONTINUOUS
 62
    7
 10
251.67063498729186
 20
180.88734444900404
 11
251.67063498729186
 21
179.88734444900404
  0
LINE
  8
_7-1_
  6
CONTINUOUS
 62
    7
 10
251.67063498729186
 20
178.88734444900404
 11
251.67063498729186
 21
179.88734444900404
  0
LINE
  8
_7-1_
  6
CONTINUOUS
 62
    7
 10
251.67063498729186
 20
178.88734444900404
 11
251.67063498729186
 21
177.88734444900404
  0
LINE
  8
_7-1_
  6
CONTINUOUS
 62
    7
 10
251.9206349872918
 20
180.73734427168022
 11
251.67063497541749
 21
180.73734427168022
  0
LINE
  8
_7-1_
  6
CONTINUOUS
 62
    7
 10
251.9206349872918
 20
178.88734444900404
 11
251.67063498729186
 21
178.88734444900404
  0
LINE
  8
_7-1_
  6
CONTINUOUS
 62
    7
 10
251.9206349872918
 20
178.03734420164477
 11
251.67063497541749
 21
178.03734420164477
  0
LINE
  8
_7-1_
  6
CONTINUOUS
 62
    7
 10
251.9206349872918
 20
179.88734444900404
 11
251.67063498729186
 21
179.88734444900404
  0
LINE
  8
_7-1_
  6
CONTINUOUS
 62
    7
 10
252.72063494985269
 20
180.73724368884217
 11
252.79003329685457
 21
180.73233058691926
  0
ARC
  8
_7-1_
  6
CONTINUOUS
 62
    7
 10
252.76850690299221
 20
180.42829168419922
 40
0.304800000000506
 50
20.911833439961309
 51
85.950134071826454
  0
LINE
  8
_7-1_
  6
CONTINUOUS
 62
    7
 10
253.05322996364242
 20
180.53708423327429
 11
253.1536945919442
 21
180.16964076383959
  0
LINE
  8
_7-1_
  6
CONTINUOUS
 62
    7
 10
252.72063494985269
 20
180.4872441135252
 11
252.7900332968544
 21
180.48233058691931
  0
LINE
  8
_7-1_
  6
CONTINUOUS
 62
    7
 10
252.7900332968544
 20
178.29235831108945
 11
252.72063494985269
 21
178.28744529112231
  0
ARC
  8
_7-1_
  6
CONTINUOUS
 62
    7
 10
252.76850690299204
 20
178.59639721380892
 40
0.3048000000005047
 50
274.04986592817351
 51
340.43275363035661
  0
ARC
  8
_7-1_
  6
CONTINUOUS
 62
    7
 10
252.76850690299204
 20
180.17829168419928
 40
0.3048000000005142
 50
20.911833439961309
 51
85.950134071826454
  0
LINE
  8
_7-1_
  6
CONTINUOUS
 62
    7
 10
253.15330436778538
 20
178.85454064532171
 11
253.05153258004503
 21
178.48317018075829
  0
LINE
  8
_7-1_
  6
CONTINUOUS
 62
    7
 10
253.05322996364242
 20
180.28708423327429
 11
253.1536945919442
 21
179.91964118852268
  0
LINE
  8
_7-1_
  6
CONTINUOUS
 62
    7
 10
252.72063498729193
 20
179.88734444900404
 11
252.72063498729193
 21
180.88734444900404
  0
LINE
  8
_7-1_
  6
CONTINUOUS
 62
    7
 10
252.72063498729193
 20
178.88734444900404
 11
252.72063498729193
 21
179.88734444900404
  0
LINE
  8
_7-1_
  6
CONTINUOUS
 62
    7
 10
253.05322996364242
 20
180.53708423327429
 11
253.05322996364242
 21
180.29645848436734
  0
LINE
  8
_7-1_
  6
CONTINUOUS
 62
    7
 10
253.2524733417602
 20
179.48386417998921
 11
253.22389873535649
 21
179.31975210382591
  0
LINE
  8
_7-1_
  6
CONTINUOUS
 62
    7
 10
253.22389873535649
 20
179.31975210382591
 11
253.21682359417258
 21
179.29082429333578
  0
LINE
  8
_7-1_
  6
CONTINUOUS
 62
    7
 10
253.26239099585734
 20
179.73386468662869
 11
253.21685397857157
 21
179.73386468662869
  0
LINE
  8
_7-1_
  6
CONTINUOUS
 62
    7
 10
253.17027748887716
 20
180.17417351081024
 11
253.22366369282173
 21
179.95604006870638
  0
LINE
  8
_7-1_
  6
CONTINUOUS
 62
    7
 10
253.22366369282173
 20
179.95604006870638
 11
253.26239099585734
 21
179.73386468662869
  0
LINE
  8
_7-1_
  6
CONTINUOUS
 62
    7
 10
253.21685397857157
 20
179.73386468662869
 11
253.26239099585734
 21
179.73386468662869
  0
LINE
  8
_7-1_
  6
CONTINUOUS
 62
    7
 10
253.05322996364242
 20
180.28708423327429
 11
253.05322996364242
 21
179.3873444490041
  0
LINE
  8
_7-1_
  6
CONTINUOUS
 62
    7
 10
253.17027702321581
 20
179.29082336201321
 11
253.17234635719376
 21
179.3873444490041
  0
LINE
  8
_7-1_
  6
CONTINUOUS
 62
    7
 10
253.17027713963119
 20
178.85051360650908
 11
253.17234630556129
 21
178.84931965096842
  0
LINE
  8
_7-1_
  6
CONTINUOUS
 62
    7
 10
253.17234630556129
 20
178.84931965096842
 11
253.17233268496863
 21
178.84932710154902
  0
LINE
  8
_7-1_
  6
CONTINUOUS
 62
    7
 10
253.26239099585734
 20
179.29082429333578
 11
253.22389873535649
 21
179.06975252850895
  0
LINE
  8
_7-1_
  6
CONTINUOUS
 62
    7
 10
253.22389873535649
 20
179.06975252850895
 11
253.17027748887716
 21
178.85051546915423
  0
LINE
  8
_7-1_
  6
CONTINUOUS
 62
    7
 10
253.17027713963119
 20
179.29082429333578
 11
253.26239099585734
 21
179.29082429333578
  0
LINE
  8
_7-1_
  6
CONTINUOUS
 62
    7
 10
253.17234635719376
 20
179.3873444490041
 11
253.17027702321581
 21
179.29082336201321
  0
LINE
  8
_7-1_
  6
CONTINUOUS
 62
    7
 10
253.05322996364242
 20
179.3873444490041
 11
253.17234635719376
 21
179.3873444490041
  0
LINE
  8
_7-1_
  6
CONTINUOUS
 62
    7
 10
253.17027702321581
 20
179.48386511131178
 11
253.17234635719376
 21
179.3873444490041
  0
LINE
  8
_7-1_
  6
CONTINUOUS
 62
    7
 10
253.26239099585734
 20
179.48386417998921
 11
253.17027702321581
 21
179.48386417998921
  0
LINE
  8
_7-1_
  6
CONTINUOUS
 62
    7
 10
253.17027748887716
 20
179.92417393549334
 11
253.22366369282173
 21
179.70604049338948
  0
LINE
  8
_7-1_
  6
CONTINUOUS
 62
    7
 10
253.22366369282173
 20
179.70604049338948
 11
253.26239099585734
 21
179.48386417998921
  0
LINE
  8
_7-1_
  6
CONTINUOUS
 62
    7
 10
253.17027702321581
 20
179.48386417998921
 11
253.26239099585734
 21
179.48386417998921
  0
LINE
  8
_7-1_
  6
CONTINUOUS
 62
    7
 10
253.26239099585734
 20
179.29082429333578
 11
253.17027702321581
 21
179.29082429333578
  0
LINE
  8
_7-1_
  6
CONTINUOUS
 62
    7
 10
252.79003329685457
 20
180.73233058691926
 11
252.7900332968544
 21
180.48233058691931
  0
LINE
  8
_7-1_
  6
CONTINUOUS
 62
    7
 10
252.7900332968544
 20
179.3873444490041
 11
252.7900332968544
 21
178.29235831108945
  0
LINE
  8
_7-1_
  6
CONTINUOUS
 62
    7
 10
252.7900332968544
 20
180.48233058691931
 11
252.7900332968544
 21
179.3873444490041
  0
LINE
  8
_7-1_
  6
CONTINUOUS
 62
    7
 10
251.67063498729203
 20
204.88734444900399
 11
251.67063498729186
 21
180.88734444900404
  0
LINE
  8
_7-1_
  6
CONTINUOUS
 62
    7
 10
252.72063498729193
 20
204.88734444900399
 11
252.72063801520789
 21
191.13734450488334
  0
LINE
  8
_7-1_
  6
CONTINUOUS
 62
    7
 10
251.92063498729197
 20
204.88734444900399
 11
251.9206349872918
 21
191.13734444900399
  0
LINE
  8
_7-1_
  6
CONTINUOUS
 62
    7
 10
251.9206349872918
 20
191.13734444900399
 11
251.9206349872918
 21
180.88734444900404
  0
LINE
  8
_7-1_
  6
CONTINUOUS
 62
    7
 10
252.72063801520789
 20
190.03734415694128
 11
252.72063498729193
 21
180.88734444900404
  0
ARC
  8
_7-1_
  6
CONTINUOUS
 62
    7
 10
253.32063498729189
 20
191.48734444900395
 40
0.7500000000000279
 50
0
 51
89.999999999996745
  0
ARC
  8
_7-1_
  6
CONTINUOUS
 62
    7
 10
253.32063498729189
 20
187.28734444900402
 40
0.75
 50
270
 51
0
  0
LINE
  8
_7-1_
  6
CONTINUOUS
 62
    7
 10
254.07063498729189
 20
191.48734444900395
 11
254.07063498729189
 21
187.28734444900402
  0
LINE
  8
_7-1_
  6
CONTINUOUS
 62
    7
 10
252.72063801520789
 20
192.23734449892293
 11
253.32063498729189
 21
192.23734444900395
  0
LINE
  8
_7-1_
  6
CONTINUOUS
 62
    7
 10
252.72063801520789
 20
186.53734415694128
 11
253.32063498729189
 21
186.53734444900402
  0
LINE
  8
_7-1_
  6
CONTINUOUS
 62
    7
 10
252.72063801520789
 20
187.63734450488334
 11
252.72063801520789
 21
186.53734415694128
  0
LINE
  8
_7-1_
  6
CONTINUOUS
 62
    7
 10
252.72063801520789
 20
192.23734449892293
 11
252.72063801520789
 21
190.03734415694128
  0
LINE
  8
_7-1_
  6
CONTINUOUS
 62
    7
 10
255.47063710950538
 20
204.13734977174885
 11
252.72063707206615
 21
204.13734952007814
  0
LINE
  8
_7-1_
  6
CONTINUOUS
 62
    7
 10
255.47063562904739
 20
181.63734900051548
 11
252.72063559160815
 21
181.63734925218619
  0
LINE
  8
_7-1_
  6
CONTINUOUS
 62
    7
 10
252.72063707311866
 20
193.53735441203525
 11
252.72063707311866
 21
196.38734986985838
  0
ARC
  8
_7-1_
  6
CONTINUOUS
 62
    7
 10
157.22063498729207
 20
201.68733949680671
 40
0.25
 50
180
 51
270
  0
ARC
  8
_7-1_
  6
CONTINUOUS
 62
    7
 10
157.22063498729207
 20
199.08733949680669
 40
0.25
 50
90
 51
180
  0
LINE
  8
_7-1_
  6
CONTINUOUS
 62
    7
 10
157.22063498729207
 20
199.33733949680669
 11
158.97063522233906
 21
199.33733949680669
  0
ARC
  8
_7-1_
  6
CONTINUOUS
 62
    7
 10
158.97063522233906
 20
200.3873394968067
 40
1.0500000000000109
 50
270
 51
90
  0
LINE
  8
_7-1_
  6
CONTINUOUS
 62
    7
 10
158.97063522233906
 20
201.43733949680665
 11
157.22063498729207
 21
201.43733949680671
  0
LINE
  8
_7-1_
  6
CENTER2
 62
    7
 10
159.97063522233884
 20
200.3873394968067
 11
157.32677947593401
 21
200.3873394968067
  0
LINE
  8
_7-1_
  6
CENTER2
 62
    7
 10
158.97063522233889
 20
202.15964937673936
 11
158.97063522233889
 21
198.35270364560227
  0
ARC
  8
_7-1_
  6
CONTINUOUS
 62
    7
 10
158.47063498834447
 20
202.63733987055741
 40
1.5000000000000139
 50
90
 51
180
  0
LINE
  8
_7-1_
  6
CONTINUOUS
 62
    7
 10
156.97063498729212
 20
201.68733949680671
 11
156.97063498834447
 21
202.63733987055741
  0
ARC
  8
_7-1_
  6
CONTINUOUS
 62
    7
 10
157.22063646775004
 20
184.08733947307479
 40
0.25
 50
90
 51
180
  0
ARC
  8
_7-1_
  6
CONTINUOUS
 62
    7
 10
157.22063646775004
 20
186.68733947307481
 40
0.25
 50
180
 51
270
  0
LINE
  8
_7-1_
  6
CONTINUOUS
 62
    7
 10
157.22063646775004
 20
186.43733947307481
 11
158.97063670279706
 21
186.43733947307481
  0
ARC
  8
_7-1_
  6
CONTINUOUS
 62
    7
 10
158.97063670279706
 20
185.3873394730748
 40
1.0500000000000109
 50
270
 51
90
  0
LINE
  8
_7-1_
  6
CONTINUOUS
 62
    7
 10
158.97063670279706
 20
184.33733947307484
 11
157.22063646775004
 21
184.33733947307479
  0
LINE
  8
_7-1_
  6
CENTER2
 62
    7
 10
159.97063670279683
 20
185.3873394730748
 11
157.32678095639201
 21
185.3873394730748
  0
LINE
  8
_7-1_
  6
CENTER2
 62
    7
 10
158.97063670279689
 20
183.61502959314213
 11
158.97063670279689
 21
187.42197532427923
  0
ARC
  8
_7-1_
  6
CONTINUOUS
 62
    7
 10
158.47063646880243
 20
183.13733909932409
 40
1.5000000000000139
 50
180
 51
270
  0
LINE
  8
_7-1_
  6
CONTINUOUS
 62
    7
 10
156.97063646775009
 20
184.08733947307479
 11
156.97063646880243
 21
183.13733909932409
  0
LINE
  8
_7-1_
  6
CONTINUOUS
 62
    7
 10
95.827863083589193
 20
194.57484444900404
 11
95.827863083589193
 21
198.22956205819485
  0
ARC
  8
_7-1_
  6
CONTINUOUS
 62
    7
 10
157.22063498729207
 20
194.18733996866694
 40
0.25
 50
180
 51
270
  0
ARC
  8
_7-1_
  6
CONTINUOUS
 62
    7
 10
157.22063498729207
 20
191.58733996866692
 40
0.25
 50
90
 51
180
  0
LINE
  8
_7-1_
  6
CONTINUOUS
 62
    7
 10
157.22063498729207
 20
191.83733996866692
 11
158.97063522233906
 21
191.83733996866692
  0
ARC
  8
_7-1_
  6
CONTINUOUS
 62
    7
 10
158.97063522233906
 20
192.88733996866693
 40
1.0500000000000109
 50
270
 51
90
  0
LINE
  8
_7-1_
  6
CONTINUOUS
 62
    7
 10
158.97063522233906
 20
193.93733996866694
 11
157.22063498729207
 21
193.93733996866694
  0
LINE
  8
_7-1_
  6
CENTER2
 62
    7
 10
159.97063522233884
 20
192.88733996866693
 11
157.32677947593401
 21
192.88733996866693
  0
LINE
  8
_7-1_
  6
CENTER2
 62
    7
 10
158.97063522233889
 20
194.65964984859959
 11
158.97063522233889
 21
190.8527041174625
  0
LINE
  8
_7-1_
  6
CONTINUOUS
 62
    7
 10
156.97063498729198
 20
186.68733947307481
 11
156.97063498729212
 21
191.58733996866692
  0
LINE
  8
_7-1_
  6
CONTINUOUS
 62
    7
 10
156.97063498729212
 20
198.22956205819485
 11
156.97063498729212
 21
199.08733949680669
  0
LINE
  8
_7-1_
  6
CONTINUOUS
 62
    7
 10
156.97063498729212
 20
194.18733996866694
 11
156.97063498772138
 21
194.57484444900404
  0
LINE
  8
_7-1_
  6
CONTINUOUS
 62
    7
 10
162.2706350296755
 20
197.38734425528895
 11
162.02063501780119
 21
197.38734425528895
  0
LINE
  8
_7-1_
  6
CONTINUOUS
 62
    7
 10
162.2706350296755
 20
188.38734464271914
 11
162.02063501780102
 21
188.38734464271914
  0
LINE
  8
_7-1_
  6
CONTINUOUS
 62
    7
 10
158.47063498834447
 20
204.13733987055746
 11
161.22063506816718
 21
204.13733961888675
  0
LINE
  8
_7-1_
  6
CONTINUOUS
 62
    7
 10
162.02063501780119
 20
205.03734462632786
 11
162.2706350296755
 21
205.03734462632786
  0
LINE
  8
_7-1_
  6
CONTINUOUS
 62
    7
 10
161.15123672011296
 20
205.04235831108877
 11
161.22063506711467
 21
205.03744520916592
  0
ARC
  8
_7-1_
  6
CONTINUOUS
 62
    7
 10
161.17276311397532
 20
205.34639721380881
 40
0.3048000000005047
 50
199.56724636964329
 51
265.95013407182648
  0
LINE
  8
_7-1_
  6
CONTINUOUS
 62
    7
 10
160.78796564918215
 20
205.6045414946879
 11
160.88973743692233
 21
205.23317009880196
  0
LINE
  8
_7-1_
  6
CONTINUOUS
 62
    7
 10
161.22063506711467
 20
207.48724360688578
 11
161.15123672011296
 21
207.48233058691869
  0
LINE
  8
_7-1_
  6
CONTINUOUS
 62
    7
 10
161.15123672011296
 20
205.29235831108883
 11
161.22063506711467
 21
205.28744478448282
  0
ARC
  8
_7-1_
  6
CONTINUOUS
 62
    7
 10
161.17276311397532
 20
205.59639721380887
 40
0.3048000000005097
 50
199.56724636964329
 51
265.95013407182972
  0
ARC
  8
_7-1_
  6
CONTINUOUS
 62
    7
 10
161.17276311397532
 20
207.17829168419928
 40
0.3048000000005075
 50
94.049865928173531
 51
159.08816656003858
  0
LINE
  8
_7-1_
  6
CONTINUOUS
 62
    7
 10
160.78796564918215
 20
205.85454107000481
 11
160.88973743692233
 21
205.48317060544144
  0
LINE
  8
_7-1_
  6
CONTINUOUS
 62
    7
 10
160.88804005332511
 20
207.28708423327435
 11
160.78757542502333
 21
206.91964161320578
  0
LINE
  8
_7-1_
  6
CONTINUOUS
 62
    7
 10
162.2706350296755
 20
205.88734444900399
 11
162.02063502967556
 21
205.88734444900399
  0
LINE
  8
_7-1_
  6
CONTINUOUS
 62
    7
 10
162.2706350296755
 20
207.73734469636332
 11
162.02063501780119
 21
207.73734469636332
  0
LINE
  8
_7-1_
  6
CONTINUOUS
 62
    7
 10
162.2706350296755
 20
206.88734444900399
 11
162.02063502967556
 21
206.88734444900399
  0
LINE
  8
_7-1_
  6
CONTINUOUS
 62
    7
 10
161.2206350296756
 20
205.88734444900399
 11
162.02063502967556
 21
205.88734444900399
  0
LINE
  8
_7-1_
  6
CONTINUOUS
 62
    7
 10
161.2206350296756
 20
206.88734444900399
 11
162.02063502967556
 21
206.88734444900399
  0
LINE
  8
_7-1_
  6
CONTINUOUS
 62
    7
 10
162.02063502967556
 20
205.88734444900399
 11
162.02063502967556
 21
206.88734444900399
  0
LINE
  8
_7-1_
  6
CONTINUOUS
 62
    7
 10
161.2206350296756
 20
205.88734444900399
 11
161.2206350296756
 21
206.88734444900399
  0
LINE
  8
_7-1_
  6
CONTINUOUS
 62
    7
 10
161.2206350296756
 20
207.88734444900404
 11
162.02063502967556
 21
207.88734444900404
  0
LINE
  8
_7-1_
  6
CONTINUOUS
 62
    7
 10
162.02063502967556
 20
206.88734444900399
 11
162.02063502967556
 21
207.88734444900404
  0
LINE
  8
_7-1_
  6
CONTINUOUS
 62
    7
 10
161.2206350296756
 20
206.88734444900399
 11
161.2206350296756
 21
207.88734444900404
  0
LINE
  8
_7-1_
  6
CONTINUOUS
 62
    7
 10
161.2206350296756
 20
204.88734444900399
 11
162.02063502967556
 21
204.88734444900399
  0
LINE
  8
_7-1_
  6
CONTINUOUS
 62
    7
 10
162.02063502967556
 20
204.88734444900399
 11
162.02063502967556
 21
205.88734444900399
  0
LINE
  8
_7-1_
  6
CONTINUOUS
 62
    7
 10
161.2206350296756
 20
204.88734444900399
 11
161.2206350296756
 21
205.88734444900399
  0
LINE
  8
_7-1_
  6
CONTINUOUS
 62
    7
 10
160.77099287733634
 20
205.60051352455269
 11
160.76892371140624
 21
205.59931956901203
  0
LINE
  8
_7-1_
  6
CONTINUOUS
 62
    7
 10
160.76892371140624
 20
205.59931956901203
 11
160.76893733199889
 21
205.59932701959263
  0
LINE
  8
_7-1_
  6
CONTINUOUS
 62
    7
 10
160.67887902111002
 20
206.0408242113794
 11
160.71737128161086
 21
205.81975151523005
  0
LINE
  8
_7-1_
  6
CONTINUOUS
 62
    7
 10
160.71737128161086
 20
205.81975151523005
 11
160.77099252809037
 21
205.60051538719784
  0
LINE
  8
_7-1_
  6
CONTINUOUS
 62
    7
 10
160.72441603839595
 20
206.0408242113794
 11
160.67887902111002
 21
206.0408242113794
  0
LINE
  8
_7-1_
  6
CONTINUOUS
 62
    7
 10
160.72441603839595
 20
206.4838646046723
 11
160.71760632414563
 21
206.45604041143309
  0
LINE
  8
_7-1_
  6
CONTINUOUS
 62
    7
 10
160.71760632414563
 20
206.45604041143309
 11
160.68880773466284
 21
206.29082471801888
  0
LINE
  8
_7-1_
  6
CONTINUOUS
 62
    7
 10
160.67887902111002
 20
206.0408242113794
 11
160.72441603839595
 21
206.0408242113794
  0
LINE
  8
_7-1_
  6
CONTINUOUS
 62
    7
 10
160.88804005332511
 20
207.28708423327435
 11
160.88804005332511
 21
206.38734444900404
  0
LINE
  8
_7-1_
  6
CONTINUOUS
 62
    7
 10
160.77099299375171
 20
206.2908237866963
 11
160.7689236597736
 21
206.38734444900404
  0
LINE
  8
_7-1_
  6
CONTINUOUS
 62
    7
 10
160.77099287733634
 20
205.85051403119217
 11
160.76892371140624
 21
205.84931914432894
  0
LINE
  8
_7-1_
  6
CONTINUOUS
 62
    7
 10
160.76892371140624
 20
205.84931914432894
 11
160.76893733199889
 21
205.84932659490954
  0
LINE
  8
_7-1_
  6
CONTINUOUS
 62
    7
 10
160.67887902111002
 20
206.29082471801888
 11
160.71737128161086
 21
206.06975202186953
  0
LINE
  8
_7-1_
  6
CONTINUOUS
 62
    7
 10
160.71737128161086
 20
206.06975202186953
 11
160.77099252809037
 21
205.85051496251475
  0
LINE
  8
_7-1_
  6
CONTINUOUS
 62
    7
 10
160.77099287733634
 20
206.29082471801888
 11
160.67887902111002
 21
206.29082471801888
  0
LINE
  8
_7-1_
  6
CONTINUOUS
 62
    7
 10
160.7689236597736
 20
206.38734444900404
 11
160.77099299375171
 21
206.2908237866963
  0
LINE
  8
_7-1_
  6
CONTINUOUS
 62
    7
 10
160.88804005332511
 20
206.38734444900404
 11
160.7689236597736
 21
206.38734444900404
  0
LINE
  8
_7-1_
  6
CONTINUOUS
 62
    7
 10
160.77099299375171
 20
206.48386553599488
 11
160.7689236597736
 21
206.38734444900404
  0
LINE
  8
_7-1_
  6
CONTINUOUS
 62
    7
 10
160.67887902111002
 20
206.4838646046723
 11
160.77099299375171
 21
206.4838646046723
  0
LINE
  8
_7-1_
  6
CONTINUOUS
 62
    7
 10
160.77099252809037
 20
206.92417342885386
 11
160.71760632414563
 21
206.70604091807257
  0
LINE
  8
_7-1_
  6
CONTINUOUS
 62
    7
 10
160.71760632414563
 20
206.70604091807257
 11
160.67887902111002
 21
206.4838646046723
  0
LINE
  8
_7-1_
  6
CONTINUOUS
 62
    7
 10
160.77099299375171
 20
206.4838646046723
 11
160.67887902111002
 21
206.4838646046723
  0
LINE
  8
_7-1_
  6
CONTINUOUS
 62
    7
 10
160.67887902111002
 20
206.29082471801888
 11
160.77099299375171
 21
206.2908237866963
  0
LINE
  8
_7-1_
  6
CONTINUOUS
 62
    7
 10
162.2706350296755
 20
205.88734444900399
 11
162.2706350296755
 21
204.88734444900399
  0
LINE
  8
_7-1_
  6
CONTINUOUS
 62
    7
 10
162.2706350296755
 20
205.88734444900399
 11
162.2706350296755
 21
206.88734444900399
  0
LINE
  8
_7-1_
  6
CONTINUOUS
 62
    7
 10
162.2706350296755
 20
206.88734444900399
 11
162.2706350296755
 21
207.88734444900404
  0
LINE
  8
_7-1_
  6
CONTINUOUS
 62
    7
 10
161.15123672011296
 20
205.29235831108883
 11
161.15123672011296
 21
205.04235831108877
  0
LINE
  8
_7-1_
  6
CONTINUOUS
 62
    7
 10
161.15123672011296
 20
206.38734444900404
 11
161.15123672011296
 21
205.29235831108883
  0
LINE
  8
_7-1_
  6
CONTINUOUS
 62
    7
 10
161.15123672011296
 20
207.48233058691869
 11
161.15123672011296
 21
206.38734444900404
  0
LINE
  8
_7-1_
  6
CONTINUOUS
 62
    7
 10
162.2706350296755
 20
180.73734427168022
 11
162.02063501780102
 21
180.73734427168022
  0
LINE
  8
_7-1_
  6
CONTINUOUS
 62
    7
 10
161.22063506711467
 20
180.73724368884217
 11
161.15123672011279
 21
180.73233058691926
  0
ARC
  8
_7-1_
  6
CONTINUOUS
 62
    7
 10
161.17276311397515
 20
180.42829168419922
 40
0.304800000000506
 50
94.049865928173531
 51
159.08816656003858
  0
LINE
  8
_7-1_
  6
CONTINUOUS
 62
    7
 10
160.88804005332494
 20
180.53708423327429
 11
160.78757542502316
 21
180.16964076383959
  0
LINE
  8
_7-1_
  6
CONTINUOUS
 62
    7
 10
161.22063506711467
 20
180.4872441135252
 11
161.15123672011296
 21
180.48233058691931
  0
LINE
  8
_7-1_
  6
CONTINUOUS
 62
    7
 10
161.15123672011279
 20
178.29235831108945
 11
161.22063506711467
 21
178.28744529112231
  0
ARC
  8
_7-1_
  6
CONTINUOUS
 62
    7
 10
161.17276311397532
 20
178.59639721380892
 40
0.3048000000005047
 50
199.56724636964329
 51
265.95013407182648
  0
ARC
  8
_7-1_
  6
CONTINUOUS
 62
    7
 10
161.17276311397532
 20
180.17829168419928
 40
0.3048000000005142
 50
94.049865928173531
 51
159.08816656003858
  0
LINE
  8
_7-1_
  6
CONTINUOUS
 62
    7
 10
160.78796564918198
 20
178.85454064532171
 11
160.88973743692233
 21
178.48317018075829
  0
LINE
  8
_7-1_
  6
CONTINUOUS
 62
    7
 10
160.88804005332494
 20
180.28708423327429
 11
160.78757542502316
 21
179.91964118852268
  0
LINE
  8
_7-1_
  6
CONTINUOUS
 62
    7
 10
162.2706350296755
 20
178.88734444900404
 11
162.02063502967538
 21
178.88734444900404
  0
LINE
  8
_7-1_
  6
CONTINUOUS
 62
    7
 10
162.2706350296755
 20
178.03734420164477
 11
162.02063501780102
 21
178.03734420164477
  0
LINE
  8
_7-1_
  6
CONTINUOUS
 62
    7
 10
162.2706350296755
 20
179.88734444900404
 11
162.02063502967538
 21
179.88734444900404
  0
LINE
  8
_7-1_
  6
CONTINUOUS
 62
    7
 10
161.22063502967543
 20
179.88734444900404
 11
162.02063502967538
 21
179.88734444900404
  0
LINE
  8
_7-1_
  6
CONTINUOUS
 62
    7
 10
161.22063502967543
 20
179.88734444900404
 11
161.22063502967543
 21
180.88734444900404
  0
LINE
  8
_7-1_
  6
CONTINUOUS
 62
    7
 10
161.22063502967543
 20
180.88734444900404
 11
162.02063502967538
 21
180.88734444900404
  0
LINE
  8
_7-1_
  6
CONTINUOUS
 62
    7
 10
162.02063502967538
 20
179.88734444900404
 11
162.02063502967538
 21
180.88734444900404
  0
LINE
  8
_7-1_
  6
CONTINUOUS
 62
    7
 10
161.22063502967543
 20
178.88734444900404
 11
162.02063502967538
 21
178.88734444900404
  0
LINE
  8
_7-1_
  6
CONTINUOUS
 62
    7
 10
162.02063502967538
 20
178.88734444900404
 11
162.02063502967538
 21
179.88734444900404
  0
LINE
  8
_7-1_
  6
CONTINUOUS
 62
    7
 10
161.22063502967543
 20
178.88734444900404
 11
161.22063502967543
 21
179.88734444900404
  0
LINE
  8
_7-1_
  6
CONTINUOUS
 62
    7
 10
161.22063502967543
 20
177.88734444900404
 11
162.02063502967538
 21
177.88734444900404
  0
LINE
  8
_7-1_
  6
CONTINUOUS
 62
    7
 10
162.02063502967538
 20
177.88734444900404
 11
162.02063502967538
 21
178.88734444900404
  0
LINE
  8
_7-1_
  6
CONTINUOUS
 62
    7
 10
161.22063502967543
 20
177.88734444900404
 11
161.22063502967543
 21
178.88734444900404
  0
LINE
  8
_7-1_
  6
CONTINUOUS
 62
    7
 10
160.88804005332494
 20
180.53708423327429
 11
160.88804005332494
 21
180.29645848436734
  0
LINE
  8
_7-1_
  6
CONTINUOUS
 62
    7
 10
160.68879667520715
 20
179.48386417998921
 11
160.71737128161086
 21
179.31975210382591
  0
LINE
  8
_7-1_
  6
CONTINUOUS
 62
    7
 10
160.71737128161086
 20
179.31975210382591
 11
160.72444642279478
 21
179.29082429333578
  0
LINE
  8
_7-1_
  6
CONTINUOUS
 62
    7
 10
160.67887902111002
 20
179.73386468662869
 11
160.72441603839578
 21
179.73386468662869
  0
LINE
  8
_7-1_
  6
CONTINUOUS
 62
    7
 10
160.77099252809037
 20
180.17417351081024
 11
160.71760632414563
 21
179.95604006870638
  0
LINE
  8
_7-1_
  6
CONTINUOUS
 62
    7
 10
160.71760632414563
 20
179.95604006870638
 11
160.67887902111002
 21
179.73386468662869
  0
LINE
  8
_7-1_
  6
CONTINUOUS
 62
    7
 10
160.72441603839578
 20
179.73386468662869
 11
160.67887902111002
 21
179.73386468662869
  0
LINE
  8
_7-1_
  6
CONTINUOUS
 62
    7
 10
160.88804005332494
 20
180.28708423327429
 11
160.88804005332494
 21
179.3873444490041
  0
LINE
  8
_7-1_
  6
CONTINUOUS
 62
    7
 10
160.77099299375154
 20
179.29082336201321
 11
160.76892365977343
 21
179.3873444490041
  0
LINE
  8
_7-1_
  6
CONTINUOUS
 62
    7
 10
160.77099287733616
 20
178.85051360650908
 11
160.76892371140607
 21
178.84931965096842
  0
LINE
  8
_7-1_
  6
CONTINUOUS
 62
    7
 10
160.76892371140607
 20
178.84931965096842
 11
160.76893733199872
 21
178.84932710154902
  0
LINE
  8
_7-1_
  6
CONTINUOUS
 62
    7
 10
160.67887902111002
 20
179.29082429333578
 11
160.71737128161086
 21
179.06975252850895
  0
LINE
  8
_7-1_
  6
CONTINUOUS
 62
    7
 10
160.71737128161086
 20
179.06975252850895
 11
160.77099252809037
 21
178.85051546915423
  0
LINE
  8
_7-1_
  6
CONTINUOUS
 62
    7
 10
160.77099287733616
 20
179.29082429333578
 11
160.67887902111002
 21
179.29082429333578
  0
LINE
  8
_7-1_
  6
CONTINUOUS
 62
    7
 10
160.76892365977343
 20
179.3873444490041
 11
160.77099299375154
 21
179.29082336201321
  0
LINE
  8
_7-1_
  6
CONTINUOUS
 62
    7
 10
160.88804005332494
 20
179.3873444490041
 11
160.76892365977343
 21
179.3873444490041
  0
LINE
  8
_7-1_
  6
CONTINUOUS
 62
    7
 10
160.77099299375154
 20
179.48386511131178
 11
160.76892365977343
 21
179.3873444490041
  0
LINE
  8
_7-1_
  6
CONTINUOUS
 62
    7
 10
160.67887902111002
 20
179.48386417998921
 11
160.77099299375154
 21
179.48386417998921
  0
LINE
  8
_7-1_
  6
CONTINUOUS
 62
    7
 10
160.77099252809037
 20
179.92417393549334
 11
160.71760632414563
 21
179.70604049338948
  0
LINE
  8
_7-1_
  6
CONTINUOUS
 62
    7
 10
160.71760632414563
 20
179.70604049338948
 11
160.67887902111002
 21
179.48386417998921
  0
LINE
  8
_7-1_
  6
CONTINUOUS
 62
    7
 10
160.77099299375154
 20
179.48386417998921
 11
160.67887902111002
 21
179.48386417998921
  0
LINE
  8
_7-1_
  6
CONTINUOUS
 62
    7
 10
160.67887902111002
 20
179.29082429333578
 11
160.77099299375154
 21
179.29082429333578
  0
LINE
  8
_7-1_
  6
CONTINUOUS
 62
    7
 10
162.2706350296755
 20
180.88734444900404
 11
162.2706350296755
 21
179.88734444900404
  0
LINE
  8
_7-1_
  6
CONTINUOUS
 62
    7
 10
162.2706350296755
 20
178.88734444900404
 11
162.2706350296755
 21
179.88734444900404
  0
LINE
  8
_7-1_
  6
CONTINUOUS
 62
    7
 10
162.2706350296755
 20
177.88734444900404
 11
162.2706350296755
 21
178.88734444900404
  0
LINE
  8
_7-1_
  6
CONTINUOUS
 62
    7
 10
161.15123672011279
 20
180.73233058691926
 11
161.15123672011296
 21
180.48233058691931
  0
LINE
  8
_7-1_
  6
CONTINUOUS
 62
    7
 10
161.15123672011279
 20
179.3873444490041
 11
161.15123672011279
 21
178.29235831108945
  0
LINE
  8
_7-1_
  6
CONTINUOUS
 62
    7
 10
161.15123672011296
 20
180.48233058691931
 11
161.15123672011279
 21
179.3873444490041
  0
LINE
  8
_7-1_
  6
CONTINUOUS
 62
    7
 10
162.2706350296755
 20
204.88734444900399
 11
162.2706350296755
 21
180.88734444900404
  0
LINE
  8
_7-1_
  6
CONTINUOUS
 62
    7
 10
162.27063651013347
 20
188.38733471459255
 11
162.02063649825916
 21
188.38733471459255
  0
LINE
  8
_7-1_
  6
CONTINUOUS
 62
    7
 10
158.47063646880243
 20
181.63733909932403
 11
161.22063654862515
 21
181.63733935099475
  0
LINE
  8
_7-1_
  6
CONTINUOUS
 62
    7
 10
162.02063502967538
 20
180.88734444900404
 11
162.02063502967561
 21
192.88733996866693
  0
LINE
  8
_7-1_
  6
CONTINUOUS
 62
    7
 10
162.02063502967556
 20
192.88733996866693
 11
162.02063502967556
 21
204.88734444900399
  0
LINE
  8
_7-1_
  6
CONTINUOUS
 62
    7
 10
161.22063506711467
 20
195.01234445459198
 11
161.2206350296756
 21
204.88734444900399
  0
LINE
  8
_7-1_
  6
CONTINUOUS
 62
    7
 10
159.87063502967546
 20
194.57484444900404
 11
95.827863083589193
 21
194.57484444900404
  0
LINE
  8
_7-1_
  6
CONTINUOUS
 62
    7
 10
95.827863083589193
 20
198.22956205819485
 11
159.87063502967546
 21
198.22956205819485
  0
LINE
  8
_7-1_
  6
CONTINUOUS
 62
    7
 10
159.87063502967546
 20
198.22956205819485
 11
159.87063502967546
 21
194.57484444900404
  0
LINE
  8
_7-1_
  6
CONTINUOUS
 62
    7
 10
161.22063506711467
 20
193.53734451084386
 11
160.62063502967546
 21
193.53734444900402
  0
ARC
  8
_7-1_
  6
CONTINUOUS
 62
    7
 10
160.62063502967546
 20
194.28734444900402
 40
0.75
 50
180
 51
270
  0
LINE
  8
_7-1_
  6
CONTINUOUS
 62
    7
 10
161.22063506711467
 20
193.53734451084386
 11
161.22063506711467
 21
196.38733996866693
  0
LINE
  8
_7-1_
  6
CONTINUOUS
 62
    7
 10
161.22063506711467
 20
196.38733996866693
 11
161.22063506711467
 21
199.23734438716422
  0
LINE
  8
_7-1_
  6
CONTINUOUS
 62
    7
 10
161.22063506711467
 20
199.23734438716422
 11
160.62063502967546
 21
199.23734444900406
  0
ARC
  8
_7-1_
  6
CONTINUOUS
 62
    7
 10
160.62063502967546
 20
198.48734444900395
 40
0.7500000000000139
 50
90
 51
180
  0
LINE
  8
_7-1_
  6
CONTINUOUS
 62
    7
 10
159.87063502967546
 20
194.28734444900402
 11
159.87063502967546
 21
198.48734444900395
  0
LINE
  8
_7-1_
  6
CONTINUOUS
 62
    7
 10
161.22063502967543
 20
180.88734444900404
 11
161.22063507763556
 21
193.53734451084386
  0
LINE
  8
_7-1_
  6
CONTINUOUS
 62
    7
 10
251.67063498729203
 20
206.88734444900399
 11
162.2706350296755
 21
206.88734444900399
  0
LINE
  8
_7-1_
  6
CONTINUOUS
 62
    7
 10
251.67063498729203
 20
205.88734444900399
 11
162.2706350296755
 21
205.88734444900387
  0
LINE
  8
_7-1_
  6
CONTINUOUS
 62
    7
 10
251.67063498729203
 20
204.88734444900399
 11
162.2706350296755
 21
204.88734444900399
  0
LINE
  8
_7-1_
  6
CONTINUOUS
 62
    7
 10
162.2706350296755
 20
207.88734444900404
 11
251.67063498729203
 21
207.88734444900404
  0
LINE
  8
_7-1_
  6
CONTINUOUS
 62
    7
 10
162.2706350296755
 20
178.88734444900404
 11
251.67063498729186
 21
178.88734444900404
  0
LINE
  8
_7-1_
  6
CONTINUOUS
 62
    7
 10
251.67063498729186
 20
179.88734444900404
 11
162.2706350296755
 21
179.88734444900404
  0
LINE
  8
_7-1_
  6
CONTINUOUS
 62
    7
 10
251.67063498729186
 20
180.88734444900404
 11
162.2706350296755
 21
180.88734444900404
  0
LINE
  8
_7-1_
  6
CONTINUOUS
 62
    7
 10
251.67063498729186
 20
177.88734444900404
 11
162.2706350296755
 21
177.88734444900404
  0
LINE
  8
_7-1_
  6
CONTINUOUS
 62
    7
 10
89.524315487035721
 20
196.15845509179962
 11
86.372541688759042
 21
196.15845509179962
  0
LINE
  8
_7-1_
  6
CONTINUOUS
 62
    7
 10
86.372541688759042
 20
196.15845509179962
 11
86.372541688759042
 21
196.76264057358525
  0
LINE
  8
_7-1_
  6
CONTINUOUS
 62
    7
 10
86.372541688759042
 20
196.76264057358525
 11
89.524315487035721
 21
196.76264057358525
  0
LINE
  8
_7-1_
  6
CONTINUOUS
 62
    7
 10
89.524315487035721
 20
196.76264057358525
 11
89.524315487035721
 21
196.15845509179962
  0
LINE
  8
_7-1_
  6
CONTINUOUS
 62
    7
 10
89.524315487035721
 20
194.95472926447592
 11
86.372541688759042
 21
194.95472926447592
  0
LINE
  8
_7-1_
  6
CONTINUOUS
 62
    7
 10
86.372541688759042
 20
194.95472926447592
 11
86.372541688759042
 21
195.5589147462615
  0
LINE
  8
_7-1_
  6
CONTINUOUS
 62
    7
 10
86.372541688759042
 20
195.5589147462615
 11
89.524315487035721
 21
195.5589147462615
  0
LINE
  8
_7-1_
  6
CONTINUOUS
 62
    7
 10
89.524315487035721
 20
195.5589147462615
 11
89.524315487035721
 21
194.95472926447592
  0
LINE
  8
_7-1_
  6
CONTINUOUS
 62
    7
 10
95.827863083589193
 20
196.15845509179962
 11
89.524315487035721
 21
196.15845509179962
  0
LINE
  8
_7-1_
  6
CONTINUOUS
 62
    7
 10
89.524315487035721
 20
196.15845509179962
 11
89.524315487035721
 21
196.76264057358525
  0
LINE
  8
_7-1_
  6
CONTINUOUS
 62
    7
 10
89.524315487035721
 20
196.76264057358525
 11
95.827863083589193
 21
196.76264057358525
  0
LINE
  8
_7-1_
  6
CONTINUOUS
 62
    7
 10
95.827863083589193
 20
196.76264057358525
 11
95.827863083589193
 21
196.15845509179962
  0
LINE
  8
_7-1_
  6
CONTINUOUS
 62
    7
 10
95.827863083589193
 20
194.95472926447592
 11
89.524315487035721
 21
194.95472926447592
  0
LINE
  8
_7-1_
  6
CONTINUOUS
 62
    7
 10
89.524315487035721
 20
194.95472926447592
 11
89.524315487035721
 21
195.5589147462615
  0
LINE
  8
_7-1_
  6
CONTINUOUS
 62
    7
 10
89.524315487035721
 20
195.5589147462615
 11
95.827863083589193
 21
195.5589147462615
  0
LINE
  8
_7-1_
  6
CONTINUOUS
 62
    7
 10
95.827863083589193
 20
195.5589147462615
 11
95.827863083589193
 21
194.95472926447592
  0
LINE
  8
_7-1_
  6
CONTINUOUS
 62
    7
 10
95.827863083589193
 20
197.38004188111671
 11
89.524315487035721
 21
197.38004188111671
  0
LINE
  8
_7-1_
  6
CONTINUOUS
 62
    7
 10
89.524315487035721
 20
197.38004188111671
 11
89.524315487035721
 21
197.98422736290234
  0
LINE
  8
_7-1_
  6
CONTINUOUS
 62
    7
 10
89.524315487035721
 20
197.98422736290234
 11
95.827863083589193
 21
197.98422736290234
  0
LINE
  8
_7-1_
  6
CONTINUOUS
 62
    7
 10
95.827863083589193
 20
197.98422736290234
 11
95.827863083589193
 21
197.38004188111671
  0
LINE
  8
_7-1_
  6
CONTINUOUS
 62
    7
 10
89.524315487035721
 20
197.38004188111671
 11
86.372541688759042
 21
197.38004188111671
  0
LINE
  8
_7-1_
  6
CONTINUOUS
 62
    7
 10
86.372541688759042
 20
197.38004188111671
 11
86.372541688759042
 21
197.98422736290234
  0
LINE
  8
_7-1_
  6
CONTINUOUS
 62
    7
 10
86.372541688759042
 20
197.98422736290234
 11
89.524315487035721
 21
197.98422736290234
  0
LINE
  8
_7-1_
  6
CONTINUOUS
 62
    7
 10
89.524315487035721
 20
197.98422736290234
 11
89.524315487035721
 21
197.38004188111671
  0
LINE
  8
_7-1_
  6
CONTINUOUS
 62
    7
 10
254.07063498729189
 20
187.55998564440858
 11
254.07063498729189
 21
191.21470325359945
  0
LINE
  8
_7-1_
  6
CONTINUOUS
 62
    7
 10
324.58786580341239
 20
188.52376193280156
 11
327.73963960168907
 21
188.52376193280156
  0
LINE
  8
_7-1_
  6
CONTINUOUS
 62
    7
 10
327.73963960168907
 20
188.52376193280156
 11
327.73963960168907
 21
189.12794741458716
  0
LINE
  8
_7-1_
  6
CONTINUOUS
 62
    7
 10
327.73963960168907
 20
189.12794741458716
 11
324.58786580341239
 21
189.12794741458716
  0
LINE
  8
_7-1_
  6
CONTINUOUS
 62
    7
 10
324.58786580341239
 20
189.12794741458716
 11
324.58786580341239
 21
188.52376193280156
  0
LINE
  8
_7-1_
  6
CONTINUOUS
 62
    7
 10
318.28431820685892
 20
188.52376193280156
 11
324.58786580341239
 21
188.52376193280156
  0
LINE
  8
_7-1_
  6
CONTINUOUS
 62
    7
 10
324.58786580341239
 20
188.52376193280156
 11
324.58786580341239
 21
189.12794741458716
  0
LINE
  8
_7-1_
  6
CONTINUOUS
 62
    7
 10
324.58786580341239
 20
189.12794741458716
 11
318.28431820685892
 21
189.12794741458716
  0
LINE
  8
_7-1_
  6
CONTINUOUS
 62
    7
 10
318.28431820685892
 20
189.12794741458716
 11
318.28431820685892
 21
188.52376193280156
  0
LINE
  8
_7-1_
  6
CONTINUOUS
 62
    7
 10
318.28431820685892
 20
189.74534872211862
 11
324.58786580341239
 21
189.74534872211862
  0
LINE
  8
_7-1_
  6
CONTINUOUS
 62
    7
 10
324.58786580341239
 20
189.74534872211862
 11
324.58786580341239
 21
190.34953420390428
  0
LINE
  8
_7-1_
  6
CONTINUOUS
 62
    7
 10
324.58786580341239
 20
190.34953420390428
 11
318.28431820685892
 21
190.34953420390428
  0
LINE
  8
_7-1_
  6
CONTINUOUS
 62
    7
 10
318.28431820685892
 20
190.34953420390428
 11
318.28431820685892
 21
189.74534872211862
  0
LINE
  8
_7-1_
  6
CONTINUOUS
 62
    7
 10
324.58786580341239
 20
189.74534872211862
 11
327.73963960168907
 21
189.74534872211862
  0
LINE
  8
_7-1_
  6
CONTINUOUS
 62
    7
 10
327.73963960168907
 20
189.74534872211862
 11
327.73963960168907
 21
190.34953420390428
  0
LINE
  8
_7-1_
  6
CONTINUOUS
 62
    7
 10
327.73963960168907
 20
190.34953420390428
 11
324.58786580341239
 21
190.34953420390428
  0
LINE
  8
_7-1_
  6
CONTINUOUS
 62
    7
 10
324.58786580341239
 20
190.34953420390428
 11
324.58786580341239
 21
189.74534872211862
  0
LINE
  8
_7-1_
  6
CONTINUOUS
 62
    7
 10
318.28431820685892
 20
187.55998564440858
 11
254.07063498729189
 21
187.55998564440858
  0
LINE
  8
_7-1_
  6
CONTINUOUS
 62
    7
 10
254.07063498729189
 20
191.21470325359945
 11
318.28431820685892
 21
191.21470325359945
  0
LINE
  8
_7-1_
  6
CONTINUOUS
 62
    7
 10
318.28431820685892
 20
187.55998564440858
 11
318.28431820685892
 21
191.21470325359945
  0
ARC
  8
_7-1_
  6
CONTINUOUS
 62
    2
 10
227.70784274770295
 20
124.18588999879156
 40
0.1250000000000164
 50
119.99999999999563
 51
299.99999999999562
  0
LINE
  8
_7-1_
  6
CONTINUOUS
 62
    2
 10
227.77034274770289
 20
124.07763682331849
 11
227.64534274770284
 21
124.29414317426463
  0
ARC
  8
_7-1_
  6
CONTINUOUS
 62
    2
 10
224.61796166459976
 20
136.20470223638056
 40
0.1250000000000021
 50
119.99999999998439
 51
299.99999999998436
  0
LINE
  8
_7-1_
  6
CONTINUOUS
 62
    2
 10
224.6804616645997
 20
136.0964490609075
 11
224.55546166459981
 21
136.31295541185363
  0
LINE
  8
_7-1_
  6
CONTINUOUS
 62
    7
 10
252.72063498729193
 20
122.67261993758938
 11
251.9206349872918
 21
122.67261993758938
  0
LINE
  8
_7-1_
  6
CONTINUOUS
 62
    7
 10
252.72063498729193
 20
121.67261993758938
 11
251.9206349872918
 21
121.67261993758938
  0
LINE
  8
_7-1_
  6
CONTINUOUS
 62
    7
 10
251.9206349872918
 20
122.67261993758938
 11
251.9206349872918
 21
121.67261993758938
  0
LINE
  8
_7-1_
  6
CONTINUOUS
 62
    7
 10
252.72063498729193
 20
122.67261993758938
 11
252.72063498729193
 21
121.67261993758938
  0
LINE
  8
_7-1_
  6
CONTINUOUS
 62
    7
 10
251.67063498729186
 20
122.67261993758938
 11
251.67063498729186
 21
121.67261993758938
  0
LINE
  8
_7-1_
  6
CONTINUOUS
 62
    7
 10
251.9206349872918
 20
122.67261993758938
 11
251.67063498729186
 21
122.67261993758938
  0
LINE
  8
_7-1_
  6
CONTINUOUS
 62
    7
 10
251.9206349872918
 20
121.82261994471409
 11
251.67063497541749
 21
121.82261994471409
  0
LINE
  8
_7-1_
  6
CONTINUOUS
 62
    7
 10
252.72063494985269
 20
124.52251963563827
 11
252.7900332968544
 21
124.51760607550397
  0
LINE
  8
_7-1_
  6
CONTINUOUS
 62
    7
 10
252.7900332968544
 20
122.32763379967417
 11
252.72063494985269
 21
122.3227202893664
  0
ARC
  8
_7-1_
  6
CONTINUOUS
 62
    7
 10
252.76850690299204
 20
122.63167270239424
 40
0.3048000000005051
 50
274.04986592817027
 51
339.0881665600387
  0
LINE
  8
_7-1_
  6
CONTINUOUS
 62
    7
 10
253.17831107740573
 20
122.92685742736429
 11
253.17643283260338
 21
122.91860567652253
  0
LINE
  8
_7-1_
  6
CONTINUOUS
 62
    7
 10
253.17643283260338
 20
122.91860567652253
 11
253.05153258004503
 21
122.53225418985454
  0
LINE
  8
_7-1_
  6
CONTINUOUS
 62
    7
 10
253.21727190957687
 20
123.09802671675203
 11
253.17831107740573
 21
122.92685742736429
  0
LINE
  8
_7-1_
  6
CONTINUOUS
 62
    7
 10
253.21728622866129
 20
123.09779505026159
 11
253.17838686378007
 21
122.92664648280114
  0
LINE
  8
_7-1_
  6
CONTINUOUS
 62
    7
 10
253.05322996364225
 20
122.52288015331907
 11
253.05322996364225
 21
122.53703746572648
  0
LINE
  8
_7-1_
  6
CONTINUOUS
 62
    7
 10
253.17027702321564
 20
122.88578936145273
 11
253.17234630556129
 21
122.88459459100482
  0
LINE
  8
_7-1_
  6
CONTINUOUS
 62
    7
 10
253.26239099585717
 20
123.32610016469479
 11
253.22389861894112
 21
123.10502677005348
  0
LINE
  8
_7-1_
  6
CONTINUOUS
 62
    7
 10
253.22389861894112
 20
123.10502677005348
 11
253.22190919750653
 21
123.09689248227149
  0
LINE
  8
_7-1_
  6
CONTINUOUS
 62
    7
 10
253.17027748887699
 20
123.32609993186414
 11
253.26239087944196
 21
123.32609993186414
  0
LINE
  8
_7-1_
  6
CONTINUOUS
 62
    7
 10
253.17027713963102
 20
123.5191395856869
 11
253.17234630556129
 21
123.42261463650135
  0
LINE
  8
_7-1_
  6
CONTINUOUS
 62
    7
 10
253.17234630556129
 20
123.42261463650135
 11
253.17027713963102
 21
123.32610039752543
  0
LINE
  8
_7-1_
  6
CONTINUOUS
 62
    7
 10
253.26239099585717
 20
123.51913993493289
 11
253.17027748887699
 21
123.51913993493289
  0
LINE
  8
_7-1_
  6
CONTINUOUS
 62
    7
 10
253.17027713963102
 20
123.9594506217596
 11
253.22366357640635
 21
123.74131601550249
  0
LINE
  8
_7-1_
  6
CONTINUOUS
 62
    7
 10
253.22366357640635
 20
123.74131601550249
 11
253.26239099585717
 21
123.51913970210225
  0
ARC
  8
_7-1_
  6
CONTINUOUS
 62
    7
 10
249.25694529020586
 20
122.87173272748034
 40
4.0639999998782272
 50
15.541785398415729
 51
20.912734064235191
  0
LINE
  8
_7-1_
  6
CONTINUOUS
 62
    7
 10
253.17027702321564
 20
122.88578924503744
 11
253.22188800991784
 21
123.09666873202294
  0
LINE
  8
_7-1_
  6
CONTINUOUS
 62
    7
 10
253.17027713963102
 20
123.32609993186414
 11
253.26239099585717
 21
123.32610004827944
  0
LINE
  8
_7-1_
  6
CONTINUOUS
 62
    7
 10
253.17027713963102
 20
123.51913981851754
 11
253.26239099585717
 21
123.51913981851754
  0
LINE
  8
_7-1_
  6
CONTINUOUS
 62
    7
 10
252.7900332968544
 20
124.51760607550397
 11
252.7900332968544
 21
122.32763379967417
  0
LINE
  8
_7-1_
  6
CONTINUOUS
 62
    7
 10
252.72063498729193
 20
137.67261993758944
 11
251.9206349872918
 21
137.67261993758944
  0
LINE
  8
_7-1_
  6
CONTINUOUS
 62
    7
 10
251.9206349872918
 20
137.67261993758944
 11
251.9206349872918
 21
122.67261993758938
  0
LINE
  8
_7-1_
  6
CONTINUOUS
 62
    7
 10
252.72063498729193
 20
137.67261993758944
 11
252.72063498729193
 21
122.67261993758938
  0
LINE
  8
_7-1_
  6
CONTINUOUS
 62
    7
 10
252.72063498729193
 20
138.67261993758944
 11
251.9206349872918
 21
138.67261993758944
  0
LINE
  8
_7-1_
  6
CONTINUOUS
 62
    7
 10
251.9206349872918
 20
138.67261993758944
 11
251.9206349872918
 21
137.67261993758944
  0
LINE
  8
_7-1_
  6
CONTINUOUS
 62
    7
 10
252.72063498729193
 20
138.67261993758944
 11
252.72063498729193
 21
137.67261993758944
  0
LINE
  8
_7-1_
  6
CONTINUOUS
 62
    7
 10
253.17929107282776
 20
137.67261993758938
 11
253.32063498729189
 21
137.67261993758938
  0
LINE
  8
_7-1_
  6
CONTINUOUS
 62
    7
 10
251.67063498729186
 20
138.67261993758938
 11
251.67063498729186
 21
137.67261993758938
  0
LINE
  8
_7-1_
  6
CONTINUOUS
 62
    7
 10
251.67063498729186
 20
122.67261993758938
 11
251.67063498729186
 21
123.69979797571991
  0
LINE
  8
_7-1_
  6
CONTINUOUS
 62
    7
 10
251.67063498729186
 20
123.9289267604677
 11
251.67063498729186
 21
123.69979797571991
  0
LINE
  8
_7-1_
  6
CONTINUOUS
 62
    7
 10
251.67063498729186
 20
124.84544189945887
 11
251.67063498729186
 21
124.61631311471111
  0
LINE
  8
_7-1_
  6
CONTINUOUS
 62
    7
 10
251.67063498729186
 20
124.84544189945887
 11
251.67063498729186
 21
126.53696213007503
  0
LINE
  8
_7-1_
  6
CONTINUOUS
 62
    7
 10
251.67063498729186
 20
126.64666442684793
 11
251.67063498729186
 21
126.53696213007503
  0
LINE
  8
_7-1_
  6
CONTINUOUS
 62
    7
 10
251.67063498729186
 20
126.64666442684793
 11
251.67063498729186
 21
129.89857544833088
  0
LINE
  8
_7-1_
  6
CONTINUOUS
 62
    7
 10
251.67063498729186
 20
123.9289267604677
 11
251.67063498729186
 21
124.61631311471111
  0
LINE
  8
_7-1_
  6
CONTINUOUS
 62
    7
 10
251.9206349872918
 20
137.67261993758938
 11
251.67063498729186
 21
137.67261993758938
  0
LINE
  8
_7-1_
  6
CONTINUOUS
 62
    7
 10
251.9206349872918
 20
138.52261983328133
 11
251.67063497541749
 21
138.52261983328133
  0
LINE
  8
_7-1_
  6
CONTINUOUS
 62
    7
 10
252.72063494985269
 20
138.2725187438038
 11
252.7900332968544
 21
138.26760607550403
  0
LINE
  8
_7-1_
  6
CONTINUOUS
 62
    7
 10
252.7900332968544
 20
136.07763379967428
 11
252.72063494985269
 21
136.07271992140084
  0
ARC
  8
_7-1_
  6
CONTINUOUS
 62
    7
 10
252.76850690299204
 20
136.38167270239426
 40
0.3048000000005051
 50
274.04986592817027
 51
339.0881665600387
  0
LINE
  8
_7-1_
  6
CONTINUOUS
 62
    7
 10
253.17831107740573
 20
136.67685769968301
 11
253.17643283260338
 21
136.66860618167191
  0
LINE
  8
_7-1_
  6
CONTINUOUS
 62
    7
 10
253.17643283260338
 20
136.66860618167191
 11
253.05153258004503
 21
136.28225446217328
  0
LINE
  8
_7-1_
  6
CONTINUOUS
 62
    7
 10
253.21727190957687
 20
136.84802733831674
 11
253.17831107740573
 21
136.67685769968301
  0
LINE
  8
_7-1_
  6
CONTINUOUS
 62
    7
 10
253.21728622866129
 20
136.84779450767308
 11
253.17838686378007
 21
136.67664722078114
  0
LINE
  8
_7-1_
  6
CONTINUOUS
 62
    7
 10
253.1792910615847
 20
137.67262034588117
 11
253.32063498729172
 21
137.67261993758938
  0
LINE
  8
_7-1_
  6
CONTINUOUS
 62
    7
 10
253.05322996364225
 20
136.27288015331919
 11
253.05322996364225
 21
136.28703746572654
  0
LINE
  8
_7-1_
  6
CONTINUOUS
 62
    7
 10
253.17027702321564
 20
136.63579009943276
 11
253.17234630556129
 21
136.63459428124696
  0
LINE
  8
_7-1_
  6
CONTINUOUS
 62
    7
 10
253.26239099585717
 20
137.07610078625947
 11
253.22389861894112
 21
136.85502715878754
  0
LINE
  8
_7-1_
  6
CONTINUOUS
 62
    7
 10
253.22389861894112
 20
136.85502715878754
 11
253.22190919750653
 21
136.84689298742085
  0
LINE
  8
_7-1_
  6
CONTINUOUS
 62
    7
 10
253.17027748887699
 20
137.07610078625947
 11
253.26239087944196
 21
137.07610078625947
  0
LINE
  8
_7-1_
  6
CONTINUOUS
 62
    7
 10
253.17027713963102
 20
137.26913974159032
 11
253.17234630556129
 21
137.17261374466681
  0
LINE
  8
_7-1_
  6
CONTINUOUS
 62
    7
 10
253.17234630556129
 20
137.17261374466681
 11
253.17027713963102
 21
137.07610078625947
  0
LINE
  8
_7-1_
  6
CONTINUOUS
 62
    7
 10
253.26239099585717
 20
137.26913974159032
 11
253.17027748887699
 21
137.26913974159032
  0
LINE
  8
_7-1_
  6
CONTINUOUS
 62
    7
 10
253.17027713963102
 20
137.70945042841702
 11
253.22366357640635
 21
137.49131605499059
  0
LINE
  8
_7-1_
  6
CONTINUOUS
 62
    7
 10
253.22366357640635
 20
137.49131605499059
 11
253.26239099585717
 21
137.26913974159032
  0
LINE
  8
_7-1_
  6
CONTINUOUS
 62
    7
 10
253.17234635719376
 20
137.71064525089053
 11
253.17027702321564
 21
137.70945042841702
  0
ARC
  8
_7-1_
  6
CONTINUOUS
 62
    7
 10
249.25694529020586
 20
136.62173272748037
 40
4.0639999998782272
 50
15.541785398415729
 51
20.912734064235191
  0
LINE
  8
_7-1_
  6
CONTINUOUS
 62
    7
 10
253.17027702321564
 20
136.63579009943276
 11
253.22188800991784
 21
136.84666947000295
  0
LINE
  8
_7-1_
  6
CONTINUOUS
 62
    7
 10
253.17027713963102
 20
137.07610078625947
 11
253.26239099585717
 21
137.07610078625947
  0
LINE
  8
_7-1_
  6
CONTINUOUS
 62
    7
 10
253.17027713963102
 20
137.26913974159032
 11
253.26239099585717
 21
137.26913974159032
  0
LINE
  8
_7-1_
  6
CONTINUOUS
 62
    7
 10
252.7900332968544
 20
138.26760607550403
 11
252.7900332968544
 21
136.07763379967428
  0
ARC
  8
_7-1_
  6
CONTINUOUS
 62
    7
 10
252.76850690304013
 20
137.96356717280343
 40
0.3048000000005075
 50
20.911833439961419
 51
85.950134071826454
  0
ARC
  8
_7-1_
  6
CONTINUOUS
 62
    7
 10
252.76850690304013
 20
137.96356717280343
 40
0.3048000000005075
 50
20.911833439961419
 51
85.950134071826454
  0
LINE
  8
_7-1_
  6
CONTINUOUS
 62
    7
 10
255.47063562904739
 20
122.47261993758939
 11
255.47063562904739
 21
121.67261993758938
  0
LINE
  8
_7-1_
  6
CONTINUOUS
 62
    7
 10
256.97063562904736
 20
122.47261993758939
 11
255.47063562904739
 21
122.47261993758939
  0
LINE
  8
_7-1_
  6
CONTINUOUS
 62
    7
 10
256.97063562904736
 20
122.47261993758939
 11
256.97063562904736
 21
121.67261993758938
  0
LINE
  8
_7-1_
  6
CONTINUOUS
 62
    7
 10
256.97063562904736
 20
121.67261993758938
 11
255.47063562904739
 21
121.67261993758938
  0
LINE
  8
_7-1_
  6
CONTINUOUS
 62
    7
 10
255.47063562904739
 20
122.47261993758939
 11
253.02851700283298
 21
122.47261991876248
  0
LINE
  8
_7-1_
  6
CONTINUOUS
 62
    7
 10
255.47063562904739
 20
121.67261993758938
 11
252.72063498729193
 21
121.67261993758938
  0
LINE
  8
_7-1_
  6
CONTINUOUS
 62
    7
 10
251.67063498729186
 20
129.89857544833088
 11
251.67063498729186
 21
137.67261993758938
  0
LINE
  8
_7-1_
  6
CONTINUOUS
 62
    7
 10
253.17234635719376
 20
121.48328644629475
 11
253.17027702321564
 21
121.48209181716387
  0
ARC
  8
_7-1_
  6
CONTINUOUS
 62
    7
 10
252.76850690304013
 20
121.73620836820771
 40
0.3048000000005075
 50
20.911833439961419
 51
85.950134071826454
  0
LINE
  8
_7-1_
  6
CONTINUOUS
 62
    7
 10
254.07063498729189
 20
128.34526113299367
 11
254.07063498729189
 21
131.9999787421845
  0
ARC
  8
_7-1_
  6
CONTINUOUS
 62
    7
 10
253.32063498729189
 20
132.27261993758904
 40
0.7500000000000279
 50
0
 51
89.999999999996745
  0
ARC
  8
_7-1_
  6
CONTINUOUS
 62
    7
 10
253.32063498729189
 20
128.0726199375891
 40
0.75
 50
270
 51
0
  0
LINE
  8
_7-1_
  6
CONTINUOUS
 62
    7
 10
254.07063498729189
 20
132.27261993758904
 11
254.07063498729189
 21
128.0726199375891
  0
LINE
  8
_7-1_
  6
CONTINUOUS
 62
    7
 10
252.72063801520789
 20
133.02261998750799
 11
253.32063498729189
 21
133.02261993758904
  0
LINE
  8
_7-1_
  6
CONTINUOUS
 62
    7
 10
252.72063801520789
 20
127.32261964552634
 11
253.32063498729189
 21
127.3226199375891
  0
LINE
  8
_7-1_
  6
CONTINUOUS
 62
    7
 10
252.72063801520789
 20
128.42261999346843
 11
252.72063801520789
 21
127.32261964552634
  0
LINE
  8
_7-1_
  6
CONTINUOUS
 62
    7
 10
252.72063801520789
 20
133.02261998750799
 11
252.72063801520789
 21
130.82261964552634
  0
ARC
  8
_7-1_
  6
CONTINUOUS
 62
    7
 10
252.76850690304013
 20
121.73620836820771
 40
0.3048000000005075
 50
20.911833439961419
 51
85.950134071826454
  0
LINE
  8
_7-1_
  6
CONTINUOUS
 62
    7
 10
161.22063506711467
 20
124.52251963563827
 11
161.15123672011296
 21
124.51760607550397
  0
LINE
  8
_7-1_
  6
CONTINUOUS
 62
    7
 10
161.15123672011296
 20
122.32763379967417
 11
161.22063506711467
 21
122.3227202893664
  0
ARC
  8
_7-1_
  6
CONTINUOUS
 62
    7
 10
161.17276311397532
 20
122.63167270239424
 40
0.3048000000005051
 50
200.91183343996132
 51
265.95013407182972
  0
LINE
  8
_7-1_
  6
CONTINUOUS
 62
    7
 10
160.76295893956162
 20
122.92685742736429
 11
160.76483718436398
 21
122.91860567652253
  0
LINE
  8
_7-1_
  6
CONTINUOUS
 62
    7
 10
160.76483718436398
 20
122.91860567652253
 11
160.88973743692233
 21
122.53225418985454
  0
LINE
  8
_7-1_
  6
CONTINUOUS
 62
    7
 10
160.72399810739048
 20
123.09802671675203
 11
160.76295893956162
 21
122.92685742736429
  0
LINE
  8
_7-1_
  6
CONTINUOUS
 62
    7
 10
160.7239837883059
 20
123.09779505026159
 11
160.76288315318711
 21
122.92664648280114
  0
LINE
  8
_7-1_
  6
CONTINUOUS
 62
    7
 10
162.2706350296755
 20
122.67261993758938
 11
162.02063502967556
 21
122.67261993758938
  0
LINE
  8
_7-1_
  6
CONTINUOUS
 62
    7
 10
162.2706350296755
 20
121.82261994471409
 11
162.02063501780119
 21
121.82261994471409
  0
LINE
  8
_7-1_
  6
CONTINUOUS
 62
    7
 10
161.22063502967543
 20
121.67261993758938
 11
162.02063502967556
 21
121.67261993758938
  0
LINE
  8
_7-1_
  6
CONTINUOUS
 62
    7
 10
161.22063502967543
 20
121.67261993758938
 11
161.22063502967543
 21
122.67261993758938
  0
LINE
  8
_7-1_
  6
CONTINUOUS
 62
    7
 10
161.22063502967543
 20
122.67261993758938
 11
162.02063502967556
 21
122.67261993758938
  0
LINE
  8
_7-1_
  6
CONTINUOUS
 62
    7
 10
162.02063502967556
 20
121.67261993758938
 11
162.02063502967556
 21
122.67261993758938
  0
LINE
  8
_7-1_
  6
CONTINUOUS
 62
    7
 10
160.88804005332494
 20
122.52288015331907
 11
160.88804005332494
 21
122.53703746572648
  0
LINE
  8
_7-1_
  6
CONTINUOUS
 62
    7
 10
160.77099299375154
 20
122.88578936145273
 11
160.76892371140607
 21
122.88459459100482
  0
LINE
  8
_7-1_
  6
CONTINUOUS
 62
    7
 10
160.67887902111002
 20
123.32610016469479
 11
160.71737139802624
 21
123.10502677005348
  0
LINE
  8
_7-1_
  6
CONTINUOUS
 62
    7
 10
160.71737139802624
 20
123.10502677005348
 11
160.71936081946083
 21
123.09689248227149
  0
LINE
  8
_7-1_
  6
CONTINUOUS
 62
    7
 10
160.77099252809037
 20
123.32609993186414
 11
160.67887913752539
 21
123.32609993186414
  0
LINE
  8
_7-1_
  6
CONTINUOUS
 62
    7
 10
160.77099287733634
 20
123.5191395856869
 11
160.76892371140607
 21
123.42261463650135
  0
LINE
  8
_7-1_
  6
CONTINUOUS
 62
    7
 10
160.76892371140607
 20
123.42261463650135
 11
160.77099287733634
 21
123.32610039752543
  0
LINE
  8
_7-1_
  6
CONTINUOUS
 62
    7
 10
160.67887902111002
 20
123.51913993493289
 11
160.77099252809037
 21
123.51913993493289
  0
LINE
  8
_7-1_
  6
CONTINUOUS
 62
    7
 10
160.77099287733634
 20
123.9594506217596
 11
160.71760644056101
 21
123.74131601550249
  0
LINE
  8
_7-1_
  6
CONTINUOUS
 62
    7
 10
160.71760644056101
 20
123.74131601550249
 11
160.67887902111002
 21
123.51913970210225
  0
LINE
  8
_7-1_
  6
CONTINUOUS
 62
    7
 10
160.76892365977343
 20
123.96064525089047
 11
160.77099299375154
 21
123.9594506217596
  0
ARC
  8
_7-1_
  6
CONTINUOUS
 62
    7
 10
164.6843247267615
 20
122.87173272748034
 40
4.0639999998782272
 50
159.0872659357648
 51
164.45821460158418
  0
LINE
  8
_7-1_
  6
CONTINUOUS
 62
    7
 10
160.77099299375154
 20
122.88578924503744
 11
160.71938200704951
 21
123.09666873202294
  0
LINE
  8
_7-1_
  6
CONTINUOUS
 62
    7
 10
160.77099287733634
 20
123.32609993186414
 11
160.67887902111002
 21
123.32610004827944
  0
LINE
  8
_7-1_
  6
CONTINUOUS
 62
    7
 10
160.77099287733634
 20
123.51913981851754
 11
160.67887902111002
 21
123.51913981851754
  0
LINE
  8
_7-1_
  6
CONTINUOUS
 62
    7
 10
162.2706350296755
 20
121.67261993758938
 11
162.2706350296755
 21
122.67261993758938
  0
LINE
  8
_7-1_
  6
CONTINUOUS
 62
    7
 10
161.15123672011296
 20
124.51760607550397
 11
161.15123672011296
 21
122.32763379967417
  0
ARC
  8
_7-1_
  6
CONTINUOUS
 62
    7
 10
161.17276311392726
 20
124.21356717280343
 40
0.3048000000005075
 50
94.049865928173531
 51
159.08816656003858
  0
LINE
  8
_7-1_
  6
CONTINUOUS
 62
    7
 10
161.22063506711467
 20
138.2725187438038
 11
161.15123672011296
 21
138.26760607550403
  0
LINE
  8
_7-1_
  6
CONTINUOUS
 62
    7
 10
161.15123672011296
 20
136.07763379967428
 11
161.22063506711467
 21
136.07271992140084
  0
ARC
  8
_7-1_
  6
CONTINUOUS
 62
    7
 10
161.17276311397532
 20
136.38167270239426
 40
0.3048000000005051
 50
200.91183343996132
 51
265.95013407182972
  0
LINE
  8
_7-1_
  6
CONTINUOUS
 62
    7
 10
160.76295893956162
 20
136.67685769968301
 11
160.76483718436398
 21
136.66860618167191
  0
LINE
  8
_7-1_
  6
CONTINUOUS
 62
    7
 10
160.76483718436398
 20
136.66860618167191
 11
160.88973743692233
 21
136.28225446217328
  0
LINE
  8
_7-1_
  6
CONTINUOUS
 62
    7
 10
160.72399810739048
 20
136.84802733831674
 11
160.76295893956162
 21
136.67685769968301
  0
LINE
  8
_7-1_
  6
CONTINUOUS
 62
    7
 10
160.7239837883059
 20
136.84779450767308
 11
160.76288315318711
 21
136.67664722078114
  0
LINE
  8
_7-1_
  6
CONTINUOUS
 62
    7
 10
162.2706350296755
 20
137.67261993758938
 11
162.02063502967556
 21
137.67261993758938
  0
LINE
  8
_7-1_
  6
CONTINUOUS
 62
    7
 10
162.2706350296755
 20
129.61357585757033
 11
162.2706350296755
 21
126.93166401760848
  0
LINE
  8
_7-1_
  6
CONTINUOUS
 62
    7
 10
162.2706350296755
 20
124.61631311471111
 11
162.2706350296755
 21
123.9289267604677
  0
LINE
  8
_7-1_
  6
CONTINUOUS
 62
    7
 10
162.2706350296755
 20
138.52261983328133
 11
162.02063501780119
 21
138.52261983328133
  0
LINE
  8
_7-1_
  6
CONTINUOUS
 62
    7
 10
160.76197895538265
 20
137.67262034588117
 11
160.62063502967563
 21
137.67261993758938
  0
LINE
  8
_7-1_
  6
CONTINUOUS
 62
    7
 10
161.22063502967543
 20
137.67261993758938
 11
162.02063502967556
 21
137.67261993758938
  0
LINE
  8
_7-1_
  6
CONTINUOUS
 62
    7
 10
161.22063502967543
 20
122.67261993758938
 11
161.22063502967543
 21
137.67261993758938
  0
LINE
  8
_7-1_
  6
CONTINUOUS
 62
    7
 10
162.02063502967556
 20
122.67261993758938
 11
162.02063502967556
 21
137.67261993758938
  0
LINE
  8
_7-1_
  6
CONTINUOUS
 62
    7
 10
161.22063502967543
 20
138.67261993758938
 11
162.02063502967556
 21
138.67261993758938
  0
LINE
  8
_7-1_
  6
CONTINUOUS
 62
    7
 10
161.22063502967543
 20
137.67261993758938
 11
161.22063502967543
 21
138.67261993758938
  0
LINE
  8
_7-1_
  6
CONTINUOUS
 62
    7
 10
162.02063502967556
 20
137.67261993758938
 11
162.02063502967556
 21
138.67261993758938
  0
LINE
  8
_7-1_
  6
CONTINUOUS
 62
    7
 10
160.88804005332511
 20
136.27288015331919
 11
160.88804005332511
 21
136.28703746572654
  0
LINE
  8
_7-1_
  6
CONTINUOUS
 62
    7
 10
160.77099299375154
 20
136.63579009943276
 11
160.76892371140607
 21
136.63459428124696
  0
LINE
  8
_7-1_
  6
CONTINUOUS
 62
    7
 10
160.67887902111002
 20
137.07610078625947
 11
160.71737139802624
 21
136.85502715878754
  0
LINE
  8
_7-1_
  6
CONTINUOUS
 62
    7
 10
160.71737139802624
 20
136.85502715878754
 11
160.71936081946083
 21
136.84689298742085
  0
LINE
  8
_7-1_
  6
CONTINUOUS
 62
    7
 10
160.77099252809037
 20
137.07610078625947
 11
160.67887913752539
 21
137.07610078625947
  0
LINE
  8
_7-1_
  6
CONTINUOUS
 62
    7
 10
160.77099287733634
 20
137.26913974159032
 11
160.76892371140607
 21
137.17261374466681
  0
LINE
  8
_7-1_
  6
CONTINUOUS
 62
    7
 10
160.76892371140607
 20
137.17261374466681
 11
160.77099287733634
 21
137.07610078625947
  0
LINE
  8
_7-1_
  6
CONTINUOUS
 62
    7
 10
160.67887902111002
 20
137.26913974159032
 11
160.77099252809037
 21
137.26913974159032
  0
LINE
  8
_7-1_
  6
CONTINUOUS
 62
    7
 10
160.77099287733634
 20
137.70945042841702
 11
160.71760644056101
 21
137.49131605499059
  0
LINE
  8
_7-1_
  6
CONTINUOUS
 62
    7
 10
160.71760644056101
 20
137.49131605499059
 11
160.67887902111002
 21
137.26913974159032
  0
LINE
  8
_7-1_
  6
CONTINUOUS
 62
    7
 10
160.7689236597736
 20
137.71064525089053
 11
160.77099299375154
 21
137.70945042841702
  0
ARC
  8
_7-1_
  6
CONTINUOUS
 62
    7
 10
164.6843247267615
 20
136.62173272748037
 40
4.0639999998782272
 50
159.0872659357648
 51
164.45821460158418
  0
LINE
  8
_7-1_
  6
CONTINUOUS
 62
    7
 10
160.77099299375154
 20
136.63579009943276
 11
160.71938200704951
 21
136.84666947000295
  0
LINE
  8
_7-1_
  6
CONTINUOUS
 62
    7
 10
160.77099287733634
 20
137.07610078625947
 11
160.67887902111002
 21
137.07610078625947
  0
LINE
  8
_7-1_
  6
CONTINUOUS
 62
    7
 10
160.77099287733634
 20
137.26913974159032
 11
160.67887902111002
 21
137.26913974159032
  0
LINE
  8
_7-1_
  6
CONTINUOUS
 62
    7
 10
162.2706350296755
 20
137.67261993758938
 11
162.2706350296755
 21
138.67261993758938
  0
LINE
  8
_7-1_
  6
CONTINUOUS
 62
    7
 10
162.2706350296755
 20
122.67261993758938
 11
162.2706350296755
 21
123.69979797571991
  0
LINE
  8
_7-1_
  6
CONTINUOUS
 62
    7
 10
162.2706350296755
 20
123.69979797571991
 11
162.2706350296755
 21
123.9289267604677
  0
LINE
  8
_7-1_
  6
CONTINUOUS
 62
    7
 10
162.2706350296755
 20
124.61631311471111
 11
162.2706350296755
 21
124.84544189945887
  0
LINE
  8
_7-1_
  6
CONTINUOUS
 62
    7
 10
162.2706350296755
 20
124.84544189945887
 11
162.2706350296755
 21
126.53696213007503
  0
LINE
  8
_7-1_
  6
CONTINUOUS
 62
    7
 10
162.2706350296755
 20
126.53696213007503
 11
162.2706350296755
 21
126.64666442684793
  0
LINE
  8
_7-1_
  6
CONTINUOUS
 62
    7
 10
162.2706350296755
 20
126.64666442684793
 11
162.2706350296755
 21
126.93166401760848
  0
LINE
  8
_7-1_
  6
CONTINUOUS
 62
    7
 10
161.15123672011296
 20
138.26760607550403
 11
161.15123672011296
 21
136.07763379967428
  0
ARC
  8
_7-1_
  6
CONTINUOUS
 62
    7
 10
161.17276311392726
 20
137.96356717280343
 40
0.3048000000005075
 50
94.049865928173531
 51
159.08816656003858
  0
LINE
  8
_7-1_
  6
CONTINUOUS
 62
    7
 10
162.02063502967556
 20
122.67261993758938
 11
251.67063498729186
 21
122.67261993758964
  0
LINE
  8
_7-1_
  6
CONTINUOUS
 62
    7
 10
251.67063498729169
 20
121.67261993758964
 11
162.2706350296755
 21
121.67261993758938
  0
LINE
  8
_7-1_
  6
CONTINUOUS
 62
    7
 10
251.67063498729186
 20
137.67261993758972
 11
162.02063502967556
 21
137.67261993758927
  0
LINE
  8
_7-1_
  6
CONTINUOUS
 62
    7
 10
162.2706350296755
 20
134.57261993758939
 11
251.67063498729186
 21
134.57262002738738
  0
LINE
  8
_7-1_
  6
CONTINUOUS
 62
    7
 10
162.2706350296755
 20
138.67261993758938
 11
251.67063498729186
 21
138.67261993758972
  0
LINE
  8
_7-1_
  6
CONTINUOUS
 62
    7
 10
251.67063498729169
 20
123.69979776106274
 11
162.2706350296755
 21
123.69979797571991
  0
LINE
  8
_7-1_
  6
CONTINUOUS
 62
    7
 10
162.2706350296755
 20
123.9289267604677
 11
251.67063498729186
 21
123.92892687552028
  0
LINE
  8
_7-1_
  6
CONTINUOUS
 62
    7
 10
162.2706350296755
 20
124.84544189945887
 11
251.67063498729169
 21
124.84544188188209
  0
LINE
  8
_7-1_
  6
CONTINUOUS
 62
    7
 10
251.67063498729169
 20
124.61631324612213
 11
162.2706350296755
 21
124.61631324612162
  0
LINE
  8
_7-1_
  6
CONTINUOUS
 62
    7
 10
251.67063498729186
 20
126.53696209531798
 11
162.2706350296755
 21
126.53696213007503
  0
LINE
  8
_7-1_
  6
CONTINUOUS
 62
    7
 10
162.2706350296755
 20
126.64666442684793
 11
251.67063498729186
 21
126.64666444605268
  0
LINE
  8
_7-1_
  6
CONTINUOUS
 62
    7
 10
251.67063498729169
 20
131.69979814910001
 11
162.2706350296755
 21
131.69979814909959
  0
LINE
  8
_7-1_
  6
CONTINUOUS
 62
    7
 10
162.2706350296755
 20
130.00827793501872
 11
251.67063498729186
 21
130.00827793501929
  0
LINE
  8
_7-1_
  6
CONTINUOUS
 62
    7
 10
162.2706350296755
 20
131.92892676046773
 11
251.67063498729186
 21
131.92892678649687
  0
LINE
  8
_7-1_
  6
CONTINUOUS
 62
    7
 10
251.67063498729186
 20
129.89857559169146
 11
162.2706350296755
 21
129.89857544833088
  0
LINE
  8
_7-1_
  6
CONTINUOUS
 62
    7
 10
162.2706350296755
 20
132.84544226252097
 11
251.67063498729186
 21
132.84544226252148
  0
LINE
  8
_7-1_
  6
CONTINUOUS
 62
    7
 10
251.67063498729186
 20
132.61631269477916
 11
162.2706350296755
 21
132.61631269477862
  0
LINE
  8
_7-1_
  6
CONTINUOUS
 62
    7
 10
251.67063498729186
 20
134.34761994068634
 11
162.2706350296755
 21
134.34761993758942
  0
LINE
  8
_7-1_
  6
CONTINUOUS
 62
    7
 10
162.2706350296755
 20
134.42262027882597
 11
251.67063498729186
 21
134.42262027882642
  0
LINE
  8
_7-1_
  6
CONTINUOUS
 62
    7
 10
162.2706350296755
 20
129.61357585757033
 11
162.2706350296755
 21
137.67261993758938
  0
LINE
  8
_7-1_
  6
CONTINUOUS
 62
    7
 10
158.47063646775009
 20
122.47261993758934
 11
158.47063646775009
 21
121.67261993758938
  0
LINE
  8
_7-1_
  6
CONTINUOUS
 62
    7
 10
160.9127529788781
 20
122.47261991737974
 11
158.47063646775009
 21
122.47261993758934
  0
LINE
  8
_7-1_
  6
CONTINUOUS
 62
    7
 10
161.22063502967543
 20
121.67261993758938
 11
158.47063646775009
 21
121.67261993758938
  0
LINE
  8
_7-1_
  6
CONTINUOUS
 62
    7
 10
156.97063646775009
 20
122.47261993758934
 11
156.97063646775009
 21
121.67261993758938
  0
LINE
  8
_7-1_
  6
CONTINUOUS
 62
    7
 10
158.47063646775009
 20
122.47261993758934
 11
156.97063646775009
 21
122.47261993758934
  0
LINE
  8
_7-1_
  6
CONTINUOUS
 62
    7
 10
158.47063646775009
 20
121.67261993758938
 11
156.97063646775009
 21
121.67261993758938
  0
LINE
  8
_7-1_
  6
CONTINUOUS
 62
    7
 10
159.87063502967546
 20
131.99997874218445
 11
159.87063502967546
 21
128.34526113299361
  0
LINE
  8
_7-1_
  6
CONTINUOUS
 62
    7
 10
162.2706350296755
 20
131.15776093927854
 11
162.02063501780119
 21
131.15776093927854
  0
LINE
  8
_7-1_
  6
CONTINUOUS
 62
    7
 10
161.22063506711467
 20
127.30776119483346
 11
160.62063502967546
 21
127.30776113299364
  0
ARC
  8
_7-1_
  6
CONTINUOUS
 62
    7
 10
160.62063502967546
 20
128.05776113299364
 40
0.75
 50
180
 51
270
  0
LINE
  8
_7-1_
  6
CONTINUOUS
 62
    7
 10
161.22063506711467
 20
127.30776119483346
 11
161.22063506711467
 21
130.15775665265655
  0
LINE
  8
_7-1_
  6
CONTINUOUS
 62
    7
 10
161.22063506711467
 20
130.15775665265655
 11
161.22063506711467
 21
133.00776107115385
  0
LINE
  8
_7-1_
  6
CONTINUOUS
 62
    7
 10
161.22063506711467
 20
133.00776107115385
 11
160.62063502967546
 21
133.00776113299369
  0
ARC
  8
_7-1_
  6
CONTINUOUS
 62
    7
 10
160.62063502967546
 20
132.25776113299357
 40
0.7500000000000139
 50
90
 51
180
  0
LINE
  8
_7-1_
  6
CONTINUOUS
 62
    7
 10
159.87063502967546
 20
128.05776113299364
 11
159.87063502967546
 21
132.25776113299357
  0
LINE
  8
_7-1_
  6
CONTINUOUS
 62
    7
 10
159.87063502967546
 20
128.34526113299361
 11
95.827863083589193
 21
128.34526113299361
  0
LINE
  8
_7-1_
  6
CONTINUOUS
 62
    7
 10
95.827863083589193
 20
128.34526113299361
 11
95.827863083589193
 21
131.99997874218445
  0
LINE
  8
_7-1_
  6
CONTINUOUS
 62
    7
 10
95.827863083589193
 20
131.99997874218445
 11
159.87063502967546
 21
131.99997874218445
  0
LINE
  8
_7-1_
  6
CONTINUOUS
 62
    7
 10
89.524315487035721
 20
129.8705271966962
 11
86.372541688759042
 21
129.8705271966962
  0
LINE
  8
_7-1_
  6
CONTINUOUS
 62
    7
 10
86.372541688759042
 20
129.8705271966962
 11
86.372541688759042
 21
130.47471267848186
  0
LINE
  8
_7-1_
  6
CONTINUOUS
 62
    7
 10
86.372541688759042
 20
130.47471267848186
 11
89.524315487035721
 21
130.47471267848186
  0
LINE
  8
_7-1_
  6
CONTINUOUS
 62
    7
 10
89.524315487035721
 20
130.47471267848186
 11
89.524315487035721
 21
129.8705271966962
  0
LINE
  8
_7-1_
  6
CONTINUOUS
 62
    7
 10
95.827863083589193
 20
130.98397268961474
 11
89.524315487035721
 21
130.98397268961474
  0
LINE
  8
_7-1_
  6
CONTINUOUS
 62
    7
 10
89.524315487035721
 20
130.98397268961474
 11
89.524315487035721
 21
131.5881581714004
  0
LINE
  8
_7-1_
  6
CONTINUOUS
 62
    7
 10
89.524315487035721
 20
131.5881581714004
 11
95.827863083589193
 21
131.5881581714004
  0
LINE
  8
_7-1_
  6
CONTINUOUS
 62
    7
 10
95.827863083589193
 20
131.5881581714004
 11
95.827863083589193
 21
130.98397268961474
  0
LINE
  8
_7-1_
  6
CONTINUOUS
 62
    7
 10
89.524315487035721
 20
130.98397268961474
 11
86.372541688759042
 21
130.98397268961474
  0
LINE
  8
_7-1_
  6
CONTINUOUS
 62
    7
 10
86.372541688759042
 20
130.98397268961474
 11
86.372541688759042
 21
131.5881581714004
  0
LINE
  8
_7-1_
  6
CONTINUOUS
 62
    7
 10
86.372541688759042
 20
131.5881581714004
 11
89.524315487035721
 21
131.5881581714004
  0
LINE
  8
_7-1_
  6
CONTINUOUS
 62
    7
 10
89.524315487035721
 20
131.5881581714004
 11
89.524315487035721
 21
130.98397268961474
  0
LINE
  8
_7-1_
  6
CONTINUOUS
 62
    7
 10
89.524315487035721
 20
128.66680136937245
 11
86.372541688759042
 21
128.66680136937245
  0
LINE
  8
_7-1_
  6
CONTINUOUS
 62
    7
 10
86.372541688759042
 20
128.66680136937245
 11
86.372541688759042
 21
129.27098685115811
  0
LINE
  8
_7-1_
  6
CONTINUOUS
 62
    7
 10
86.372541688759042
 20
129.27098685115811
 11
89.524315487035721
 21
129.27098685115811
  0
LINE
  8
_7-1_
  6
CONTINUOUS
 62
    7
 10
89.524315487035721
 20
129.27098685115811
 11
89.524315487035721
 21
128.66680136937245
  0
LINE
  8
_7-1_
  6
CONTINUOUS
 62
    7
 10
95.827863083589193
 20
129.8705271966962
 11
89.524315487035721
 21
129.8705271966962
  0
LINE
  8
_7-1_
  6
CONTINUOUS
 62
    7
 10
89.524315487035721
 20
129.8705271966962
 11
89.524315487035721
 21
130.47471267848186
  0
LINE
  8
_7-1_
  6
CONTINUOUS
 62
    7
 10
89.524315487035721
 20
130.47471267848186
 11
95.827863083589193
 21
130.47471267848186
  0
LINE
  8
_7-1_
  6
CONTINUOUS
 62
    7
 10
95.827863083589193
 20
130.47471267848186
 11
95.827863083589193
 21
129.8705271966962
  0
LINE
  8
_7-1_
  6
CONTINUOUS
 62
    7
 10
95.827863083589193
 20
128.66680136937245
 11
89.524315487035721
 21
128.66680136937245
  0
LINE
  8
_7-1_
  6
CONTINUOUS
 62
    7
 10
89.524315487035721
 20
128.66680136937245
 11
89.524315487035721
 21
129.27098685115811
  0
LINE
  8
_7-1_
  6
CONTINUOUS
 62
    7
 10
89.524315487035721
 20
129.27098685115811
 11
95.827863083589193
 21
129.27098685115811
  0
LINE
  8
_7-1_
  6
CONTINUOUS
 62
    7
 10
95.827863083589193
 20
129.27098685115811
 11
95.827863083589193
 21
128.66680136937245
  0
LINE
  8
_7-1_
  6
CONTINUOUS
 62
    7
 10
254.07063498729189
 20
131.9999787421845
 11
318.28431820685892
 21
131.9999787421845
  0
LINE
  8
_7-1_
  6
CONTINUOUS
 62
    7
 10
318.28431820685892
 20
128.34526113299367
 11
254.07063498729189
 21
128.34526113299367
  0
LINE
  8
_7-1_
  6
CONTINUOUS
 62
    7
 10
324.58786580341239
 20
129.26554398349657
 11
327.73963960168907
 21
129.26554398349657
  0
LINE
  8
_7-1_
  6
CONTINUOUS
 62
    7
 10
327.73963960168907
 20
129.26554398349657
 11
327.73963960168907
 21
129.86972946528214
  0
LINE
  8
_7-1_
  6
CONTINUOUS
 62
    7
 10
327.73963960168907
 20
129.86972946528214
 11
324.58786580341239
 21
129.86972946528214
  0
LINE
  8
_7-1_
  6
CONTINUOUS
 62
    7
 10
324.58786580341239
 20
129.86972946528214
 11
324.58786580341239
 21
129.26554398349657
  0
LINE
  8
_7-1_
  6
CONTINUOUS
 62
    7
 10
318.28431820685892
 20
129.26554398349657
 11
324.58786580341239
 21
129.26554398349657
  0
LINE
  8
_7-1_
  6
CONTINUOUS
 62
    7
 10
324.58786580341239
 20
129.26554398349657
 11
324.58786580341239
 21
129.86972946528214
  0
LINE
  8
_7-1_
  6
CONTINUOUS
 62
    7
 10
324.58786580341239
 20
129.86972946528214
 11
318.28431820685892
 21
129.86972946528214
  0
LINE
  8
_7-1_
  6
CONTINUOUS
 62
    7
 10
318.28431820685892
 20
129.86972946528214
 11
318.28431820685892
 21
129.26554398349657
  0
LINE
  8
_7-1_
  6
CONTINUOUS
 62
    7
 10
318.28431820685892
 20
130.4871307728136
 11
324.58786580341239
 21
130.4871307728136
  0
LINE
  8
_7-1_
  6
CONTINUOUS
 62
    7
 10
324.58786580341239
 20
130.4871307728136
 11
324.58786580341239
 21
131.09131625459929
  0
LINE
  8
_7-1_
  6
CONTINUOUS
 62
    7
 10
324.58786580341239
 20
131.09131625459929
 11
318.28431820685892
 21
131.09131625459929
  0
LINE
  8
_7-1_
  6
CONTINUOUS
 62
    7
 10
318.28431820685892
 20
131.09131625459929
 11
318.28431820685892
 21
130.4871307728136
  0
LINE
  8
_7-1_
  6
CONTINUOUS
 62
    7
 10
324.58786580341239
 20
130.4871307728136
 11
327.73963960168907
 21
130.4871307728136
  0
LINE
  8
_7-1_
  6
CONTINUOUS
 62
    7
 10
327.73963960168907
 20
130.4871307728136
 11
327.73963960168907
 21
131.09131625459929
  0
LINE
  8
_7-1_
  6
CONTINUOUS
 62
    7
 10
327.73963960168907
 20
131.09131625459929
 11
324.58786580341239
 21
131.09131625459929
  0
LINE
  8
_7-1_
  6
CONTINUOUS
 62
    7
 10
324.58786580341239
 20
131.09131625459929
 11
324.58786580341239
 21
130.4871307728136
  0
LINE
  8
_7-1_
  6
CONTINUOUS
 62
    7
 10
318.28431820685892
 20
128.30176769510356
 11
318.28431820685892
 21
131.95648530429443
  0
LINE
  8
_0-0_
  6
CONTINUOUS
 62
    7
 10
22.213590141421036
 20
15.454571814959365
 11
22.213590141421036
 21
272.45457753700526
  0
LINE
  8
_0-0_
  6
CONTINUOUS
 62
    7
 10
22.213590141421036
 20
272.45457753700526
 11
402.2135825120265
 21
272.45457753700526
  0
LINE
  8
_0-0_
  6
CONTINUOUS
 62
    7
 10
402.2135825120265
 20
272.45457753700526
 11
402.2135825120265
 21
15.454571814959365
  0
LINE
  8
_0-0_
  6
CONTINUOUS
 62
    7
 10
402.2135825120265
 20
15.454571814959365
 11
22.213590141421036
 21
15.454571814959365
  0
LINE
  8
_0-0_
  6
CONTINUOUS
 62
    7
 10
357.2135767899806
 20
35.454576583330947
 11
357.2135767899806
 21
15.454571814959365
  0
LINE
  8
_0-0_
  6
CONTINUOUS
 62
    7
 10
357.2135767899806
 20
45.454579086726027
 11
357.2135767899806
 21
35.454576583330947
  0
LINE
  8
_0-0_
  6
CONTINUOUS
 62
    7
 10
352.2135767899806
 20
35.454576583330947
 11
352.2135767899806
 21
15.454571814959365
  0
LINE
  8
_0-0_
  6
CONTINUOUS
 62
    7
 10
317.23655747998304
 20
31.733779998247939
 11
317.23655747998304
 21
28.733783812945205
  0
LINE
  8
_0-0_
  6
CONTINUOUS
 62
    7
 10
317.23655747998304
 20
31.733779998247939
 11
324.23655700314589
 21
33.233779998247939
  0
LINE
  8
_0-0_
  6
CONTINUOUS
 62
    7
 10
324.23655700314589
 20
33.233779998247939
 11
324.23655700314589
 21
27.233779044573623
  0
LINE
  8
_0-0_
  6
CONTINUOUS
 62
    7
 10
317.23655747998304
 20
28.733783812945205
 11
324.23655700314589
 21
27.233779044573623
  0
LINE
  8
_0-0_
  6
CENTER2
 62
    7
 10
326.23652660477705
 20
30.233781905596572
 11
308.23655652630873
 21
30.233781905596572
  0
LINE
  8
_0-0_
  6
CENTER2
 62
    7
 10
312.23652696240492
 20
34.233783812945205
 11
312.23652696240492
 21
26.233780951922256
  0
LINE
  8
_0-0_
  6
CONTINUOUS
 62
    7
 10
352.2135767899806
 20
45.454579086726027
 11
352.2135767899806
 21
15.454571814959365
  0
LINE
  8
_0-0_
  6
CONTINUOUS
 62
    7
 10
382.21357488263197
 20
45.454579086726027
 11
382.21357488263197
 21
35.454576583330947
  0
LINE
  8
_0-0_
  6
CONTINUOUS
 62
    7
 10
387.21360921490736
 20
45.454579086726027
 11
387.21360921490736
 21
35.454576583330947
  0
LINE
  8
_0-0_
  6
CONTINUOUS
 62
    7
 10
327.21360826123304
 20
35.454576583330947
 11
327.21360826123304
 21
25.454573722307998
  0
LINE
  8
_0-0_
  6
CONTINUOUS
 62
    7
 10
332.21357726681776
 20
35.454576583330947
 11
332.21357726681776
 21
25.454573722307998
  0
LINE
  8
_0-0_
  6
CONTINUOUS
 62
    7
 10
342.21360730755873
 20
45.454579086726027
 11
342.21360730755873
 21
35.454576583330947
  0
LINE
  8
_0-0_
  6
CONTINUOUS
 62
    7
 10
337.2135767899806
 20
45.454579086726027
 11
337.2135767899806
 21
35.454576583330947
  0
LINE
  8
_0-0_
  6
CONTINUOUS
 62
    7
 10
327.21360826123304
 20
45.454579086726027
 11
327.21360826123304
 21
35.454576583330947
  0
LINE
  8
_0-0_
  6
CONTINUOUS
 62
    7
 10
322.21357726681776
 20
45.454579086726027
 11
322.21357726681776
 21
35.454576583330947
  0
LINE
  8
_0-0_
  6
CONTINUOUS
 62
    7
 10
312.21357774365492
 20
45.454579086726027
 11
312.21357774365492
 21
35.454576583330947
  0
LINE
  8
_0-0_
  6
CONTINUOUS
 62
    7
 10
402.2135825120265
 20
45.454579086726027
 11
307.2135767899806
 21
45.454579086726027
  0
LINE
  8
_0-0_
  6
CONTINUOUS
 62
    7
 10
402.2135825120265
 20
35.454576583330947
 11
307.2135767899806
 21
35.454576583330947
  0
LINE
  8
_0-0_
  6
CONTINUOUS
 62
    7
 10
402.2135825120265
 20
25.454573722307998
 11
307.2135767899806
 21
25.454573722307998
  0
CIRCLE
  8
_0-0_
  6
CONTINUOUS
 62
    7
 10
312.23652696240492
 20
30.233781905596572
 40
3
  0
CIRCLE
  8
_0-0_
  6
CONTINUOUS
 62
    7
 10
312.23652696240492
 20
30.233781905596572
 40
1.5
  0
TEXT
  8
_0-0_
 62
    7
 10
354.8394312821681
 20
23.580647494021192
 40
3
 41
1
 50
-0.0000025044782034
  1
図番
  7
TATEGAKI
  0
TEXT
  8
_0-0_
 62
    7
 10
354.71668958294935
 20
33.732334162417203
 40
3
 41
1
 50
-0.0000025044782034
  1
品名
  7
TATEGAKI
  0
TEXT
  8
_0-0_
 62
    7
 10
354.79249524701185
 20
43.53057923478201
 40
3
 41
1
 50
-0.0000025044782034
  1
作図
  7
TATEGAKI
  0
TEXT
  8
_0-0_
 62
    7
 10
384.49153279889173
 20
43.468367125216275
 40
3
 41
1
 50
-0.0000025044782034
  1
尺度
  7
TATEGAKI
  0
TEXT
  8
_0-0_
 62
    7
 10
329.78111314404554
 20
33.732334162417203
 40
3
 41
1
 50
-0.0000025044782034
  1
材質
  7
TATEGAKI
  0
TEXT
  8
_0-0_
 62
    7
 10
309.71464490521498
 20
43.449549223604932
 40
3
 41
1
 50
-0.0000025044780613
  1
設計
  7
TATEGAKI
  0
TEXT
  8
_0-0_
 62
    7
 10
324.69724988568373
 20
43.449549223604947
 40
3
 41
1
 50
-0.0000025044782034
  1
製図
  7
TATEGAKI
  0
TEXT
  8
_0-0_
 62
    7
 10
339.67985486615248
 20
43.449549223604947
 40
3
 41
1
 50
-0.0000025044782034
  1
検図
  7
TATEGAKI
  0
TEXT
  8
_0-0_
 62
    7
 10
312.95114564526625
 20
18.359829993670302
 40
4
 41
1
 50
0
  1
ＦＫＫ株式会社
  0
LINE
  8
_0-0_
  6
CONTINUOUS
 62
    7
 10
402.2135825120265
 20
45.454579086726027
 11
307.2135767899806
 21
45.454579086726027
  0
LINE
  8
_0-0_
  6
CONTINUOUS
 62
    7
 10
307.2135767899806
 20
45.454579086726027
 11
307.2135767899806
 21
15.454571814959365
  0
LINE
  8
_0-0_
  6
CONTINUOUS
 62
    7
 10
402.2135825120265
 20
45.454579086726027
 11
307.2135767899806
 21
45.454579086726027
  0
TEXT
  8
_0-0_
 62
    7
 10
393.33667453738036
 20
39.256827770131408
 40
3
 41
1
 50
0
  1
：
  0
LINE
  8
_0-0_
  6
CONTINUOUS
 62
    7
 10
282.2377258597271
 20
262.05770611155878
 11
402.2135825120265
 21
262.05770611155878
  0
TEXT
  8
_0-0_
 62
    7
 10
382.73773348912163
 20
267.55768572677027
 40
4
 41
1
 50
0
  1
担当
  0
TEXT
  8
_0-0_
 62
    7
 10
392.73773348912163
 20
267.55768572677027
 40
4
 41
1
 50
0
  1
検印
  0
TEXT
  8
_0-0_
 62
    7
 10
284.00753939732476
 20
268.2467825352038
 40
3
 41
1
 50
0
  1
Ｎｏ
  0
TEXT
  8
_0-0_
 62
    7
 10
299.38916934117241
 20
268.27063583720575
 40
3
 41
1
 50
0
  1
年　月　日
  0
TEXT
  8
_0-0_
 62
    7
 10
340.18718112095757
 20
268.27063583720575
 40
3
 41
1
 50
0
  1
訂　正　記　事
  0
LINE
  8
_0-0_
  6
CONTINUOUS
 62
    7
 10
282.2377258597271
 20
267.05768572677027
 11
282.2377258597271
 21
262.05770611155878
  0
LINE
  8
_0-0_
  6
CONTINUOUS
 62
    7
 10
292.23773348912163
 20
267.05768572677027
 11
292.23773348912163
 21
262.05770611155878
  0
LINE
  8
_0-0_
  6
CONTINUOUS
 62
    7
 10
322.23773381694718
 20
267.05768572677027
 11
322.23773381694718
 21
262.05770611155878
  0
LINE
  8
_0-0_
  6
CONTINUOUS
 62
    7
 10
282.2377258597271
 20
272.45457753700526
 11
282.2377258597271
 21
267.05768572677027
  0
LINE
  8
_0-0_
  6
CONTINUOUS
 62
    7
 10
292.23773348912163
 20
272.45457753700526
 11
292.23773348912163
 21
267.05768572677027
  0
LINE
  8
_0-0_
  6
CONTINUOUS
 62
    7
 10
322.23773381694718
 20
272.45457753700526
 11
322.23773381694718
 21
267.05768572677027
  0
LINE
  8
_0-0_
  6
CONTINUOUS
 62
    7
 10
382.23773348912163
 20
272.45457753700526
 11
382.23773348912163
 21
262.05770611155878
  0
LINE
  8
_0-0_
  6
CONTINUOUS
 62
    7
 10
392.23773348912163
 20
272.45457753700526
 11
392.23773348912163
 21
262.05770611155878
  0
LINE
  8
_0-0_
  6
CONTINUOUS
 62
    7
 10
402.2135825120265
 20
267.05768572677027
 11
282.23774111851616
 21
267.05768572677027
  0
TEXT
  8
_0-0_
 62
    7
 10
312.80075756082493
 20
38.649524635510076
 40
4
 41
1
 50
0
  1
森田
  0
TEXT
  8
_0-0_
 62
    7
 10
327.98929362216568
 20
38.472913751075878
 40
4
 41
1
 50
0
  1
森田
  0
LINE
  8
_0-0_
  6
CONTINUOUS
 62
    7
 10
9.9942125336886249
 20
101.41625086206869
 11
9.9942125336886249
 21
185.31125086206873
  0
LINE
  8
_0-0_
  6
CONTINUOUS
 62
    7
 10
16.162962533688613
 20
262.4971183620687
 11
16.162962533688613
 21
210.67961836206876
  0
LINE
  8
_0-0_
  6
CONTINUOUS
 62
    7
 10
9.9942125336886249
 20
210.67961836206876
 11
9.9942125336886249
 21
262.4971183620687
  0
LINE
  8
_0-0_
  6
CONTINUOUS
 62
    7
 10
16.162962533688613
 20
185.31125086206873
 11
16.162962533688613
 21
101.41625086206869
  0
LINE
  8
_0-0_
  6
CONTINUOUS
 62
    7
 10
9.9942125336886249
 20
262.4971183620687
 11
22.213590141421036
 21
262.4971183620687
  0
LINE
  8
_0-0_
  6
CONTINUOUS
 62
    7
 10
9.9942125336886249
 20
245.22461836206872
 11
22.213590141421036
 21
245.22461836206872
  0
LINE
  8
_0-0_
  6
CONTINUOUS
 62
    7
 10
22.213590141421036
 20
227.95211836206874
 11
9.9942125336886249
 21
227.95211836206874
  0
LINE
  8
_0-0_
  6
CONTINUOUS
 62
    7
 10
22.213590141421036
 20
210.67961836206876
 11
9.9942125336886249
 21
210.67961836206876
  0
LINE
  8
_0-0_
  6
CONTINUOUS
 62
    7
 10
9.9942125336886249
 20
185.31125086206873
 11
22.213590141421036
 21
185.31125086206873
  0
LINE
  8
_0-0_
  6
CONTINUOUS
 62
    7
 10
9.9942125336886249
 20
170.50625086206872
 11
22.213590141421036
 21
170.50625086206872
  0
LINE
  8
_0-0_
  6
CONTINUOUS
 62
    7
 10
22.213590141421036
 20
155.70125086206871
 11
9.9942125336886249
 21
155.70125086206871
  0
LINE
  8
_0-0_
  6
CONTINUOUS
 62
    7
 10
9.9942125336886249
 20
140.89625086206871
 11
22.213590141421036
 21
140.89625086206871
  0
LINE
  8
_0-0_
  6
CONTINUOUS
 62
    7
 10
22.213590141421036
 20
126.09125086206873
 11
9.9942125336886249
 21
126.09125086206873
  0
LINE
  8
_0-0_
  6
CONTINUOUS
 62
    7
 10
9.9942125336886249
 20
111.28625086206872
 11
22.213590141421036
 21
111.28625086206872
  0
LINE
  8
_0-0_
  6
CONTINUOUS
 62
    7
 10
22.213590141421036
 20
101.41625086206869
 11
9.9942125336886249
 21
101.41625086206869
  0
TEXT
  8
_0-0_
 62
    7
 10
21.03890133755479
 20
248.69086612956871
 40
3.7012499999999874
 41
0.698413000000002
 50
90
  1
JIS  2級
  0
TEXT
  8
_0-0_
 62
    7
 10
14.929212533688627
 20
246.14993394644369
 40
3.7012500000000159
 41
0.8333329999999976
 50
90
  1
ネジの等級
  0
TEXT
  8
_0-0_
 62
    7
 10
21.009482546228127
 20
232.55882704323136
 40
3.7012499999999897
 41
0.8680560000000048
 50
89.580999999999988
  1
±0.1
  0
TEXT
  8
_0-0_
 62
    7
 10
14.929212533688627
 20
227.95211404394373
 40
3.7012499999999874
 41
0.6666670000000022
 50
90
  1
偏心又は片寄り
  0
TEXT
  8
_0-0_
 62
    7
 10
14.911741314790191
 20
216.22107892894257
 40
3.7012500000000518
 41
0.8333329999999942
 50
89.676000000000001
  1
角度
  0
TEXT
  8
_0-0_
 62
    7
 10
21.019182623659759
 20
215.29072520110798
 40
3.7012500000000154
 41
0.8680559999999944
 50
89.719000000000036
  1
±30'
  0
TEXT
  8
_0-0_
 62
    7
 10
21.03890133755479
 20
173.8926355245687
 40
3.7012499999999874
 41
0.8680560000000051
 50
90
  1
±0.8
  0
TEXT
  8
_0-0_
 62
    7
 10
15.889775033688607
 20
172.8327508620687
 40
2.5380000000000109
 41
0.9999999999999968
 50
90
  1
1000以下
  0
TEXT
  8
_0-0_
 62
    7
 10
12.861848178790125
 20
172.21108831812608
 40
2.5379999999999753
 41
1.0000000000000086
 50
90.566999999999993
  1
250をこえ
  0
TEXT
  8
_0-0_
 62
    7
 10
21.038901337554818
 20
159.08763552456869
 40
3.7012500000000159
 41
0.8680559999999972
 50
90
  1
±0.5
  0
TEXT
  8
_0-0_
 62
    7
 10
15.889775033688607
 20
158.6622508620687
 40
2.5380000000000109
 41
0.9999999999999952
 50
90
  1
250以下
  0
TEXT
  8
_0-0_
 62
    7
 10
12.765760784535046
 20
158.01800517984293
 40
2.5380000000000064
 41
0.9999999999999954
 50
89.553000000000011
  1
63をこえ
  0
TEXT
  8
_0-0_
 62
    7
 10
15.889775033688607
 20
144.49175086206872
 40
2.5380000000000109
 41
0.9999999999999942
 50
90
  1
63以下
  0
TEXT
  8
_0-0_
 62
    7
 10
21.038901337554818
 20
144.28263552456871
 40
3.7012500000000159
 41
0.8680559999999946
 50
90
  1
±0.3
  0
TEXT
  8
_0-0_
 62
    7
 10
12.760700685616058
 20
143.21178468234134
 40
2.5379999999999887
 41
1.0000000000000042
 50
89.496000000000009
  1
16をこえ
  0
TEXT
  8
_0-0_
 62
    7
 10
15.889775033688607
 20
129.68675086206872
 40
2.5380000000000109
 41
0.9999999999999981
 50
90
  1
16以下
  0
TEXT
  8
_0-0_
 62
    7
 10
21.03890133755479
 20
129.47763552456871
 40
3.7012499999999874
 41
0.868056000000004
 50
90
  1
±0.2
  0
TEXT
  8
_0-0_
 62
    7
 10
12.785232149502633
 20
129.04653807240916
 40
2.5380000000000042
 41
0.9999999999999997
 50
89.740000000000094
  1
4をこえ
  0
TEXT
  8
_0-0_
 62
    7
 10
21.024309532286366
 20
114.66594370753449
 40
3.7012500000000447
 41
0.8680559999999907
 50
89.792000000000086
  1
±0.1
  0
TEXT
  8
_0-0_
 62
    7
 10
14.929212533688627
 20
114.06219021269373
 40
3.7012500000000159
 41
0.8333329999999965
 50
90
  1
４以下
  0
TEXT
  8
_0-0_
 62
    7
 10
14.929212533688627
 20
103.26687709581872
 40
3.7012500000000159
 41
0.8333329999999943
 50
90
  1
寸法
  0
TEXT
  8
_0-0_
 62
    7
 10
21.020071636277521
 20
101.71720270559174
 40
3.7012499999999279
 41
0.8333330000000178
 50
89.767000000000066
  1
寸法差
  0
TEXT
  8
_7-b_
 62
    7
 10
114.1866612654137
 20
37.771921456776169
 40
3
 41
1
 50
0
  1
※2 周囲を囲ってご使用される場合にはTcポイント75℃以下になる様にご注意ください。
  0
TEXT
  8
_7-b_
 62
    7
 10
89.186661265413704
 20
39.939608316091408
 40
4
 41
1
 50
0
  1
最大Tc温度
  0
LINE
  8
_7-b_
  6
CONTINUOUS
 62
    7
 10
37.686661265413704
 20
21.939608316091437
 11
132.6866612654137
 21
21.939608316091437
  0
TEXT
  8
_7-b_
 62
    7
 10
38.186661265413704
 20
44.939608316091408
 40
4
 41
1
 50
0
  1
使用環境
  0
LINE
  8
_7-b_
  6
CONTINUOUS
 62
    7
 10
37.686661265413704
 20
44.439608316091408
 11
37.686661265413704
 21
34.439608316091408
  0
LINE
  8
_7-b_
  6
CONTINUOUS
 62
    7
 10
67.686661265413704
 20
44.439608316091408
 11
67.686661265413704
 21
34.439608316091408
  0
TEXT
  8
_7-b_
 62
    7
 10
68.936661265413704
 20
39.939608316091408
 40
4
 41
1
 50
0
  1
動作湿度
  0
LINE
  8
_7-b_
  6
CONTINUOUS
 62
    7
 10
67.686661265413704
 20
44.439608316091408
 11
67.686661265413704
 21
34.439608316091408
  0
LINE
  8
_7-b_
  6
CONTINUOUS
 62
    7
 10
87.686661265413704
 20
44.439608316091408
 11
87.686661265413704
 21
34.439608316091408
  0
LINE
  8
_7-b_
  6
CONTINUOUS
 62
    7
 10
37.686661265413704
 20
44.439608316091408
 11
37.686661265413704
 21
34.439608316091408
  0
LINE
  8
_7-b_
  6
CONTINUOUS
 62
    7
 10
37.686661265413704
 20
44.439608316091408
 11
112.6866612654137
 21
44.439608316091408
  0
LINE
  8
_7-b_
  6
CONTINUOUS
 62
    7
 10
112.6866612654137
 20
44.439608316091408
 11
112.6866612654137
 21
34.439608316091408
  0
LINE
  8
_7-b_
  6
CONTINUOUS
 62
    7
 10
37.686661265413704
 20
34.439608316091408
 11
112.6866612654137
 21
34.439608316091408
  0
LINE
  8
_7-b_
  6
CONTINUOUS
 62
    7
 10
37.686661265413704
 20
39.439608316091408
 11
112.6866612654137
 21
39.439608316091408
  0
TEXT
  8
_7-b_
 62
    7
 10
38.186661265413704
 20
72.439608316091408
 40
4
 41
1
 50
0
  1
電気特性
  0
TEXT
  8
_7-b_
 62
    7
 10
38.186661265413704
 20
27.439608316091437
 40
4
 41
1
 50
0
  1
保護機能
  0
TEXT
  8
_7-b_
 62
    7
 10
39.186661265413704
 20
22.439608316091437
 40
4
 41
1
 50
0
  1
過電圧保護
  0
LINE
  8
_7-b_
  6
CONTINUOUS
 62
    7
 10
37.686661265413704
 20
26.939608316091437
 11
132.6866612654137
 21
26.939608316091437
  0
TEXT
  8
_7-b_
 62
    7
 10
64.186661265413704
 20
22.439608316091437
 40
4
 41
1
 50
0
  1
過負荷保護
  0
TEXT
  8
_7-b_
 62
    7
 10
88.936661265413704
 20
22.439608316091437
 40
4
 41
1
 50
0
  1
短絡保護
  0
TEXT
  8
_7-b_
 62
    7
 10
109.1866612654137
 20
22.439608316091437
 40
4
 41
1
 50
0
  1
過昇温保護
  0
LINE
  8
_7-b_
  6
CONTINUOUS
 62
    7
 10
37.686661265413704
 20
26.939608316091437
 11
37.686661265413704
 21
21.939608316091437
  0
LINE
  8
_7-b_
  6
CONTINUOUS
 62
    7
 10
87.686661265413704
 20
26.939608316091437
 11
87.686661265413704
 21
21.939608316091437
  0
LINE
  8
_7-b_
  6
CONTINUOUS
 62
    7
 10
37.686661265413704
 20
26.939608316091437
 11
37.686661265413704
 21
21.939608316091437
  0
LINE
  8
_7-b_
  6
CONTINUOUS
 62
    7
 10
62.686661265413704
 20
26.939608316091437
 11
62.686661265413704
 21
21.939608316091437
  0
LINE
  8
_7-b_
  6
CONTINUOUS
 62
    7
 10
107.6866612654137
 20
26.939608316091437
 11
107.6866612654137
 21
21.939608316091437
  0
LINE
  8
_7-b_
  6
CONTINUOUS
 62
    7
 10
37.686661265413704
 20
21.939608316091437
 11
132.6866612654137
 21
21.939608316091437
  0
LINE
  8
_7-b_
  6
CONTINUOUS
 62
    7
 10
132.6866612654137
 20
26.939608316091437
 11
132.6866612654137
 21
21.939608316091437
  0
LINE
  8
_7-b_
  6
CONTINUOUS
 62
    7
 10
72.686661265413704
 20
71.939608316091408
 11
72.686661265413704
 21
51.939608316091408
  0
LINE
  8
_7-b_
  6
CONTINUOUS
 62
    7
 10
37.686661265413704
 20
71.939608316091408
 11
37.686661265413704
 21
51.939608316091408
  0
TEXT
  8
_7-b_
 62
    7
 10
50.936661265413704
 20
67.439608316091408
 40
4
 41
1
 50
0
  1
型番
  0
LINE
  8
_7-b_
  6
CONTINUOUS
 62
    7
 10
92.686661265413704
 20
71.939608316091408
 11
92.686661265413704
 21
51.939608316091408
  0
TEXT
  8
_7-b_
 62
    7
 10
73.936661265413704
 20
67.439608316091408
 40
4
 41
1
 50
0
  1
出力電力
  0
TEXT
  8
_7-b_
 62
    7
 10
113.9366612654137
 20
67.439608316091408
 40
4
 41
1
 50
0
  1
出力電流
  0
LINE
  8
_7-b_
  6
CONTINUOUS
 62
    7
 10
112.6866612654137
 20
71.939608316091408
 11
112.6866612654137
 21
51.939608316091408
  0
TEXT
  8
_7-b_
 62
    7
 10
93.936661265413704
 20
67.439608316091408
 40
4
 41
1
 50
0
  1
出力電圧
  0
LINE
  8
_7-b_
  6
CONTINUOUS
 62
    7
 10
132.6866612654137
 20
71.939608316091408
 11
132.6866612654137
 21
51.939608316091408
  0
TEXT
  8
_7-b_
 62
    7
 10
133.9366612654137
 20
67.439608316091408
 40
4
 41
1
 50
0
  1
入力電圧
  0
TEXT
  8
_7-b_
 62
    7
 10
137.1866612654137
 20
59.939608316091408
 40
4
 41
1
 50
0
  1
AC100
  0
TEXT
  8
_7-b_
 62
    7
 10
136.0616612654137
 20
54.939608316091408
 40
4
 41
1
 50
0
  1
～242V
  0
LINE
  8
_7-b_
  6
CONTINUOUS
 62
    7
 10
207.6866612654137
 20
71.939608316091408
 11
207.6866612654137
 21
51.939608316091408
  0
TEXT
  8
_7-b_
 62
    7
 10
189.9366612654137
 20
57.439608316091408
 40
4
 41
1
 50
0
  1
50/60Hz
  0
TEXT
  8
_7-b_
 62
    7
 10
191.1866612654137
 20
67.439608316091408
 40
4
 41
1
 50
0
  1
周波数
  0
LINE
  8
_7-b_
  6
CONTINUOUS
 62
    7
 10
187.6866612654137
 20
71.939608316091408
 11
187.6866612654137
 21
51.939608316091408
  0
LINE
  8
_7-b_
  6
CONTINUOUS
 62
    7
 10
152.6866612654137
 20
71.939608316091408
 11
152.6866612654137
 21
51.939608316091408
  0
LINE
  8
_7-b_
  6
CONTINUOUS
 62
    7
 10
152.6866612654137
 20
61.939608316091408
 11
187.6866612654137
 21
61.939608316091408
  0
LINE
  8
_7-b_
  6
CONTINUOUS
 62
    7
 10
152.6866612654137
 20
56.939608316091408
 11
187.6866612654137
 21
56.939608316091408
  0
TEXT
  8
_7-b_
 62
    7
 10
210.3116612654137
 20
67.439608316091408
 40
4
 41
1
 50
0
  1
効率/力率
  0
TEXT
  8
_7-b_
 62
    7
 10
215.8116612654137
 20
54.939608316091408
 40
4
 41
1
 50
0
  1
0.95
  0
TEXT
  8
_7-b_
 62
    7
 10
63.436661265413704
 20
34.939608316091408
 40
2.5
 41
1
 50
0
  1
※1
  0
TEXT
  8
_7-b_
 62
    7
 10
39.436661265413704
 20
39.939608316091408
 40
4
 41
1
 50
0
  1
使用環境温度
  0
TEXT
  8
_7-b_
 62
    7
 10
104.89550640018022
 20
34.939608316091408
 40
2.5
 41
1
 50
0
  1
※2
  0
TEXT
  8
_7-b_
 62
    7
 10
114.1866612654137
 20
41.771921456776169
 40
3
 41
1
 50
0
  1
※1 正規取り付け方向・ＬＥＤ負荷80％時の使用温度範囲
  0
TEXT
  8
_7-b_
 62
    7
 10
161.4366612654137
 20
67.439608316091408
 40
4
 41
1
 50
0
  1
入力電流
  0
TEXT
  8
_7-b_
 62
    7
 10
118.3116612654137
 20
57.439608316091408
 40
4
 41
1
 50
0
  1
2.5A
  0
TEXT
  8
_7-b_
 62
    7
 10
97.186661265413704
 20
57.439608316091408
 40
4
 41
1
 50
0
  1
DC24V
  0
TEXT
  8
_7-b_
 62
    7
 10
42.811661265413704
 20
34.939608316091408
 40
4
 41
1
 50
0
  1
-40～55℃
  0
TEXT
  8
_7-b_
 62
    7
 10
68.936661265413704
 20
34.939608316091408
 40
4
 41
1
 50
0
  1
10～90％
  0
TEXT
  8
_7-b_
 62
    7
 10
95.936661265413704
 20
34.939608316091408
 40
4
 41
1
 50
0
  1
75℃
  0
TEXT
  8
_7-b_
 62
    7
 10
79.436661265413675
 20
57.439608316091437
 40
4
 41
1
 50
0
  1
60W
  0
TEXT
  8
_7-b_
 62
    7
 10
213.68666126541373
 20
59.939608316091437
 40
4
 41
1
 50
0
  1
86.5％
  0
TEXT
  8
_7-b_
 62
    7
 10
155.6866612654137
 20
62.439608316091408
 40
4
 41
1
 50
0
  1
0.69A(AC100V)
  0
TEXT
  8
_7-b_
 62
    7
 10
155.6866612654137
 20
57.439608316091408
 40
4
 41
1
 50
0
  1
0.35A(AC200V)
  0
TEXT
  8
_7-b_
 62
    7
 10
155.6866612654137
 20
52.439608316091408
 40
4
 41
1
 50
0
  1
0.29A(AC242V)
  0
LINE
  8
_0-0_
  6
CONTINUOUS
 62
    7
 10
284.27978866487899
 20
262.37588404020914
 11
288.78473065607892
 21
262.37588404020914
  0
LINE
  8
_0-0_
  6
CONTINUOUS
 62
    7
 10
286.51969446355207
 20
266.8971027339067
 11
284.26722747235214
 21
262.39215073170663
  0
LINE
  8
_0-0_
  6
CONTINUOUS
 62
    7
 10
286.51969446355207
 20
266.8971027339067
 11
288.77216946355207
 21
262.39215073170663
  0
TEXT
  8
_0-0_
 62
    7
 10
383.06189610428725
 20
262.5604461005588
 40
4
 41
1
 50
0
  1
原田
  0
TEXT
  8
_0-0_
 62
    7
 10
285.65466446034861
 20
262.61073909690907
 40
3.0033000000000242
 41
0.9999999999999811
 50
0
  1
1
  0
TEXT
  8
_0-0_
 62
    7
 10
298.94094955365744
 20
262.89813476274048
 40
3.0032999999999674
 41
1.0000000000000133
 50
0
  1
2022 . 9. 26
  0
TEXT
  8
_7-b_
 62
    7
 10
40.686661265413732
 20
57.439608316091408
 40
4
 41
1
 50
0
  1
JPVO-060024FA
  0
LINE
  8
_7-b_
  6
CONTINUOUS
 62
    7
 10
232.6866612654137
 20
71.939608316091408
 11
232.6866612654137
 21
51.939608316091408
  0
LINE
  8
_7-b_
  6
CONTINUOUS
 62
    7
 10
232.6866612654137
 20
71.939608316091408
 11
232.6866612654137
 21
51.939608316091408
  0
LINE
  8
_7-b_
  6
CONTINUOUS
 62
    7
 10
232.6866612654137
 20
71.939608316091408
 11
232.6866612654137
 21
51.939608316091408
  0
TEXT
  8
_7-b_
 62
    7
 10
246.4366612654137
 20
67.439608316091408
 40
4
 41
1
 50
0
  1
適合規格
  0
TEXT
  8
_7-b_
 62
    7
 10
233.9366612654137
 20
62.439608316091408
 40
4
 41
1
 50
0
  1
電気用品安全法(PSE)
  0
TEXT
  8
_7-b_
 62
    7
 10
250.8116612654137
 20
57.439608316091408
 40
4
 41
1
 50
0
  1
RoHS
  0
TEXT
  8
_7-b_
 62
    7
 10
250.8116612654137
 20
52.439608316091408
 40
4
 41
1
 50
0
  1
IP67
  0
LINE
  8
_7-b_
  6
CONTINUOUS
 62
    7
 10
37.686661265413704
 20
51.939608316091408
 11
277.6866612654137
 21
51.939608316091408
  0
LINE
  8
_7-b_
  6
CONTINUOUS
 62
    7
 10
37.686661265413704
 20
66.939608316091408
 11
277.6866612654137
 21
66.939608316091408
  0
LINE
  8
_7-b_
  6
CONTINUOUS
 62
    7
 10
37.686661265413704
 20
71.939608316091408
 11
277.6866612654137
 21
71.939608316091408
  0
TEXT
  8
_6-f_
 62
    7
 10
361.39497209823184
 20
16.851859660630537
 40
7
 41
1
 50
0
  1
F5213020-1
  0
LINE
  8
_0-0_
  6
CONTINUOUS
 62
    7
 10
38.659061977894452
 20
77.226951573952845
 11
43.164003969094352
 21
77.226951573952845
  0
LINE
  8
_0-0_
  6
CONTINUOUS
 62
    7
 10
40.898967776567531
 20
81.748170267650408
 11
38.646500785367607
 21
77.243218265450337
  0
LINE
  8
_0-0_
  6
CONTINUOUS
 62
    7
 10
40.898967776567531
 20
81.748170267650408
 11
43.151442776567506
 21
77.243218265450337
  0
TEXT
  8
_0-0_
 62
    7
 10
40.033937773364016
 20
77.461806630652773
 40
3.0033000000000242
 41
0.9999999999999811
 50
0
  1
1
  0
TEXT
  8
_0-0_
 62
    7
 10
322.74039610428712
 20
262.55770611155878
 40
3.0032999999999674
 41
1.0000000000000133
 50
0
  1
TC追記・スペック表追加
  0
LINE
  8
_7-a_
  6
CONTINUOUS
 62
   18
 10
252.72063498729193
 20
212.48433026928057
 11
251.27174624785834
 21
212.09610170162676
  0
LINE
  8
_7-a_
  6
CONTINUOUS
 62
   18
 10
252.72063498729193
 20
212.48433026928057
 11
251.27174624785834
 21
212.87255883693433
  0
LINE
  8
_7-a_
  6
CONTINUOUS
 62
   18
 10
252.72063498729193
 20
212.98433026928057
 11
252.72063498729193
 21
208.63004577936879
  0
LINE
  8
_7-a_
  6
CONTINUOUS
 62
   18
 10
198.7206371123371
 20
212.48433026928057
 11
200.16952585177071
 21
212.87255883693433
  0
LINE
  8
_7-a_
  6
CONTINUOUS
 62
   18
 10
198.7206371123371
 20
212.48433026928057
 11
200.16952585177071
 21
212.09610170162676
  0
LINE
  8
_7-a_
  6
CONTINUOUS
 62
   18
 10
192.15685262060412
 20
207.88734444900404
 11
192.54508118825791
 21
206.43845570957043
  0
LINE
  8
_7-a_
  6
CONTINUOUS
 62
   18
 10
192.15685262060412
 20
207.88734444900404
 11
191.76862405295034
 21
206.43845570957043
  0
LINE
  8
_7-a_
  6
CONTINUOUS
 62
   18
 10
191.65685262060412
 20
207.88734444900404
 11
197.02081453867558
 21
207.88734444900404
  0
TEXT
  8
_7-a_
 62
    7
 10
181.09080973476255
 20
211.92074392986228
 40
4
 41
1
 50
0
  1
Tcﾎﾟｲﾝﾄ
  0
LINE
  8
_7-1_
  6
CONTINUOUS
 62
   18
 10
198.7206371123371
 20
212.48433026928057
 11
252.72063498729193
 21
212.48433026928057
  0
TEXT
  8
_7-1_
 62
    7
 10
222.47063604981451
 20
212.98433026928057
 40
4
 41
1
 50
0
  1
108
  0
LINE
  8
_7-a_
  6
CONTINUOUS
 62
   18
 10
192.15685262060412
 20
195.23734444900404
 11
191.76862405295034
 21
196.68623318843765
  0
LINE
  8
_7-a_
  6
CONTINUOUS
 62
   18
 10
192.15685262060412
 20
195.23734444900404
 11
192.54508118825791
 21
196.68623318843765
  0
LINE
  8
_7-a_
  6
CONTINUOUS
 62
   18
 10
191.65685262060412
 20
195.23734444900404
 11
197.02081453867558
 21
195.23734444900404
  0
LINE
  8
_7-a_
  6
CONTINUOUS
 62
   18
 10
197.67085180755967
 20
196.74106843306964
 11
192.63003152185666
 21
210.934957132286
  0
LINE
  8
_7-a_
  6
CONTINUOUS
 62
   18
 10
197.67085180755967
 20
196.74106843306964
 11
195.96939014544511
 21
199.2119039622691
  0
LINE
  8
_7-a_
  6
CONTINUOUS
 62
   18
 10
197.67085180755967
 20
196.74106843306964
 11
197.43276054920289
 21
199.73160560098682
  0
LINE
  8
_7-a_
  6
CONTINUOUS
 62
   18
 10
198.7206371123371
 20
212.98433026928057
 11
198.7206371123371
 21
197.61541538475017
  0
LINE
  8
_7-a_
  6
CONTINUOUS
 62
   18
 10
192.15685262060412
 20
195.23734444900404
 11
192.15685262060412
 21
207.88734444900404
  0
TEXT
  8
_7-a_
 62
    7
 10
191.65685262060412
 20
195.63734444900399
 40
4
 41
1
 50
90
  1
25.3
  0
CIRCLE
  8
_7-1_
  6
CONTINUOUS
 62
    7
 10
198.7206371123371
 20
195.23734444900404
 40
1
  0
TEXT
  8
_7-a_
 62
    7
 10
172.58001945891854
 20
214.04320619320847
 40
4
 41
1
 50
0
  1
①
  0
LINE
  8
_7-a_
  6
CONTINUOUS
 62
   18
 10
173.26300686356637
 20
213.33124356533315
 11
168.56228709930996
 21
202.8174840597432
  0
LINE
  8
_7-a_
  6
CONTINUOUS
 62
   18
 10
168.56228709930996
 20
202.8174840597432
 11
168.79925276110571
 21
204.2986482218568
  0
LINE
  8
_7-a_
  6
CONTINUOUS
 62
   18
 10
168.56228709930996
 20
202.8174840597432
 11
169.50808746330648
 21
203.9817270204108
  0
LINE
  8
_0-0_
  6
CONTINUOUS
 62
    7
 10
181.28965411826359
 20
216.84190759018252
 11
185.79459610946352
 21
216.84190759018252
  0
LINE
  8
_0-0_
  6
CONTINUOUS
 62
    7
 10
183.52955991693667
 20
221.36312628388009
 11
181.27709292573678
 21
216.85817428168002
  0
LINE
  8
_0-0_
  6
CONTINUOUS
 62
    7
 10
183.52955991693667
 20
221.36312628388009
 11
185.78203491693668
 21
216.85817428168002
  0
TEXT
  8
_0-0_
 62
    7
 10
182.66452991373319
 20
217.07676264688245
 40
3.0033000000000242
 41
0.9999999999999811
 50
0
  1
1
  0
ENDSEC
  0
EOF
