  0
SECTION
  2
HEADER
  9
$ACADVER
  1
AC1009
  9
$INSBASE
 10
0
 20
0
 30
0
  9
$EXTMIN
 10
0
 20
0
  9
$EXTMAX
 10
420
 20
297
  9
$LIMMIN
 10
0
 20
0
  9
$LIMMAX
 10
420
 20
297
  9
$LTSCALE
 40
1
  0
ENDSEC
  0
SECTION
  2
TABLES
  0
TABLE
  2
LTYPE
 70
     9
  0
LTYPE
  2
CONTINUOUS
 70
    64
  3
実線
 72
    65
 73
     0
 40
0.0
  0
LTYPE
  2
DASHED1
 70
    64
  3
--  --  --  --  --  --  --  --  
 72
    65
 73
     2
 40
2.5
 49
1.25
 49
-1.25
  0
LTYPE
  2
DASHED2
 70
    64
  3
----    ----    ----    ----    
 72
    65
 73
     2
 40
5.0
 49
2.5
 49
-2.5
  0
LTYPE
  2
DASHED3
 70
    64
  3
------  ------  ------  ------  
 72
    65
 73
     2
 40
5.0
 49
3.75
 49
-1.25
  0
LTYPE
  2
CENTER1
 70
    64
  3
----- - ----- - ----- - ----- - 
 72
    65
 73
     4
 40
10.0
 49
6.25
 49
-1.25
 49
1.25
 49
-1.25
  0
LTYPE
  2
CENTER2
 70
    64
  3
----------  --  ----------  --  
 72
    65
 73
     4
 40
20.0
 49
12.5
 49
-2.5
 49
2.5
 49
-2.5
  0
LTYPE
  2
PHANTOM1
 70
    64
  3
--- - - --- - - --- - - --- - - 
 72
    65
 73
     6
 40
10.0
 49
3.25
 49
-1.25
 49
1.25
 49
-1.25
 49
1.25
 49
-1.25
  0
LTYPE
  2
PHANTOM2
 70
    64
  3
--------  -  -  --------  -  -  
 72
    65
 73
     6
 40
20.0
 49
10.0
 49
-2.5
 49
1.25
 49
-2.5
 49
1.25
 49
-2.5
  0
LTYPE
  2
DOT
 70
    64
  3
-   -   -   -   -   -   -   -   
 72
    65
 73
     2
 40
2.5
 49
0.625
 49
-1.875
  0
LTYPE
  2
DUMMY
 70
    64
  3
ダミー
 72
    65
 73
     0
 40
0.0
  0
LTYPE
  2
RAND1
 70
    64
  3
ランダム線1
 72
    65
 73
     4
 40
10.0
 49
1.0
 49
-2.0
 49
3.0
 49
-4.0
  0
LTYPE
  2
RAND2
 70
    64
  3
ランダム線2
 72
    65
 73
     4
 40
14.0
 49
2.0
 49
-3.0
 49
4.0
 49
-5.0
  0
LTYPE
  2
RAND3
 70
    64
  3
ランダム線3
 72
    65
 73
     4
 40
18.0
 49
3.0
 49
-4.0
 49
5.0
 49
-6.0
  0
LTYPE
  2
RAND4
 70
    64
  3
ランダム線4
 72
    65
 73
     4
 40
22.0
 49
4.0
 49
-5.0
 49
6.0
 49
-7.0
  0
LTYPE
  2
RAND5
 70
    64
  3
ランダム線5
 72
    65
 73
     4
 40
26.0
 49
5.0
 49
-6.0
 49
7.0
 49
-8.0
  0
LTYPE
  2
LONG1
 70
    64
  3
----------  --  ----------  --  
 72
    65
 73
     4
 40
40.0
 49
32.5
 49
-2.5
 49
2.5
 49
-2.5
  0
LTYPE
  2
LONG2
 70
    64
  3
--------  -  -  --------  -  -  
 72
    65
 73
     6
 40
40.0
 49
30.0
 49
-2.5
 49
1.25
 49
-2.5
 49
1.25
 49
-2.5
  0
LTYPE
  2
LONG3
 70
    64
  3
+++++++++++++++..+++++++++++++++
 72
    65
 73
     2
 40
40.0
 49
37.5
 49
-2.5
  0
LTYPE
  2
LONG4
 70
    64
  3
+++++++++++++++..+++++++++++++++
 72
    65
 73
     2
 40
80.0
 49
75.0
 49
-5.0
  0
LTYPE
  2
LONG5
 70
    64
  3
----------  --  ----------  --  
 72
    65
 73
     4
 40
60.0
 49
37.5
 49
-7.5
 49
7.5
 49
-7.5
  0
LTYPE
  2
dashed
 70
   64
  3
-------   -------------   ------
 72
   65
 73
    2
 40
7.5
 49
6
 49
-1.5
  0
LTYPE
  2
dashed_spaced
 70
   64
  3
----        --------        ----
 72
   65
 73
    2
 40
12
 49
6
 49
-6
  0
LTYPE
  2
long_dashed_dotted
 70
   64
  3
------------- --- --------------
 72
   65
 73
    4
 40
15.25
 49
12
 49
-1.5
 49
0.25
 49
-1.5
  0
LTYPE
  2
long_dashed_double-dotted
 70
   64
  3
----------- --- --- ------------
 72
   65
 73
    6
 40
17
 49
12
 49
-1.5
 49
0.25
 49
-1.5
 49
0.25
 49
-1.5
  0
LTYPE
  2
long_dashed_triplicate-dotted
 70
   64
  3
--------- --- --- --- ----------
 72
   65
 73
    8
 40
18.75
 49
12
 49
-1.5
 49
0.25
 49
-1.5
 49
0.25
 49
-1.5
 49
0.25
 49
-1.5
  0
LTYPE
  2
dotted
 70
   64
  3
   -       -       -       -    
 72
   65
 73
    2
 40
1.75
 49
0.25
 49
-1.5
  0
LTYPE
  2
chain
 70
   64
  3
-------------- -- --------------
 72
   65
 73
    4
 40
18.5
 49
12
 49
-1.5
 49
3.5
 49
-1.5
  0
LTYPE
  2
chain_double_dash
 70
   64
  3
------------ -- -- -------------
 72
   65
 73
    6
 40
23.5
 49
12
 49
-1.5
 49
3.5
 49
-1.5
 49
3.5
 49
-1.5
  0
LTYPE
  2
dashed_dotted
 70
   64
  3
-----------     -     ----------
 72
   65
 73
    4
 40
9.25
 49
6
 49
-1.5
 49
0.25
 49
-1.5
  0
LTYPE
  2
double-dashed_dotted
 70
   64
  3
------   -----------   -   -----
 72
   65
 73
    6
 40
16.75
 49
6
 49
-1.5
 49
6
 49
-1.5
 49
0.25
 49
-1.5
  0
LTYPE
  2
dashed_double-dotted
 70
   64
  3
---------    -    -    ---------
 72
   65
 73
    6
 40
11
 49
6
 49
-1.5
 49
0.25
 49
-1.5
 49
0.25
 49
-1.5
  0
LTYPE
  2
double-dashed_double-dotted
 70
   64
  3
-----   ---------   -   -   ----
 72
   65
 73
    8
 40
18.5
 49
6
 49
-1.5
 49
6
 49
-1.5
 49
0.25
 49
-1.5
 49
0.25
 49
-1.5
  0
LTYPE
  2
dashed_triplicate-dotted
 70
   64
  3
-------    -    -    -    ------
 72
   65
 73
    8
 40
12.75
 49
6
 49
-1.5
 49
0.25
 49
-1.5
 49
0.25
 49
-1.5
 49
0.25
 49
-1.5
  0
LTYPE
  2
double-dashed_triplicate-dotted
 70
   64
  3
-----  ---------  -  -  -  -----
 72
   65
 73
   10
 40
20.25
 49
6
 49
-1.5
 49
6
 49
-1.5
 49
0.25
 49
-1.5
 49
0.25
 49
-1.5
 49
0.25
 49
-1.5
  0
LTYPE
  2
undefined
 70
   64
  3
--------------------------------
 72
   65
 73
    0
 40
0
  0
LTYPE
  2
_
 70
   64
  3
                                
 72
   65
 73
    0
 40
0
  0
LTYPE
  2
__18
 70
   64
  3
                                
 72
   65
 73
    0
 40
0
  0
LTYPE
  2
__19
 70
   64
  3
                                
 72
   65
 73
    0
 40
0
  0
LTYPE
  2
__20
 70
   64
  3
                                
 72
   65
 73
    0
 40
0
  0
LTYPE
  2
__21
 70
   64
  3
                                
 72
   65
 73
    0
 40
0
  0
LTYPE
  2
__22
 70
   64
  3
                                
 72
   65
 73
    0
 40
0
  0
LTYPE
  2
__23
 70
   64
  3
                                
 72
   65
 73
    0
 40
0
  0
LTYPE
  2
__24
 70
   64
  3
                                
 72
   65
 73
    0
 40
0
  0
LTYPE
  2
__25
 70
   64
  3
                                
 72
   65
 73
    0
 40
0
  0
LTYPE
  2
__26
 70
   64
  3
                                
 72
   65
 73
    0
 40
0
  0
LTYPE
  2
__27
 70
   64
  3
                                
 72
   65
 73
    0
 40
0
  0
LTYPE
  2
__28
 70
   64
  3
                                
 72
   65
 73
    0
 40
0
  0
LTYPE
  2
__29
 70
   64
  3
                                
 72
   65
 73
    0
 40
0
  0
LTYPE
  2
__30
 70
   64
  3
                                
 72
   65
 73
    0
 40
0
  0
LTYPE
  2
__31
 70
   64
  3
                                
 72
   65
 73
    0
 40
0
  0
LTYPE
  2
__32
 70
   64
  3
                                
 72
   65
 73
    0
 40
0
  0
ENDTAB
  0
TABLE
  2
STYLE
  5
3
100
AcDbSymbolTable
 70
     1
  0
STYLE
  5
10
100
AcDbSymbolTableRecord
100
AcDbTextStyleTableRecord
  2
STANDARD
 70
     0
 40
0.0
 41
1.0
 50
0.0
 71
     0
 42
0.2
  3
txt
  4
bigfont.shx
  0
STYLE
  5
26
100
AcDbSymbolTableRecord
100
AcDbTextStyleTableRecord
  2
TATEGAKI
 70
    68
 40
0.0
 41
1.0
 50
0.0
 71
     0
 42
1.0
  3
txt
  4
bigfont.shx
  0
ENDTAB
  0
TABLE
  2
LAYER
 70
    8
  0
LAYER
  2
_0-0_
 70
   64
 62
    7
  6
CONTINUOUS
  0
LAYER
  2
_7-1_
 70
   64
 62
    7
  6
CONTINUOUS
  0
LAYER
  2
_7-2_
 70
   64
 62
    7
  6
CONTINUOUS
  0
LAYER
  2
_7-4_
 70
   64
 62
    7
  6
CONTINUOUS
  0
LAYER
  2
_7-a_
 70
   64
 62
    7
  6
CONTINUOUS
  0
LAYER
  2
_7-b_
 70
   64
 62
    7
  6
CONTINUOUS
  0
LAYER
  2
_8-0_
 70
   64
 62
    7
  6
CONTINUOUS
  0
LAYER
  2
ADD_LINE
 70
   64
 62
    7
  6
CONTINUOUS
  0
ENDTAB
  0
ENDSEC
  0
SECTION
  2
BLOCKS
  0
ENDSEC
  0
SECTION
  2
ENTITIES
  0
LINE
  8
_7-2_
  6
CONTINUOUS
 62
    7
 10
307.2135767899806
 20
50.494578857844174
 11
307.2135767899806
 21
45.454579086726027
  0
LINE
  8
_7-2_
  6
CONTINUOUS
 62
    7
 10
402.213570686465
 20
55.53457862896235
 11
307.2135767899806
 21
55.53457862896235
  0
LINE
  8
_7-2_
  6
CONTINUOUS
 62
    7
 10
402.213570686465
 20
60.574578400080497
 11
307.2135767899806
 21
60.574578400080497
  0
LINE
  8
_7-2_
  6
CONTINUOUS
 62
    7
 10
402.213570686465
 20
50.494578857844174
 11
307.2135767899806
 21
50.494578857844174
  0
TEXT
  8
_7-2_
 62
    7
 10
379.21472874329009
 20
45.961054277623276
 40
4
 41
1
 50
0
  1
仕様
  0
TEXT
  8
_7-2_
 62
    7
 10
308.12745484530125
 20
50.955830853027862
 40
4
 41
1
 50
0
  1
①
  0
TEXT
  8
_7-2_
 62
    7
 10
308.05386697678699
 20
56.121699222728068
 40
4
 41
1
 50
0
  1
②
  0
TEXT
  8
_7-2_
 62
    7
 10
308.24519543492408
 20
61.140391855399769
 40
4
 41
1
 50
0
  1
③
  0
LINE
  8
_7-2_
  6
CONTINUOUS
 62
    7
 10
313.36094520988967
 20
50.494578857844174
 11
313.36094520988967
 21
45.454579086726027
  0
TEXT
  8
_7-2_
 62
    7
 10
314.11296854775656
 20
55.930370764591032
 40
4
 41
1
 50
0
  1
AC1次側入力線
  0
TEXT
  8
_7-2_
 62
    7
 10
322.87728368780346
 20
51.007342360987848
 40
4
 41
1
 50
0
  1
本体
  0
TEXT
  8
_7-2_
 62
    7
 10
320.66964763237604
 20
45.797321270179111
 40
4
 41
1
 50
0
  1
部品名
  0
TEXT
  8
_7-2_
 62
    7
 10
365.17281384076113
 20
51.060693565660642
 40
4
 41
1
 50
0
  1
ｼﾙﾊﾞｰｱﾙﾏｲﾄ処理
  0
LINE
  8
_7-2_
  6
CONTINUOUS
 62
    7
 10
360.93784338267664
 20
50.494578857844174
 11
360.93784338267664
 21
45.454579086726027
  0
LINE
  8
_7-2_
  6
CONTINUOUS
 62
    7
 10
344.44860018791183
 20
50.494578857844174
 11
344.44860018791183
 21
45.454579086726027
  0
TEXT
  8
_7-2_
 62
    7
 10
346.01275461731017
 20
51.062533262373506
 40
4
 41
1
 50
0
  1
アルミ
  0
TEXT
  8
_7-2_
 62
    7
 10
349.02299992115575
 20
45.896664892673328
 40
4
 41
1
 50
0
  1
材質
  0
TEXT
  8
_7-2_
 62
    7
 10
350.44392210198481
 20
61.018971872351244
 40
4
 41
1
 50
0
  1
ー
  0
TEXT
  8
_7-2_
 62
    7
 10
350.44392210198481
 20
55.720645339325386
 40
4
 41
1
 50
0
  1
ー
  0
TEXT
  8
_7-2_
 62
    7
 10
365.56878535667129
 20
55.858622592789714
 40
4
 41
1
 50
0
  1
PNCTF 0.75m㎡
  0
TEXT
  8
_7-2_
 62
    7
 10
363.58191290678661
 20
61.156949125815557
 40
4
 41
1
 50
0
  1
UL AWG17 1.07m㎡
  0
TEXT
  8
_7-2_
 62
    7
 10
314.11296854775656
 20
61.250773658171112
 40
4
 41
1
 50
0
  1
DC2次側出力線
  0
TEXT
  8
_7-4_
 62
    7
 10
391.04398672804256
 20
38.391065596810932
 40
4
 41
1
 50
0
  1
1
  0
TEXT
  8
_7-4_
 62
    7
 10
396.67345866938251
 20
38.457294678473758
 40
4
 41
1
 50
0
  1
2
  0
LINE
  8
_7-2_
  6
CONTINUOUS
 62
    7
 10
307.2135767899806
 20
65.614578171198672
 11
307.2135767899806
 21
50.494578857844174
  0
LINE
  8
_7-2_
  6
CONTINUOUS
 62
    7
 10
402.213570686465
 20
65.614578171198672
 11
307.2135767899806
 21
65.614578171198672
  0
LINE
  8
_7-2_
  6
CONTINUOUS
 62
    7
 10
313.36094520988967
 20
65.614578171198672
 11
313.36094520988967
 21
50.494578857844174
  0
LINE
  8
_7-2_
  6
CONTINUOUS
 62
    7
 10
344.44860018791183
 20
65.614578171198672
 11
344.44860018791183
 21
50.494578857844174
  0
LINE
  8
_7-2_
  6
CONTINUOUS
 62
    7
 10
360.93784338267664
 20
65.614578171198672
 11
360.93784338267664
 21
50.494578857844174
  0
TEXT
  8
_7-4_
 62
    7
 10
360.87355021425588
 20
28.200966092483113
 40
5
 41
1
 50
0
  1
JPVO-030024FA
  0
TEXT
  8
_7-4_
 62
    7
 10
358.66436697464791
 20
38.443542930665387
 40
4
 41
1
 50
0
  1
21
  0
TEXT
  8
_7-4_
 62
    7
 10
373.73532837161837
 20
38.443542930665387
 40
4
 41
1
 50
0
  1
18
  0
LINE
  8
_7-a_
  6
CONTINUOUS
 62
   18
 10
259.1843736261552
 20
217.74718551288722
 11
257.73548488672162
 21
217.35895694523344
  0
LINE
  8
_7-a_
  6
CONTINUOUS
 62
   18
 10
259.1843736261552
 20
217.74718551288722
 11
257.73548488672162
 21
218.13541408054101
  0
LINE
  8
_7-a_
  6
CONTINUOUS
 62
   18
 10
259.1843736261552
 20
218.24718551288722
 11
259.1843736261552
 21
200.73229560317713
  0
LINE
  8
_7-a_
  6
CONTINUOUS
 62
   18
 10
259.1843736261552
 20
217.74718551288722
 11
334.16171834467218
 21
217.74718551288722
  0
LINE
  8
_7-a_
  6
CONTINUOUS
 62
   18
 10
259.1843736261552
 20
217.74718551288722
 11
260.63326236558879
 21
218.13541408054101
  0
LINE
  8
_7-a_
  6
CONTINUOUS
 62
   18
 10
259.1843736261552
 20
217.74718551288722
 11
260.63326236558879
 21
217.35895694523344
  0
LINE
  8
_7-a_
  6
CONTINUOUS
 62
   18
 10
334.16171834467218
 20
217.74718551288722
 11
332.71282960523859
 21
217.35895694523344
  0
LINE
  8
_7-a_
  6
CONTINUOUS
 62
   18
 10
334.16171834467218
 20
217.74718551288722
 11
332.71282960523859
 21
218.13541408054101
  0
LINE
  8
_7-a_
  6
CONTINUOUS
 62
   18
 10
334.16171834467218
 20
218.24718551288722
 11
334.16171834467218
 21
183.2675997903747
  0
CIRCLE
  8
_7-a_
  6
CONTINUOUS
 62
    7
 10
236.6843736261552
 20
185.47989327285986
 40
1
  0
LINE
  8
_7-a_
  6
CONTINUOUS
 62
   18
 10
236.6843736261552
 20
204.17687909313639
 11
238.13326236558881
 21
204.56510766079017
  0
LINE
  8
_7-a_
  6
CONTINUOUS
 62
   18
 10
236.6843736261552
 20
204.17687909313639
 11
238.13326236558881
 21
203.7886505254826
  0
TEXT
  8
_7-a_
 62
    7
 10
245.8093736261552
 20
204.67687909313639
 40
4
 41
1
 50
0
  1
45
  0
LINE
  8
_7-a_
  6
CONTINUOUS
 62
   18
 10
230.12058913442223
 20
185.47989327285986
 11
230.12058913442223
 21
199.57989327285986
  0
LINE
  8
_7-a_
  6
CONTINUOUS
 62
   18
 10
230.12058913442223
 20
185.47989327285986
 11
229.73236056676844
 21
186.92878201229348
  0
LINE
  8
_7-a_
  6
CONTINUOUS
 62
   18
 10
230.12058913442223
 20
185.47989327285986
 11
230.50881770207598
 21
186.92878201229348
  0
LINE
  8
_7-a_
  6
CONTINUOUS
 62
   18
 10
230.12058913442223
 20
199.57989327285986
 11
230.50881770207598
 21
198.13100453342627
  0
LINE
  8
_7-a_
  6
CONTINUOUS
 62
   18
 10
230.12058913442223
 20
199.57989327285986
 11
229.73236056676844
 21
198.13100453342627
  0
LINE
  8
_7-a_
  6
CONTINUOUS
 62
   18
 10
229.62058913442223
 20
185.47989327285986
 11
234.98455105249365
 21
185.47989327285986
  0
LINE
  8
_7-a_
  6
CONTINUOUS
 62
   18
 10
229.62058913442223
 20
199.57989327285986
 11
234.98455105249365
 21
199.57989327285986
  0
TEXT
  8
_7-a_
 62
    7
 10
229.62058913442223
 20
187.32989327285986
 40
4
 41
1
 50
90
  1
28.2
  0
LINE
  8
_7-a_
  6
CONTINUOUS
 62
   18
 10
236.6843736261552
 20
204.67687909313639
 11
236.6843736261552
 21
187.25029161824775
  0
LINE
  8
_7-a_
  6
CONTINUOUS
 62
   18
 10
236.05138003319066
 20
187.2600195420839
 11
235.2006492021334
 21
188.49543730668364
  0
LINE
  8
_7-a_
  6
CONTINUOUS
 62
   18
 10
236.05138003319066
 20
187.2600195420839
 11
235.93233440401229
 21
188.7552881260425
  0
LINE
  8
_7-a_
  6
CONTINUOUS
 62
   18
 10
236.05138003319066
 20
187.2600195420839
 11
230.59376803567477
 21
202.62750595614181
  0
TEXT
  8
_7-a_
 62
    7
 10
219.05454624858066
 20
203.61329275371809
 40
4
 41
1
 50
0
  1
Tcﾎﾟｲﾝﾄ
  0
LINE
  8
_7-a_
  6
CONTINUOUS
 62
   18
 10
236.6843736261552
 20
204.17687909313639
 11
259.1843736261552
 21
204.17687909313639
  0
LINE
  8
_7-a_
  6
CONTINUOUS
 62
   18
 10
259.1843736261552
 20
204.17687909313639
 11
257.73548488672162
 21
204.56510766079017
  0
LINE
  8
_7-a_
  6
CONTINUOUS
 62
   18
 10
259.1843736261552
 20
204.17687909313639
 11
257.73548488672162
 21
203.7886505254826
  0
LINE
  8
_7-a_
  6
CONTINUOUS
 62
   18
 10
271.70224254054244
 20
191.02989822185392
 11
271.70224254054244
 21
188.02989822185392
  0
LINE
  8
_7-a_
  6
CONTINUOUS
 62
   18
 10
271.70224254054244
 20
191.02989822185392
 11
271.70224254054244
 21
193.12989822185397
  0
LINE
  8
_7-a_
  6
CONTINUOUS
 62
   18
 10
271.70224254054244
 20
191.02989822185392
 11
272.09047110819625
 21
189.58100948242031
  0
LINE
  8
_7-a_
  6
CONTINUOUS
 62
   18
 10
271.70224254054244
 20
191.02989822185392
 11
271.31401397288868
 21
189.58100948242031
  0
LINE
  8
_7-a_
  6
CONTINUOUS
 62
   18
 10
271.70224254054244
 20
193.12989822185397
 11
271.31401397288868
 21
194.57878696128756
  0
LINE
  8
_7-a_
  6
CONTINUOUS
 62
   18
 10
271.70224254054244
 20
193.12989822185397
 11
272.09047110819625
 21
194.57878696128756
  0
LINE
  8
_7-a_
  6
CONTINUOUS
 62
   18
 10
272.20224254054244
 20
191.02989822185392
 11
264.05151739444045
 21
191.02989822185392
  0
LINE
  8
_7-a_
  6
CONTINUOUS
 62
   18
 10
272.20224254054244
 20
193.12989822185397
 11
264.05151739444045
 21
193.12989822185397
  0
TEXT
  8
_7-a_
 62
    7
 10
271.20224254054244
 20
195.07878696128756
 40
4
 41
1
 50
90
  1
4.2
  0
LINE
  8
_7-a_
  6
CONTINUOUS
 62
   18
 10
271.70224254054244
 20
193.12989822185397
 11
271.70224254054244
 21
201.57878696128756
  0
TEXT
  8
_7-a_
 62
    7
 10
56.151130688013779
 20
189.65296069541494
 40
4
 41
1
 50
0
  1
PE (G/Y)
  0
TEXT
  8
_7-a_
 62
    7
 10
55.853099820531099
 20
184.48709232571474
 40
4
 41
1
 50
0
  1
AC/L(BLACK)
  0
TEXT
  8
_7-a_
 62
    7
 10
55.455725330554173
 20
178.9238494660376
 40
4
 41
1
 50
0
  1
AC/N(WHITE)
  0
TEXT
  8
_7-a_
 62
    7
 10
296.75545211924077
 20
189.3173758982719
 40
4
 41
1
 50
0
  1
③
  0
TEXT
  8
_7-a_
 62
    7
 10
343.21773696425799
 20
183.02311015867695
 40
4
 41
1
 50
0
  1
黒色配線：－極性
  0
TEXT
  8
_7-a_
 62
    7
 10
343.11839334176374
 20
176.16840020657477
 40
4
 41
1
 50
0
  1
赤色配線：＋極性
  0
LINE
  8
_0-0_
  6
CONTINUOUS
 62
    7
 10
22.213590141421036
 20
15.454571814959365
 11
22.213590141421036
 21
272.45457753700526
  0
LINE
  8
_0-0_
  6
CONTINUOUS
 62
    7
 10
22.213590141421036
 20
272.45457753700526
 11
402.2135825120265
 21
272.45457753700526
  0
LINE
  8
_0-0_
  6
CONTINUOUS
 62
    7
 10
402.2135825120265
 20
272.45457753700526
 11
402.2135825120265
 21
15.454571814959365
  0
LINE
  8
_0-0_
  6
CONTINUOUS
 62
    7
 10
402.2135825120265
 20
15.454571814959365
 11
22.213590141421036
 21
15.454571814959365
  0
LINE
  8
_0-0_
  6
CONTINUOUS
 62
    7
 10
357.2135767899806
 20
35.454576583330947
 11
357.2135767899806
 21
15.454571814959365
  0
LINE
  8
_0-0_
  6
CONTINUOUS
 62
    7
 10
357.2135767899806
 20
45.454579086726027
 11
357.2135767899806
 21
35.454576583330947
  0
LINE
  8
_0-0_
  6
CONTINUOUS
 62
    7
 10
352.2135767899806
 20
35.454576583330947
 11
352.2135767899806
 21
15.454571814959365
  0
LINE
  8
_0-0_
  6
CONTINUOUS
 62
    7
 10
317.23655747998304
 20
31.733779998247939
 11
317.23655747998304
 21
28.733783812945205
  0
LINE
  8
_0-0_
  6
CONTINUOUS
 62
    7
 10
317.23655747998304
 20
31.733779998247939
 11
324.23655700314589
 21
33.233779998247939
  0
LINE
  8
_0-0_
  6
CONTINUOUS
 62
    7
 10
324.23655700314589
 20
33.233779998247939
 11
324.23655700314589
 21
27.233779044573623
  0
LINE
  8
_0-0_
  6
CONTINUOUS
 62
    7
 10
317.23655747998304
 20
28.733783812945205
 11
324.23655700314589
 21
27.233779044573623
  0
LINE
  8
_0-0_
  6
CENTER2
 62
    7
 10
326.23652660477705
 20
30.233781905596572
 11
308.23655652630873
 21
30.233781905596572
  0
LINE
  8
_0-0_
  6
CENTER2
 62
    7
 10
312.23652696240492
 20
34.233783812945205
 11
312.23652696240492
 21
26.233780951922256
  0
LINE
  8
_0-0_
  6
CONTINUOUS
 62
    7
 10
352.2135767899806
 20
45.454579086726027
 11
352.2135767899806
 21
15.454571814959365
  0
LINE
  8
_0-0_
  6
CONTINUOUS
 62
    7
 10
382.21357488263197
 20
45.454579086726027
 11
382.21357488263197
 21
35.454576583330947
  0
LINE
  8
_0-0_
  6
CONTINUOUS
 62
    7
 10
387.21360921490736
 20
45.454579086726027
 11
387.21360921490736
 21
35.454576583330947
  0
LINE
  8
_0-0_
  6
CONTINUOUS
 62
    7
 10
327.21360826123304
 20
35.454576583330947
 11
327.21360826123304
 21
25.454573722307998
  0
LINE
  8
_0-0_
  6
CONTINUOUS
 62
    7
 10
332.21357726681776
 20
35.454576583330947
 11
332.21357726681776
 21
25.454573722307998
  0
LINE
  8
_0-0_
  6
CONTINUOUS
 62
    7
 10
342.21360730755873
 20
45.454579086726027
 11
342.21360730755873
 21
35.454576583330947
  0
LINE
  8
_0-0_
  6
CONTINUOUS
 62
    7
 10
337.2135767899806
 20
45.454579086726027
 11
337.2135767899806
 21
35.454576583330947
  0
LINE
  8
_0-0_
  6
CONTINUOUS
 62
    7
 10
327.21360826123304
 20
45.454579086726027
 11
327.21360826123304
 21
35.454576583330947
  0
LINE
  8
_0-0_
  6
CONTINUOUS
 62
    7
 10
322.21357726681776
 20
45.454579086726027
 11
322.21357726681776
 21
35.454576583330947
  0
LINE
  8
_0-0_
  6
CONTINUOUS
 62
    7
 10
312.21357774365492
 20
45.454579086726027
 11
312.21357774365492
 21
35.454576583330947
  0
LINE
  8
_0-0_
  6
CONTINUOUS
 62
    7
 10
402.2135825120265
 20
45.454579086726027
 11
307.2135767899806
 21
45.454579086726027
  0
LINE
  8
_0-0_
  6
CONTINUOUS
 62
    7
 10
402.2135825120265
 20
35.454576583330947
 11
307.2135767899806
 21
35.454576583330947
  0
LINE
  8
_0-0_
  6
CONTINUOUS
 62
    7
 10
402.2135825120265
 20
25.454573722307998
 11
307.2135767899806
 21
25.454573722307998
  0
CIRCLE
  8
_0-0_
  6
CONTINUOUS
 62
    7
 10
312.23652696240492
 20
30.233781905596572
 40
3
  0
CIRCLE
  8
_0-0_
  6
CONTINUOUS
 62
    7
 10
312.23652696240492
 20
30.233781905596572
 40
1.5
  0
TEXT
  8
_0-0_
 62
    7
 10
354.8394312821681
 20
23.580647494021192
 40
3
 41
1
 50
-0.0000025044782034
  1
図番
  7
TATEGAKI
  0
TEXT
  8
_0-0_
 62
    7
 10
354.71668958294935
 20
33.732334162417217
 40
3
 41
1
 50
-0.0000025044782034
  1
品名
  7
TATEGAKI
  0
TEXT
  8
_0-0_
 62
    7
 10
354.79249524701185
 20
43.530579234782024
 40
3
 41
1
 50
-0.0000025044782034
  1
作図
  7
TATEGAKI
  0
TEXT
  8
_0-0_
 62
    7
 10
384.49153279889173
 20
43.468367125216289
 40
3
 41
1
 50
-0.0000025044782034
  1
尺度
  7
TATEGAKI
  0
TEXT
  8
_0-0_
 62
    7
 10
329.78111314404554
 20
33.732334162417217
 40
3
 41
1
 50
-0.0000025044782034
  1
材質
  7
TATEGAKI
  0
TEXT
  8
_0-0_
 62
    7
 10
309.71464490521498
 20
43.449549223604932
 40
3
 41
1
 50
-0.0000025044780613
  1
設計
  7
TATEGAKI
  0
TEXT
  8
_0-0_
 62
    7
 10
324.69724988568373
 20
43.449549223604961
 40
3
 41
1
 50
-0.0000025044782034
  1
製図
  7
TATEGAKI
  0
TEXT
  8
_0-0_
 62
    7
 10
339.67985486615248
 20
43.449549223604961
 40
3
 41
1
 50
-0.0000025044782034
  1
検図
  7
TATEGAKI
  0
TEXT
  8
_0-0_
 62
    7
 10
312.95114564526625
 20
18.359829993670302
 40
4
 41
1
 50
0
  1
ＦＫＫ株式会社
  0
LINE
  8
_0-0_
  6
CONTINUOUS
 62
    7
 10
402.2135825120265
 20
45.454579086726027
 11
307.2135767899806
 21
45.454579086726027
  0
LINE
  8
_0-0_
  6
CONTINUOUS
 62
    7
 10
307.2135767899806
 20
45.454579086726027
 11
307.2135767899806
 21
15.454571814959365
  0
LINE
  8
_0-0_
  6
CONTINUOUS
 62
    7
 10
402.2135825120265
 20
45.454579086726027
 11
307.2135767899806
 21
45.454579086726027
  0
TEXT
  8
_0-0_
 62
    7
 10
393.33667453738036
 20
39.256827770131408
 40
3
 41
1
 50
0
  1
：
  0
TEXT
  8
_0-0_
 62
    7
 10
327.98929362216568
 20
38.472913751075878
 40
4
 41
1
 50
0
  1
森田
  0
TEXT
  8
_0-0_
 62
    7
 10
312.80075756082493
 20
38.649524635510076
 40
4
 41
1
 50
0
  1
森田
  0
TEXT
  8
_0-0_
 62
    7
 10
363.18315087384598
 20
39.046047450558475
 40
3
 41
1
 50
0
  1
年　 月　 日
  0
LINE
  8
_0-0_
  6
CONTINUOUS
 62
    7
 10
9.9942125336886249
 20
101.41625086206869
 11
9.9942125336886249
 21
185.31125086206873
  0
LINE
  8
_0-0_
  6
CONTINUOUS
 62
    7
 10
16.162962533688613
 20
262.4971183620687
 11
16.162962533688613
 21
210.67961836206876
  0
LINE
  8
_0-0_
  6
CONTINUOUS
 62
    7
 10
9.9942125336886249
 20
210.67961836206876
 11
9.9942125336886249
 21
262.4971183620687
  0
LINE
  8
_0-0_
  6
CONTINUOUS
 62
    7
 10
16.162962533688613
 20
185.31125086206873
 11
16.162962533688613
 21
101.41625086206869
  0
LINE
  8
_0-0_
  6
CONTINUOUS
 62
    7
 10
9.9942125336886249
 20
262.4971183620687
 11
22.213590141421036
 21
262.4971183620687
  0
LINE
  8
_0-0_
  6
CONTINUOUS
 62
    7
 10
9.9942125336886249
 20
245.22461836206872
 11
22.213590141421036
 21
245.22461836206872
  0
LINE
  8
_0-0_
  6
CONTINUOUS
 62
    7
 10
22.213590141421036
 20
227.95211836206874
 11
9.9942125336886249
 21
227.95211836206874
  0
LINE
  8
_0-0_
  6
CONTINUOUS
 62
    7
 10
22.213590141421036
 20
210.67961836206876
 11
9.9942125336886249
 21
210.67961836206876
  0
LINE
  8
_0-0_
  6
CONTINUOUS
 62
    7
 10
9.9942125336886249
 20
185.31125086206873
 11
22.213590141421036
 21
185.31125086206873
  0
LINE
  8
_0-0_
  6
CONTINUOUS
 62
    7
 10
9.9942125336886249
 20
170.50625086206872
 11
22.213590141421036
 21
170.50625086206872
  0
LINE
  8
_0-0_
  6
CONTINUOUS
 62
    7
 10
22.213590141421036
 20
155.70125086206871
 11
9.9942125336886249
 21
155.70125086206871
  0
LINE
  8
_0-0_
  6
CONTINUOUS
 62
    7
 10
9.9942125336886249
 20
140.89625086206871
 11
22.213590141421036
 21
140.89625086206871
  0
LINE
  8
_0-0_
  6
CONTINUOUS
 62
    7
 10
22.213590141421036
 20
126.09125086206873
 11
9.9942125336886249
 21
126.09125086206873
  0
LINE
  8
_0-0_
  6
CONTINUOUS
 62
    7
 10
9.9942125336886249
 20
111.28625086206872
 11
22.213590141421036
 21
111.28625086206872
  0
LINE
  8
_0-0_
  6
CONTINUOUS
 62
    7
 10
22.213590141421036
 20
101.41625086206869
 11
9.9942125336886249
 21
101.41625086206869
  0
TEXT
  8
_0-0_
 62
    7
 10
21.03890133755479
 20
248.69086612956871
 40
3.7012499999999874
 41
0.698413000000002
 50
90
  1
JIS  2級
  0
TEXT
  8
_0-0_
 62
    7
 10
14.929212533688627
 20
246.14993394644369
 40
3.7012500000000159
 41
0.8333329999999976
 50
90
  1
ネジの等級
  0
TEXT
  8
_0-0_
 62
    7
 10
21.009482546228127
 20
232.55882704323136
 40
3.7012499999999897
 41
0.8680560000000048
 50
89.580999999999988
  1
±0.1
  0
TEXT
  8
_0-0_
 62
    7
 10
14.929212533688627
 20
227.95211404394373
 40
3.7012499999999874
 41
0.6666670000000022
 50
90
  1
偏心又は片寄り
  0
TEXT
  8
_0-0_
 62
    7
 10
14.911741314790191
 20
216.22107892894257
 40
3.7012500000000518
 41
0.8333329999999942
 50
89.676000000000001
  1
角度
  0
TEXT
  8
_0-0_
 62
    7
 10
21.019182623659759
 20
215.29072520110798
 40
3.7012500000000154
 41
0.8680559999999944
 50
89.719000000000036
  1
±30'
  0
TEXT
  8
_0-0_
 62
    7
 10
21.03890133755479
 20
173.8926355245687
 40
3.7012499999999874
 41
0.8680560000000051
 50
90
  1
±0.8
  0
TEXT
  8
_0-0_
 62
    7
 10
15.889775033688607
 20
172.8327508620687
 40
2.5380000000000109
 41
0.9999999999999968
 50
90
  1
1000以下
  0
TEXT
  8
_0-0_
 62
    7
 10
12.861848178790125
 20
172.21108831812608
 40
2.5379999999999753
 41
1.0000000000000086
 50
90.566999999999993
  1
250をこえ
  0
TEXT
  8
_0-0_
 62
    7
 10
21.038901337554818
 20
159.08763552456869
 40
3.7012500000000159
 41
0.8680559999999972
 50
90
  1
±0.5
  0
TEXT
  8
_0-0_
 62
    7
 10
15.889775033688607
 20
158.6622508620687
 40
2.5380000000000109
 41
0.9999999999999952
 50
90
  1
250以下
  0
TEXT
  8
_0-0_
 62
    7
 10
12.765760784535046
 20
158.01800517984293
 40
2.5380000000000064
 41
0.9999999999999954
 50
89.553000000000011
  1
63をこえ
  0
TEXT
  8
_0-0_
 62
    7
 10
15.889775033688607
 20
144.49175086206872
 40
2.5380000000000109
 41
0.9999999999999942
 50
90
  1
63以下
  0
TEXT
  8
_0-0_
 62
    7
 10
21.038901337554818
 20
144.28263552456871
 40
3.7012500000000159
 41
0.8680559999999946
 50
90
  1
±0.3
  0
TEXT
  8
_0-0_
 62
    7
 10
12.760700685616058
 20
143.21178468234134
 40
2.5379999999999887
 41
1.0000000000000042
 50
89.496000000000009
  1
16をこえ
  0
TEXT
  8
_0-0_
 62
    7
 10
15.889775033688607
 20
129.68675086206872
 40
2.5380000000000109
 41
0.9999999999999981
 50
90
  1
16以下
  0
TEXT
  8
_0-0_
 62
    7
 10
21.03890133755479
 20
129.47763552456871
 40
3.7012499999999874
 41
0.868056000000004
 50
90
  1
±0.2
  0
TEXT
  8
_0-0_
 62
    7
 10
12.785232149502633
 20
129.04653807240916
 40
2.5380000000000042
 41
0.9999999999999997
 50
89.740000000000094
  1
4をこえ
  0
TEXT
  8
_0-0_
 62
    7
 10
21.024309532286366
 20
114.66594370753449
 40
3.7012500000000447
 41
0.8680559999999907
 50
89.792000000000086
  1
±0.1
  0
TEXT
  8
_0-0_
 62
    7
 10
14.929212533688627
 20
114.06219021269373
 40
3.7012500000000159
 41
0.8333329999999965
 50
90
  1
４以下
  0
TEXT
  8
_0-0_
 62
    7
 10
14.929212533688627
 20
103.26687709581872
 40
3.7012500000000159
 41
0.8333329999999943
 50
90
  1
寸法
  0
TEXT
  8
_0-0_
 62
    7
 10
21.020071636277521
 20
101.71720270559174
 40
3.7012499999999279
 41
0.8333330000000178
 50
89.767000000000066
  1
寸法差
  0
TEXT
  8
_7-a_
 62
    7
 10
288.92304598541369
 20
218.24718551288722
 40
4
 41
1
 50
0
  1
150±10
  0
LINE
  8
_7-a_
  6
CONTINUOUS
 62
   18
 10
261.43437403391624
 20
160.88121506245087
 11
259.98548529448265
 21
160.49298649479709
  0
LINE
  8
_7-a_
  6
CONTINUOUS
 62
   18
 10
261.43437403391624
 20
160.88121506245087
 11
259.98548529448265
 21
161.26944363010466
  0
LINE
  8
_7-a_
  6
CONTINUOUS
 62
   18
 10
261.43437403391624
 20
160.38121506245087
 11
261.43437403391624
 21
174.28832075945496
  0
LINE
  8
_7-a_
  6
CONTINUOUS
 62
   18
 10
92.836280327622304
 20
217.74718551288722
 11
167.68437366853885
 21
217.74718551288722
  0
LINE
  8
_7-a_
  6
CONTINUOUS
 62
   18
 10
92.836280327622304
 20
217.74718551288722
 11
94.285169067055903
 21
218.13541408054101
  0
LINE
  8
_7-a_
  6
CONTINUOUS
 62
   18
 10
92.836280327622304
 20
217.74718551288722
 11
94.285169067055903
 21
217.35895694523344
  0
LINE
  8
_7-a_
  6
CONTINUOUS
 62
   18
 10
167.68437366853885
 20
217.74718551288722
 11
166.23548492910526
 21
217.35895694523344
  0
LINE
  8
_7-a_
  6
CONTINUOUS
 62
   18
 10
167.68437366853885
 20
217.74718551288722
 11
166.23548492910526
 21
218.13541408054101
  0
LINE
  8
_7-a_
  6
CONTINUOUS
 62
   18
 10
167.68437366853885
 20
218.24718551288722
 11
167.68437366853885
 21
200.73229560317713
  0
LINE
  8
_7-a_
  6
CONTINUOUS
 62
   18
 10
167.68437366853885
 20
217.74718551288722
 11
259.1843736261552
 21
217.74718551288722
  0
LINE
  8
_7-a_
  6
CONTINUOUS
 62
   18
 10
167.68437366853885
 20
217.74718551288722
 11
169.13326240797243
 21
218.13541408054101
  0
LINE
  8
_7-a_
  6
CONTINUOUS
 62
   18
 10
167.68437366853885
 20
217.74718551288722
 11
169.13326240797243
 21
217.35895694523344
  0
LINE
  8
_7-a_
  6
CONTINUOUS
 62
   18
 10
92.836280327622304
 20
218.24718551288722
 11
92.836280327622304
 21
190.70662421390514
  0
LINE
  8
_7-a_
  6
CONTINUOUS
 62
   18
 10
155.54338806882697
 20
177.07988829693064
 11
155.54338806882697
 21
192.07988832066251
  0
LINE
  8
_7-a_
  6
CONTINUOUS
 62
   18
 10
155.54338806882697
 20
177.07988829693064
 11
155.15515950117318
 21
178.52877703636426
  0
LINE
  8
_7-a_
  6
CONTINUOUS
 62
   18
 10
155.54338806882697
 20
177.07988829693064
 11
155.93161663648075
 21
178.52877703636426
  0
LINE
  8
_7-a_
  6
CONTINUOUS
 62
   18
 10
155.54338806882697
 20
192.07988832066251
 11
155.93161663648075
 21
190.63099958122893
  0
LINE
  8
_7-a_
  6
CONTINUOUS
 62
   18
 10
155.54338806882697
 20
192.07988832066251
 11
155.15515950117318
 21
190.63099958122893
  0
LINE
  8
_7-a_
  6
CONTINUOUS
 62
   18
 10
155.04338806882697
 20
177.07988829693064
 11
162.38211852563543
 21
177.07988829693064
  0
LINE
  8
_7-a_
  6
CONTINUOUS
 62
   18
 10
155.04338806882697
 20
192.07988832066251
 11
162.38211852563543
 21
192.07988832066251
  0
LINE
  8
_7-a_
  6
CONTINUOUS
 62
   18
 10
150.18330203511223
 20
173.32988792317991
 11
150.18330203511223
 21
195.82988869441328
  0
LINE
  8
_7-a_
  6
CONTINUOUS
 62
   18
 10
150.18330203511223
 20
173.32988792317991
 11
149.79507346745845
 21
174.77877666261349
  0
LINE
  8
_7-a_
  6
CONTINUOUS
 62
   18
 10
150.18330203511223
 20
173.32988792317991
 11
150.57153060276601
 21
174.77877666261349
  0
LINE
  8
_7-a_
  6
CONTINUOUS
 62
   18
 10
150.18330203511223
 20
195.82988869441328
 11
150.57153060276601
 21
194.38099995497967
  0
LINE
  8
_7-a_
  6
CONTINUOUS
 62
   18
 10
150.18330203511223
 20
195.82988869441328
 11
149.79507346745845
 21
194.38099995497967
  0
LINE
  8
_7-a_
  6
CONTINUOUS
 62
   18
 10
149.68330203511223
 20
173.32988792317991
 11
162.38211852563543
 21
173.32988792317991
  0
LINE
  8
_7-a_
  6
CONTINUOUS
 62
   18
 10
149.68330203511223
 20
195.82988869441328
 11
162.38211852563543
 21
195.82988869441328
  0
LINE
  8
_7-a_
  6
CONTINUOUS
 62
   18
 10
145.00804655428422
 20
169.57989327285986
 11
145.00804655428422
 21
199.57989327285986
  0
LINE
  8
_7-a_
  6
CONTINUOUS
 62
   18
 10
145.00804655428422
 20
169.57989327285986
 11
144.61981798663043
 21
171.02878201229347
  0
LINE
  8
_7-a_
  6
CONTINUOUS
 62
   18
 10
145.00804655428422
 20
169.57989327285986
 11
145.396275121938
 21
171.02878201229347
  0
LINE
  8
_7-a_
  6
CONTINUOUS
 62
   18
 10
145.00804655428422
 20
199.57989327285986
 11
145.396275121938
 21
198.13100453342627
  0
LINE
  8
_7-a_
  6
CONTINUOUS
 62
   18
 10
145.00804655428422
 20
199.57989327285986
 11
144.61981798663043
 21
198.13100453342627
  0
LINE
  8
_7-a_
  6
CONTINUOUS
 62
   18
 10
144.50804655428422
 20
169.57989327285986
 11
166.35597541269982
 21
169.57989327285986
  0
LINE
  8
_7-a_
  6
CONTINUOUS
 62
   18
 10
144.50804655428422
 20
199.57989327285986
 11
166.35597541269982
 21
199.57989327285986
  0
TEXT
  8
_7-a_
 62
    7
 10
155.04338806882697
 20
180.86417956683814
 40
4
 41
1
 50
90
  1
30
  0
TEXT
  8
_7-a_
 62
    7
 10
149.68330203511223
 20
180.86417956683814
 40
4
 41
1
 50
90
  1
45
  0
TEXT
  8
_7-a_
 62
    7
 10
144.50804655428422
 20
180.86418453090141
 40
4
 41
1
 50
90
  1
60
  0
TEXT
  8
_7-a_
 62
    7
 10
106.27647393935791
 20
196.62741078680602
 40
4
 41
1
 50
0
  1
②
  0
TEXT
  8
_7-a_
 62
    7
 10
183.65850338764593
 20
206.16439854625241
 40
4
 41
1
 50
0
  1
①
  0
TEXT
  8
_7-a_
 62
    7
 10
122.51032699808058
 20
218.24718551288722
 40
4
 41
1
 50
0
  1
150±10
  0
LINE
  8
_7-a_
  6
CONTINUOUS
 62
   18
 10
165.43437534166014
 20
160.88121506245087
 11
261.43437403391624
 21
160.88121506245087
  0
LINE
  8
_7-a_
  6
CONTINUOUS
 62
   18
 10
165.43437534166014
 20
160.88121506245087
 11
166.88326408109372
 21
161.26944363010466
  0
LINE
  8
_7-a_
  6
CONTINUOUS
 62
   18
 10
165.43437534166014
 20
160.88121506245087
 11
166.88326408109372
 21
160.49298649479709
  0
LINE
  8
_7-a_
  6
CONTINUOUS
 62
   18
 10
165.43437534166014
 20
160.38121506245087
 11
165.43437534166014
 21
174.28832075945496
  0
TEXT
  8
_7-a_
 62
    7
 10
210.18437364734703
 20
218.24718551288722
 40
4
 41
1
 50
0
  1
183
  0
TEXT
  8
_7-a_
 62
    7
 10
210.18437468778819
 20
161.38121506245087
 40
4
 41
1
 50
0
  1
192
  0
LINE
  8
_7-a_
  6
CONTINUOUS
 62
   18
 10
116.85656973499381
 20
188.68406030487119
 11
110.29989065037433
 21
196.36663377775869
  0
LINE
  8
_7-a_
  6
CONTINUOUS
 62
   18
 10
116.85656973499381
 20
188.68406030487119
 11
115.62069130856131
 21
189.53412178210606
  0
LINE
  8
_7-a_
  6
CONTINUOUS
 62
   18
 10
116.85656973499381
 20
188.68406030487119
 11
116.21129836033156
 21
190.03817435215137
  0
LINE
  8
_7-a_
  6
CONTINUOUS
 62
   18
 10
184.34149079229376
 20
205.45243591837709
 11
179.64077102803739
 21
194.93867641278714
  0
LINE
  8
_7-a_
  6
CONTINUOUS
 62
   18
 10
179.64077102803739
 20
194.93867641278714
 11
179.87773668983314
 21
196.41984057490074
  0
LINE
  8
_7-a_
  6
CONTINUOUS
 62
   18
 10
179.64077102803739
 20
194.93867641278714
 11
180.5865713920339
 21
196.10291937345473
  0
LINE
  8
_7-a_
  6
CONTINUOUS
 62
   18
 10
297.38634515023147
 20
189.40673039130055
 11
294.25962829723118
 21
181.75166499257576
  0
LINE
  8
_7-a_
  6
CONTINUOUS
 62
   18
 10
294.25962829723118
 20
181.75166499257576
 11
294.44808512350357
 21
183.23977924377805
  0
LINE
  8
_7-a_
  6
CONTINUOUS
 62
   18
 10
294.25962829723118
 20
181.75166499257576
 11
295.16689382190082
 21
182.94618132471438
  0
LINE
  8
_7-a_
  6
CONTINUOUS
 62
   18
 10
263.43437426791064
 20
100.17552160669053
 11
261.98548552847705
 21
99.787293039036754
  0
LINE
  8
_7-a_
  6
CONTINUOUS
 62
   18
 10
263.43437426791064
 20
100.17552160669053
 11
261.98548552847705
 21
100.56375017434432
  0
LINE
  8
_7-a_
  6
CONTINUOUS
 62
   18
 10
263.43437426791064
 20
99.675521606690537
 11
263.43437426791064
 21
112.09222830596559
  0
LINE
  8
_7-a_
  6
CONTINUOUS
 62
   18
 10
153.98246162328587
 20
113.36516876144517
 11
153.98246162328587
 21
130.3651687614452
  0
LINE
  8
_7-a_
  6
CONTINUOUS
 62
   18
 10
153.98246162328587
 20
113.36516876144517
 11
153.59423305563208
 21
114.81405750087877
  0
LINE
  8
_7-a_
  6
CONTINUOUS
 62
   18
 10
153.98246162328587
 20
113.36516876144517
 11
154.37069019093965
 21
114.81405750087877
  0
LINE
  8
_7-a_
  6
CONTINUOUS
 62
   18
 10
153.98246162328587
 20
130.3651687614452
 11
154.37069019093965
 21
128.91628002201161
  0
LINE
  8
_7-a_
  6
CONTINUOUS
 62
   18
 10
153.98246162328587
 20
130.3651687614452
 11
153.59423305563208
 21
128.91628002201161
  0
LINE
  8
_7-a_
  6
CONTINUOUS
 62
   18
 10
153.48246162328587
 20
113.36516876144517
 11
162.52965870381692
 21
113.36516876144517
  0
LINE
  8
_7-a_
  6
CONTINUOUS
 62
   18
 10
153.48246162328587
 20
130.3651687614452
 11
166.06940698969341
 21
130.3651687614452
  0
TEXT
  8
_7-a_
 62
    7
 10
153.48246162328587
 20
115.2878099568494
 40
4
 41
1
 50
90
  1
34
  0
LINE
  8
_7-a_
  6
CONTINUOUS
 62
   18
 10
163.43437510661334
 20
100.17552160669053
 11
263.43437426791064
 21
100.17552160669053
  0
LINE
  8
_7-a_
  6
CONTINUOUS
 62
   18
 10
163.43437510661334
 20
100.17552160669053
 11
164.88326384604692
 21
100.56375017434432
  0
LINE
  8
_7-a_
  6
CONTINUOUS
 62
   18
 10
163.43437510661334
 20
100.17552160669053
 11
164.88326384604692
 21
99.787293039036754
  0
LINE
  8
_7-a_
  6
CONTINUOUS
 62
   18
 10
163.43437510661334
 20
99.675521606690537
 11
163.43437510661334
 21
112.09222830596559
  0
TEXT
  8
_7-a_
 62
    7
 10
210.18437468726199
 20
100.67552160669053
 40
4
 41
1
 50
0
  1
200
  0
TEXT
  8
_7-4_
 62
    7
 10
361.0129910501376
 20
16.738967744325123
 40
7
 41
1
 50
0
  1
F5213010-1
  0
TEXT
  8
_7-b_
 62
    7
 10
89.186661265413704
 20
39.939608316091408
 40
4
 41
1
 50
0
  1
最大Tc温度
  0
LINE
  8
_7-b_
  6
CONTINUOUS
 62
    7
 10
37.686661265413704
 20
21.939608316091423
 11
132.6866612654137
 21
21.939608316091423
  0
TEXT
  8
_7-b_
 62
    7
 10
38.186661265413704
 20
44.939608316091408
 40
4
 41
1
 50
0
  1
使用環境
  0
LINE
  8
_7-b_
  6
CONTINUOUS
 62
    7
 10
37.686661265413704
 20
44.439608316091408
 11
37.686661265413704
 21
34.439608316091408
  0
LINE
  8
_7-b_
  6
CONTINUOUS
 62
    7
 10
67.686661265413704
 20
44.439608316091408
 11
67.686661265413704
 21
34.439608316091408
  0
TEXT
  8
_7-b_
 62
    7
 10
68.936661265413704
 20
39.939608316091408
 40
4
 41
1
 50
0
  1
動作湿度
  0
LINE
  8
_7-b_
  6
CONTINUOUS
 62
    7
 10
67.686661265413704
 20
44.439608316091408
 11
67.686661265413704
 21
34.439608316091408
  0
LINE
  8
_7-b_
  6
CONTINUOUS
 62
    7
 10
87.686661265413704
 20
44.439608316091408
 11
87.686661265413704
 21
34.439608316091408
  0
LINE
  8
_7-b_
  6
CONTINUOUS
 62
    7
 10
37.686661265413704
 20
44.439608316091408
 11
37.686661265413704
 21
34.439608316091408
  0
LINE
  8
_7-b_
  6
CONTINUOUS
 62
    7
 10
37.686661265413704
 20
44.439608316091408
 11
112.6866612654137
 21
44.439608316091408
  0
LINE
  8
_7-b_
  6
CONTINUOUS
 62
    7
 10
112.6866612654137
 20
44.439608316091408
 11
112.6866612654137
 21
34.439608316091408
  0
LINE
  8
_7-b_
  6
CONTINUOUS
 62
    7
 10
37.686661265413704
 20
34.439608316091408
 11
112.6866612654137
 21
34.439608316091408
  0
LINE
  8
_7-b_
  6
CONTINUOUS
 62
    7
 10
37.686661265413704
 20
39.439608316091408
 11
112.6866612654137
 21
39.439608316091408
  0
TEXT
  8
_7-b_
 62
    7
 10
38.186661265413704
 20
72.439608316091408
 40
4
 41
1
 50
0
  1
電気特性
  0
TEXT
  8
_7-b_
 62
    7
 10
38.186661265413704
 20
27.439608316091423
 40
4
 41
1
 50
0
  1
保護機能
  0
TEXT
  8
_7-b_
 62
    7
 10
39.186661265413704
 20
22.439608316091423
 40
4
 41
1
 50
0
  1
過電圧保護
  0
LINE
  8
_7-b_
  6
CONTINUOUS
 62
    7
 10
37.686661265413704
 20
26.939608316091423
 11
132.6866612654137
 21
26.939608316091423
  0
TEXT
  8
_7-b_
 62
    7
 10
64.186661265413704
 20
22.439608316091423
 40
4
 41
1
 50
0
  1
過負荷保護
  0
TEXT
  8
_7-b_
 62
    7
 10
88.936661265413704
 20
22.439608316091423
 40
4
 41
1
 50
0
  1
短絡保護
  0
TEXT
  8
_7-b_
 62
    7
 10
109.1866612654137
 20
22.439608316091423
 40
4
 41
1
 50
0
  1
過昇温保護
  0
LINE
  8
_7-b_
  6
CONTINUOUS
 62
    7
 10
37.686661265413704
 20
26.939608316091423
 11
37.686661265413704
 21
21.939608316091423
  0
LINE
  8
_7-b_
  6
CONTINUOUS
 62
    7
 10
87.686661265413704
 20
26.939608316091423
 11
87.686661265413704
 21
21.939608316091423
  0
LINE
  8
_7-b_
  6
CONTINUOUS
 62
    7
 10
37.686661265413704
 20
26.939608316091423
 11
37.686661265413704
 21
21.939608316091423
  0
LINE
  8
_7-b_
  6
CONTINUOUS
 62
    7
 10
62.686661265413704
 20
26.939608316091423
 11
62.686661265413704
 21
21.939608316091423
  0
LINE
  8
_7-b_
  6
CONTINUOUS
 62
    7
 10
107.6866612654137
 20
26.939608316091423
 11
107.6866612654137
 21
21.939608316091423
  0
LINE
  8
_7-b_
  6
CONTINUOUS
 62
    7
 10
37.686661265413704
 20
21.939608316091423
 11
132.6866612654137
 21
21.939608316091423
  0
LINE
  8
_7-b_
  6
CONTINUOUS
 62
    7
 10
132.6866612654137
 20
26.939608316091423
 11
132.6866612654137
 21
21.939608316091423
  0
LINE
  8
_7-b_
  6
CONTINUOUS
 62
    7
 10
72.686661265413704
 20
71.939608316091408
 11
72.686661265413704
 21
51.939608316091408
  0
LINE
  8
_7-b_
  6
CONTINUOUS
 62
    7
 10
37.686661265413704
 20
71.939608316091408
 11
37.686661265413704
 21
51.939608316091408
  0
TEXT
  8
_7-b_
 62
    7
 10
50.936661265413704
 20
67.439608316091408
 40
4
 41
1
 50
0
  1
型番
  0
LINE
  8
_7-b_
  6
CONTINUOUS
 62
    7
 10
92.686661265413704
 20
71.939608316091408
 11
92.686661265413704
 21
51.939608316091408
  0
TEXT
  8
_7-b_
 62
    7
 10
73.936661265413704
 20
67.439608316091408
 40
4
 41
1
 50
0
  1
出力電力
  0
TEXT
  8
_7-b_
 62
    7
 10
113.9366612654137
 20
67.439608316091408
 40
4
 41
1
 50
0
  1
出力電流
  0
LINE
  8
_7-b_
  6
CONTINUOUS
 62
    7
 10
112.6866612654137
 20
71.939608316091408
 11
112.6866612654137
 21
51.939608316091408
  0
TEXT
  8
_7-b_
 62
    7
 10
93.936661265413704
 20
67.439608316091408
 40
4
 41
1
 50
0
  1
出力電圧
  0
LINE
  8
_7-b_
  6
CONTINUOUS
 62
    7
 10
132.6866612654137
 20
71.939608316091408
 11
132.6866612654137
 21
51.939608316091408
  0
TEXT
  8
_7-b_
 62
    7
 10
133.9366612654137
 20
67.439608316091408
 40
4
 41
1
 50
0
  1
入力電圧
  0
TEXT
  8
_7-b_
 62
    7
 10
137.1866612654137
 20
59.939608316091408
 40
4
 41
1
 50
0
  1
AC100
  0
TEXT
  8
_7-b_
 62
    7
 10
136.0616612654137
 20
54.939608316091408
 40
4
 41
1
 50
0
  1
～242V
  0
TEXT
  8
_7-b_
 62
    7
 10
189.9366612654137
 20
57.439608316091408
 40
4
 41
1
 50
0
  1
50/60Hz
  0
TEXT
  8
_7-b_
 62
    7
 10
191.1866612654137
 20
67.439608316091408
 40
4
 41
1
 50
0
  1
周波数
  0
LINE
  8
_7-b_
  6
CONTINUOUS
 62
    7
 10
187.6866612654137
 20
71.939608316091408
 11
187.6866612654137
 21
51.939608316091408
  0
LINE
  8
_7-b_
  6
CONTINUOUS
 62
    7
 10
152.6866612654137
 20
71.939608316091408
 11
152.6866612654137
 21
51.939608316091408
  0
LINE
  8
_7-b_
  6
CONTINUOUS
 62
    7
 10
152.6866612654137
 20
61.939608316091408
 11
187.6866612654137
 21
61.939608316091408
  0
LINE
  8
_7-b_
  6
CONTINUOUS
 62
    7
 10
152.6866612654137
 20
56.939608316091408
 11
187.6866612654137
 21
56.939608316091408
  0
TEXT
  8
_7-b_
 62
    7
 10
63.436661265413704
 20
34.939608316091408
 40
2.5
 41
1
 50
0
  1
※1
  0
TEXT
  8
_7-b_
 62
    7
 10
39.436661265413704
 20
39.939608316091408
 40
4
 41
1
 50
0
  1
使用環境温度
  0
TEXT
  8
_7-b_
 62
    7
 10
104.89550640018022
 20
34.939608316091408
 40
2.5
 41
1
 50
0
  1
※2
  0
TEXT
  8
_7-b_
 62
    7
 10
114.1866612654137
 20
41.771921456776169
 40
3
 41
1
 50
0
  1
※1 正規取り付け方向・ＬＥＤ負荷80％時の使用温度範囲
  0
TEXT
  8
_7-b_
 62
    7
 10
161.4366612654137
 20
67.439608316091408
 40
4
 41
1
 50
0
  1
入力電流
  0
TEXT
  8
_7-b_
 62
    7
 10
79.436661265413675
 20
57.439608316091423
 40
4
 41
1
 50
0
  1
30W
  0
TEXT
  8
_7-b_
 62
    7
 10
97.186661265413704
 20
57.439608316091408
 40
4
 41
1
 50
0
  1
DC24V
  0
TEXT
  8
_7-b_
 62
    7
 10
42.811661265413704
 20
34.939608316091408
 40
4
 41
1
 50
0
  1
-40～55℃
  0
TEXT
  8
_7-b_
 62
    7
 10
155.6866612654137
 20
62.439608316091408
 40
4
 41
1
 50
0
  1
0.35A(AC100V)
  0
TEXT
  8
_7-b_
 62
    7
 10
155.6866612654137
 20
57.439608316091408
 40
4
 41
1
 50
0
  1
0.18A(AC200V)
  0
TEXT
  8
_7-b_
 62
    7
 10
155.6866612654137
 20
52.439608316091408
 40
4
 41
1
 50
0
  1
0.14A(AC242V)
  0
TEXT
  8
_7-b_
 62
    7
 10
68.936661265413704
 20
34.939608316091408
 40
4
 41
1
 50
0
  1
10～90％
  0
TEXT
  8
_7-b_
 62
    7
 10
95.936661265413704
 20
34.939608316091408
 40
4
 41
1
 50
0
  1
75℃
  0
TEXT
  8
_7-b_
 62
    7
 10
114.1866612654137
 20
37.771921456776169
 40
3
 41
1
 50
0
  1
※2 周囲を囲ってご使用される場合にはTcポイント75℃以下になる様にご注意ください。
  0
TEXT
  8
_7-b_
 62
    7
 10
117.1866612654137
 20
57.439608316091408
 40
4
 41
1
 50
0
  1
1.25A
  0
LINE
  8
_7-b_
  6
CONTINUOUS
 62
    7
 10
37.686661265413704
 20
71.939608316091408
 11
277.6866612654137
 21
71.939608316091408
  0
LINE
  8
_7-b_
  6
CONTINUOUS
 62
    7
 10
37.686661265413704
 20
66.939608316091408
 11
277.6866612654137
 21
66.939608316091408
  0
LINE
  8
_7-b_
  6
CONTINUOUS
 62
    7
 10
37.686661265413704
 20
51.939608316091408
 11
277.6866612654137
 21
51.939608316091408
  0
LINE
  8
_8-0_
  6
CONTINUOUS
 62
    7
 10
282.2377258597271
 20
262.05770611155878
 11
402.2135825120265
 21
262.05770611155878
  0
TEXT
  8
_8-0_
 62
    7
 10
382.73773348912163
 20
267.55768572677027
 40
4
 41
1
 50
0
  1
担当
  0
TEXT
  8
_8-0_
 62
    7
 10
392.73773348912163
 20
267.55768572677027
 40
4
 41
1
 50
0
  1
検印
  0
TEXT
  8
_8-0_
 62
    7
 10
284.00753939732476
 20
268.2467825352038
 40
3
 41
1
 50
0
  1
Ｎｏ
  0
TEXT
  8
_8-0_
 62
    7
 10
299.38916934117241
 20
268.27063583720575
 40
3
 41
1
 50
0
  1
年　月　日
  0
TEXT
  8
_8-0_
 62
    7
 10
340.18718112095757
 20
268.27063583720575
 40
3
 41
1
 50
0
  1
訂　正　記　事
  0
LINE
  8
_8-0_
  6
CONTINUOUS
 62
    7
 10
282.2377258597271
 20
267.05768572677027
 11
282.2377258597271
 21
262.05770611155878
  0
LINE
  8
_8-0_
  6
CONTINUOUS
 62
    7
 10
292.23773348912163
 20
267.05768572677027
 11
292.23773348912163
 21
262.05770611155878
  0
LINE
  8
_8-0_
  6
CONTINUOUS
 62
    7
 10
322.23773381694718
 20
267.05768572677027
 11
322.23773381694718
 21
262.05770611155878
  0
LINE
  8
_8-0_
  6
CONTINUOUS
 62
    7
 10
282.2377258597271
 20
272.45457753700526
 11
282.2377258597271
 21
267.05768572677027
  0
LINE
  8
_8-0_
  6
CONTINUOUS
 62
    7
 10
292.23773348912163
 20
272.45457753700526
 11
292.23773348912163
 21
267.05768572677027
  0
LINE
  8
_8-0_
  6
CONTINUOUS
 62
    7
 10
322.23773381694718
 20
272.45457753700526
 11
322.23773381694718
 21
267.05768572677027
  0
LINE
  8
_8-0_
  6
CONTINUOUS
 62
    7
 10
382.23773348912163
 20
272.45457753700526
 11
382.23773348912163
 21
262.05770611155878
  0
LINE
  8
_8-0_
  6
CONTINUOUS
 62
    7
 10
392.23773348912163
 20
272.45457753700526
 11
392.23773348912163
 21
262.05770611155878
  0
LINE
  8
_8-0_
  6
CONTINUOUS
 62
    7
 10
402.2135825120265
 20
267.05768572677027
 11
282.23774111851616
 21
267.05768572677027
  0
TEXT
  8
_8-0_
 62
    7
 10
285.56404445178782
 20
262.61073909690907
 40
3.0033000000000242
 41
0.9999999999999811
 50
0
  1
1
  0
LINE
  8
_8-0_
  6
CONTINUOUS
 62
    7
 10
286.42907445499133
 20
266.8971027339067
 11
288.68154945499128
 21
262.39215073170663
  0
LINE
  8
_8-0_
  6
CONTINUOUS
 62
    7
 10
286.42907445499133
 20
266.8971027339067
 11
284.17660746379141
 21
262.39215073170663
  0
LINE
  8
_8-0_
  6
CONTINUOUS
 62
    7
 10
284.1891686563182
 20
262.37588404020914
 11
288.69411064751813
 21
262.37588404020914
  0
TEXT
  8
_8-0_
 62
    7
 10
299.27606265772647
 20
262.90196095366138
 40
3.0032999999999674
 41
1.0000000000000133
 50
0
  1
2022 . 9. 26
  0
TEXT
  8
_8-0_
 62
    7
 10
382.97126007812653
 20
262.5604461005588
 40
4
 41
1
 50
0
  1
原田
  0
TEXT
  8
_8-0_
 62
    7
 10
206.89060159999328
 20
218.69640848049635
 40
3.0033000000000242
 41
0.9999999999999811
 50
0
  1
1
  0
LINE
  8
_8-0_
  6
CONTINUOUS
 62
    7
 10
207.7556316031968
 20
222.98277211749399
 11
210.00810660319677
 21
218.47782011529392
  0
LINE
  8
_8-0_
  6
CONTINUOUS
 62
    7
 10
207.7556316031968
 20
222.98277211749399
 11
205.50316461199687
 21
218.47782011529392
  0
LINE
  8
_8-0_
  6
CONTINUOUS
 62
    7
 10
205.51572580452372
 20
218.46155342379643
 11
210.02066779572362
 21
218.46155342379643
  0
TEXT
  8
_8-0_
 62
    7
 10
206.67172331368007
 20
162.33524975484345
 40
3.0033000000000242
 41
0.9999999999999811
 50
0
  1
1
  0
LINE
  8
_8-0_
  6
CONTINUOUS
 62
    7
 10
207.53675331688359
 20
166.62161339184109
 11
209.78922831688356
 21
162.11666138964102
  0
LINE
  8
_8-0_
  6
CONTINUOUS
 62
    7
 10
207.53675331688359
 20
166.62161339184109
 11
205.28428632568366
 21
162.11666138964102
  0
LINE
  8
_8-0_
  6
CONTINUOUS
 62
    7
 10
205.29684751821051
 20
162.10039469814353
 11
209.80178950941041
 21
162.10039469814353
  0
TEXT
  8
_8-0_
 62
    7
 10
215.42685476620869
 20
204.14100244066753
 40
3.0033000000000242
 41
0.9999999999999811
 50
0
  1
1
  0
LINE
  8
_8-0_
  6
CONTINUOUS
 62
    7
 10
216.29188476941217
 20
208.42736607766516
 11
218.54435976941218
 21
203.92241407546509
  0
LINE
  8
_8-0_
  6
CONTINUOUS
 62
    7
 10
216.29188476941217
 20
208.42736607766516
 11
214.03941777821228
 21
203.92241407546509
  0
LINE
  8
_8-0_
  6
CONTINUOUS
 62
    7
 10
214.05197897073909
 20
203.9061473839676
 11
218.55692096193902
 21
203.9061473839676
  0
TEXT
  8
_8-0_
 62
    7
 10
39.875119898534649
 20
77.449386360660554
 40
3.0033000000000242
 41
0.9999999999999811
 50
0
  1
1
  0
LINE
  8
_8-0_
  6
CONTINUOUS
 62
    7
 10
40.740149901738163
 20
81.735749997658189
 11
42.992624901738139
 21
77.230797995458118
  0
LINE
  8
_8-0_
  6
CONTINUOUS
 62
    7
 10
40.740149901738163
 20
81.735749997658189
 11
38.487682910538239
 21
77.230797995458118
  0
LINE
  8
_8-0_
  6
CONTINUOUS
 62
    7
 10
38.500244103065085
 20
77.214531303960626
 11
43.005186094264985
 21
77.214531303960626
  0
TEXT
  8
_8-0_
 62
    7
 10
322.73773381694718
 20
263.05604591916454
 40
3.0032999999999674
 41
1.0000000000000133
 50
0
  1
寸法誤記修正・TC追記・スペック表追加
  0
ARC
  8
_7-1_
  6
CONTINUOUS
 62
    7
 10
263.18437574942106
 20
193.37989822185397
 40
0.25
 50
270
 51
0
  0
ARC
  8
_7-1_
  6
CONTINUOUS
 62
    7
 10
263.18437574942106
 20
190.77989822185392
 40
0.25
 50
0
 51
90
  0
LINE
  8
_7-1_
  6
CONTINUOUS
 62
    7
 10
263.18437574942106
 20
191.02989822185395
 11
261.43437551437403
 21
191.02989822185395
  0
ARC
  8
_7-1_
  6
CONTINUOUS
 62
    7
 10
261.43437551437403
 20
192.07989822185396
 40
1.0500000000000109
 50
90
 51
270
  0
LINE
  8
_7-1_
  6
CONTINUOUS
 62
    7
 10
261.43437551437403
 20
193.12989822185392
 11
263.18437574942106
 21
193.12989822185397
  0
ARC
  8
_7-1_
  6
CONTINUOUS
 62
    7
 10
261.93437574836866
 20
194.32989859560467
 40
1.5000000000000139
 50
0
 51
90
  0
LINE
  8
_7-1_
  6
CONTINUOUS
 62
    7
 10
263.43437574942095
 20
193.37989822185397
 11
263.43437574836866
 21
194.32989859560467
  0
ARC
  8
_7-1_
  6
CONTINUOUS
 62
    7
 10
263.18437426896304
 20
175.77989819812205
 40
0.25
 50
0
 51
90
  0
ARC
  8
_7-1_
  6
CONTINUOUS
 62
    7
 10
263.18437426896304
 20
178.37989819812207
 40
0.25
 50
270
 51
0
  0
LINE
  8
_7-1_
  6
CONTINUOUS
 62
    7
 10
263.18437426896304
 20
178.12989819812207
 11
261.43437403391601
 21
178.12989819812207
  0
ARC
  8
_7-1_
  6
CONTINUOUS
 62
    7
 10
261.43437403391601
 20
177.07989819812206
 40
1.0500000000000109
 50
90
 51
270
  0
LINE
  8
_7-1_
  6
CONTINUOUS
 62
    7
 10
261.43437403391601
 20
176.02989819812208
 11
263.18437426896304
 21
176.02989819812205
  0
ARC
  8
_7-1_
  6
CONTINUOUS
 62
    7
 10
261.93437426791064
 20
174.82989782437132
 40
1.5000000000000139
 50
270
 51
0
  0
LINE
  8
_7-1_
  6
CONTINUOUS
 62
    7
 10
263.43437426896298
 20
175.77989819812205
 11
263.43437426791064
 21
174.82989782437132
  0
ARC
  8
_7-1_
  6
CONTINUOUS
 62
    7
 10
263.18437574942106
 20
185.87989869371421
 40
0.25
 50
270
 51
0
  0
ARC
  8
_7-1_
  6
CONTINUOUS
 62
    7
 10
263.18437574942106
 20
183.27989869371418
 40
0.25
 50
0
 51
90
  0
LINE
  8
_7-1_
  6
CONTINUOUS
 62
    7
 10
263.18437574942106
 20
183.52989869371418
 11
261.43437551437403
 21
183.52989869371418
  0
ARC
  8
_7-1_
  6
CONTINUOUS
 62
    7
 10
261.43437551437403
 20
184.57989869371419
 40
1.0500000000000109
 50
90
 51
270
  0
LINE
  8
_7-1_
  6
CONTINUOUS
 62
    7
 10
261.43437551437403
 20
185.62989869371415
 11
263.18437574942106
 21
185.62989869371421
  0
LINE
  8
_7-1_
  6
CONTINUOUS
 62
    7
 10
263.43437574942095
 20
189.92212078324206
 11
263.43437574942095
 21
190.77989822185392
  0
LINE
  8
_7-1_
  6
CONTINUOUS
 62
    7
 10
263.43437574942095
 20
185.87989869371421
 11
263.43437574494328
 21
189.92212078324206
  0
LINE
  8
_7-1_
  6
CONTINUOUS
 62
    7
 10
263.43437574942112
 20
178.37989819812207
 11
263.43437574942106
 21
179.2525344682644
  0
LINE
  8
_7-1_
  6
CONTINUOUS
 62
    7
 10
263.43437574942095
 20
182.90725207745526
 11
263.43437574942095
 21
183.27989869371418
  0
LINE
  8
_7-1_
  6
CONTINUOUS
 62
    7
 10
259.1843736261552
 20
197.57989327285986
 11
258.38437362615525
 21
197.57989327285986
  0
LINE
  8
_7-1_
  6
CONTINUOUS
 62
    7
 10
259.1843736261552
 20
196.57989327285986
 11
258.38437362615525
 21
196.57989327285986
  0
LINE
  8
_7-1_
  6
CONTINUOUS
 62
    7
 10
258.38437362615525
 20
197.57989327285986
 11
258.38437362615525
 21
196.57989327285986
  0
LINE
  8
_7-1_
  6
CONTINUOUS
 62
    7
 10
259.1843736261552
 20
197.57989327285986
 11
259.1843736261552
 21
196.57989327285986
  0
LINE
  8
_7-1_
  6
CONTINUOUS
 62
    7
 10
259.1843736261552
 20
198.57989327285983
 11
258.38437362615525
 21
198.57989327285983
  0
LINE
  8
_7-1_
  6
CONTINUOUS
 62
    7
 10
258.38437362615525
 20
198.57989327285983
 11
258.38437362615525
 21
197.57989327285986
  0
LINE
  8
_7-1_
  6
CONTINUOUS
 62
    7
 10
259.1843736261552
 20
198.57989327285983
 11
259.1843736261552
 21
197.57989327285986
  0
LINE
  8
_7-1_
  6
CONTINUOUS
 62
    7
 10
259.1843736261552
 20
199.57989327285986
 11
258.38437362615525
 21
199.57989327285986
  0
LINE
  8
_7-1_
  6
CONTINUOUS
 62
    7
 10
258.38437362615525
 20
199.57989327285986
 11
258.38437362615525
 21
198.57989327285983
  0
LINE
  8
_7-1_
  6
CONTINUOUS
 62
    7
 10
259.1843736261552
 20
199.57989327285986
 11
259.1843736261552
 21
198.57989327285983
  0
LINE
  8
_7-1_
  6
CONTINUOUS
 62
    7
 10
258.1343736261553
 20
197.57989327285986
 11
258.1343736261553
 21
196.57989327285986
  0
LINE
  8
_7-1_
  6
CONTINUOUS
 62
    7
 10
258.1343736261553
 20
197.57989327285986
 11
258.1343736261553
 21
198.57989327285983
  0
LINE
  8
_7-1_
  6
CONTINUOUS
 62
    7
 10
258.1343736261553
 20
199.57989327285986
 11
258.1343736261553
 21
198.57989327285983
  0
LINE
  8
_7-1_
  6
CONTINUOUS
 62
    7
 10
258.13437361428094
 20
196.72989345018368
 11
258.38437362615525
 21
196.72989345018368
  0
LINE
  8
_7-1_
  6
CONTINUOUS
 62
    7
 10
258.38437362615525
 20
197.57989327285986
 11
258.1343736261553
 21
197.57989327285986
  0
LINE
  8
_7-1_
  6
CONTINUOUS
 62
    7
 10
258.38437362615525
 20
199.42989352021916
 11
258.13437361428094
 21
199.42989352021916
  0
LINE
  8
_7-1_
  6
CONTINUOUS
 62
    7
 10
258.38437362615525
 20
198.57989327285983
 11
258.1343736261553
 21
198.57989327285983
  0
LINE
  8
_7-1_
  6
CONTINUOUS
 62
    7
 10
259.25377193571767
 20
196.73490713494464
 11
259.18437358871597
 21
196.72999403302173
  0
ARC
  8
_7-1_
  6
CONTINUOUS
 62
    7
 10
259.23224554185532
 20
197.03894603766462
 40
0.3048000000005047
 50
274.04986592817351
 51
340.43275363035661
  0
LINE
  8
_7-1_
  6
CONTINUOUS
 62
    7
 10
259.61704300664848
 20
197.29709031854372
 11
259.51527121890813
 21
196.92571892265777
  0
LINE
  8
_7-1_
  6
CONTINUOUS
 62
    7
 10
259.18437358871597
 20
199.17979243074159
 11
259.25377193571767
 21
199.1748794107745
  0
LINE
  8
_7-1_
  6
CONTINUOUS
 62
    7
 10
259.25377193571767
 20
196.9849071349447
 11
259.18437358871597
 21
196.97999360833864
  0
ARC
  8
_7-1_
  6
CONTINUOUS
 62
    7
 10
259.23224554185532
 20
197.28894603766474
 40
0.3048000000005097
 50
274.04986592817027
 51
340.43275363035667
  0
ARC
  8
_7-1_
  6
CONTINUOUS
 62
    7
 10
259.23224554185532
 20
198.87084050805509
 40
0.3048000000005075
 50
20.911833439961309
 51
85.950134071826454
  0
LINE
  8
_7-1_
  6
CONTINUOUS
 62
    7
 10
259.61704300664848
 20
197.54708989386062
 11
259.51527121890813
 21
197.17571942929725
  0
LINE
  8
_7-1_
  6
CONTINUOUS
 62
    7
 10
259.51696860250552
 20
198.97963305713017
 11
259.6174332308073
 21
198.61219043706162
  0
LINE
  8
_7-1_
  6
CONTINUOUS
 62
    7
 10
259.18437362615503
 20
197.57989327285986
 11
259.18437362615503
 21
198.57989327285983
  0
LINE
  8
_7-1_
  6
CONTINUOUS
 62
    7
 10
259.18437362615503
 20
196.57989327285986
 11
259.18437362615503
 21
197.57989327285986
  0
LINE
  8
_7-1_
  6
CONTINUOUS
 62
    7
 10
259.6340157784943
 20
197.29306234840851
 11
259.63608494442439
 21
197.29186839286785
  0
LINE
  8
_7-1_
  6
CONTINUOUS
 62
    7
 10
259.63608494442439
 20
197.29186839286785
 11
259.63607132383174
 21
197.29187584344845
  0
LINE
  8
_7-1_
  6
CONTINUOUS
 62
    7
 10
259.72612963472045
 20
197.73337303523524
 11
259.68763737421977
 21
197.51230033908586
  0
LINE
  8
_7-1_
  6
CONTINUOUS
 62
    7
 10
259.68763737421977
 20
197.51230033908586
 11
259.63401612774026
 21
197.29306421105366
  0
LINE
  8
_7-1_
  6
CONTINUOUS
 62
    7
 10
259.68059261743468
 20
197.73337303523524
 11
259.72612963472045
 21
197.73337303523524
  0
LINE
  8
_7-1_
  6
CONTINUOUS
 62
    7
 10
259.68059261743468
 20
198.17641342852815
 11
259.68740233168483
 21
198.1485892352889
  0
LINE
  8
_7-1_
  6
CONTINUOUS
 62
    7
 10
259.68740233168483
 20
198.1485892352889
 11
259.71620092116779
 21
197.98337354187469
  0
LINE
  8
_7-1_
  6
CONTINUOUS
 62
    7
 10
259.72612963472045
 20
197.73337303523524
 11
259.68059261743468
 21
197.73337303523524
  0
LINE
  8
_7-1_
  6
CONTINUOUS
 62
    7
 10
259.51696860250552
 20
198.97963305713017
 11
259.51696860250552
 21
198.07989327285991
  0
LINE
  8
_7-1_
  6
CONTINUOUS
 62
    7
 10
259.63401566207892
 20
197.98337261055215
 11
259.63608499605703
 21
198.07989327285991
  0
LINE
  8
_7-1_
  6
CONTINUOUS
 62
    7
 10
259.6340157784943
 20
197.54306285504799
 11
259.63608494442439
 21
197.54186796818476
  0
LINE
  8
_7-1_
  6
CONTINUOUS
 62
    7
 10
259.63608494442439
 20
197.54186796818476
 11
259.63607132383174
 21
197.54187541876535
  0
LINE
  8
_7-1_
  6
CONTINUOUS
 62
    7
 10
259.72612963472045
 20
197.98337354187469
 11
259.68763737421977
 21
197.76230084572534
  0
LINE
  8
_7-1_
  6
CONTINUOUS
 62
    7
 10
259.68763737421977
 20
197.76230084572534
 11
259.63401612774026
 21
197.54306378637056
  0
LINE
  8
_7-1_
  6
CONTINUOUS
 62
    7
 10
259.6340157784943
 20
197.98337354187469
 11
259.72612963472045
 21
197.98337354187469
  0
LINE
  8
_7-1_
  6
CONTINUOUS
 62
    7
 10
259.63608499605703
 20
198.07989327285991
 11
259.63401566207892
 21
197.98337261055215
  0
LINE
  8
_7-1_
  6
CONTINUOUS
 62
    7
 10
259.51696860250552
 20
198.07989327285991
 11
259.63608499605703
 21
198.07989327285991
  0
LINE
  8
_7-1_
  6
CONTINUOUS
 62
    7
 10
259.63401566207892
 20
198.17641435985069
 11
259.63608499605703
 21
198.07989327285991
  0
LINE
  8
_7-1_
  6
CONTINUOUS
 62
    7
 10
259.72612963472045
 20
198.17641342852815
 11
259.63401566207892
 21
198.17641342852815
  0
LINE
  8
_7-1_
  6
CONTINUOUS
 62
    7
 10
259.63401612774026
 20
198.6167222527097
 11
259.68740233168483
 21
198.39858974192841
  0
LINE
  8
_7-1_
  6
CONTINUOUS
 62
    7
 10
259.68740233168483
 20
198.39858974192841
 11
259.72612963472045
 21
198.17641342852815
  0
LINE
  8
_7-1_
  6
CONTINUOUS
 62
    7
 10
259.63401566207892
 20
198.17641342852815
 11
259.72612963472045
 21
198.17641342852815
  0
LINE
  8
_7-1_
  6
CONTINUOUS
 62
    7
 10
259.72612963472045
 20
197.98337354187469
 11
259.63401566207892
 21
197.98337261055215
  0
LINE
  8
_7-1_
  6
CONTINUOUS
 62
    7
 10
259.25377193571767
 20
196.9849071349447
 11
259.25377193571767
 21
196.73490713494464
  0
LINE
  8
_7-1_
  6
CONTINUOUS
 62
    7
 10
259.25377193571767
 20
198.07989327285991
 11
259.25377193571767
 21
196.9849071349447
  0
LINE
  8
_7-1_
  6
CONTINUOUS
 62
    7
 10
259.25377193571767
 20
199.1748794107745
 11
259.25377193571767
 21
198.07989327285991
  0
LINE
  8
_7-1_
  6
CONTINUOUS
 62
    7
 10
259.1843736261552
 20
170.57989327285986
 11
258.38437362615508
 21
170.57989327285986
  0
LINE
  8
_7-1_
  6
CONTINUOUS
 62
    7
 10
259.1843736261552
 20
169.57989327285986
 11
258.38437362615508
 21
169.57989327285986
  0
LINE
  8
_7-1_
  6
CONTINUOUS
 62
    7
 10
258.38437362615508
 20
170.57989327285986
 11
258.38437362615508
 21
169.57989327285986
  0
LINE
  8
_7-1_
  6
CONTINUOUS
 62
    7
 10
259.1843736261552
 20
170.57989327285986
 11
259.1843736261552
 21
169.57989327285986
  0
LINE
  8
_7-1_
  6
CONTINUOUS
 62
    7
 10
259.1843736261552
 20
171.57989327285986
 11
258.38437362615508
 21
171.57989327285986
  0
LINE
  8
_7-1_
  6
CONTINUOUS
 62
    7
 10
258.38437362615508
 20
171.57989327285986
 11
258.38437362615508
 21
170.57989327285986
  0
LINE
  8
_7-1_
  6
CONTINUOUS
 62
    7
 10
259.1843736261552
 20
171.57989327285986
 11
259.1843736261552
 21
170.57989327285986
  0
LINE
  8
_7-1_
  6
CONTINUOUS
 62
    7
 10
259.1843736261552
 20
172.57989327285986
 11
258.38437362615508
 21
172.57989327285986
  0
LINE
  8
_7-1_
  6
CONTINUOUS
 62
    7
 10
258.38437362615508
 20
172.57989327285986
 11
258.38437362615508
 21
171.57989327285986
  0
LINE
  8
_7-1_
  6
CONTINUOUS
 62
    7
 10
259.1843736261552
 20
172.57989327285986
 11
259.1843736261552
 21
171.57989327285986
  0
LINE
  8
_7-1_
  6
CONTINUOUS
 62
    7
 10
258.13437362615513
 20
172.57989327285986
 11
258.13437362615513
 21
171.57989327285986
  0
LINE
  8
_7-1_
  6
CONTINUOUS
 62
    7
 10
258.13437362615513
 20
170.57989327285986
 11
258.13437362615513
 21
171.57989327285986
  0
LINE
  8
_7-1_
  6
CONTINUOUS
 62
    7
 10
258.13437362615513
 20
170.57989327285986
 11
258.13437362615513
 21
169.57989327285986
  0
LINE
  8
_7-1_
  6
CONTINUOUS
 62
    7
 10
258.38437362615508
 20
172.42989309553604
 11
258.13437361428077
 21
172.42989309553604
  0
LINE
  8
_7-1_
  6
CONTINUOUS
 62
    7
 10
258.38437362615508
 20
170.57989327285986
 11
258.13437362615513
 21
170.57989327285986
  0
LINE
  8
_7-1_
  6
CONTINUOUS
 62
    7
 10
258.38437362615508
 20
169.72989302550064
 11
258.13437361428077
 21
169.72989302550064
  0
LINE
  8
_7-1_
  6
CONTINUOUS
 62
    7
 10
258.38437362615508
 20
171.57989327285986
 11
258.13437362615513
 21
171.57989327285986
  0
LINE
  8
_7-1_
  6
CONTINUOUS
 62
    7
 10
259.18437358871597
 20
172.42979251269804
 11
259.25377193571785
 21
172.42487941077507
  0
ARC
  8
_7-1_
  6
CONTINUOUS
 62
    7
 10
259.23224554185549
 20
172.12084050805506
 40
0.304800000000506
 50
20.911833439961309
 51
85.950134071826454
  0
LINE
  8
_7-1_
  6
CONTINUOUS
 62
    7
 10
259.51696860250569
 20
172.22963305713017
 11
259.61743323080747
 21
171.86218958769541
  0
LINE
  8
_7-1_
  6
CONTINUOUS
 62
    7
 10
259.18437358871597
 20
172.17979293738108
 11
259.25377193571767
 21
172.17487941077519
  0
LINE
  8
_7-1_
  6
CONTINUOUS
 62
    7
 10
259.25377193571767
 20
169.98490713494533
 11
259.18437358871597
 21
169.97999411497812
  0
ARC
  8
_7-1_
  6
CONTINUOUS
 62
    7
 10
259.23224554185532
 20
170.28894603766474
 40
0.3048000000005047
 50
274.04986592817351
 51
340.43275363035661
  0
ARC
  8
_7-1_
  6
CONTINUOUS
 62
    7
 10
259.23224554185532
 20
171.87084050805512
 40
0.3048000000005142
 50
20.911833439961309
 51
85.950134071826454
  0
LINE
  8
_7-1_
  6
CONTINUOUS
 62
    7
 10
259.61704300664865
 20
170.54708946917759
 11
259.51527121890831
 21
170.17571900461416
  0
LINE
  8
_7-1_
  6
CONTINUOUS
 62
    7
 10
259.51696860250569
 20
171.97963305713017
 11
259.61743323080747
 21
171.6121900123785
  0
LINE
  8
_7-1_
  6
CONTINUOUS
 62
    7
 10
259.1843736261552
 20
171.57989327285986
 11
259.1843736261552
 21
172.57989327285986
  0
LINE
  8
_7-1_
  6
CONTINUOUS
 62
    7
 10
259.1843736261552
 20
170.57989327285986
 11
259.1843736261552
 21
171.57989327285986
  0
LINE
  8
_7-1_
  6
CONTINUOUS
 62
    7
 10
259.51696860250569
 20
172.22963305713017
 11
259.51696860250569
 21
171.98900730822316
  0
LINE
  8
_7-1_
  6
CONTINUOUS
 62
    7
 10
259.71621198062348
 20
171.17641300384502
 11
259.68763737421977
 21
171.01230092768179
  0
LINE
  8
_7-1_
  6
CONTINUOUS
 62
    7
 10
259.68763737421977
 20
171.01230092768179
 11
259.68056223303585
 21
170.9833731171916
  0
LINE
  8
_7-1_
  6
CONTINUOUS
 62
    7
 10
259.72612963472062
 20
171.4264135104845
 11
259.68059261743485
 21
171.4264135104845
  0
LINE
  8
_7-1_
  6
CONTINUOUS
 62
    7
 10
259.63401612774043
 20
171.86672233466606
 11
259.687402331685
 21
171.6485888925622
  0
LINE
  8
_7-1_
  6
CONTINUOUS
 62
    7
 10
259.687402331685
 20
171.6485888925622
 11
259.72612963472062
 21
171.4264135104845
  0
LINE
  8
_7-1_
  6
CONTINUOUS
 62
    7
 10
259.68059261743485
 20
171.4264135104845
 11
259.72612963472062
 21
171.4264135104845
  0
LINE
  8
_7-1_
  6
CONTINUOUS
 62
    7
 10
259.51696860250569
 20
171.97963305713017
 11
259.51696860250569
 21
171.07989327285991
  0
LINE
  8
_7-1_
  6
CONTINUOUS
 62
    7
 10
259.63401566207909
 20
170.98337218586902
 11
259.63608499605703
 21
171.07989327285991
  0
LINE
  8
_7-1_
  6
CONTINUOUS
 62
    7
 10
259.63401577849447
 20
170.54306243036489
 11
259.63608494442456
 21
170.54186847482424
  0
LINE
  8
_7-1_
  6
CONTINUOUS
 62
    7
 10
259.63608494442456
 20
170.54186847482424
 11
259.63607132383191
 21
170.54187592540486
  0
LINE
  8
_7-1_
  6
CONTINUOUS
 62
    7
 10
259.72612963472062
 20
170.9833731171916
 11
259.68763737421977
 21
170.76230135236482
  0
LINE
  8
_7-1_
  6
CONTINUOUS
 62
    7
 10
259.68763737421977
 20
170.76230135236482
 11
259.63401612774043
 21
170.54306429301004
  0
LINE
  8
_7-1_
  6
CONTINUOUS
 62
    7
 10
259.63401577849447
 20
170.9833731171916
 11
259.72612963472062
 21
170.9833731171916
  0
LINE
  8
_7-1_
  6
CONTINUOUS
 62
    7
 10
259.63608499605703
 20
171.07989327285991
 11
259.63401566207909
 21
170.98337218586902
  0
LINE
  8
_7-1_
  6
CONTINUOUS
 62
    7
 10
259.51696860250569
 20
171.07989327285991
 11
259.63608499605703
 21
171.07989327285991
  0
LINE
  8
_7-1_
  6
CONTINUOUS
 62
    7
 10
259.63401566207909
 20
171.1764139351676
 11
259.63608499605703
 21
171.07989327285991
  0
LINE
  8
_7-1_
  6
CONTINUOUS
 62
    7
 10
259.72612963472062
 20
171.17641300384502
 11
259.63401566207909
 21
171.17641300384502
  0
LINE
  8
_7-1_
  6
CONTINUOUS
 62
    7
 10
259.63401612774043
 20
171.61672275934915
 11
259.687402331685
 21
171.39858931724529
  0
LINE
  8
_7-1_
  6
CONTINUOUS
 62
    7
 10
259.687402331685
 20
171.39858931724529
 11
259.72612963472062
 21
171.17641300384502
  0
LINE
  8
_7-1_
  6
CONTINUOUS
 62
    7
 10
259.63401566207909
 20
171.17641300384502
 11
259.72612963472062
 21
171.17641300384502
  0
LINE
  8
_7-1_
  6
CONTINUOUS
 62
    7
 10
259.72612963472062
 20
170.9833731171916
 11
259.63401566207909
 21
170.9833731171916
  0
LINE
  8
_7-1_
  6
CONTINUOUS
 62
    7
 10
259.25377193571785
 20
172.42487941077507
 11
259.25377193571767
 21
172.17487941077519
  0
LINE
  8
_7-1_
  6
CONTINUOUS
 62
    7
 10
259.25377193571767
 20
171.07989327285991
 11
259.25377193571767
 21
169.98490713494533
  0
LINE
  8
_7-1_
  6
CONTINUOUS
 62
    7
 10
259.25377193571767
 20
172.17487941077519
 11
259.25377193571767
 21
171.07989327285991
  0
LINE
  8
_7-1_
  6
CONTINUOUS
 62
    7
 10
258.1343736261553
 20
196.57989327285986
 11
258.13437362615513
 21
172.57989327285986
  0
LINE
  8
_7-1_
  6
CONTINUOUS
 62
    7
 10
259.1843736261552
 20
196.57989327285986
 11
259.18437665407117
 21
182.82989332873921
  0
LINE
  8
_7-1_
  6
CONTINUOUS
 62
    7
 10
258.38437362615525
 20
196.57989327285986
 11
258.38437362615508
 21
182.82989327285986
  0
LINE
  8
_7-1_
  6
CONTINUOUS
 62
    7
 10
258.38437362615508
 20
182.82989327285986
 11
258.38437362615508
 21
172.57989327285986
  0
LINE
  8
_7-1_
  6
CONTINUOUS
 62
    7
 10
259.18437665407117
 20
181.7298929807971
 11
259.1843736261552
 21
172.57989327285986
  0
ARC
  8
_7-1_
  6
CONTINUOUS
 62
    7
 10
259.78437362615517
 20
183.17989327285982
 40
0.7500000000000279
 50
0
 51
89.999999999996745
  0
ARC
  8
_7-1_
  6
CONTINUOUS
 62
    7
 10
259.78437362615517
 20
178.97989327285986
 40
0.75
 50
270
 51
0
  0
LINE
  8
_7-1_
  6
CONTINUOUS
 62
    7
 10
260.53437362615517
 20
183.17989327285982
 11
260.53437362615517
 21
178.97989327285986
  0
LINE
  8
_7-1_
  6
CONTINUOUS
 62
    7
 10
259.18437665407117
 20
183.92989332277878
 11
259.78437362615517
 21
183.92989327285982
  0
LINE
  8
_7-1_
  6
CONTINUOUS
 62
    7
 10
259.18437665407117
 20
178.2298929807971
 11
259.78437362615517
 21
178.22989327285986
  0
LINE
  8
_7-1_
  6
CONTINUOUS
 62
    7
 10
259.18437665407117
 20
179.32989332873921
 11
259.18437665407117
 21
178.2298929807971
  0
LINE
  8
_7-1_
  6
CONTINUOUS
 62
    7
 10
259.18437665407117
 20
183.92989332277878
 11
259.18437665407117
 21
181.7298929807971
  0
LINE
  8
_7-1_
  6
CONTINUOUS
 62
    7
 10
261.93437574836866
 20
195.8298985956047
 11
259.18437571092943
 21
195.82989834393399
  0
LINE
  8
_7-1_
  6
CONTINUOUS
 62
    7
 10
261.93437426791064
 20
173.3298978243713
 11
259.1843742304714
 21
173.32989807604201
  0
LINE
  8
_7-1_
  6
CONTINUOUS
 62
    7
 10
259.18437571198194
 20
185.22990323589107
 11
259.18437571198194
 21
188.07989869371419
  0
LINE
  8
_7-1_
  6
CONTINUOUS
 62
    7
 10
331.00994454639555
 20
180.29043087887151
 11
334.16171834467218
 21
180.29043087887151
  0
LINE
  8
_7-1_
  6
CONTINUOUS
 62
    7
 10
334.16171834467218
 20
180.29043087887151
 11
334.16171834467218
 21
180.89461636065709
  0
LINE
  8
_7-1_
  6
CONTINUOUS
 62
    7
 10
334.16171834467218
 20
180.89461636065709
 11
331.00994454639555
 21
180.89461636065709
  0
LINE
  8
_7-1_
  6
CONTINUOUS
 62
    7
 10
331.00994454639555
 20
180.89461636065709
 11
331.00994454639555
 21
180.29043087887151
  0
LINE
  8
_7-1_
  6
CONTINUOUS
 62
    7
 10
324.70639694984208
 20
180.29043087887151
 11
331.00994454639555
 21
180.29043087887151
  0
LINE
  8
_7-1_
  6
CONTINUOUS
 62
    7
 10
331.00994454639555
 20
180.29043087887151
 11
331.00994454639555
 21
180.89461636065709
  0
LINE
  8
_7-1_
  6
CONTINUOUS
 62
    7
 10
331.00994454639555
 20
180.89461636065709
 11
324.70639694984208
 21
180.89461636065709
  0
LINE
  8
_7-1_
  6
CONTINUOUS
 62
    7
 10
324.70639694984208
 20
180.89461636065709
 11
324.70639694984208
 21
180.29043087887151
  0
LINE
  8
_7-1_
  6
CONTINUOUS
 62
    7
 10
324.70639694984208
 20
181.51201766818854
 11
331.00994454639555
 21
181.51201766818854
  0
LINE
  8
_7-1_
  6
CONTINUOUS
 62
    7
 10
331.00994454639555
 20
181.51201766818854
 11
331.00994454639555
 21
182.11620314997423
  0
LINE
  8
_7-1_
  6
CONTINUOUS
 62
    7
 10
331.00994454639555
 20
182.11620314997423
 11
324.70639694984208
 21
182.11620314997423
  0
LINE
  8
_7-1_
  6
CONTINUOUS
 62
    7
 10
324.70639694984208
 20
182.11620314997423
 11
324.70639694984208
 21
181.51201766818854
  0
LINE
  8
_7-1_
  6
CONTINUOUS
 62
    7
 10
331.00994454639555
 20
181.51201766818854
 11
334.16171834467218
 21
181.51201766818854
  0
LINE
  8
_7-1_
  6
CONTINUOUS
 62
    7
 10
334.16171834467218
 20
181.51201766818854
 11
334.16171834467218
 21
182.11620314997423
  0
LINE
  8
_7-1_
  6
CONTINUOUS
 62
    7
 10
334.16171834467218
 20
182.11620314997423
 11
331.00994454639555
 21
182.11620314997423
  0
LINE
  8
_7-1_
  6
CONTINUOUS
 62
    7
 10
331.00994454639555
 20
182.11620314997423
 11
331.00994454639555
 21
181.51201766818854
  0
LINE
  8
_7-1_
  6
CONTINUOUS
 62
    7
 10
260.53437362615517
 20
182.90725207745526
 11
324.70639694984208
 21
182.90725207745526
  0
LINE
  8
_7-1_
  6
CONTINUOUS
 62
    7
 10
324.70639694984208
 20
179.33270421653733
 11
260.53437362615517
 21
179.33270421653733
  0
LINE
  8
_7-1_
  6
CONTINUOUS
 62
    7
 10
324.70639694984208
 20
179.33270421653733
 11
324.70639694984208
 21
182.90725207745526
  0
ARC
  8
_7-1_
  6
CONTINUOUS
 62
    7
 10
163.68437362615532
 20
193.37988832066253
 40
0.25
 50
180
 51
270
  0
ARC
  8
_7-1_
  6
CONTINUOUS
 62
    7
 10
163.68437362615532
 20
190.7798883206625
 40
0.25
 50
90
 51
180
  0
LINE
  8
_7-1_
  6
CONTINUOUS
 62
    7
 10
163.68437362615532
 20
191.0298883206625
 11
165.43437386120231
 21
191.0298883206625
  0
ARC
  8
_7-1_
  6
CONTINUOUS
 62
    7
 10
165.43437386120231
 20
192.07988832066251
 40
1.0500000000000109
 50
270
 51
90
  0
LINE
  8
_7-1_
  6
CONTINUOUS
 62
    7
 10
165.43437386120231
 20
193.1298883206625
 11
163.68437362615532
 21
193.12988832066253
  0
ARC
  8
_7-1_
  6
CONTINUOUS
 62
    7
 10
164.93437362720771
 20
194.32988869441325
 40
1.5000000000000139
 50
90
 51
180
  0
LINE
  8
_7-1_
  6
CONTINUOUS
 62
    7
 10
163.43437362615537
 20
193.37988832066253
 11
163.43437362720771
 21
194.32988869441325
  0
ARC
  8
_7-1_
  6
CONTINUOUS
 62
    7
 10
163.68437510661328
 20
175.77988829693063
 40
0.25
 50
90
 51
180
  0
ARC
  8
_7-1_
  6
CONTINUOUS
 62
    7
 10
163.68437510661328
 20
178.37988829693068
 40
0.25
 50
180
 51
270
  0
LINE
  8
_7-1_
  6
CONTINUOUS
 62
    7
 10
163.68437510661328
 20
178.12988829693065
 11
165.43437534166031
 21
178.12988829693065
  0
ARC
  8
_7-1_
  6
CONTINUOUS
 62
    7
 10
165.43437534166031
 20
177.07988829693064
 40
1.0500000000000109
 50
270
 51
90
  0
LINE
  8
_7-1_
  6
CONTINUOUS
 62
    7
 10
165.43437534166031
 20
176.02988829693066
 11
163.68437510661328
 21
176.02988829693063
  0
ARC
  8
_7-1_
  6
CONTINUOUS
 62
    7
 10
164.93437510766568
 20
174.82988792317991
 40
1.5000000000000139
 50
180
 51
270
  0
LINE
  8
_7-1_
  6
CONTINUOUS
 62
    7
 10
163.43437510661334
 20
175.77988829693063
 11
163.43437510766568
 21
174.82988792317991
  0
LINE
  8
_7-1_
  6
CONTINUOUS
 62
    7
 10
102.29160172245245
 20
186.26739327285986
 11
102.29160172245245
 21
189.92211088205067
  0
ARC
  8
_7-1_
  6
CONTINUOUS
 62
    7
 10
163.68437362615532
 20
185.87988879252282
 40
0.25
 50
180
 51
270
  0
ARC
  8
_7-1_
  6
CONTINUOUS
 62
    7
 10
163.68437362615532
 20
183.27988879252276
 40
0.25
 50
90
 51
180
  0
LINE
  8
_7-1_
  6
CONTINUOUS
 62
    7
 10
163.68437362615532
 20
183.52988879252279
 11
165.43437386120231
 21
183.52988879252279
  0
ARC
  8
_7-1_
  6
CONTINUOUS
 62
    7
 10
165.43437386120231
 20
184.5798887925228
 40
1.0500000000000109
 50
270
 51
90
  0
LINE
  8
_7-1_
  6
CONTINUOUS
 62
    7
 10
165.43437386120231
 20
185.62988879252276
 11
163.68437362615532
 21
185.62988879252282
  0
LINE
  8
_7-1_
  6
CONTINUOUS
 62
    7
 10
163.43437362615523
 20
178.37988829693068
 11
163.43437362615537
 21
183.27988879252276
  0
LINE
  8
_7-1_
  6
CONTINUOUS
 62
    7
 10
163.43437362615537
 20
189.92211088205067
 11
163.43437362615537
 21
190.7798883206625
  0
LINE
  8
_7-1_
  6
CONTINUOUS
 62
    7
 10
163.43437362615537
 20
185.87988879252282
 11
163.43437362658463
 21
186.26739327285986
  0
LINE
  8
_7-1_
  6
CONTINUOUS
 62
    7
 10
168.73437366853875
 20
189.07989307914476
 11
168.48437365666444
 21
189.07989307914476
  0
LINE
  8
_7-1_
  6
CONTINUOUS
 62
    7
 10
168.73437366853875
 20
180.07989346657495
 11
168.48437365666427
 21
180.07989346657495
  0
LINE
  8
_7-1_
  6
CONTINUOUS
 62
    7
 10
164.93437362720771
 20
195.82988869441328
 11
167.68437370703043
 21
195.82988844274257
  0
LINE
  8
_7-1_
  6
CONTINUOUS
 62
    7
 10
168.48437365666444
 20
196.72989345018368
 11
168.73437366853875
 21
196.72989345018368
  0
LINE
  8
_7-1_
  6
CONTINUOUS
 62
    7
 10
167.6149753589762
 20
196.73490713494464
 11
167.68437370597791
 21
196.72999403302173
  0
ARC
  8
_7-1_
  6
CONTINUOUS
 62
    7
 10
167.63650175283856
 20
197.03894603766462
 40
0.3048000000005047
 50
199.56724636964329
 51
265.95013407182648
  0
LINE
  8
_7-1_
  6
CONTINUOUS
 62
    7
 10
167.2517042880454
 20
197.29709031854372
 11
167.35347607578557
 21
196.92571892265777
  0
LINE
  8
_7-1_
  6
CONTINUOUS
 62
    7
 10
167.68437370597791
 20
199.17979243074159
 11
167.6149753589762
 21
199.1748794107745
  0
LINE
  8
_7-1_
  6
CONTINUOUS
 62
    7
 10
167.6149753589762
 20
196.9849071349447
 11
167.68437370597791
 21
196.97999360833864
  0
ARC
  8
_7-1_
  6
CONTINUOUS
 62
    7
 10
167.63650175283856
 20
197.28894603766474
 40
0.3048000000005097
 50
199.56724636964329
 51
265.95013407182972
  0
ARC
  8
_7-1_
  6
CONTINUOUS
 62
    7
 10
167.63650175283856
 20
198.87084050805509
 40
0.3048000000005075
 50
94.049865928173531
 51
159.08816656003858
  0
LINE
  8
_7-1_
  6
CONTINUOUS
 62
    7
 10
167.2517042880454
 20
197.54708989386062
 11
167.35347607578557
 21
197.17571942929725
  0
LINE
  8
_7-1_
  6
CONTINUOUS
 62
    7
 10
167.35177869218836
 20
198.97963305713017
 11
167.25131406388658
 21
198.61219043706162
  0
LINE
  8
_7-1_
  6
CONTINUOUS
 62
    7
 10
168.73437366853875
 20
197.57989327285986
 11
168.4843736685388
 21
197.57989327285986
  0
LINE
  8
_7-1_
  6
CONTINUOUS
 62
    7
 10
168.73437366853875
 20
199.42989352021916
 11
168.48437365666444
 21
199.42989352021916
  0
LINE
  8
_7-1_
  6
CONTINUOUS
 62
    7
 10
168.73437366853875
 20
198.57989327285983
 11
168.4843736685388
 21
198.57989327285983
  0
LINE
  8
_7-1_
  6
CONTINUOUS
 62
    7
 10
167.68437366853885
 20
197.57989327285986
 11
168.4843736685388
 21
197.57989327285986
  0
LINE
  8
_7-1_
  6
CONTINUOUS
 62
    7
 10
167.68437366853885
 20
198.57989327285983
 11
168.4843736685388
 21
198.57989327285983
  0
LINE
  8
_7-1_
  6
CONTINUOUS
 62
    7
 10
168.4843736685388
 20
197.57989327285986
 11
168.4843736685388
 21
198.57989327285983
  0
LINE
  8
_7-1_
  6
CONTINUOUS
 62
    7
 10
167.68437366853885
 20
197.57989327285986
 11
167.68437366853885
 21
198.57989327285983
  0
LINE
  8
_7-1_
  6
CONTINUOUS
 62
    7
 10
167.68437366853885
 20
199.57989327285986
 11
168.4843736685388
 21
199.57989327285986
  0
LINE
  8
_7-1_
  6
CONTINUOUS
 62
    7
 10
168.4843736685388
 20
198.57989327285983
 11
168.4843736685388
 21
199.57989327285986
  0
LINE
  8
_7-1_
  6
CONTINUOUS
 62
    7
 10
167.68437366853885
 20
198.57989327285983
 11
167.68437366853885
 21
199.57989327285986
  0
LINE
  8
_7-1_
  6
CONTINUOUS
 62
    7
 10
167.68437366853885
 20
196.57989327285986
 11
168.4843736685388
 21
196.57989327285986
  0
LINE
  8
_7-1_
  6
CONTINUOUS
 62
    7
 10
168.4843736685388
 20
196.57989327285986
 11
168.4843736685388
 21
197.57989327285986
  0
LINE
  8
_7-1_
  6
CONTINUOUS
 62
    7
 10
167.68437366853885
 20
196.57989327285986
 11
167.68437366853885
 21
197.57989327285986
  0
LINE
  8
_7-1_
  6
CONTINUOUS
 62
    7
 10
167.23473151619958
 20
197.29306234840851
 11
167.23266235026949
 21
197.29186839286785
  0
LINE
  8
_7-1_
  6
CONTINUOUS
 62
    7
 10
167.23266235026949
 20
197.29186839286785
 11
167.23267597086214
 21
197.29187584344845
  0
LINE
  8
_7-1_
  6
CONTINUOUS
 62
    7
 10
167.14261765997326
 20
197.73337303523524
 11
167.18110992047411
 21
197.51230033908586
  0
LINE
  8
_7-1_
  6
CONTINUOUS
 62
    7
 10
167.18110992047411
 20
197.51230033908586
 11
167.23473116695362
 21
197.29306421105366
  0
LINE
  8
_7-1_
  6
CONTINUOUS
 62
    7
 10
167.1881546772592
 20
197.73337303523524
 11
167.14261765997326
 21
197.73337303523524
  0
LINE
  8
_7-1_
  6
CONTINUOUS
 62
    7
 10
167.1881546772592
 20
198.17641342852815
 11
167.18134496300888
 21
198.1485892352889
  0
LINE
  8
_7-1_
  6
CONTINUOUS
 62
    7
 10
167.18134496300888
 20
198.1485892352889
 11
167.15254637352609
 21
197.98337354187469
  0
LINE
  8
_7-1_
  6
CONTINUOUS
 62
    7
 10
167.14261765997326
 20
197.73337303523524
 11
167.1881546772592
 21
197.73337303523524
  0
LINE
  8
_7-1_
  6
CONTINUOUS
 62
    7
 10
167.35177869218836
 20
198.97963305713017
 11
167.35177869218836
 21
198.07989327285991
  0
LINE
  8
_7-1_
  6
CONTINUOUS
 62
    7
 10
167.23473163261496
 20
197.98337261055215
 11
167.23266229863685
 21
198.07989327285991
  0
LINE
  8
_7-1_
  6
CONTINUOUS
 62
    7
 10
167.23473151619958
 20
197.54306285504799
 11
167.23266235026949
 21
197.54186796818476
  0
LINE
  8
_7-1_
  6
CONTINUOUS
 62
    7
 10
167.23266235026949
 20
197.54186796818476
 11
167.23267597086214
 21
197.54187541876535
  0
LINE
  8
_7-1_
  6
CONTINUOUS
 62
    7
 10
167.14261765997326
 20
197.98337354187469
 11
167.18110992047411
 21
197.76230084572534
  0
LINE
  8
_7-1_
  6
CONTINUOUS
 62
    7
 10
167.18110992047411
 20
197.76230084572534
 11
167.23473116695362
 21
197.54306378637056
  0
LINE
  8
_7-1_
  6
CONTINUOUS
 62
    7
 10
167.23473151619958
 20
197.98337354187469
 11
167.14261765997326
 21
197.98337354187469
  0
LINE
  8
_7-1_
  6
CONTINUOUS
 62
    7
 10
167.23266229863685
 20
198.07989327285991
 11
167.23473163261496
 21
197.98337261055215
  0
LINE
  8
_7-1_
  6
CONTINUOUS
 62
    7
 10
167.35177869218836
 20
198.07989327285991
 11
167.23266229863685
 21
198.07989327285991
  0
LINE
  8
_7-1_
  6
CONTINUOUS
 62
    7
 10
167.23473163261496
 20
198.17641435985069
 11
167.23266229863685
 21
198.07989327285991
  0
LINE
  8
_7-1_
  6
CONTINUOUS
 62
    7
 10
167.14261765997326
 20
198.17641342852815
 11
167.23473163261496
 21
198.17641342852815
  0
LINE
  8
_7-1_
  6
CONTINUOUS
 62
    7
 10
167.23473116695362
 20
198.6167222527097
 11
167.18134496300888
 21
198.39858974192841
  0
LINE
  8
_7-1_
  6
CONTINUOUS
 62
    7
 10
167.18134496300888
 20
198.39858974192841
 11
167.14261765997326
 21
198.17641342852815
  0
LINE
  8
_7-1_
  6
CONTINUOUS
 62
    7
 10
167.23473163261496
 20
198.17641342852815
 11
167.14261765997326
 21
198.17641342852815
  0
LINE
  8
_7-1_
  6
CONTINUOUS
 62
    7
 10
167.14261765997326
 20
197.98337354187469
 11
167.23473163261496
 21
197.98337261055215
  0
LINE
  8
_7-1_
  6
CONTINUOUS
 62
    7
 10
168.73437366853875
 20
197.57989327285986
 11
168.73437366853875
 21
196.57989327285986
  0
LINE
  8
_7-1_
  6
CONTINUOUS
 62
    7
 10
168.73437366853875
 20
197.57989327285986
 11
168.73437366853875
 21
198.57989327285983
  0
LINE
  8
_7-1_
  6
CONTINUOUS
 62
    7
 10
168.73437366853875
 20
198.57989327285983
 11
168.73437366853875
 21
199.57989327285986
  0
LINE
  8
_7-1_
  6
CONTINUOUS
 62
    7
 10
167.6149753589762
 20
196.9849071349447
 11
167.6149753589762
 21
196.73490713494464
  0
LINE
  8
_7-1_
  6
CONTINUOUS
 62
    7
 10
167.6149753589762
 20
198.07989327285991
 11
167.6149753589762
 21
196.9849071349447
  0
LINE
  8
_7-1_
  6
CONTINUOUS
 62
    7
 10
167.6149753589762
 20
199.1748794107745
 11
167.6149753589762
 21
198.07989327285991
  0
LINE
  8
_7-1_
  6
CONTINUOUS
 62
    7
 10
168.73437366853875
 20
172.42989309553604
 11
168.48437365666427
 21
172.42989309553604
  0
LINE
  8
_7-1_
  6
CONTINUOUS
 62
    7
 10
167.68437370597791
 20
172.42979251269804
 11
167.61497535897603
 21
172.42487941077507
  0
ARC
  8
_7-1_
  6
CONTINUOUS
 62
    7
 10
167.63650175283839
 20
172.12084050805506
 40
0.304800000000506
 50
94.049865928173531
 51
159.08816656003858
  0
LINE
  8
_7-1_
  6
CONTINUOUS
 62
    7
 10
167.35177869218819
 20
172.22963305713017
 11
167.25131406388641
 21
171.86218958769541
  0
LINE
  8
_7-1_
  6
CONTINUOUS
 62
    7
 10
167.68437370597791
 20
172.17979293738108
 11
167.6149753589762
 21
172.17487941077519
  0
LINE
  8
_7-1_
  6
CONTINUOUS
 62
    7
 10
167.61497535897603
 20
169.98490713494533
 11
167.68437370597791
 21
169.97999411497812
  0
ARC
  8
_7-1_
  6
CONTINUOUS
 62
    7
 10
167.63650175283856
 20
170.28894603766474
 40
0.3048000000005047
 50
199.56724636964329
 51
265.95013407182648
  0
ARC
  8
_7-1_
  6
CONTINUOUS
 62
    7
 10
167.63650175283856
 20
171.87084050805512
 40
0.3048000000005142
 50
94.049865928173531
 51
159.08816656003858
  0
LINE
  8
_7-1_
  6
CONTINUOUS
 62
    7
 10
167.25170428804523
 20
170.54708946917759
 11
167.35347607578557
 21
170.17571900461416
  0
LINE
  8
_7-1_
  6
CONTINUOUS
 62
    7
 10
167.35177869218819
 20
171.97963305713017
 11
167.25131406388641
 21
171.6121900123785
  0
LINE
  8
_7-1_
  6
CONTINUOUS
 62
    7
 10
168.73437366853875
 20
170.57989327285986
 11
168.48437366853863
 21
170.57989327285986
  0
LINE
  8
_7-1_
  6
CONTINUOUS
 62
    7
 10
168.73437366853875
 20
169.72989302550064
 11
168.48437365666427
 21
169.72989302550064
  0
LINE
  8
_7-1_
  6
CONTINUOUS
 62
    7
 10
168.73437366853875
 20
171.57989327285986
 11
168.48437366853863
 21
171.57989327285986
  0
LINE
  8
_7-1_
  6
CONTINUOUS
 62
    7
 10
167.68437366853868
 20
171.57989327285986
 11
168.48437366853863
 21
171.57989327285986
  0
LINE
  8
_7-1_
  6
CONTINUOUS
 62
    7
 10
167.68437366853868
 20
171.57989327285986
 11
167.68437366853868
 21
172.57989327285986
  0
LINE
  8
_7-1_
  6
CONTINUOUS
 62
    7
 10
167.68437366853868
 20
172.57989327285986
 11
168.48437366853863
 21
172.57989327285986
  0
LINE
  8
_7-1_
  6
CONTINUOUS
 62
    7
 10
168.48437366853863
 20
171.57989327285986
 11
168.48437366853863
 21
172.57989327285986
  0
LINE
  8
_7-1_
  6
CONTINUOUS
 62
    7
 10
167.68437366853868
 20
170.57989327285986
 11
168.48437366853863
 21
170.57989327285986
  0
LINE
  8
_7-1_
  6
CONTINUOUS
 62
    7
 10
168.48437366853863
 20
170.57989327285986
 11
168.48437366853863
 21
171.57989327285986
  0
LINE
  8
_7-1_
  6
CONTINUOUS
 62
    7
 10
167.68437366853868
 20
170.57989327285986
 11
167.68437366853868
 21
171.57989327285986
  0
LINE
  8
_7-1_
  6
CONTINUOUS
 62
    7
 10
167.68437366853868
 20
169.57989327285986
 11
168.48437366853863
 21
169.57989327285986
  0
LINE
  8
_7-1_
  6
CONTINUOUS
 62
    7
 10
168.48437366853863
 20
169.57989327285986
 11
168.48437366853863
 21
170.57989327285986
  0
LINE
  8
_7-1_
  6
CONTINUOUS
 62
    7
 10
167.68437366853868
 20
169.57989327285986
 11
167.68437366853868
 21
170.57989327285986
  0
LINE
  8
_7-1_
  6
CONTINUOUS
 62
    7
 10
167.35177869218819
 20
172.22963305713017
 11
167.35177869218819
 21
171.98900730822316
  0
LINE
  8
_7-1_
  6
CONTINUOUS
 62
    7
 10
167.1525353140704
 20
171.17641300384502
 11
167.18110992047411
 21
171.01230092768179
  0
LINE
  8
_7-1_
  6
CONTINUOUS
 62
    7
 10
167.18110992047411
 20
171.01230092768179
 11
167.18818506165803
 21
170.9833731171916
  0
LINE
  8
_7-1_
  6
CONTINUOUS
 62
    7
 10
167.14261765997326
 20
171.4264135104845
 11
167.18815467725903
 21
171.4264135104845
  0
LINE
  8
_7-1_
  6
CONTINUOUS
 62
    7
 10
167.23473116695362
 20
171.86672233466606
 11
167.18134496300888
 21
171.6485888925622
  0
LINE
  8
_7-1_
  6
CONTINUOUS
 62
    7
 10
167.18134496300888
 20
171.6485888925622
 11
167.14261765997326
 21
171.4264135104845
  0
LINE
  8
_7-1_
  6
CONTINUOUS
 62
    7
 10
167.18815467725903
 20
171.4264135104845
 11
167.14261765997326
 21
171.4264135104845
  0
LINE
  8
_7-1_
  6
CONTINUOUS
 62
    7
 10
167.35177869218819
 20
171.97963305713017
 11
167.35177869218819
 21
171.07989327285991
  0
LINE
  8
_7-1_
  6
CONTINUOUS
 62
    7
 10
167.23473163261479
 20
170.98337218586902
 11
167.23266229863668
 21
171.07989327285991
  0
LINE
  8
_7-1_
  6
CONTINUOUS
 62
    7
 10
167.23473151619941
 20
170.54306243036489
 11
167.23266235026932
 21
170.54186847482424
  0
LINE
  8
_7-1_
  6
CONTINUOUS
 62
    7
 10
167.23266235026932
 20
170.54186847482424
 11
167.23267597086197
 21
170.54187592540486
  0
LINE
  8
_7-1_
  6
CONTINUOUS
 62
    7
 10
167.14261765997326
 20
170.9833731171916
 11
167.18110992047411
 21
170.76230135236482
  0
LINE
  8
_7-1_
  6
CONTINUOUS
 62
    7
 10
167.18110992047411
 20
170.76230135236482
 11
167.23473116695362
 21
170.54306429301004
  0
LINE
  8
_7-1_
  6
CONTINUOUS
 62
    7
 10
167.23473151619941
 20
170.9833731171916
 11
167.14261765997326
 21
170.9833731171916
  0
LINE
  8
_7-1_
  6
CONTINUOUS
 62
    7
 10
167.23266229863668
 20
171.07989327285991
 11
167.23473163261479
 21
170.98337218586902
  0
LINE
  8
_7-1_
  6
CONTINUOUS
 62
    7
 10
167.35177869218819
 20
171.07989327285991
 11
167.23266229863668
 21
171.07989327285991
  0
LINE
  8
_7-1_
  6
CONTINUOUS
 62
    7
 10
167.23473163261479
 20
171.1764139351676
 11
167.23266229863668
 21
171.07989327285991
  0
LINE
  8
_7-1_
  6
CONTINUOUS
 62
    7
 10
167.14261765997326
 20
171.17641300384502
 11
167.23473163261479
 21
171.17641300384502
  0
LINE
  8
_7-1_
  6
CONTINUOUS
 62
    7
 10
167.23473116695362
 20
171.61672275934915
 11
167.18134496300888
 21
171.39858931724529
  0
LINE
  8
_7-1_
  6
CONTINUOUS
 62
    7
 10
167.18134496300888
 20
171.39858931724529
 11
167.14261765997326
 21
171.17641300384502
  0
LINE
  8
_7-1_
  6
CONTINUOUS
 62
    7
 10
167.23473163261479
 20
171.17641300384502
 11
167.14261765997326
 21
171.17641300384502
  0
LINE
  8
_7-1_
  6
CONTINUOUS
 62
    7
 10
167.14261765997326
 20
170.9833731171916
 11
167.23473163261479
 21
170.9833731171916
  0
LINE
  8
_7-1_
  6
CONTINUOUS
 62
    7
 10
168.73437366853875
 20
172.57989327285986
 11
168.73437366853875
 21
171.57989327285986
  0
LINE
  8
_7-1_
  6
CONTINUOUS
 62
    7
 10
168.73437366853875
 20
170.57989327285986
 11
168.73437366853875
 21
171.57989327285986
  0
LINE
  8
_7-1_
  6
CONTINUOUS
 62
    7
 10
168.73437366853875
 20
169.57989327285986
 11
168.73437366853875
 21
170.57989327285986
  0
LINE
  8
_7-1_
  6
CONTINUOUS
 62
    7
 10
167.61497535897603
 20
172.42487941077507
 11
167.6149753589762
 21
172.17487941077519
  0
LINE
  8
_7-1_
  6
CONTINUOUS
 62
    7
 10
167.61497535897603
 20
171.07989327285991
 11
167.61497535897603
 21
169.98490713494533
  0
LINE
  8
_7-1_
  6
CONTINUOUS
 62
    7
 10
167.6149753589762
 20
172.17487941077519
 11
167.61497535897603
 21
171.07989327285991
  0
LINE
  8
_7-1_
  6
CONTINUOUS
 62
    7
 10
168.73437366853875
 20
196.57989327285986
 11
168.73437366853875
 21
172.57989327285986
  0
LINE
  8
_7-1_
  6
CONTINUOUS
 62
    7
 10
168.73437514899671
 20
180.07988353844842
 11
168.48437513712241
 21
180.07988353844842
  0
LINE
  8
_7-1_
  6
CONTINUOUS
 62
    7
 10
164.93437510766568
 20
173.32988792317991
 11
167.68437518748839
 21
173.32988817485062
  0
LINE
  8
_7-1_
  6
CONTINUOUS
 62
    7
 10
168.48437366853863
 20
172.57989327285986
 11
168.48437366853886
 21
184.5798887925228
  0
LINE
  8
_7-1_
  6
CONTINUOUS
 62
    7
 10
168.4843736685388
 20
184.5798887925228
 11
168.4843736685388
 21
196.57989327285986
  0
LINE
  8
_7-1_
  6
CONTINUOUS
 62
    7
 10
167.68437370597791
 20
186.70489327844779
 11
167.68437366853885
 21
196.57989327285986
  0
LINE
  8
_7-1_
  6
CONTINUOUS
 62
    7
 10
166.33437366853871
 20
186.26739327285986
 11
102.29160172245245
 21
186.26739327285986
  0
LINE
  8
_7-1_
  6
CONTINUOUS
 62
    7
 10
102.29160172245245
 20
189.92211088205067
 11
166.33437366853871
 21
189.92211088205067
  0
LINE
  8
_7-1_
  6
CONTINUOUS
 62
    7
 10
166.33437366853871
 20
189.92211088205067
 11
166.33437366853871
 21
186.26739327285986
  0
LINE
  8
_7-1_
  6
CONTINUOUS
 62
    7
 10
167.68437370597791
 20
185.22989333469968
 11
167.08437366853871
 21
185.22989327285989
  0
ARC
  8
_7-1_
  6
CONTINUOUS
 62
    7
 10
167.08437366853871
 20
185.97989327285989
 40
0.75
 50
180
 51
270
  0
LINE
  8
_7-1_
  6
CONTINUOUS
 62
    7
 10
167.68437370597791
 20
185.22989333469968
 11
167.68437370597791
 21
188.0798887925228
  0
LINE
  8
_7-1_
  6
CONTINUOUS
 62
    7
 10
167.68437370597791
 20
188.0798887925228
 11
167.68437370597791
 21
190.92989321102007
  0
LINE
  8
_7-1_
  6
CONTINUOUS
 62
    7
 10
167.68437370597791
 20
190.92989321102007
 11
167.08437366853871
 21
190.92989327285994
  0
ARC
  8
_7-1_
  6
CONTINUOUS
 62
    7
 10
167.08437366853871
 20
190.17989327285982
 40
0.7500000000000139
 50
90
 51
180
  0
LINE
  8
_7-1_
  6
CONTINUOUS
 62
    7
 10
166.33437366853871
 20
185.97989327285989
 11
166.33437366853871
 21
190.17989327285982
  0
LINE
  8
_7-1_
  6
CONTINUOUS
 62
    7
 10
167.68437366853868
 20
172.57989327285986
 11
167.68437371649883
 21
185.22989333469968
  0
LINE
  8
_7-1_
  6
CONTINUOUS
 62
    7
 10
95.988054125898983
 20
187.85100391565549
 11
92.836280327622304
 21
187.85100391565549
  0
LINE
  8
_7-1_
  6
CONTINUOUS
 62
    7
 10
92.836280327622304
 20
187.85100391565549
 11
92.836280327622304
 21
188.45518939744107
  0
LINE
  8
_7-1_
  6
CONTINUOUS
 62
    7
 10
92.836280327622304
 20
188.45518939744107
 11
95.988054125898983
 21
188.45518939744107
  0
LINE
  8
_7-1_
  6
CONTINUOUS
 62
    7
 10
95.988054125898983
 20
188.45518939744107
 11
95.988054125898983
 21
187.85100391565549
  0
LINE
  8
_7-1_
  6
CONTINUOUS
 62
    7
 10
95.988054125898983
 20
186.64727808833174
 11
92.836280327622304
 21
186.64727808833174
  0
LINE
  8
_7-1_
  6
CONTINUOUS
 62
    7
 10
92.836280327622304
 20
186.64727808833174
 11
92.836280327622304
 21
187.25146357011735
  0
LINE
  8
_7-1_
  6
CONTINUOUS
 62
    7
 10
92.836280327622304
 20
187.25146357011735
 11
95.988054125898983
 21
187.25146357011735
  0
LINE
  8
_7-1_
  6
CONTINUOUS
 62
    7
 10
95.988054125898983
 20
187.25146357011735
 11
95.988054125898983
 21
186.64727808833174
  0
LINE
  8
_7-1_
  6
CONTINUOUS
 62
    7
 10
102.29160172245245
 20
187.85100391565549
 11
95.988054125898983
 21
187.85100391565549
  0
LINE
  8
_7-1_
  6
CONTINUOUS
 62
    7
 10
95.988054125898983
 20
187.85100391565549
 11
95.988054125898983
 21
188.45518939744107
  0
LINE
  8
_7-1_
  6
CONTINUOUS
 62
    7
 10
95.988054125898983
 20
188.45518939744107
 11
102.29160172245245
 21
188.45518939744107
  0
LINE
  8
_7-1_
  6
CONTINUOUS
 62
    7
 10
102.29160172245245
 20
188.45518939744107
 11
102.29160172245245
 21
187.85100391565549
  0
LINE
  8
_7-1_
  6
CONTINUOUS
 62
    7
 10
102.29160172245245
 20
186.64727808833174
 11
95.988054125898983
 21
186.64727808833174
  0
LINE
  8
_7-1_
  6
CONTINUOUS
 62
    7
 10
95.988054125898983
 20
186.64727808833174
 11
95.988054125898983
 21
187.25146357011735
  0
LINE
  8
_7-1_
  6
CONTINUOUS
 62
    7
 10
95.988054125898983
 20
187.25146357011735
 11
102.29160172245245
 21
187.25146357011735
  0
LINE
  8
_7-1_
  6
CONTINUOUS
 62
    7
 10
102.29160172245245
 20
187.25146357011735
 11
102.29160172245245
 21
186.64727808833174
  0
LINE
  8
_7-1_
  6
CONTINUOUS
 62
    7
 10
102.29160172245245
 20
189.07259070497252
 11
95.988054125898983
 21
189.07259070497252
  0
LINE
  8
_7-1_
  6
CONTINUOUS
 62
    7
 10
95.988054125898983
 20
189.07259070497252
 11
95.988054125898983
 21
189.67677618675821
  0
LINE
  8
_7-1_
  6
CONTINUOUS
 62
    7
 10
95.988054125898983
 20
189.67677618675821
 11
102.29160172245245
 21
189.67677618675821
  0
LINE
  8
_7-1_
  6
CONTINUOUS
 62
    7
 10
102.29160172245245
 20
189.67677618675821
 11
102.29160172245245
 21
189.07259070497252
  0
LINE
  8
_7-1_
  6
CONTINUOUS
 62
    7
 10
95.988054125898983
 20
189.07259070497252
 11
92.836280327622304
 21
189.07259070497252
  0
LINE
  8
_7-1_
  6
CONTINUOUS
 62
    7
 10
92.836280327622304
 20
189.07259070497252
 11
92.836280327622304
 21
189.67677618675821
  0
LINE
  8
_7-1_
  6
CONTINUOUS
 62
    7
 10
92.836280327622304
 20
189.67677618675821
 11
95.988054125898983
 21
189.67677618675821
  0
LINE
  8
_7-1_
  6
CONTINUOUS
 62
    7
 10
95.988054125898983
 20
189.67677618675821
 11
95.988054125898983
 21
189.07259070497252
  0
LINE
  8
_7-1_
  6
CONTINUOUS
 62
    7
 10
167.68437366853885
 20
199.57989327285986
 11
258.1343736261553
 21
199.57989327285986
  0
LINE
  8
_7-1_
  6
CONTINUOUS
 62
    7
 10
258.1343736261553
 20
198.57989327285983
 11
168.73437366853875
 21
198.57989327285983
  0
LINE
  8
_7-1_
  6
CONTINUOUS
 62
    7
 10
258.1343736261553
 20
197.57989327285986
 11
168.73437366853875
 21
197.57989327285974
  0
LINE
  8
_7-1_
  6
CONTINUOUS
 62
    7
 10
258.1343736261553
 20
196.57989327285986
 11
168.73437366853875
 21
196.57989327285986
  0
LINE
  8
_7-1_
  6
CONTINUOUS
 62
    7
 10
258.13437362615513
 20
172.57989327285986
 11
168.73437366853875
 21
172.57989327285986
  0
LINE
  8
_7-1_
  6
CONTINUOUS
 62
    7
 10
258.13437362615513
 20
171.57989327285986
 11
168.73437366853875
 21
171.57989327285986
  0
LINE
  8
_7-1_
  6
CONTINUOUS
 62
    7
 10
168.73437366853875
 20
170.57989327285986
 11
258.13437362615513
 21
170.57989327285986
  0
LINE
  8
_7-1_
  6
CONTINUOUS
 62
    7
 10
258.13437362615513
 20
169.57989327285986
 11
168.73437366853875
 21
169.57989327285986
  0
ARC
  8
_7-1_
  6
CONTINUOUS
 62
    2
 10
234.17158138656623
 20
115.87843882264735
 40
0.1250000000000164
 50
119.99999999999563
 51
299.99999999999562
  0
LINE
  8
_7-1_
  6
CONTINUOUS
 62
    2
 10
234.23408138656617
 20
115.77018564717428
 11
234.10908138656611
 21
115.98669199812042
  0
ARC
  8
_7-1_
  6
CONTINUOUS
 62
    2
 10
231.08170030346303
 20
127.89725106023635
 40
0.1250000000000021
 50
119.99999999998439
 51
299.99999999998436
  0
LINE
  8
_7-1_
  6
CONTINUOUS
 62
    2
 10
231.14420030346298
 20
127.78899788476326
 11
231.01920030346309
 21
128.00550423570942
  0
LINE
  8
_7-1_
  6
CONTINUOUS
 62
    7
 10
259.1843736261552
 20
114.36516876144517
 11
258.38437362615508
 21
114.36516876144517
  0
LINE
  8
_7-1_
  6
CONTINUOUS
 62
    7
 10
259.1843736261552
 20
113.36516876144517
 11
258.38437362615508
 21
113.36516876144517
  0
LINE
  8
_7-1_
  6
CONTINUOUS
 62
    7
 10
258.38437362615508
 20
114.36516876144517
 11
258.38437362615508
 21
113.36516876144517
  0
LINE
  8
_7-1_
  6
CONTINUOUS
 62
    7
 10
259.1843736261552
 20
114.36516876144517
 11
259.1843736261552
 21
113.36516876144517
  0
LINE
  8
_7-1_
  6
CONTINUOUS
 62
    7
 10
258.13437362615513
 20
114.36516876144517
 11
258.13437362615513
 21
113.36516876144517
  0
LINE
  8
_7-1_
  6
CONTINUOUS
 62
    7
 10
258.38437362615508
 20
114.36516876144517
 11
258.13437362615513
 21
114.36516876144517
  0
LINE
  8
_7-1_
  6
CONTINUOUS
 62
    7
 10
258.38437362615508
 20
113.51516876856987
 11
258.13437361428077
 21
113.51516876856987
  0
LINE
  8
_7-1_
  6
CONTINUOUS
 62
    7
 10
259.18437358871597
 20
116.21506845949406
 11
259.25377193571767
 21
116.21015489935976
  0
LINE
  8
_7-1_
  6
CONTINUOUS
 62
    7
 10
259.25377193571767
 20
114.02018262352996
 11
259.18437358871597
 21
114.01526911322218
  0
ARC
  8
_7-1_
  6
CONTINUOUS
 62
    7
 10
259.23224554185532
 20
114.32422152625002
 40
0.3048000000005051
 50
274.04986592817027
 51
339.0881665600387
  0
LINE
  8
_7-1_
  6
CONTINUOUS
 62
    7
 10
259.64204971626901
 20
114.61940625122008
 11
259.64017147146665
 21
114.61115450037831
  0
LINE
  8
_7-1_
  6
CONTINUOUS
 62
    7
 10
259.64017147146665
 20
114.61115450037831
 11
259.51527121890831
 21
114.22480301371032
  0
LINE
  8
_7-1_
  6
CONTINUOUS
 62
    7
 10
259.68101054844015
 20
114.79057554060781
 11
259.64204971626901
 21
114.61940625122008
  0
LINE
  8
_7-1_
  6
CONTINUOUS
 62
    7
 10
259.68102486752457
 20
114.79034387411738
 11
259.64212550264335
 21
114.61919530665693
  0
LINE
  8
_7-1_
  6
CONTINUOUS
 62
    7
 10
259.51696860250552
 20
114.21542897717486
 11
259.51696860250552
 21
114.22958628958227
  0
LINE
  8
_7-1_
  6
CONTINUOUS
 62
    7
 10
259.63401566207892
 20
114.57833818530852
 11
259.63608494442456
 21
114.57714341486061
  0
LINE
  8
_7-1_
  6
CONTINUOUS
 62
    7
 10
259.72612963472045
 20
115.01864898855058
 11
259.68763725780439
 21
114.79757559390927
  0
LINE
  8
_7-1_
  6
CONTINUOUS
 62
    7
 10
259.68763725780439
 20
114.79757559390927
 11
259.68564783636981
 21
114.78944130612728
  0
LINE
  8
_7-1_
  6
CONTINUOUS
 62
    7
 10
259.63401612774026
 20
115.01864875571993
 11
259.72612951830524
 21
115.01864875571993
  0
LINE
  8
_7-1_
  6
CONTINUOUS
 62
    7
 10
259.6340157784943
 20
115.21168840954268
 11
259.63608494442456
 21
115.11516346035713
  0
LINE
  8
_7-1_
  6
CONTINUOUS
 62
    7
 10
259.63608494442456
 20
115.11516346035713
 11
259.6340157784943
 21
115.01864922138122
  0
LINE
  8
_7-1_
  6
CONTINUOUS
 62
    7
 10
259.72612963472045
 20
115.21168875878868
 11
259.63401612774026
 21
115.21168875878868
  0
LINE
  8
_7-1_
  6
CONTINUOUS
 62
    7
 10
259.6340157784943
 20
115.65199944561538
 11
259.68740221526962
 21
115.43386483935827
  0
LINE
  8
_7-1_
  6
CONTINUOUS
 62
    7
 10
259.68740221526962
 20
115.43386483935827
 11
259.72612963472045
 21
115.21168852595803
  0
ARC
  8
_7-1_
  6
CONTINUOUS
 62
    7
 10
255.72068392906913
 20
114.56428155133613
 40
4.0639999998782272
 50
15.541785398415729
 51
20.912734064235191
  0
LINE
  8
_7-1_
  6
CONTINUOUS
 62
    7
 10
259.63401566207892
 20
114.57833806889323
 11
259.68562664878112
 21
114.78921755587873
  0
LINE
  8
_7-1_
  6
CONTINUOUS
 62
    7
 10
259.6340157784943
 20
115.01864875571993
 11
259.72612963472045
 21
115.01864887213523
  0
LINE
  8
_7-1_
  6
CONTINUOUS
 62
    7
 10
259.6340157784943
 20
115.21168864237333
 11
259.72612963472045
 21
115.21168864237333
  0
LINE
  8
_7-1_
  6
CONTINUOUS
 62
    7
 10
259.25377193571767
 20
116.21015489935976
 11
259.25377193571767
 21
114.02018262352996
  0
LINE
  8
_7-1_
  6
CONTINUOUS
 62
    7
 10
259.1843736261552
 20
129.36516876144523
 11
258.38437362615508
 21
129.36516876144523
  0
LINE
  8
_7-1_
  6
CONTINUOUS
 62
    7
 10
258.38437362615508
 20
129.36516876144523
 11
258.38437362615508
 21
114.36516876144517
  0
LINE
  8
_7-1_
  6
CONTINUOUS
 62
    7
 10
259.1843736261552
 20
129.36516876144523
 11
259.1843736261552
 21
114.36516876144517
  0
LINE
  8
_7-1_
  6
CONTINUOUS
 62
    7
 10
259.1843736261552
 20
130.36516876144523
 11
258.38437362615508
 21
130.36516876144523
  0
LINE
  8
_7-1_
  6
CONTINUOUS
 62
    7
 10
258.38437362615508
 20
130.36516876144523
 11
258.38437362615508
 21
129.36516876144523
  0
LINE
  8
_7-1_
  6
CONTINUOUS
 62
    7
 10
259.1843736261552
 20
130.36516876144523
 11
259.1843736261552
 21
129.36516876144523
  0
LINE
  8
_7-1_
  6
CONTINUOUS
 62
    7
 10
258.13437362615513
 20
130.36516876144517
 11
258.13437362615513
 21
129.36516876144517
  0
LINE
  8
_7-1_
  6
CONTINUOUS
 62
    7
 10
258.13437362615513
 20
114.36516876144517
 11
258.13437362615513
 21
115.3923467995757
  0
LINE
  8
_7-1_
  6
CONTINUOUS
 62
    7
 10
258.13437362615513
 20
115.62147558432349
 11
258.13437362615513
 21
115.3923467995757
  0
LINE
  8
_7-1_
  6
CONTINUOUS
 62
    7
 10
258.13437362615513
 20
116.53799072331466
 11
258.13437362615513
 21
116.3088619385669
  0
LINE
  8
_7-1_
  6
CONTINUOUS
 62
    7
 10
258.13437362615513
 20
116.53799072331466
 11
258.13437362615513
 21
118.22951095393082
  0
LINE
  8
_7-1_
  6
CONTINUOUS
 62
    7
 10
258.13437362615513
 20
118.33921325070372
 11
258.13437362615513
 21
118.22951095393082
  0
LINE
  8
_7-1_
  6
CONTINUOUS
 62
    7
 10
258.13437362615513
 20
118.33921325070372
 11
258.13437362615513
 21
121.59112427218667
  0
LINE
  8
_7-1_
  6
CONTINUOUS
 62
    7
 10
258.13437362615513
 20
115.62147558432349
 11
258.13437362615513
 21
116.3088619385669
  0
LINE
  8
_7-1_
  6
CONTINUOUS
 62
    7
 10
258.38437362615508
 20
129.36516876144517
 11
258.13437362615513
 21
129.36516876144517
  0
LINE
  8
_7-1_
  6
CONTINUOUS
 62
    7
 10
258.38437362615508
 20
130.21516865713712
 11
258.13437361428077
 21
130.21516865713712
  0
LINE
  8
_7-1_
  6
CONTINUOUS
 62
    7
 10
259.18437358871597
 20
129.96506756765955
 11
259.25377193571767
 21
129.96015489935982
  0
LINE
  8
_7-1_
  6
CONTINUOUS
 62
    7
 10
259.25377193571767
 20
127.77018262353004
 11
259.18437358871597
 21
127.7652687452566
  0
ARC
  8
_7-1_
  6
CONTINUOUS
 62
    7
 10
259.23224554185532
 20
128.07422152625005
 40
0.3048000000005051
 50
274.04986592817027
 51
339.0881665600387
  0
LINE
  8
_7-1_
  6
CONTINUOUS
 62
    7
 10
259.64204971626901
 20
128.36940652353877
 11
259.64017147146665
 21
128.36115500552767
  0
LINE
  8
_7-1_
  6
CONTINUOUS
 62
    7
 10
259.64017147146665
 20
128.36115500552767
 11
259.51527121890831
 21
127.97480328602907
  0
LINE
  8
_7-1_
  6
CONTINUOUS
 62
    7
 10
259.68101054844015
 20
128.54057616217252
 11
259.64204971626901
 21
128.36940652353877
  0
LINE
  8
_7-1_
  6
CONTINUOUS
 62
    7
 10
259.68102486752457
 20
128.54034333152887
 11
259.64212550264335
 21
128.3691960446369
  0
LINE
  8
_7-1_
  6
CONTINUOUS
 62
    7
 10
259.51696860250552
 20
127.96542897717498
 11
259.51696860250552
 21
127.97958628958232
  0
LINE
  8
_7-1_
  6
CONTINUOUS
 62
    7
 10
259.63401566207892
 20
128.32833892328852
 11
259.63608494442456
 21
128.32714310510272
  0
LINE
  8
_7-1_
  6
CONTINUOUS
 62
    7
 10
259.72612963472045
 20
128.76864961011523
 11
259.68763725780439
 21
128.5475759826433
  0
LINE
  8
_7-1_
  6
CONTINUOUS
 62
    7
 10
259.68763725780439
 20
128.5475759826433
 11
259.68564783636981
 21
128.53944181127661
  0
LINE
  8
_7-1_
  6
CONTINUOUS
 62
    7
 10
259.63401612774026
 20
128.76864961011523
 11
259.72612951830524
 21
128.76864961011523
  0
LINE
  8
_7-1_
  6
CONTINUOUS
 62
    7
 10
259.6340157784943
 20
128.96168856544608
 11
259.63608494442456
 21
128.8651625685226
  0
LINE
  8
_7-1_
  6
CONTINUOUS
 62
    7
 10
259.63608494442456
 20
128.8651625685226
 11
259.6340157784943
 21
128.76864961011523
  0
LINE
  8
_7-1_
  6
CONTINUOUS
 62
    7
 10
259.72612963472045
 20
128.96168856544608
 11
259.63401612774026
 21
128.96168856544608
  0
LINE
  8
_7-1_
  6
CONTINUOUS
 62
    7
 10
259.6340157784943
 20
129.40199925227281
 11
259.68740221526962
 21
129.18386487884637
  0
LINE
  8
_7-1_
  6
CONTINUOUS
 62
    7
 10
259.68740221526962
 20
129.18386487884637
 11
259.72612963472045
 21
128.96168856544608
  0
LINE
  8
_7-1_
  6
CONTINUOUS
 62
    7
 10
259.63608499605703
 20
129.40319407474632
 11
259.63401566207892
 21
129.40199925227281
  0
ARC
  8
_7-1_
  6
CONTINUOUS
 62
    7
 10
255.72068392906913
 20
128.31428155133613
 40
4.0639999998782272
 50
15.541785398415729
 51
20.912734064235191
  0
LINE
  8
_7-1_
  6
CONTINUOUS
 62
    7
 10
259.63401566207892
 20
128.32833892328852
 11
259.68562664878112
 21
128.5392182938587
  0
LINE
  8
_7-1_
  6
CONTINUOUS
 62
    7
 10
259.6340157784943
 20
128.76864961011523
 11
259.72612963472045
 21
128.76864961011523
  0
LINE
  8
_7-1_
  6
CONTINUOUS
 62
    7
 10
259.6340157784943
 20
128.96168856544608
 11
259.72612963472045
 21
128.96168856544608
  0
LINE
  8
_7-1_
  6
CONTINUOUS
 62
    7
 10
259.25377193571767
 20
129.96015489935982
 11
259.25377193571767
 21
127.77018262353004
  0
ARC
  8
_7-1_
  6
CONTINUOUS
 62
    7
 10
259.2322455419034
 20
129.65611599665919
 40
0.3048000000005075
 50
20.911833439961419
 51
85.950134071826454
  0
ARC
  8
_7-1_
  6
CONTINUOUS
 62
    7
 10
259.2322455419034
 20
129.65611599665919
 40
0.3048000000005075
 50
20.911833439961419
 51
85.950134071826454
  0
LINE
  8
_7-1_
  6
CONTINUOUS
 62
    7
 10
261.93437426791064
 20
114.16516876144518
 11
261.93437426791064
 21
113.36516876144517
  0
LINE
  8
_7-1_
  6
CONTINUOUS
 62
    7
 10
263.43437426791064
 20
114.16516876144518
 11
261.93437426791064
 21
114.16516876144518
  0
LINE
  8
_7-1_
  6
CONTINUOUS
 62
    7
 10
263.43437426791064
 20
114.16516876144518
 11
263.43437426791064
 21
113.36516876144517
  0
LINE
  8
_7-1_
  6
CONTINUOUS
 62
    7
 10
263.43437426791064
 20
113.36516876144517
 11
261.93437426791064
 21
113.36516876144517
  0
LINE
  8
_7-1_
  6
CONTINUOUS
 62
    7
 10
261.93437426791064
 20
114.16516876144518
 11
259.49225564169626
 21
114.16516874261827
  0
LINE
  8
_7-1_
  6
CONTINUOUS
 62
    7
 10
261.93437426791064
 20
113.36516876144517
 11
259.1843736261552
 21
113.36516876144517
  0
LINE
  8
_7-1_
  6
CONTINUOUS
 62
    7
 10
258.13437362615513
 20
121.59112427218667
 11
258.13437362615513
 21
129.36516876144517
  0
LINE
  8
_7-1_
  6
CONTINUOUS
 62
    7
 10
260.53437362615517
 20
120.03780995684945
 11
260.53437362615517
 21
123.69252756604029
  0
ARC
  8
_7-1_
  6
CONTINUOUS
 62
    7
 10
259.78437362615517
 20
123.96516876144482
 40
0.7500000000000279
 50
0
 51
89.999999999996745
  0
ARC
  8
_7-1_
  6
CONTINUOUS
 62
    7
 10
259.78437362615517
 20
119.76516876144489
 40
0.75
 50
270
 51
0
  0
LINE
  8
_7-1_
  6
CONTINUOUS
 62
    7
 10
260.53437362615517
 20
123.96516876144482
 11
260.53437362615517
 21
119.76516876144489
  0
LINE
  8
_7-1_
  6
CONTINUOUS
 62
    7
 10
259.18437665407117
 20
124.71516881136378
 11
259.78437362615517
 21
124.71516876144482
  0
LINE
  8
_7-1_
  6
CONTINUOUS
 62
    7
 10
259.18437665407117
 20
119.01516846938213
 11
259.78437362615517
 21
119.01516876144489
  0
LINE
  8
_7-1_
  6
CONTINUOUS
 62
    7
 10
259.18437665407117
 20
120.11516881732421
 11
259.18437665407117
 21
119.01516846938213
  0
LINE
  8
_7-1_
  6
CONTINUOUS
 62
    7
 10
259.18437665407117
 20
124.71516881136378
 11
259.18437665407117
 21
122.51516846938213
  0
ARC
  8
_7-1_
  6
CONTINUOUS
 62
    7
 10
259.2322455419034
 20
115.91632355439668
 40
0.3048000000005075
 50
20.911833439961419
 51
85.950134071826454
  0
ARC
  8
_7-1_
  6
CONTINUOUS
 62
    7
 10
259.2322455419034
 20
115.91632355439668
 40
0.3048000000005075
 50
20.911833439961419
 51
85.950134071826454
  0
LINE
  8
_7-1_
  6
CONTINUOUS
 62
    7
 10
260.53437362615517
 20
123.69252756604029
 11
324.70639694984208
 21
123.69252756604029
  0
LINE
  8
_7-1_
  6
CONTINUOUS
 62
    7
 10
324.70639694984208
 20
120.03780995684945
 11
260.53437362615517
 21
120.03780995684945
  0
LINE
  8
_7-1_
  6
CONTINUOUS
 62
    7
 10
331.00994454639555
 20
121.0653753728495
 11
334.16171834467218
 21
121.0653753728495
  0
LINE
  8
_7-1_
  6
CONTINUOUS
 62
    7
 10
334.16171834467218
 20
121.0653753728495
 11
334.16171834467218
 21
121.66956085463507
  0
LINE
  8
_7-1_
  6
CONTINUOUS
 62
    7
 10
334.16171834467218
 20
121.66956085463507
 11
331.00994454639555
 21
121.66956085463507
  0
LINE
  8
_7-1_
  6
CONTINUOUS
 62
    7
 10
331.00994454639555
 20
121.66956085463507
 11
331.00994454639555
 21
121.0653753728495
  0
LINE
  8
_7-1_
  6
CONTINUOUS
 62
    7
 10
324.70639694984208
 20
121.0653753728495
 11
331.00994454639555
 21
121.0653753728495
  0
LINE
  8
_7-1_
  6
CONTINUOUS
 62
    7
 10
331.00994454639555
 20
121.0653753728495
 11
331.00994454639555
 21
121.66956085463507
  0
LINE
  8
_7-1_
  6
CONTINUOUS
 62
    7
 10
331.00994454639555
 20
121.66956085463507
 11
324.70639694984208
 21
121.66956085463507
  0
LINE
  8
_7-1_
  6
CONTINUOUS
 62
    7
 10
324.70639694984208
 20
121.66956085463507
 11
324.70639694984208
 21
121.0653753728495
  0
LINE
  8
_7-1_
  6
CONTINUOUS
 62
    7
 10
324.70639694984208
 20
122.28696216216653
 11
331.00994454639555
 21
122.28696216216653
  0
LINE
  8
_7-1_
  6
CONTINUOUS
 62
    7
 10
331.00994454639555
 20
122.28696216216653
 11
331.00994454639555
 21
122.89114764395222
  0
LINE
  8
_7-1_
  6
CONTINUOUS
 62
    7
 10
331.00994454639555
 20
122.89114764395222
 11
324.70639694984208
 21
122.89114764395222
  0
LINE
  8
_7-1_
  6
CONTINUOUS
 62
    7
 10
324.70639694984208
 20
122.89114764395222
 11
324.70639694984208
 21
122.28696216216653
  0
LINE
  8
_7-1_
  6
CONTINUOUS
 62
    7
 10
331.00994454639555
 20
122.28696216216653
 11
334.16171834467218
 21
122.28696216216653
  0
LINE
  8
_7-1_
  6
CONTINUOUS
 62
    7
 10
334.16171834467218
 20
122.28696216216653
 11
334.16171834467218
 21
122.89114764395222
  0
LINE
  8
_7-1_
  6
CONTINUOUS
 62
    7
 10
334.16171834467218
 20
122.89114764395222
 11
331.00994454639555
 21
122.89114764395222
  0
LINE
  8
_7-1_
  6
CONTINUOUS
 62
    7
 10
331.00994454639555
 20
122.89114764395222
 11
331.00994454639555
 21
122.28696216216653
  0
LINE
  8
_7-1_
  6
CONTINUOUS
 62
    7
 10
324.70639694984208
 20
120.10764871051532
 11
324.70639694984208
 21
121.88042881078646
  0
LINE
  8
_7-1_
  6
CONTINUOUS
 62
    7
 10
324.70639694984208
 20
121.88042881078646
 11
324.70639694984208
 21
123.68219657143325
  0
LINE
  8
_7-1_
  6
CONTINUOUS
 62
    7
 10
167.68437370597791
 20
116.21506845949406
 11
167.6149753589762
 21
116.21015489935976
  0
LINE
  8
_7-1_
  6
CONTINUOUS
 62
    7
 10
167.6149753589762
 20
114.02018262352996
 11
167.68437370597791
 21
114.01526911322218
  0
ARC
  8
_7-1_
  6
CONTINUOUS
 62
    7
 10
167.63650175283856
 20
114.32422152625002
 40
0.3048000000005051
 50
200.91183343996132
 51
265.95013407182972
  0
LINE
  8
_7-1_
  6
CONTINUOUS
 62
    7
 10
167.22669757842487
 20
114.61940625122008
 11
167.22857582322723
 21
114.61115450037831
  0
LINE
  8
_7-1_
  6
CONTINUOUS
 62
    7
 10
167.22857582322723
 20
114.61115450037831
 11
167.35347607578557
 21
114.22480301371032
  0
LINE
  8
_7-1_
  6
CONTINUOUS
 62
    7
 10
167.18773674625373
 20
114.79057554060781
 11
167.22669757842487
 21
114.61940625122008
  0
LINE
  8
_7-1_
  6
CONTINUOUS
 62
    7
 10
167.18772242716914
 20
114.79034387411738
 11
167.22662179205036
 21
114.61919530665693
  0
LINE
  8
_7-1_
  6
CONTINUOUS
 62
    7
 10
168.73437366853875
 20
114.36516876144517
 11
168.4843736685388
 21
114.36516876144517
  0
LINE
  8
_7-1_
  6
CONTINUOUS
 62
    7
 10
168.73437366853875
 20
113.51516876856987
 11
168.48437365666444
 21
113.51516876856987
  0
LINE
  8
_7-1_
  6
CONTINUOUS
 62
    7
 10
167.68437366853868
 20
113.36516876144517
 11
168.4843736685388
 21
113.36516876144517
  0
LINE
  8
_7-1_
  6
CONTINUOUS
 62
    7
 10
167.68437366853868
 20
113.36516876144517
 11
167.68437366853868
 21
114.36516876144517
  0
LINE
  8
_7-1_
  6
CONTINUOUS
 62
    7
 10
167.68437366853868
 20
114.36516876144517
 11
168.4843736685388
 21
114.36516876144517
  0
LINE
  8
_7-1_
  6
CONTINUOUS
 62
    7
 10
168.4843736685388
 20
113.36516876144517
 11
168.4843736685388
 21
114.36516876144517
  0
LINE
  8
_7-1_
  6
CONTINUOUS
 62
    7
 10
167.35177869218819
 20
114.21542897717486
 11
167.35177869218819
 21
114.22958628958227
  0
LINE
  8
_7-1_
  6
CONTINUOUS
 62
    7
 10
167.23473163261479
 20
114.57833818530852
 11
167.23266235026932
 21
114.57714341486061
  0
LINE
  8
_7-1_
  6
CONTINUOUS
 62
    7
 10
167.14261765997326
 20
115.01864898855058
 11
167.18111003688949
 21
114.79757559390927
  0
LINE
  8
_7-1_
  6
CONTINUOUS
 62
    7
 10
167.18111003688949
 20
114.79757559390927
 11
167.18309945832407
 21
114.78944130612728
  0
LINE
  8
_7-1_
  6
CONTINUOUS
 62
    7
 10
167.23473116695362
 20
115.01864875571993
 11
167.14261777638864
 21
115.01864875571993
  0
LINE
  8
_7-1_
  6
CONTINUOUS
 62
    7
 10
167.23473151619958
 20
115.21168840954268
 11
167.23266235026932
 21
115.11516346035713
  0
LINE
  8
_7-1_
  6
CONTINUOUS
 62
    7
 10
167.23266235026932
 20
115.11516346035713
 11
167.23473151619958
 21
115.01864922138122
  0
LINE
  8
_7-1_
  6
CONTINUOUS
 62
    7
 10
167.14261765997326
 20
115.21168875878868
 11
167.23473116695362
 21
115.21168875878868
  0
LINE
  8
_7-1_
  6
CONTINUOUS
 62
    7
 10
167.23473151619958
 20
115.65199944561538
 11
167.18134507942426
 21
115.43386483935827
  0
LINE
  8
_7-1_
  6
CONTINUOUS
 62
    7
 10
167.18134507942426
 20
115.43386483935827
 11
167.14261765997326
 21
115.21168852595803
  0
LINE
  8
_7-1_
  6
CONTINUOUS
 62
    7
 10
167.23266229863668
 20
115.65319407474626
 11
167.23473163261479
 21
115.65199944561538
  0
ARC
  8
_7-1_
  6
CONTINUOUS
 62
    7
 10
171.14806336562475
 20
114.56428155133613
 40
4.0639999998782272
 50
159.0872659357648
 51
164.45821460158418
  0
LINE
  8
_7-1_
  6
CONTINUOUS
 62
    7
 10
167.23473163261479
 20
114.57833806889323
 11
167.18312064591276
 21
114.78921755587873
  0
LINE
  8
_7-1_
  6
CONTINUOUS
 62
    7
 10
167.23473151619958
 20
115.01864875571993
 11
167.14261765997326
 21
115.01864887213523
  0
LINE
  8
_7-1_
  6
CONTINUOUS
 62
    7
 10
167.23473151619958
 20
115.21168864237333
 11
167.14261765997326
 21
115.21168864237333
  0
LINE
  8
_7-1_
  6
CONTINUOUS
 62
    7
 10
168.73437366853875
 20
113.36516876144517
 11
168.73437366853875
 21
114.36516876144517
  0
LINE
  8
_7-1_
  6
CONTINUOUS
 62
    7
 10
167.6149753589762
 20
116.21015489935976
 11
167.6149753589762
 21
114.02018262352996
  0
ARC
  8
_7-1_
  6
CONTINUOUS
 62
    7
 10
167.6365017527905
 20
115.90611599665922
 40
0.3048000000005075
 50
94.049865928173531
 51
159.08816656003858
  0
LINE
  8
_7-1_
  6
CONTINUOUS
 62
    7
 10
167.68437370597791
 20
129.96506756765955
 11
167.6149753589762
 21
129.96015489935982
  0
LINE
  8
_7-1_
  6
CONTINUOUS
 62
    7
 10
167.6149753589762
 20
127.77018262353004
 11
167.68437370597791
 21
127.7652687452566
  0
ARC
  8
_7-1_
  6
CONTINUOUS
 62
    7
 10
167.63650175283856
 20
128.07422152625005
 40
0.3048000000005051
 50
200.91183343996132
 51
265.95013407182972
  0
LINE
  8
_7-1_
  6
CONTINUOUS
 62
    7
 10
167.22669757842487
 20
128.36940652353877
 11
167.22857582322723
 21
128.36115500552767
  0
LINE
  8
_7-1_
  6
CONTINUOUS
 62
    7
 10
167.22857582322723
 20
128.36115500552767
 11
167.35347607578557
 21
127.97480328602907
  0
LINE
  8
_7-1_
  6
CONTINUOUS
 62
    7
 10
167.18773674625373
 20
128.54057616217252
 11
167.22669757842487
 21
128.36940652353877
  0
LINE
  8
_7-1_
  6
CONTINUOUS
 62
    7
 10
167.18772242716914
 20
128.54034333152887
 11
167.22662179205036
 21
128.3691960446369
  0
LINE
  8
_7-1_
  6
CONTINUOUS
 62
    7
 10
168.73437366853875
 20
129.36516876144517
 11
168.4843736685388
 21
129.36516876144517
  0
LINE
  8
_7-1_
  6
CONTINUOUS
 62
    7
 10
168.73437366853875
 20
121.30612468142612
 11
168.73437366853875
 21
118.62421284146427
  0
LINE
  8
_7-1_
  6
CONTINUOUS
 62
    7
 10
168.73437366853875
 20
116.3088619385669
 11
168.73437366853875
 21
115.62147558432349
  0
LINE
  8
_7-1_
  6
CONTINUOUS
 62
    7
 10
168.73437366853875
 20
130.21516865713712
 11
168.48437365666444
 21
130.21516865713712
  0
LINE
  8
_7-1_
  6
CONTINUOUS
 62
    7
 10
167.68437366853868
 20
129.36516876144517
 11
168.4843736685388
 21
129.36516876144517
  0
LINE
  8
_7-1_
  6
CONTINUOUS
 62
    7
 10
167.68437366853868
 20
114.36516876144517
 11
167.68437366853868
 21
129.36516876144517
  0
LINE
  8
_7-1_
  6
CONTINUOUS
 62
    7
 10
168.4843736685388
 20
114.36516876144517
 11
168.4843736685388
 21
129.36516876144517
  0
LINE
  8
_7-1_
  6
CONTINUOUS
 62
    7
 10
167.68437366853868
 20
130.36516876144517
 11
168.4843736685388
 21
130.36516876144517
  0
LINE
  8
_7-1_
  6
CONTINUOUS
 62
    7
 10
167.68437366853868
 20
129.36516876144517
 11
167.68437366853868
 21
130.36516876144517
  0
LINE
  8
_7-1_
  6
CONTINUOUS
 62
    7
 10
168.4843736685388
 20
129.36516876144517
 11
168.4843736685388
 21
130.36516876144517
  0
LINE
  8
_7-1_
  6
CONTINUOUS
 62
    7
 10
167.35177869218836
 20
127.96542897717498
 11
167.35177869218836
 21
127.97958628958232
  0
LINE
  8
_7-1_
  6
CONTINUOUS
 62
    7
 10
167.23473163261479
 20
128.32833892328852
 11
167.23266235026932
 21
128.32714310510272
  0
LINE
  8
_7-1_
  6
CONTINUOUS
 62
    7
 10
167.14261765997326
 20
128.76864961011523
 11
167.18111003688949
 21
128.5475759826433
  0
LINE
  8
_7-1_
  6
CONTINUOUS
 62
    7
 10
167.18111003688949
 20
128.5475759826433
 11
167.18309945832407
 21
128.53944181127661
  0
LINE
  8
_7-1_
  6
CONTINUOUS
 62
    7
 10
167.23473116695362
 20
128.76864961011523
 11
167.14261777638864
 21
128.76864961011523
  0
LINE
  8
_7-1_
  6
CONTINUOUS
 62
    7
 10
167.23473151619958
 20
128.96168856544608
 11
167.23266235026932
 21
128.8651625685226
  0
LINE
  8
_7-1_
  6
CONTINUOUS
 62
    7
 10
167.23266235026932
 20
128.8651625685226
 11
167.23473151619958
 21
128.76864961011523
  0
LINE
  8
_7-1_
  6
CONTINUOUS
 62
    7
 10
167.14261765997326
 20
128.96168856544608
 11
167.23473116695362
 21
128.96168856544608
  0
LINE
  8
_7-1_
  6
CONTINUOUS
 62
    7
 10
167.23473151619958
 20
129.40199925227281
 11
167.18134507942426
 21
129.18386487884637
  0
LINE
  8
_7-1_
  6
CONTINUOUS
 62
    7
 10
167.18134507942426
 20
129.18386487884637
 11
167.14261765997326
 21
128.96168856544608
  0
LINE
  8
_7-1_
  6
CONTINUOUS
 62
    7
 10
167.23266229863685
 20
129.40319407474632
 11
167.23473163261479
 21
129.40199925227281
  0
ARC
  8
_7-1_
  6
CONTINUOUS
 62
    7
 10
171.14806336562475
 20
128.31428155133613
 40
4.0639999998782272
 50
159.0872659357648
 51
164.45821460158418
  0
LINE
  8
_7-1_
  6
CONTINUOUS
 62
    7
 10
167.23473163261479
 20
128.32833892328852
 11
167.18312064591276
 21
128.5392182938587
  0
LINE
  8
_7-1_
  6
CONTINUOUS
 62
    7
 10
167.23473151619958
 20
128.76864961011523
 11
167.14261765997326
 21
128.76864961011523
  0
LINE
  8
_7-1_
  6
CONTINUOUS
 62
    7
 10
167.23473151619958
 20
128.96168856544608
 11
167.14261765997326
 21
128.96168856544608
  0
LINE
  8
_7-1_
  6
CONTINUOUS
 62
    7
 10
168.73437366853875
 20
129.36516876144517
 11
168.73437366853875
 21
130.36516876144517
  0
LINE
  8
_7-1_
  6
CONTINUOUS
 62
    7
 10
168.73437366853875
 20
114.36516876144517
 11
168.73437366853875
 21
115.3923467995757
  0
LINE
  8
_7-1_
  6
CONTINUOUS
 62
    7
 10
168.73437366853875
 20
115.3923467995757
 11
168.73437366853875
 21
115.62147558432349
  0
LINE
  8
_7-1_
  6
CONTINUOUS
 62
    7
 10
168.73437366853875
 20
116.3088619385669
 11
168.73437366853875
 21
116.53799072331466
  0
LINE
  8
_7-1_
  6
CONTINUOUS
 62
    7
 10
168.73437366853875
 20
116.53799072331466
 11
168.73437366853875
 21
118.22951095393082
  0
LINE
  8
_7-1_
  6
CONTINUOUS
 62
    7
 10
168.73437366853875
 20
118.22951095393082
 11
168.73437366853875
 21
118.33921325070372
  0
LINE
  8
_7-1_
  6
CONTINUOUS
 62
    7
 10
168.73437366853875
 20
118.33921325070372
 11
168.73437366853875
 21
118.62421284146427
  0
LINE
  8
_7-1_
  6
CONTINUOUS
 62
    7
 10
167.6149753589762
 20
129.96015489935982
 11
167.6149753589762
 21
127.77018262353004
  0
ARC
  8
_7-1_
  6
CONTINUOUS
 62
    7
 10
167.6365017527905
 20
129.65611599665922
 40
0.3048000000005075
 50
94.049865928173531
 51
159.08816656003858
  0
LINE
  8
_7-1_
  6
CONTINUOUS
 62
    7
 10
168.73437366853875
 20
121.30612468142612
 11
168.73437366853875
 21
129.36516876144517
  0
LINE
  8
_7-1_
  6
CONTINUOUS
 62
    7
 10
164.93437510661334
 20
114.16516876144513
 11
164.93437510661334
 21
113.36516876144517
  0
LINE
  8
_7-1_
  6
CONTINUOUS
 62
    7
 10
167.37649161774135
 20
114.16516874123553
 11
164.93437510661334
 21
114.16516876144513
  0
LINE
  8
_7-1_
  6
CONTINUOUS
 62
    7
 10
167.68437366853868
 20
113.36516876144517
 11
164.93437510661334
 21
113.36516876144517
  0
LINE
  8
_7-1_
  6
CONTINUOUS
 62
    7
 10
163.43437510661334
 20
114.16516876144513
 11
163.43437510661334
 21
113.36516876144517
  0
LINE
  8
_7-1_
  6
CONTINUOUS
 62
    7
 10
164.93437510661334
 20
114.16516876144513
 11
163.43437510661334
 21
114.16516876144513
  0
LINE
  8
_7-1_
  6
CONTINUOUS
 62
    7
 10
164.93437510661334
 20
113.36516876144517
 11
163.43437510661334
 21
113.36516876144517
  0
LINE
  8
_7-1_
  6
CONTINUOUS
 62
    7
 10
166.33437366853871
 20
123.69252756604024
 11
166.33437366853871
 21
120.0378099568494
  0
LINE
  8
_7-1_
  6
CONTINUOUS
 62
    7
 10
168.73437366853875
 20
122.85030976313433
 11
168.48437365666444
 21
122.85030976313433
  0
LINE
  8
_7-1_
  6
CONTINUOUS
 62
    7
 10
167.68437370597791
 20
119.00031001868924
 11
167.08437366853871
 21
119.00030995684943
  0
ARC
  8
_7-1_
  6
CONTINUOUS
 62
    7
 10
167.08437366853871
 20
119.75030995684943
 40
0.75
 50
180
 51
270
  0
LINE
  8
_7-1_
  6
CONTINUOUS
 62
    7
 10
167.68437370597791
 20
119.00031001868924
 11
167.68437370597791
 21
121.85030547651234
  0
LINE
  8
_7-1_
  6
CONTINUOUS
 62
    7
 10
167.68437370597791
 20
121.85030547651234
 11
167.68437370597791
 21
124.70030989500963
  0
LINE
  8
_7-1_
  6
CONTINUOUS
 62
    7
 10
167.68437370597791
 20
124.70030989500963
 11
167.08437366853871
 21
124.70030995684948
  0
ARC
  8
_7-1_
  6
CONTINUOUS
 62
    7
 10
167.08437366853871
 20
123.95030995684936
 40
0.7500000000000139
 50
90
 51
180
  0
LINE
  8
_7-1_
  6
CONTINUOUS
 62
    7
 10
166.33437366853871
 20
119.75030995684943
 11
166.33437366853871
 21
123.95030995684936
  0
LINE
  8
_7-1_
  6
CONTINUOUS
 62
    7
 10
166.33437366853871
 20
120.0378099568494
 11
102.29160172245245
 21
120.0378099568494
  0
LINE
  8
_7-1_
  6
CONTINUOUS
 62
    7
 10
102.29160172245245
 20
120.0378099568494
 11
102.29160172245245
 21
123.69252756604024
  0
LINE
  8
_7-1_
  6
CONTINUOUS
 62
    7
 10
102.29160172245245
 20
123.69252756604024
 11
166.33437366853871
 21
123.69252756604024
  0
LINE
  8
_7-1_
  6
CONTINUOUS
 62
    7
 10
95.988054125898983
 20
121.56307602055198
 11
92.836280327622304
 21
121.56307602055198
  0
LINE
  8
_7-1_
  6
CONTINUOUS
 62
    7
 10
92.836280327622304
 20
121.56307602055198
 11
92.836280327622304
 21
122.16726150233765
  0
LINE
  8
_7-1_
  6
CONTINUOUS
 62
    7
 10
92.836280327622304
 20
122.16726150233765
 11
95.988054125898983
 21
122.16726150233765
  0
LINE
  8
_7-1_
  6
CONTINUOUS
 62
    7
 10
95.988054125898983
 20
122.16726150233765
 11
95.988054125898983
 21
121.56307602055198
  0
LINE
  8
_7-1_
  6
CONTINUOUS
 62
    7
 10
102.29160172245245
 20
122.67652151347053
 11
95.988054125898983
 21
122.67652151347053
  0
LINE
  8
_7-1_
  6
CONTINUOUS
 62
    7
 10
95.988054125898983
 20
122.67652151347053
 11
95.988054125898983
 21
123.28070699525619
  0
LINE
  8
_7-1_
  6
CONTINUOUS
 62
    7
 10
95.988054125898983
 20
123.28070699525619
 11
102.29160172245245
 21
123.28070699525619
  0
LINE
  8
_7-1_
  6
CONTINUOUS
 62
    7
 10
102.29160172245245
 20
123.28070699525619
 11
102.29160172245245
 21
122.67652151347053
  0
LINE
  8
_7-1_
  6
CONTINUOUS
 62
    7
 10
95.988054125898983
 20
122.67652151347053
 11
92.836280327622304
 21
122.67652151347053
  0
LINE
  8
_7-1_
  6
CONTINUOUS
 62
    7
 10
92.836280327622304
 20
122.67652151347053
 11
92.836280327622304
 21
123.28070699525619
  0
LINE
  8
_7-1_
  6
CONTINUOUS
 62
    7
 10
92.836280327622304
 20
123.28070699525619
 11
95.988054125898983
 21
123.28070699525619
  0
LINE
  8
_7-1_
  6
CONTINUOUS
 62
    7
 10
95.988054125898983
 20
123.28070699525619
 11
95.988054125898983
 21
122.67652151347053
  0
LINE
  8
_7-1_
  6
CONTINUOUS
 62
    7
 10
95.988054125898983
 20
120.35935019322823
 11
92.836280327622304
 21
120.35935019322823
  0
LINE
  8
_7-1_
  6
CONTINUOUS
 62
    7
 10
92.836280327622304
 20
120.35935019322823
 11
92.836280327622304
 21
120.9635356750139
  0
LINE
  8
_7-1_
  6
CONTINUOUS
 62
    7
 10
92.836280327622304
 20
120.9635356750139
 11
95.988054125898983
 21
120.9635356750139
  0
LINE
  8
_7-1_
  6
CONTINUOUS
 62
    7
 10
95.988054125898983
 20
120.9635356750139
 11
95.988054125898983
 21
120.35935019322823
  0
LINE
  8
_7-1_
  6
CONTINUOUS
 62
    7
 10
102.29160172245245
 20
121.56307602055198
 11
95.988054125898983
 21
121.56307602055198
  0
LINE
  8
_7-1_
  6
CONTINUOUS
 62
    7
 10
95.988054125898983
 20
121.56307602055198
 11
95.988054125898983
 21
122.16726150233765
  0
LINE
  8
_7-1_
  6
CONTINUOUS
 62
    7
 10
95.988054125898983
 20
122.16726150233765
 11
102.29160172245245
 21
122.16726150233765
  0
LINE
  8
_7-1_
  6
CONTINUOUS
 62
    7
 10
102.29160172245245
 20
122.16726150233765
 11
102.29160172245245
 21
121.56307602055198
  0
LINE
  8
_7-1_
  6
CONTINUOUS
 62
    7
 10
102.29160172245245
 20
120.35935019322823
 11
95.988054125898983
 21
120.35935019322823
  0
LINE
  8
_7-1_
  6
CONTINUOUS
 62
    7
 10
95.988054125898983
 20
120.35935019322823
 11
95.988054125898983
 21
120.9635356750139
  0
LINE
  8
_7-1_
  6
CONTINUOUS
 62
    7
 10
95.988054125898983
 20
120.9635356750139
 11
102.29160172245245
 21
120.9635356750139
  0
LINE
  8
_7-1_
  6
CONTINUOUS
 62
    7
 10
102.29160172245245
 20
120.9635356750139
 11
102.29160172245245
 21
120.35935019322823
  0
LINE
  8
_7-1_
  6
CONTINUOUS
 62
    7
 10
167.68437366853868
 20
130.3651687614452
 11
258.13437362615513
 21
130.36516876144551
  0
LINE
  8
_7-1_
  6
CONTINUOUS
 62
    7
 10
258.13437362615513
 20
129.36516876144551
 11
168.4843736685388
 21
129.36516876144511
  0
LINE
  8
_7-1_
  6
CONTINUOUS
 62
    7
 10
168.73437366853875
 20
126.26516877148969
 11
258.13437362615513
 21
126.26516885124317
  0
LINE
  8
_7-1_
  6
CONTINUOUS
 62
    7
 10
168.73437366853875
 20
126.11516910268181
 11
258.13437362615513
 21
126.11516910268221
  0
LINE
  8
_7-1_
  6
CONTINUOUS
 62
    7
 10
258.13437362615513
 20
126.04016876454213
 11
168.73437366853875
 21
126.04016876179161
  0
LINE
  8
_7-1_
  6
CONTINUOUS
 62
    7
 10
168.73437366853875
 20
124.53799108637682
 11
258.13437362615513
 21
124.53799108637727
  0
LINE
  8
_7-1_
  6
CONTINUOUS
 62
    7
 10
258.13437362615513
 20
124.30886151863495
 11
168.73437366853875
 21
124.30886151863447
  0
LINE
  8
_7-1_
  6
CONTINUOUS
 62
    7
 10
168.73437366853875
 20
123.62147558723505
 11
258.13437362615513
 21
123.62147561035266
  0
LINE
  8
_7-1_
  6
CONTINUOUS
 62
    7
 10
258.13437362615496
 20
123.3923469729558
 11
168.73437366853875
 21
123.39234697295543
  0
LINE
  8
_7-1_
  6
CONTINUOUS
 62
    7
 10
168.73437366853875
 20
121.70082675887456
 11
258.13437362615513
 21
121.70082675887508
  0
LINE
  8
_7-1_
  6
CONTINUOUS
 62
    7
 10
258.13437362615513
 20
121.59112441554725
 11
168.73437366871468
 21
121.59112428822254
  0
LINE
  8
_7-1_
  6
CONTINUOUS
 62
    7
 10
168.73437366853875
 20
118.3392132528519
 11
258.13437362615513
 21
118.33921326990846
  0
LINE
  8
_7-1_
  6
CONTINUOUS
 62
    7
 10
258.13437362615513
 20
118.22951091917377
 11
168.73437366853875
 21
118.22951095004302
  0
LINE
  8
_7-1_
  6
CONTINUOUS
 62
    7
 10
168.73437366853875
 20
116.53799072134857
 11
258.13437362615496
 21
116.53799070573788
  0
LINE
  8
_7-1_
  6
CONTINUOUS
 62
    7
 10
258.13437362615496
 20
116.30886206997791
 11
168.73437366853875
 21
116.30886206997746
  0
LINE
  8
_7-1_
  6
CONTINUOUS
 62
    7
 10
168.73437366853875
 20
115.62147559719289
 11
258.13437362615513
 21
115.62147569937607
  0
LINE
  8
_7-1_
  6
CONTINUOUS
 62
    7
 10
258.13437362615496
 20
115.39234658491852
 11
168.73437366853875
 21
115.39234677556483
  0
LINE
  8
_7-1_
  6
CONTINUOUS
 62
    7
 10
168.73437366853875
 20
114.3651687614452
 11
258.13437362615513
 21
114.36516876144543
  0
LINE
  8
_7-1_
  6
CONTINUOUS
 62
    7
 10
258.13437362615496
 20
113.36516876144543
 11
163.43437510661334
 21
113.3651687614452
  0
LINE
  8
_7-1_
  6
CENTER2
 62
   18
 10
165.43437386120214
 20
193.85219820059518
 11
165.43437386120214
 21
190.04525246945809
  0
LINE
  8
_7-1_
  6
CENTER2
 62
   18
 10
166.43437386120208
 20
192.07988832066251
 11
163.79051811479726
 21
192.07988832066251
  0
LINE
  8
_7-1_
  6
CENTER2
 62
   18
 10
166.43437386120208
 20
184.5798887925228
 11
163.79051811479726
 21
184.5798887925228
  0
LINE
  8
_7-1_
  6
CENTER2
 62
   18
 10
165.43437386120214
 20
186.35219867245547
 11
165.43437386120214
 21
182.54525294131838
  0
LINE
  8
_7-1_
  6
CENTER2
 62
   18
 10
165.43437534166014
 20
175.30757841699798
 11
165.43437534166014
 21
179.11452414813507
  0
LINE
  8
_7-1_
  6
CENTER2
 62
   18
 10
166.43437534166008
 20
177.07988829693064
 11
163.79051959525526
 21
177.07988829693064
  0
LINE
  8
_7-1_
  6
CENTER2
 62
   18
 10
260.43437551437426
 20
192.07989822185396
 11
263.07823126077909
 21
192.07989822185396
  0
LINE
  8
_7-1_
  6
CENTER2
 62
   18
 10
261.43437551437421
 20
193.85220810178662
 11
261.43437551437421
 21
190.04526237064953
  0
LINE
  8
_7-1_
  6
CENTER2
 62
   18
 10
261.43437551437421
 20
186.35220857364686
 11
261.43437551437421
 21
182.54526284250977
  0
LINE
  8
_7-1_
  6
CENTER2
 62
   18
 10
260.43437551437426
 20
184.57989869371419
 11
263.07823126077909
 21
184.57989869371419
  0
LINE
  8
_7-1_
  6
CENTER2
 62
   18
 10
261.43437403391624
 20
175.3075883181894
 11
261.43437403391624
 21
179.11453404932649
  0
LINE
  8
_7-1_
  6
CENTER2
 62
   18
 10
260.43437403391624
 20
177.07989819812206
 11
263.07822978032106
 21
177.07989819812206
  0
TEXT
  8
_7-b_
 62
    7
 10
40.686661265413732
 20
57.439608316091408
 40
4
 41
1
 50
0
  1
JPVO-030024FA
  0
TEXT
  8
_7-4_
 62
    7
 10
367.60569155288368
 20
38.443542930665387
 40
4
 41
1
 50
0
  1
3
  0
LINE
  8
_7-b_
  6
CONTINUOUS
 62
    7
 10
207.6866612654137
 20
71.939608316091408
 11
207.6866612654137
 21
51.939608316091408
  0
LINE
  8
_7-b_
  6
CONTINUOUS
 62
    7
 10
232.6866612654137
 20
71.939608316091408
 11
232.6866612654137
 21
51.939608316091408
  0
TEXT
  8
_7-b_
 62
    7
 10
210.3116612654137
 20
67.439608316091408
 40
4
 41
1
 50
0
  1
効率/力率
  0
TEXT
  8
_7-b_
 62
    7
 10
215.8116612654137
 20
54.939608316091408
 40
4
 41
1
 50
0
  1
0.95
  0
TEXT
  8
_7-b_
 62
    7
 10
215.93666126541373
 20
59.939608316091423
 40
4
 41
1
 50
0
  1
83％
  0
LINE
  8
_7-b_
  6
CONTINUOUS
 62
    7
 10
232.6866612654137
 20
71.939608316091408
 11
232.6866612654137
 21
51.939608316091408
  0
LINE
  8
_7-b_
  6
CONTINUOUS
 62
    7
 10
232.6866612654137
 20
71.939608316091408
 11
232.6866612654137
 21
51.939608316091408
  0
LINE
  8
_7-b_
  6
CONTINUOUS
 62
    7
 10
277.6866612654137
 20
71.939608316091408
 11
277.6866612654137
 21
51.939608316091408
  0
TEXT
  8
_7-b_
 62
    7
 10
246.4366612654137
 20
67.439608316091408
 40
4
 41
1
 50
0
  1
適合規格
  0
TEXT
  8
_7-b_
 62
    7
 10
233.9366612654137
 20
62.439608316091408
 40
4
 41
1
 50
0
  1
電気用品安全法(PSE)
  0
TEXT
  8
_7-b_
 62
    7
 10
250.8116612654137
 20
57.439608316091408
 40
4
 41
1
 50
0
  1
RoHS
  0
TEXT
  8
_7-b_
 62
    7
 10
250.8116612654137
 20
52.439608316091408
 40
4
 41
1
 50
0
  1
IP67
  0
ENDSEC
  0
EOF
