  0
SECTION
  2
HEADER
  9
$ACADVER
  1
AC1009
  9
$INSBASE
 10
0
 20
0
 30
0
  9
$EXTMIN
 10
0
 20
0
  9
$EXTMAX
 10
420
 20
297
  9
$LIMMIN
 10
0
 20
0
  9
$LIMMAX
 10
420
 20
297
  9
$LTSCALE
 40
1
  0
ENDSEC
  0
SECTION
  2
TABLES
  0
TABLE
  2
LTYPE
 70
     9
  0
LTYPE
  2
CONTINUOUS
 70
    64
  3
実線
 72
    65
 73
     0
 40
0.0
  0
LTYPE
  2
DASHED1
 70
    64
  3
--  --  --  --  --  --  --  --  
 72
    65
 73
     2
 40
2.5
 49
1.25
 49
-1.25
  0
LTYPE
  2
DASHED2
 70
    64
  3
----    ----    ----    ----    
 72
    65
 73
     2
 40
5.0
 49
2.5
 49
-2.5
  0
LTYPE
  2
DASHED3
 70
    64
  3
------  ------  ------  ------  
 72
    65
 73
     2
 40
5.0
 49
3.75
 49
-1.25
  0
LTYPE
  2
CENTER1
 70
    64
  3
----- - ----- - ----- - ----- - 
 72
    65
 73
     4
 40
10.0
 49
6.25
 49
-1.25
 49
1.25
 49
-1.25
  0
LTYPE
  2
CENTER2
 70
    64
  3
----------  --  ----------  --  
 72
    65
 73
     4
 40
20.0
 49
12.5
 49
-2.5
 49
2.5
 49
-2.5
  0
LTYPE
  2
PHANTOM1
 70
    64
  3
--- - - --- - - --- - - --- - - 
 72
    65
 73
     6
 40
10.0
 49
3.25
 49
-1.25
 49
1.25
 49
-1.25
 49
1.25
 49
-1.25
  0
LTYPE
  2
PHANTOM2
 70
    64
  3
--------  -  -  --------  -  -  
 72
    65
 73
     6
 40
20.0
 49
10.0
 49
-2.5
 49
1.25
 49
-2.5
 49
1.25
 49
-2.5
  0
LTYPE
  2
DOT
 70
    64
  3
-   -   -   -   -   -   -   -   
 72
    65
 73
     2
 40
2.5
 49
0.625
 49
-1.875
  0
LTYPE
  2
DUMMY
 70
    64
  3
ダミー
 72
    65
 73
     0
 40
0.0
  0
LTYPE
  2
RAND1
 70
    64
  3
ランダム線1
 72
    65
 73
     4
 40
10.0
 49
1.0
 49
-2.0
 49
3.0
 49
-4.0
  0
LTYPE
  2
RAND2
 70
    64
  3
ランダム線2
 72
    65
 73
     4
 40
14.0
 49
2.0
 49
-3.0
 49
4.0
 49
-5.0
  0
LTYPE
  2
RAND3
 70
    64
  3
ランダム線3
 72
    65
 73
     4
 40
18.0
 49
3.0
 49
-4.0
 49
5.0
 49
-6.0
  0
LTYPE
  2
RAND4
 70
    64
  3
ランダム線4
 72
    65
 73
     4
 40
22.0
 49
4.0
 49
-5.0
 49
6.0
 49
-7.0
  0
LTYPE
  2
RAND5
 70
    64
  3
ランダム線5
 72
    65
 73
     4
 40
26.0
 49
5.0
 49
-6.0
 49
7.0
 49
-8.0
  0
LTYPE
  2
LONG1
 70
    64
  3
----------  --  ----------  --  
 72
    65
 73
     4
 40
40.0
 49
32.5
 49
-2.5
 49
2.5
 49
-2.5
  0
LTYPE
  2
LONG2
 70
    64
  3
--------  -  -  --------  -  -  
 72
    65
 73
     6
 40
40.0
 49
30.0
 49
-2.5
 49
1.25
 49
-2.5
 49
1.25
 49
-2.5
  0
LTYPE
  2
LONG3
 70
    64
  3
+++++++++++++++..+++++++++++++++
 72
    65
 73
     2
 40
40.0
 49
37.5
 49
-2.5
  0
LTYPE
  2
LONG4
 70
    64
  3
+++++++++++++++..+++++++++++++++
 72
    65
 73
     2
 40
80.0
 49
75.0
 49
-5.0
  0
LTYPE
  2
LONG5
 70
    64
  3
----------  --  ----------  --  
 72
    65
 73
     4
 40
60.0
 49
37.5
 49
-7.5
 49
7.5
 49
-7.5
  0
LTYPE
  2
dashed
 70
   64
  3
-------   -------------   ------
 72
   65
 73
    2
 40
7.5
 49
6
 49
-1.5
  0
LTYPE
  2
dashed_spaced
 70
   64
  3
----        --------        ----
 72
   65
 73
    2
 40
12
 49
6
 49
-6
  0
LTYPE
  2
long_dashed_dotted
 70
   64
  3
------------- --- --------------
 72
   65
 73
    4
 40
15.25
 49
12
 49
-1.5
 49
0.25
 49
-1.5
  0
LTYPE
  2
long_dashed_double-dotted
 70
   64
  3
----------- --- --- ------------
 72
   65
 73
    6
 40
17
 49
12
 49
-1.5
 49
0.25
 49
-1.5
 49
0.25
 49
-1.5
  0
LTYPE
  2
long_dashed_triplicate-dotted
 70
   64
  3
--------- --- --- --- ----------
 72
   65
 73
    8
 40
18.75
 49
12
 49
-1.5
 49
0.25
 49
-1.5
 49
0.25
 49
-1.5
 49
0.25
 49
-1.5
  0
LTYPE
  2
dotted
 70
   64
  3
   -       -       -       -    
 72
   65
 73
    2
 40
1.75
 49
0.25
 49
-1.5
  0
LTYPE
  2
chain
 70
   64
  3
-------------- -- --------------
 72
   65
 73
    4
 40
18.5
 49
12
 49
-1.5
 49
3.5
 49
-1.5
  0
LTYPE
  2
chain_double_dash
 70
   64
  3
------------ -- -- -------------
 72
   65
 73
    6
 40
23.5
 49
12
 49
-1.5
 49
3.5
 49
-1.5
 49
3.5
 49
-1.5
  0
LTYPE
  2
dashed_dotted
 70
   64
  3
-----------     -     ----------
 72
   65
 73
    4
 40
9.25
 49
6
 49
-1.5
 49
0.25
 49
-1.5
  0
LTYPE
  2
double-dashed_dotted
 70
   64
  3
------   -----------   -   -----
 72
   65
 73
    6
 40
16.75
 49
6
 49
-1.5
 49
6
 49
-1.5
 49
0.25
 49
-1.5
  0
LTYPE
  2
dashed_double-dotted
 70
   64
  3
---------    -    -    ---------
 72
   65
 73
    6
 40
11
 49
6
 49
-1.5
 49
0.25
 49
-1.5
 49
0.25
 49
-1.5
  0
LTYPE
  2
double-dashed_double-dotted
 70
   64
  3
-----   ---------   -   -   ----
 72
   65
 73
    8
 40
18.5
 49
6
 49
-1.5
 49
6
 49
-1.5
 49
0.25
 49
-1.5
 49
0.25
 49
-1.5
  0
LTYPE
  2
dashed_triplicate-dotted
 70
   64
  3
-------    -    -    -    ------
 72
   65
 73
    8
 40
12.75
 49
6
 49
-1.5
 49
0.25
 49
-1.5
 49
0.25
 49
-1.5
 49
0.25
 49
-1.5
  0
LTYPE
  2
double-dashed_triplicate-dotted
 70
   64
  3
-----  ---------  -  -  -  -----
 72
   65
 73
   10
 40
20.25
 49
6
 49
-1.5
 49
6
 49
-1.5
 49
0.25
 49
-1.5
 49
0.25
 49
-1.5
 49
0.25
 49
-1.5
  0
LTYPE
  2
undefined
 70
   64
  3
--------------------------------
 72
   65
 73
    0
 40
0
  0
LTYPE
  2
_
 70
   64
  3
                                
 72
   65
 73
    0
 40
0
  0
LTYPE
  2
__18
 70
   64
  3
                                
 72
   65
 73
    0
 40
0
  0
LTYPE
  2
__19
 70
   64
  3
                                
 72
   65
 73
    0
 40
0
  0
LTYPE
  2
__20
 70
   64
  3
                                
 72
   65
 73
    0
 40
0
  0
LTYPE
  2
__21
 70
   64
  3
                                
 72
   65
 73
    0
 40
0
  0
LTYPE
  2
__22
 70
   64
  3
                                
 72
   65
 73
    0
 40
0
  0
LTYPE
  2
__23
 70
   64
  3
                                
 72
   65
 73
    0
 40
0
  0
LTYPE
  2
__24
 70
   64
  3
                                
 72
   65
 73
    0
 40
0
  0
LTYPE
  2
__25
 70
   64
  3
                                
 72
   65
 73
    0
 40
0
  0
LTYPE
  2
__26
 70
   64
  3
                                
 72
   65
 73
    0
 40
0
  0
LTYPE
  2
__27
 70
   64
  3
                                
 72
   65
 73
    0
 40
0
  0
LTYPE
  2
__28
 70
   64
  3
                                
 72
   65
 73
    0
 40
0
  0
LTYPE
  2
__29
 70
   64
  3
                                
 72
   65
 73
    0
 40
0
  0
LTYPE
  2
__30
 70
   64
  3
                                
 72
   65
 73
    0
 40
0
  0
LTYPE
  2
__31
 70
   64
  3
                                
 72
   65
 73
    0
 40
0
  0
LTYPE
  2
__32
 70
   64
  3
                                
 72
   65
 73
    0
 40
0
  0
ENDTAB
  0
TABLE
  2
STYLE
  5
3
100
AcDbSymbolTable
 70
     1
  0
STYLE
  5
10
100
AcDbSymbolTableRecord
100
AcDbTextStyleTableRecord
  2
STANDARD
 70
     0
 40
0.0
 41
1.0
 50
0.0
 71
     0
 42
0.2
  3
txt
  4
bigfont.shx
  0
STYLE
  5
26
100
AcDbSymbolTableRecord
100
AcDbTextStyleTableRecord
  2
TATEGAKI
 70
    68
 40
0.0
 41
1.0
 50
0.0
 71
     0
 42
1.0
  3
txt
  4
bigfont.shx
  0
ENDTAB
  0
TABLE
  2
LAYER
 70
   10
  0
LAYER
  2
_0-0_
 70
   64
 62
    7
  6
CONTINUOUS
  0
LAYER
  2
_7-0_
 70
   64
 62
    7
  6
CONTINUOUS
  0
LAYER
  2
_7-1_
 70
   64
 62
    7
  6
CONTINUOUS
  0
LAYER
  2
_7-2_
 70
   64
 62
    7
  6
CONTINUOUS
  0
LAYER
  2
_7-3_
 70
   64
 62
    7
  6
CONTINUOUS
  0
LAYER
  2
_7-8_
 70
   64
 62
    7
  6
CONTINUOUS
  0
LAYER
  2
_7-b_
 70
   64
 62
    7
  6
CONTINUOUS
  0
LAYER
  2
_e-0_
 70
   64
 62
    7
  6
CONTINUOUS
  0
LAYER
  2
_e-f_
 70
   64
 62
    7
  6
CONTINUOUS
  0
LAYER
  2
ADD_LINE
 70
   64
 62
    7
  6
CONTINUOUS
  0
ENDTAB
  0
ENDSEC
  0
SECTION
  2
BLOCKS
  0
ENDSEC
  0
SECTION
  2
ENTITIES
  0
LINE
  8
_7-8_
  6
CONTINUOUS
 62
    7
 10
313.26286820901395
 20
203.02831604584605
 11
313.26286820901395
 21
207.02831604584605
  0
LINE
  8
_7-0_
  6
CONTINUOUS
 62
    7
 10
307.08442413433692
 20
205.72831604584604
 11
308.26286820901395
 21
205.72831604584604
  0
LINE
  8
_7-0_
  6
CONTINUOUS
 62
    7
 10
307.08442413433692
 20
204.32831604584603
 11
308.26286820901395
 21
204.32831604584603
  0
LINE
  8
_7-0_
  6
CONTINUOUS
 62
    7
 10
308.26286820901395
 20
207.02831604584605
 11
308.26286820901395
 21
203.02831604584605
  0
LINE
  8
_7-0_
  6
CONTINUOUS
 62
    7
 10
313.26286820901395
 20
207.02831604584605
 11
308.26286820901395
 21
207.02831604584605
  0
LINE
  8
_7-0_
  6
CONTINUOUS
 62
    7
 10
313.26286820901395
 20
203.02831604584605
 11
313.26286820901395
 21
207.02831604584605
  0
LINE
  8
_7-0_
  6
CONTINUOUS
 62
    7
 10
308.26286820901395
 20
203.02831604584605
 11
313.26286820901395
 21
203.02831604584605
  0
ARC
  8
_7-0_
  6
CONTINUOUS
 62
    7
 10
307.08442413433692
 20
203.82831604584603
 40
1.8999999999999999
 50
90
 51
120.00150522120192
  0
ARC
  8
_7-0_
  6
CONTINUOUS
 62
    7
 10
307.08442413433692
 20
203.82831604584603
 40
0.5
 50
89.999999999999971
 51
120.00150522120192
  0
ARC
  8
_7-0_
  6
CONTINUOUS
 62
    7
 10
307.08442413433692
 20
201.1782756815806
 40
0.5
 50
239.99849477879809
 51
270
  0
LINE
  8
_7-0_
  6
CONTINUOUS
 62
    7
 10
307.08442413433692
 20
200.6782756815806
 11
308.26286820901395
 21
200.6782756815806
  0
ARC
  8
_7-0_
  6
CONTINUOUS
 62
    7
 10
307.08442413433692
 20
201.1782756815806
 40
1.8999999999999999
 50
239.99849477879809
 51
270
  0
LINE
  8
_7-0_
  6
CONTINUOUS
 62
    7
 10
307.08442413433692
 20
199.27827568158059
 11
308.26286820901395
 21
199.27827568158059
  0
LINE
  8
_7-0_
  6
CONTINUOUS
 62
    7
 10
306.1343809069848
 20
205.47373935495602
 11
303.53048775119356
 21
203.97028972973703
  0
LINE
  8
_7-0_
  6
CONTINUOUS
 62
    7
 10
304.23051960292667
 20
202.75787255460335
 11
306.83441275871791
 21
204.26132217982234
  0
TEXT
  8
_7-b_
 62
    7
 10
89.186661265413704
 20
39.939608316091408
 40
4
 41
1
 50
0
  1
最大Tc温度
  0
TEXT
  8
_7-2_
 62
    7
 10
346.69322178529421
 20
51.014578743403262
 40
4
 41
1
 50
0
  1
アルミ
  0
LINE
  8
_7-2_
  6
CONTINUOUS
 62
    7
 10
402.213570686465
 20
50.494578857844174
 11
307.2135767899806
 21
50.494578857844174
  0
LINE
  8
_e-f_
  6
CONTINUOUS
 62
    7
 10
292.23773348912163
 20
272.45457753700526
 11
292.23773348912163
 21
267.05768572677027
  0
TEXT
  8
_e-f_
 62
    7
 10
299.38916934117241
 20
268.27063583720575
 40
3
 41
1
 50
0
  1
年　月　日
  0
TEXT
  8
_e-f_
 62
    7
 10
340.18718112095757
 20
268.27063583720575
 40
3
 41
1
 50
0
  1
訂　正　記　事
  0
TEXT
  8
_e-f_
 62
    7
 10
284.00753939732476
 20
268.2467825352038
 40
3
 41
1
 50
0
  1
Ｎｏ
  0
LINE
  8
_7-2_
  6
CONTINUOUS
 62
    7
 10
307.2135767899806
 20
50.494578857844174
 11
307.2135767899806
 21
45.454579086726027
  0
LINE
  8
_7-2_
  6
CONTINUOUS
 62
    7
 10
402.213570686465
 20
55.53457862896235
 11
307.2135767899806
 21
55.53457862896235
  0
LINE
  8
_7-2_
  6
CONTINUOUS
 62
    7
 10
402.213570686465
 20
60.574578400080497
 11
307.2135767899806
 21
60.574578400080497
  0
LINE
  8
_7-2_
  6
CONTINUOUS
 62
    7
 10
402.213570686465
 20
65.614578171198672
 11
307.2135767899806
 21
65.614578171198672
  0
LINE
  8
_7-2_
  6
CONTINUOUS
 62
    7
 10
307.2135767899806
 20
70.654577942316819
 11
307.2135767899806
 21
50.494578857844174
  0
LINE
  8
_7-2_
  6
CONTINUOUS
 62
    7
 10
402.213570686465
 20
70.654577942316819
 11
307.2135767899806
 21
70.654577942316819
  0
LINE
  8
_7-2_
  6
CONTINUOUS
 62
    7
 10
313.36094520988967
 20
50.494578857844174
 11
313.36094520988967
 21
45.454579086726027
  0
LINE
  8
_7-2_
  6
CONTINUOUS
 62
    7
 10
313.36094520988967
 20
70.654577942316819
 11
313.36094520988967
 21
50.494578857844174
  0
LINE
  8
_7-2_
  6
CONTINUOUS
 62
    7
 10
360.93784338267664
 20
50.494578857844174
 11
360.93784338267664
 21
45.454579086726027
  0
LINE
  8
_7-2_
  6
CONTINUOUS
 62
    7
 10
360.93784338267664
 20
70.654577942316819
 11
360.93784338267664
 21
50.494578857844174
  0
LINE
  8
_7-2_
  6
CONTINUOUS
 62
    7
 10
344.44860018791183
 20
50.494578857844174
 11
344.44860018791183
 21
45.454579086726027
  0
LINE
  8
_7-2_
  6
CONTINUOUS
 62
    7
 10
344.44860018791183
 20
70.654577942316819
 11
344.44860018791183
 21
50.494578857844174
  0
TEXT
  8
_e-f_
 62
    7
 10
382.73773348912163
 20
267.55768572677027
 40
4
 41
1
 50
0
  1
担当
  0
TEXT
  8
_e-f_
 62
    7
 10
392.73773348912163
 20
267.55768572677027
 40
4
 41
1
 50
0
  1
検印
  0
LINE
  8
_e-f_
  6
CONTINUOUS
 62
    7
 10
282.2377258597271
 20
267.05768572677027
 11
282.2377258597271
 21
262.05770611155878
  0
LINE
  8
_e-f_
  6
CONTINUOUS
 62
    7
 10
292.23773348912163
 20
267.05768572677027
 11
292.23773348912163
 21
262.05770611155878
  0
LINE
  8
_e-f_
  6
CONTINUOUS
 62
    7
 10
322.23773381694718
 20
267.05768572677027
 11
322.23773381694718
 21
262.05770611155878
  0
LINE
  8
_e-f_
  6
CONTINUOUS
 62
    7
 10
282.2377258597271
 20
272.45457753700526
 11
282.2377258597271
 21
267.05768572677027
  0
LINE
  8
_e-f_
  6
CONTINUOUS
 62
    7
 10
322.23773381694718
 20
272.45457753700526
 11
322.23773381694718
 21
267.05768572677027
  0
LINE
  8
_e-f_
  6
CONTINUOUS
 62
    7
 10
382.23773348912163
 20
272.45457753700526
 11
382.23773348912163
 21
262.05770611155878
  0
LINE
  8
_e-f_
  6
CONTINUOUS
 62
    7
 10
392.23773348912163
 20
272.45457753700526
 11
392.23773348912163
 21
262.05770611155878
  0
LINE
  8
_e-f_
  6
CONTINUOUS
 62
    7
 10
402.2135825120265
 20
267.05768572677027
 11
282.23774111851616
 21
267.05768572677027
  0
LINE
  8
_e-0_
  6
CONTINUOUS
 62
    7
 10
282.2377258597271
 20
262.05770611155878
 11
402.2135825120265
 21
262.05770611155878
  0
LINE
  8
_7-0_
  6
CONTINUOUS
 62
    7
 10
259.1843736261552
 20
219.00329586371333
 11
258.38437362615525
 21
219.00329586371333
  0
LINE
  8
_7-0_
  6
CONTINUOUS
 62
    7
 10
258.38437362615525
 20
219.00329586371333
 11
258.38437362615525
 21
218.00329586371333
  0
LINE
  8
_7-0_
  6
CONTINUOUS
 62
    7
 10
259.1843736261552
 20
219.00329586371333
 11
259.1843736261552
 21
218.00329586371333
  0
LINE
  8
_7-0_
  6
CONTINUOUS
 62
    7
 10
259.1843736261552
 20
220.0032958637133
 11
258.38437362615525
 21
220.0032958637133
  0
LINE
  8
_7-0_
  6
CONTINUOUS
 62
    7
 10
258.38437362615525
 20
220.0032958637133
 11
258.38437362615525
 21
219.00329586371333
  0
LINE
  8
_7-0_
  6
CONTINUOUS
 62
    7
 10
259.1843736261552
 20
220.0032958637133
 11
259.1843736261552
 21
219.00329586371333
  0
LINE
  8
_7-0_
  6
CONTINUOUS
 62
    7
 10
259.1843736261552
 20
221.00329586371333
 11
258.38437362615525
 21
221.00329586371333
  0
LINE
  8
_7-0_
  6
CONTINUOUS
 62
    7
 10
258.38437362615525
 20
221.00329586371333
 11
258.38437362615525
 21
220.0032958637133
  0
LINE
  8
_7-0_
  6
CONTINUOUS
 62
    7
 10
259.1843736261552
 20
221.00329586371333
 11
259.1843736261552
 21
220.0032958637133
  0
LINE
  8
_7-0_
  6
CONTINUOUS
 62
    7
 10
258.1343736261553
 20
219.00329586371333
 11
258.1343736261553
 21
218.00329586371333
  0
LINE
  8
_7-0_
  6
CONTINUOUS
 62
    7
 10
258.1343736261553
 20
219.00329586371333
 11
258.1343736261553
 21
220.0032958637133
  0
LINE
  8
_7-0_
  6
CONTINUOUS
 62
    7
 10
258.1343736261553
 20
221.00329586371333
 11
258.1343736261553
 21
220.0032958637133
  0
LINE
  8
_7-0_
  6
CONTINUOUS
 62
    7
 10
258.38437362615525
 20
219.00329586371333
 11
258.1343736261553
 21
219.00329586371333
  0
LINE
  8
_7-0_
  6
CONTINUOUS
 62
    7
 10
258.38437362615525
 20
220.85329611107263
 11
258.13437361428094
 21
220.85329611107263
  0
LINE
  8
_7-0_
  6
CONTINUOUS
 62
    7
 10
258.38437362615525
 20
220.0032958637133
 11
258.1343736261553
 21
220.0032958637133
  0
ARC
  8
_7-0_
  6
CONTINUOUS
 62
    7
 10
259.23224554185532
 20
218.4623486285181
 40
0.3048000000005047
 50
274.04986592817351
 51
340.43275363035661
  0
LINE
  8
_7-0_
  6
CONTINUOUS
 62
    7
 10
259.61704300664848
 20
218.72049290939719
 11
259.51527121890813
 21
218.34912151351124
  0
LINE
  8
_7-0_
  6
CONTINUOUS
 62
    7
 10
259.18437358871597
 20
220.60319502159507
 11
259.25377193571767
 21
220.59828200162797
  0
LINE
  8
_7-0_
  6
CONTINUOUS
 62
    7
 10
259.25377193571767
 20
218.40830972579817
 11
259.18437358871597
 21
218.40339619919211
  0
ARC
  8
_7-0_
  6
CONTINUOUS
 62
    7
 10
259.23224554185532
 20
218.71234862851821
 40
0.3048000000005097
 50
274.04986592817027
 51
340.43275363035667
  0
ARC
  8
_7-0_
  6
CONTINUOUS
 62
    7
 10
259.23224554185532
 20
220.29424309890856
 40
0.3048000000005075
 50
20.911833439961309
 51
85.950134071826454
  0
LINE
  8
_7-0_
  6
CONTINUOUS
 62
    7
 10
259.61704300664848
 20
218.9704924847141
 11
259.51527121890813
 21
218.59912202015073
  0
LINE
  8
_7-0_
  6
CONTINUOUS
 62
    7
 10
259.51696860250552
 20
220.40303564798364
 11
259.6174332308073
 21
220.03559302791509
  0
LINE
  8
_7-0_
  6
CONTINUOUS
 62
    7
 10
259.18437362615503
 20
219.00329586371333
 11
259.18437362615503
 21
220.0032958637133
  0
LINE
  8
_7-0_
  6
CONTINUOUS
 62
    7
 10
259.18437362615503
 20
218.00329586371333
 11
259.18437362615503
 21
219.00329586371333
  0
LINE
  8
_7-0_
  6
CONTINUOUS
 62
    7
 10
259.6340157784943
 20
218.71646493926198
 11
259.63608494442439
 21
218.71527098372132
  0
LINE
  8
_7-0_
  6
CONTINUOUS
 62
    7
 10
259.63608494442439
 20
218.71527098372132
 11
259.63607132383174
 21
218.71527843430192
  0
LINE
  8
_7-0_
  6
CONTINUOUS
 62
    7
 10
259.72612963472045
 20
219.15677562608871
 11
259.68763737421977
 21
218.93570292993933
  0
LINE
  8
_7-0_
  6
CONTINUOUS
 62
    7
 10
259.68763737421977
 20
218.93570292993933
 11
259.63401612774026
 21
218.71646680190713
  0
LINE
  8
_7-0_
  6
CONTINUOUS
 62
    7
 10
259.68059261743468
 20
219.15677562608871
 11
259.72612963472045
 21
219.15677562608871
  0
LINE
  8
_7-0_
  6
CONTINUOUS
 62
    7
 10
259.68059261743468
 20
219.59981601938162
 11
259.68740233168483
 21
219.57199182614237
  0
LINE
  8
_7-0_
  6
CONTINUOUS
 62
    7
 10
259.68740233168483
 20
219.57199182614237
 11
259.71620092116779
 21
219.40677613272816
  0
LINE
  8
_7-0_
  6
CONTINUOUS
 62
    7
 10
259.72612963472045
 20
219.15677562608871
 11
259.68059261743468
 21
219.15677562608871
  0
LINE
  8
_7-0_
  6
CONTINUOUS
 62
    7
 10
259.51696860250552
 20
220.40303564798364
 11
259.51696860250552
 21
219.50329586371339
  0
LINE
  8
_7-0_
  6
CONTINUOUS
 62
    7
 10
259.63401566207892
 20
219.40677520140562
 11
259.63608499605703
 21
219.50329586371339
  0
LINE
  8
_7-0_
  6
CONTINUOUS
 62
    7
 10
259.6340157784943
 20
218.96646544590146
 11
259.63608494442439
 21
218.96527055903823
  0
LINE
  8
_7-0_
  6
CONTINUOUS
 62
    7
 10
259.63608494442439
 20
218.96527055903823
 11
259.63607132383174
 21
218.96527800961882
  0
LINE
  8
_7-0_
  6
CONTINUOUS
 62
    7
 10
259.72612963472045
 20
219.40677613272816
 11
259.68763737421977
 21
219.18570343657881
  0
LINE
  8
_7-0_
  6
CONTINUOUS
 62
    7
 10
259.68763737421977
 20
219.18570343657881
 11
259.63401612774026
 21
218.96646637722403
  0
LINE
  8
_7-0_
  6
CONTINUOUS
 62
    7
 10
259.6340157784943
 20
219.40677613272816
 11
259.72612963472045
 21
219.40677613272816
  0
LINE
  8
_7-0_
  6
CONTINUOUS
 62
    7
 10
259.63608499605703
 20
219.50329586371339
 11
259.63401566207892
 21
219.40677520140562
  0
LINE
  8
_7-0_
  6
CONTINUOUS
 62
    7
 10
259.51696860250552
 20
219.50329586371339
 11
259.63608499605703
 21
219.50329586371339
  0
LINE
  8
_7-0_
  6
CONTINUOUS
 62
    7
 10
259.63401566207892
 20
219.59981695070416
 11
259.63608499605703
 21
219.50329586371339
  0
LINE
  8
_7-0_
  6
CONTINUOUS
 62
    7
 10
259.72612963472045
 20
219.59981601938162
 11
259.63401566207892
 21
219.59981601938162
  0
LINE
  8
_7-0_
  6
CONTINUOUS
 62
    7
 10
259.63401612774026
 20
220.04012484356317
 11
259.68740233168483
 21
219.82199233278188
  0
LINE
  8
_7-0_
  6
CONTINUOUS
 62
    7
 10
259.68740233168483
 20
219.82199233278188
 11
259.72612963472045
 21
219.59981601938162
  0
LINE
  8
_7-0_
  6
CONTINUOUS
 62
    7
 10
259.63401566207892
 20
219.59981601938162
 11
259.72612963472045
 21
219.59981601938162
  0
LINE
  8
_7-0_
  6
CONTINUOUS
 62
    7
 10
259.72612963472045
 20
219.40677613272816
 11
259.63401566207892
 21
219.40677520140562
  0
LINE
  8
_7-0_
  6
CONTINUOUS
 62
    7
 10
259.25377193571767
 20
218.40830972579817
 11
259.25377193571767
 21
218.15830972579811
  0
LINE
  8
_7-0_
  6
CONTINUOUS
 62
    7
 10
259.25377193571767
 20
219.50329586371339
 11
259.25377193571767
 21
218.40830972579817
  0
LINE
  8
_7-0_
  6
CONTINUOUS
 62
    7
 10
259.25377193571767
 20
220.59828200162797
 11
259.25377193571767
 21
219.50329586371339
  0
LINE
  8
_7-0_
  6
CONTINUOUS
 62
    7
 10
259.1843736261552
 20
192.00329586371333
 11
258.38437362615508
 21
192.00329586371333
  0
LINE
  8
_7-0_
  6
CONTINUOUS
 62
    7
 10
259.1843736261552
 20
191.00329586371333
 11
258.38437362615508
 21
191.00329586371333
  0
LINE
  8
_7-0_
  6
CONTINUOUS
 62
    7
 10
258.38437362615508
 20
192.00329586371333
 11
258.38437362615508
 21
191.00329586371333
  0
LINE
  8
_7-0_
  6
CONTINUOUS
 62
    7
 10
259.1843736261552
 20
192.00329586371333
 11
259.1843736261552
 21
191.00329586371333
  0
LINE
  8
_7-0_
  6
CONTINUOUS
 62
    7
 10
259.1843736261552
 20
193.00329586371333
 11
258.38437362615508
 21
193.00329586371333
  0
LINE
  8
_7-0_
  6
CONTINUOUS
 62
    7
 10
258.38437362615508
 20
193.00329586371333
 11
258.38437362615508
 21
192.00329586371333
  0
LINE
  8
_7-0_
  6
CONTINUOUS
 62
    7
 10
259.1843736261552
 20
193.00329586371333
 11
259.1843736261552
 21
192.00329586371333
  0
LINE
  8
_7-0_
  6
CONTINUOUS
 62
    7
 10
258.38437362615508
 20
194.00329586371333
 11
258.38437362615508
 21
193.00329586371333
  0
LINE
  8
_7-0_
  6
CONTINUOUS
 62
    7
 10
259.1843736261552
 20
194.00329586371333
 11
259.1843736261552
 21
193.00329586371333
  0
LINE
  8
_7-0_
  6
CONTINUOUS
 62
    7
 10
258.13437362615513
 20
194.00329586371333
 11
258.13437362615513
 21
193.00329586371333
  0
LINE
  8
_7-0_
  6
CONTINUOUS
 62
    7
 10
258.13437362615513
 20
192.00329586371333
 11
258.13437362615513
 21
193.00329586371333
  0
LINE
  8
_7-0_
  6
CONTINUOUS
 62
    7
 10
258.13437362615513
 20
192.00329586371333
 11
258.13437362615513
 21
191.00329586371333
  0
LINE
  8
_7-0_
  6
CONTINUOUS
 62
    7
 10
258.38437362615508
 20
192.00329586371333
 11
258.13437362615513
 21
192.00329586371333
  0
LINE
  8
_7-0_
  6
CONTINUOUS
 62
    7
 10
258.38437362615508
 20
191.15329561635411
 11
258.13437361428077
 21
191.15329561635411
  0
LINE
  8
_7-0_
  6
CONTINUOUS
 62
    7
 10
258.38437362615508
 20
193.00329586371333
 11
258.13437362615513
 21
193.00329586371333
  0
LINE
  8
_7-0_
  6
CONTINUOUS
 62
    7
 10
259.25377193571767
 20
191.4083097257988
 11
259.18437358871597
 21
191.40339670583159
  0
ARC
  8
_7-0_
  6
CONTINUOUS
 62
    7
 10
259.23224554185532
 20
191.71234862851821
 40
0.3048000000005047
 50
274.04986592817351
 51
340.43275363035661
  0
LINE
  8
_7-0_
  6
CONTINUOUS
 62
    7
 10
259.61704300664865
 20
191.97049206003106
 11
259.51527121890831
 21
191.59912159546763
  0
LINE
  8
_7-0_
  6
CONTINUOUS
 62
    7
 10
259.1843736261552
 20
193.00329586371333
 11
259.1843736261552
 21
194.00329586371333
  0
LINE
  8
_7-0_
  6
CONTINUOUS
 62
    7
 10
259.1843736261552
 20
192.00329586371333
 11
259.1843736261552
 21
193.00329586371333
  0
LINE
  8
_7-0_
  6
CONTINUOUS
 62
    7
 10
259.71621198062348
 20
192.59981559469849
 11
259.68763737421977
 21
192.43570351853526
  0
LINE
  8
_7-0_
  6
CONTINUOUS
 62
    7
 10
259.68763737421977
 20
192.43570351853526
 11
259.68056223303585
 21
192.40677570804507
  0
LINE
  8
_7-0_
  6
CONTINUOUS
 62
    7
 10
259.72612963472062
 20
192.84981610133797
 11
259.68059261743485
 21
192.84981610133797
  0
LINE
  8
_7-0_
  6
CONTINUOUS
 62
    7
 10
259.687402331685
 20
193.07199148341567
 11
259.72612963472062
 21
192.84981610133797
  0
LINE
  8
_7-0_
  6
CONTINUOUS
 62
    7
 10
259.68059261743485
 20
192.84981610133797
 11
259.72612963472062
 21
192.84981610133797
  0
LINE
  8
_7-0_
  6
CONTINUOUS
 62
    7
 10
259.51696860250569
 20
193.40303564798364
 11
259.51696860250569
 21
192.50329586371339
  0
LINE
  8
_7-0_
  6
CONTINUOUS
 62
    7
 10
259.63401566207909
 20
192.4067747767225
 11
259.63608499605703
 21
192.50329586371339
  0
LINE
  8
_7-0_
  6
CONTINUOUS
 62
    7
 10
259.63401577849447
 20
191.96646502121836
 11
259.63608494442456
 21
191.96527106567771
  0
LINE
  8
_7-0_
  6
CONTINUOUS
 62
    7
 10
259.63608494442456
 20
191.96527106567771
 11
259.63607132383191
 21
191.96527851625833
  0
LINE
  8
_7-0_
  6
CONTINUOUS
 62
    7
 10
259.72612963472062
 20
192.40677570804507
 11
259.68763737421977
 21
192.1857039432183
  0
LINE
  8
_7-0_
  6
CONTINUOUS
 62
    7
 10
259.68763737421977
 20
192.1857039432183
 11
259.63401612774043
 21
191.96646688386351
  0
LINE
  8
_7-0_
  6
CONTINUOUS
 62
    7
 10
259.63401577849447
 20
192.40677570804507
 11
259.72612963472062
 21
192.40677570804507
  0
LINE
  8
_7-0_
  6
CONTINUOUS
 62
    7
 10
259.63608499605703
 20
192.50329586371339
 11
259.63401566207909
 21
192.4067747767225
  0
LINE
  8
_7-0_
  6
CONTINUOUS
 62
    7
 10
259.51696860250569
 20
192.50329586371339
 11
259.63608499605703
 21
192.50329586371339
  0
LINE
  8
_7-0_
  6
CONTINUOUS
 62
    7
 10
259.63401566207909
 20
192.59981652602107
 11
259.63608499605703
 21
192.50329586371339
  0
LINE
  8
_7-0_
  6
CONTINUOUS
 62
    7
 10
259.72612963472062
 20
192.59981559469849
 11
259.63401566207909
 21
192.59981559469849
  0
LINE
  8
_7-0_
  6
CONTINUOUS
 62
    7
 10
259.63401612774043
 20
193.04012535020262
 11
259.687402331685
 21
192.82199190809876
  0
LINE
  8
_7-0_
  6
CONTINUOUS
 62
    7
 10
259.687402331685
 20
192.82199190809876
 11
259.72612963472062
 21
192.59981559469849
  0
LINE
  8
_7-0_
  6
CONTINUOUS
 62
    7
 10
259.63401566207909
 20
192.59981559469849
 11
259.72612963472062
 21
192.59981559469849
  0
LINE
  8
_7-0_
  6
CONTINUOUS
 62
    7
 10
259.72612963472062
 20
192.40677570804507
 11
259.63401566207909
 21
192.40677570804507
  0
LINE
  8
_7-0_
  6
CONTINUOUS
 62
    7
 10
259.25377193571767
 20
192.50329586371339
 11
259.25377193571767
 21
191.4083097257988
  0
LINE
  8
_7-0_
  6
CONTINUOUS
 62
    7
 10
259.25377193571767
 20
193.59828200162866
 11
259.25377193571767
 21
192.50329586371339
  0
ARC
  8
_7-0_
  6
CONTINUOUS
 62
    2
 10
234.17158138656623
 20
117.30184141350082
 40
0.1250000000000164
 50
119.99999999999563
 51
299.99999999999562
  0
LINE
  8
_7-0_
  6
CONTINUOUS
 62
    2
 10
234.23408138656617
 20
117.19358823802775
 11
234.10908138656611
 21
117.41009458897389
  0
ARC
  8
_7-0_
  6
CONTINUOUS
 62
    2
 10
231.08170030346303
 20
129.32065365108982
 40
0.1250000000000021
 50
119.99999999998439
 51
299.99999999998436
  0
LINE
  8
_7-0_
  6
CONTINUOUS
 62
    2
 10
231.14420030346298
 20
129.21240047561673
 11
231.01920030346309
 21
129.42890682656289
  0
LINE
  8
_7-0_
  6
CONTINUOUS
 62
    7
 10
259.1843736261552
 20
115.78857135229864
 11
258.38437362615508
 21
115.78857135229864
  0
LINE
  8
_7-0_
  6
CONTINUOUS
 62
    7
 10
259.1843736261552
 20
114.78857135229864
 11
258.38437362615508
 21
114.78857135229864
  0
LINE
  8
_7-0_
  6
CONTINUOUS
 62
    7
 10
258.38437362615508
 20
115.78857135229864
 11
258.38437362615508
 21
114.78857135229864
  0
LINE
  8
_7-0_
  6
CONTINUOUS
 62
    7
 10
259.1843736261552
 20
115.78857135229864
 11
259.1843736261552
 21
114.78857135229864
  0
LINE
  8
_7-0_
  6
CONTINUOUS
 62
    7
 10
258.13437362615513
 20
115.78857135229864
 11
258.13437362615513
 21
114.78857135229864
  0
LINE
  8
_7-0_
  6
CONTINUOUS
 62
    7
 10
258.38437362615508
 20
115.78857135229864
 11
258.13437362615513
 21
115.78857135229864
  0
LINE
  8
_7-0_
  6
CONTINUOUS
 62
    7
 10
258.38437362615508
 20
114.93857135942334
 11
258.13437361428077
 21
114.93857135942334
  0
LINE
  8
_7-0_
  6
CONTINUOUS
 62
    7
 10
259.18437358871597
 20
117.63847105034753
 11
259.25377193571767
 21
117.63355749021323
  0
LINE
  8
_7-0_
  6
CONTINUOUS
 62
    7
 10
259.25377193571767
 20
115.44358521438343
 11
259.18437358871597
 21
115.43867170407565
  0
ARC
  8
_7-0_
  6
CONTINUOUS
 62
    7
 10
259.23224554185532
 20
115.74762411710349
 40
0.3048000000005051
 50
274.04986592817027
 51
339.0881665600387
  0
LINE
  8
_7-0_
  6
CONTINUOUS
 62
    7
 10
259.64204971626901
 20
116.04280884207355
 11
259.64017147146665
 21
116.03455709123178
  0
LINE
  8
_7-0_
  6
CONTINUOUS
 62
    7
 10
259.64017147146665
 20
116.03455709123178
 11
259.51527121890831
 21
115.64820560456379
  0
LINE
  8
_7-0_
  6
CONTINUOUS
 62
    7
 10
259.68101054844015
 20
116.21397813146128
 11
259.64204971626901
 21
116.04280884207355
  0
LINE
  8
_7-0_
  6
CONTINUOUS
 62
    7
 10
259.68102486752457
 20
116.21374646497085
 11
259.64212550264335
 21
116.0425978975104
  0
LINE
  8
_7-0_
  6
CONTINUOUS
 62
    7
 10
259.51696860250552
 20
115.63883156802833
 11
259.51696860250552
 21
115.65298888043574
  0
LINE
  8
_7-0_
  6
CONTINUOUS
 62
    7
 10
259.63401566207892
 20
116.00174077616199
 11
259.63608494442456
 21
116.00054600571408
  0
LINE
  8
_7-0_
  6
CONTINUOUS
 62
    7
 10
259.72612963472045
 20
116.44205157940405
 11
259.68763725780439
 21
116.22097818476274
  0
LINE
  8
_7-0_
  6
CONTINUOUS
 62
    7
 10
259.68763725780439
 20
116.22097818476274
 11
259.68564783636981
 21
116.21284389698075
  0
LINE
  8
_7-0_
  6
CONTINUOUS
 62
    7
 10
259.63401612774026
 20
116.4420513465734
 11
259.72612951830524
 21
116.4420513465734
  0
LINE
  8
_7-0_
  6
CONTINUOUS
 62
    7
 10
259.6340157784943
 20
116.63509100039615
 11
259.63608494442456
 21
116.5385660512106
  0
LINE
  8
_7-0_
  6
CONTINUOUS
 62
    7
 10
259.63608494442456
 20
116.5385660512106
 11
259.6340157784943
 21
116.44205181223469
  0
LINE
  8
_7-0_
  6
CONTINUOUS
 62
    7
 10
259.72612963472045
 20
116.63509134964215
 11
259.63401612774026
 21
116.63509134964215
  0
LINE
  8
_7-0_
  6
CONTINUOUS
 62
    7
 10
259.6340157784943
 20
117.07540203646885
 11
259.68740221526962
 21
116.85726743021174
  0
LINE
  8
_7-0_
  6
CONTINUOUS
 62
    7
 10
259.68740221526962
 20
116.85726743021174
 11
259.72612963472045
 21
116.6350911168115
  0
ARC
  8
_7-0_
  6
CONTINUOUS
 62
    7
 10
255.72068392906913
 20
115.9876841421896
 40
4.0639999998782272
 50
15.541785398415729
 51
20.912734064235191
  0
LINE
  8
_7-0_
  6
CONTINUOUS
 62
    7
 10
259.63401566207892
 20
116.0017406597467
 11
259.68562664878112
 21
116.2126201467322
  0
LINE
  8
_7-0_
  6
CONTINUOUS
 62
    7
 10
259.6340157784943
 20
116.4420513465734
 11
259.72612963472045
 21
116.4420514629887
  0
LINE
  8
_7-0_
  6
CONTINUOUS
 62
    7
 10
259.6340157784943
 20
116.6350912332268
 11
259.72612963472045
 21
116.6350912332268
  0
LINE
  8
_7-0_
  6
CONTINUOUS
 62
    7
 10
259.25377193571767
 20
117.63355749021323
 11
259.25377193571767
 21
115.44358521438343
  0
LINE
  8
_7-0_
  6
CONTINUOUS
 62
    7
 10
259.1843736261552
 20
130.7885713522987
 11
258.38437362615508
 21
130.7885713522987
  0
LINE
  8
_7-0_
  6
CONTINUOUS
 62
    7
 10
258.38437362615508
 20
130.7885713522987
 11
258.38437362615508
 21
115.78857135229864
  0
LINE
  8
_7-0_
  6
CONTINUOUS
 62
    7
 10
259.1843736261552
 20
130.7885713522987
 11
259.1843736261552
 21
115.78857135229864
  0
LINE
  8
_7-0_
  6
CONTINUOUS
 62
    7
 10
259.1843736261552
 20
131.7885713522987
 11
258.38437362615508
 21
131.7885713522987
  0
LINE
  8
_7-0_
  6
CONTINUOUS
 62
    7
 10
258.38437362615508
 20
131.7885713522987
 11
258.38437362615508
 21
130.7885713522987
  0
LINE
  8
_7-0_
  6
CONTINUOUS
 62
    7
 10
259.1843736261552
 20
131.7885713522987
 11
259.1843736261552
 21
130.7885713522987
  0
LINE
  8
_7-0_
  6
CONTINUOUS
 62
    7
 10
258.13437362615513
 20
131.78857135229864
 11
258.13437362615513
 21
130.78857135229864
  0
LINE
  8
_7-0_
  6
CONTINUOUS
 62
    7
 10
258.13437362615513
 20
115.78857135229864
 11
258.13437362615513
 21
116.81574939042917
  0
LINE
  8
_7-0_
  6
CONTINUOUS
 62
    7
 10
258.13437362615513
 20
117.04487817517696
 11
258.13437362615513
 21
116.81574939042917
  0
LINE
  8
_7-0_
  6
CONTINUOUS
 62
    7
 10
258.13437362615513
 20
117.96139331416813
 11
258.13437362615513
 21
117.73226452942037
  0
LINE
  8
_7-0_
  6
CONTINUOUS
 62
    7
 10
258.13437362615513
 20
117.96139331416813
 11
258.13437362615513
 21
119.65291354478429
  0
LINE
  8
_7-0_
  6
CONTINUOUS
 62
    7
 10
258.13437362615513
 20
119.76261584155719
 11
258.13437362615513
 21
119.65291354478429
  0
LINE
  8
_7-0_
  6
CONTINUOUS
 62
    7
 10
258.13437362615513
 20
119.76261584155719
 11
258.13437362615513
 21
123.01452686304014
  0
LINE
  8
_7-0_
  6
CONTINUOUS
 62
    7
 10
258.13437362615513
 20
117.04487817517696
 11
258.13437362615513
 21
117.73226452942037
  0
LINE
  8
_7-0_
  6
CONTINUOUS
 62
    7
 10
258.38437362615508
 20
130.78857135229864
 11
258.13437362615513
 21
130.78857135229864
  0
LINE
  8
_7-0_
  6
CONTINUOUS
 62
    7
 10
258.38437362615508
 20
131.63857124799059
 11
258.13437361428077
 21
131.63857124799059
  0
LINE
  8
_7-0_
  6
CONTINUOUS
 62
    7
 10
259.18437358871597
 20
131.38847015851303
 11
259.25377193571767
 21
131.38355749021329
  0
LINE
  8
_7-0_
  6
CONTINUOUS
 62
    7
 10
259.25377193571767
 20
129.19358521438351
 11
259.18437358871597
 21
129.18867133611007
  0
ARC
  8
_7-0_
  6
CONTINUOUS
 62
    7
 10
259.23224554185532
 20
129.49762411710352
 40
0.3048000000005051
 50
274.04986592817027
 51
339.0881665600387
  0
LINE
  8
_7-0_
  6
CONTINUOUS
 62
    7
 10
259.64204971626901
 20
129.79280911439224
 11
259.64017147146665
 21
129.78455759638114
  0
LINE
  8
_7-0_
  6
CONTINUOUS
 62
    7
 10
259.64017147146665
 20
129.78455759638114
 11
259.51527121890831
 21
129.39820587688254
  0
LINE
  8
_7-0_
  6
CONTINUOUS
 62
    7
 10
259.68101054844015
 20
129.96397875302599
 11
259.64204971626901
 21
129.79280911439224
  0
LINE
  8
_7-0_
  6
CONTINUOUS
 62
    7
 10
259.68102486752457
 20
129.96374592238234
 11
259.64212550264335
 21
129.79259863549037
  0
LINE
  8
_7-0_
  6
CONTINUOUS
 62
    7
 10
259.51696860250552
 20
129.38883156802845
 11
259.51696860250552
 21
129.40298888043579
  0
LINE
  8
_7-0_
  6
CONTINUOUS
 62
    7
 10
259.63401566207892
 20
129.75174151414199
 11
259.63608494442456
 21
129.75054569595619
  0
LINE
  8
_7-0_
  6
CONTINUOUS
 62
    7
 10
259.72612963472045
 20
130.1920522009687
 11
259.68763725780439
 21
129.97097857349677
  0
LINE
  8
_7-0_
  6
CONTINUOUS
 62
    7
 10
259.68763725780439
 20
129.97097857349677
 11
259.68564783636981
 21
129.96284440213008
  0
LINE
  8
_7-0_
  6
CONTINUOUS
 62
    7
 10
259.63401612774026
 20
130.1920522009687
 11
259.72612951830524
 21
130.1920522009687
  0
LINE
  8
_7-0_
  6
CONTINUOUS
 62
    7
 10
259.6340157784943
 20
130.38509115629955
 11
259.63608494442456
 21
130.28856515937607
  0
LINE
  8
_7-0_
  6
CONTINUOUS
 62
    7
 10
259.63608494442456
 20
130.28856515937607
 11
259.6340157784943
 21
130.1920522009687
  0
LINE
  8
_7-0_
  6
CONTINUOUS
 62
    7
 10
259.72612963472045
 20
130.38509115629955
 11
259.63401612774026
 21
130.38509115629955
  0
LINE
  8
_7-0_
  6
CONTINUOUS
 62
    7
 10
259.6340157784943
 20
130.82540184312628
 11
259.68740221526962
 21
130.60726746969984
  0
LINE
  8
_7-0_
  6
CONTINUOUS
 62
    7
 10
259.68740221526962
 20
130.60726746969984
 11
259.72612963472045
 21
130.38509115629955
  0
LINE
  8
_7-0_
  6
CONTINUOUS
 62
    7
 10
259.63608499605703
 20
130.82659666559979
 11
259.63401566207892
 21
130.82540184312628
  0
ARC
  8
_7-0_
  6
CONTINUOUS
 62
    7
 10
255.72068392906913
 20
129.7376841421896
 40
4.0639999998782272
 50
15.541785398415729
 51
20.912734064235191
  0
LINE
  8
_7-0_
  6
CONTINUOUS
 62
    7
 10
259.63401566207892
 20
129.75174151414199
 11
259.68562664878112
 21
129.96262088471218
  0
LINE
  8
_7-0_
  6
CONTINUOUS
 62
    7
 10
259.6340157784943
 20
130.1920522009687
 11
259.72612963472045
 21
130.1920522009687
  0
LINE
  8
_7-0_
  6
CONTINUOUS
 62
    7
 10
259.6340157784943
 20
130.38509115629955
 11
259.72612963472045
 21
130.38509115629955
  0
LINE
  8
_7-0_
  6
CONTINUOUS
 62
    7
 10
259.25377193571767
 20
131.38355749021329
 11
259.25377193571767
 21
129.19358521438351
  0
ARC
  8
_7-0_
  6
CONTINUOUS
 62
    7
 10
259.2322455419034
 20
131.07951858751266
 40
0.3048000000005075
 50
20.911833439961419
 51
85.950134071826454
  0
ARC
  8
_7-0_
  6
CONTINUOUS
 62
    7
 10
259.2322455419034
 20
131.07951858751266
 40
0.3048000000005075
 50
20.911833439961419
 51
85.950134071826454
  0
LINE
  8
_7-0_
  6
CONTINUOUS
 62
    7
 10
261.93437426791064
 20
115.58857135229865
 11
261.93437426791064
 21
114.78857135229864
  0
LINE
  8
_7-0_
  6
CONTINUOUS
 62
    7
 10
263.43437426791064
 20
115.58857135229865
 11
261.93437426791064
 21
115.58857135229865
  0
LINE
  8
_7-0_
  6
CONTINUOUS
 62
    7
 10
263.43437426791064
 20
115.58857135229865
 11
263.43437426791064
 21
114.78857135229864
  0
LINE
  8
_7-0_
  6
CONTINUOUS
 62
    7
 10
263.43437426791064
 20
114.78857135229864
 11
261.93437426791064
 21
114.78857135229864
  0
LINE
  8
_7-0_
  6
CONTINUOUS
 62
    7
 10
261.93437426791064
 20
115.58857135229865
 11
259.49225564169626
 21
115.58857133347174
  0
LINE
  8
_7-0_
  6
CONTINUOUS
 62
    7
 10
261.93437426791064
 20
114.78857135229864
 11
259.1843736261552
 21
114.78857135229864
  0
LINE
  8
_7-0_
  6
CONTINUOUS
 62
    7
 10
258.13437362615513
 20
123.01452686304014
 11
258.13437362615513
 21
130.78857135229864
  0
LINE
  8
_7-0_
  6
CONTINUOUS
 62
    7
 10
260.53437362615517
 20
121.46121254770292
 11
260.53437362615517
 21
125.11593015689376
  0
ARC
  8
_7-0_
  6
CONTINUOUS
 62
    7
 10
259.78437362615517
 20
125.38857135229829
 40
0.7500000000000279
 50
0
 51
89.999999999996745
  0
ARC
  8
_7-0_
  6
CONTINUOUS
 62
    7
 10
259.78437362615517
 20
121.18857135229836
 40
0.75
 50
270
 51
0
  0
LINE
  8
_7-0_
  6
CONTINUOUS
 62
    7
 10
260.53437362615517
 20
125.38857135229829
 11
260.53437362615517
 21
121.18857135229836
  0
LINE
  8
_7-0_
  6
CONTINUOUS
 62
    7
 10
259.18437665407117
 20
126.13857140221725
 11
259.78437362615517
 21
126.13857135229829
  0
LINE
  8
_7-0_
  6
CONTINUOUS
 62
    7
 10
259.18437665407117
 20
120.4385710602356
 11
259.78437362615517
 21
120.43857135229836
  0
LINE
  8
_7-0_
  6
CONTINUOUS
 62
    7
 10
259.18437665407117
 20
121.53857140817768
 11
259.18437665407117
 21
120.4385710602356
  0
LINE
  8
_7-0_
  6
CONTINUOUS
 62
    7
 10
259.18437665407117
 20
126.13857140221725
 11
259.18437665407117
 21
123.9385710602356
  0
ARC
  8
_7-0_
  6
CONTINUOUS
 62
    7
 10
259.2322455419034
 20
117.33972614525015
 40
0.3048000000005075
 50
20.911833439961419
 51
85.950134071826454
  0
ARC
  8
_7-0_
  6
CONTINUOUS
 62
    7
 10
259.2322455419034
 20
117.33972614525015
 40
0.3048000000005075
 50
20.911833439961419
 51
85.950134071826454
  0
ARC
  8
_7-0_
  6
CONTINUOUS
 62
    7
 10
263.18437574942106
 20
214.80330081270744
 40
0.25
 50
270
 51
0
  0
ARC
  8
_7-0_
  6
CONTINUOUS
 62
    7
 10
263.18437574942106
 20
212.20330081270739
 40
0.25
 50
0
 51
90
  0
LINE
  8
_7-0_
  6
CONTINUOUS
 62
    7
 10
263.18437574942106
 20
212.45330081270742
 11
261.43437551437403
 21
212.45330081270742
  0
ARC
  8
_7-0_
  6
CONTINUOUS
 62
    7
 10
261.43437551437403
 20
213.50330081270743
 40
1.0500000000000109
 50
90
 51
270
  0
LINE
  8
_7-0_
  6
CONTINUOUS
 62
    7
 10
261.43437551437403
 20
214.55330081270739
 11
263.18437574942106
 21
214.55330081270744
  0
ARC
  8
_7-0_
  6
CONTINUOUS
 62
    7
 10
261.93437574836866
 20
215.75330118645814
 40
1.5000000000000139
 50
0
 51
90
  0
LINE
  8
_7-0_
  6
CONTINUOUS
 62
    7
 10
263.43437574942095
 20
214.80330081270744
 11
263.43437574836866
 21
215.75330118645814
  0
ARC
  8
_7-0_
  6
CONTINUOUS
 62
    7
 10
263.18437426896304
 20
197.20330078897552
 40
0.25
 50
0
 51
90
  0
ARC
  8
_7-0_
  6
CONTINUOUS
 62
    7
 10
263.18437426896304
 20
199.80330078897554
 40
0.25
 50
270
 51
0
  0
LINE
  8
_7-0_
  6
CONTINUOUS
 62
    7
 10
263.18437426896304
 20
199.55330078897554
 11
261.43437403391601
 21
199.55330078897554
  0
ARC
  8
_7-0_
  6
CONTINUOUS
 62
    7
 10
261.43437403391601
 20
198.50330078897553
 40
1.0500000000000109
 50
90
 51
270
  0
LINE
  8
_7-0_
  6
CONTINUOUS
 62
    7
 10
261.43437403391601
 20
197.45330078897555
 11
263.18437426896304
 21
197.45330078897552
  0
ARC
  8
_7-0_
  6
CONTINUOUS
 62
    7
 10
261.93437426791064
 20
196.25330041522479
 40
1.5000000000000139
 50
270
 51
0
  0
LINE
  8
_7-0_
  6
CONTINUOUS
 62
    7
 10
263.43437426896298
 20
197.20330078897552
 11
263.43437426791064
 21
196.25330041522479
  0
ARC
  8
_7-0_
  6
CONTINUOUS
 62
    7
 10
263.18437574942106
 20
207.30330128456768
 40
0.25
 50
270
 51
0
  0
ARC
  8
_7-0_
  6
CONTINUOUS
 62
    7
 10
263.18437574942106
 20
204.70330128456765
 40
0.25
 50
0
 51
90
  0
LINE
  8
_7-0_
  6
CONTINUOUS
 62
    7
 10
263.18437574942106
 20
204.95330128456765
 11
261.43437551437403
 21
204.95330128456765
  0
ARC
  8
_7-0_
  6
CONTINUOUS
 62
    7
 10
261.43437551437403
 20
206.00330128456766
 40
1.0500000000000109
 50
90
 51
270
  0
LINE
  8
_7-0_
  6
CONTINUOUS
 62
    7
 10
261.43437551437403
 20
207.05330128456762
 11
263.18437574942106
 21
207.05330128456768
  0
LINE
  8
_7-0_
  6
CONTINUOUS
 62
    7
 10
263.43437574942095
 20
211.34552337409553
 11
263.43437574942095
 21
212.20330081270739
  0
LINE
  8
_7-0_
  6
CONTINUOUS
 62
    7
 10
263.43437574942095
 20
207.30330128456768
 11
263.43437574494328
 21
211.34552337409553
  0
LINE
  8
_7-0_
  6
CONTINUOUS
 62
    7
 10
263.43437574942112
 20
199.80330078897554
 11
263.43437574942106
 21
200.67593705911787
  0
LINE
  8
_7-0_
  6
CONTINUOUS
 62
    7
 10
263.43437574942095
 20
204.33065466830873
 11
263.43437574942095
 21
204.70330128456765
  0
LINE
  8
_7-0_
  6
CONTINUOUS
 62
    7
 10
259.1843736261552
 20
218.00329586371333
 11
258.38437362615525
 21
218.00329586371333
  0
LINE
  8
_7-0_
  6
CONTINUOUS
 62
    7
 10
258.13437361428094
 20
218.15329604103715
 11
258.38437362615525
 21
218.15329604103715
  0
LINE
  8
_7-0_
  6
CONTINUOUS
 62
    7
 10
259.25377193571767
 20
218.15830972579811
 11
259.18437358871597
 21
218.15339662387521
  0
LINE
  8
_7-0_
  6
CONTINUOUS
 62
    7
 10
259.1843736261552
 20
194.00329586371333
 11
258.38437362615508
 21
194.00329586371333
  0
LINE
  8
_7-0_
  6
CONTINUOUS
 62
    7
 10
258.38437362615508
 20
193.85329568638951
 11
258.13437361428077
 21
193.85329568638951
  0
LINE
  8
_7-0_
  6
CONTINUOUS
 62
    7
 10
259.18437358871597
 20
193.85319510355151
 11
259.25377193571785
 21
193.84828200162854
  0
ARC
  8
_7-0_
  6
CONTINUOUS
 62
    7
 10
259.23224554185549
 20
193.54424309890853
 40
0.304800000000506
 50
20.911833439961309
 51
85.950134071826454
  0
LINE
  8
_7-0_
  6
CONTINUOUS
 62
    7
 10
259.51696860250569
 20
193.65303564798364
 11
259.61743323080747
 21
193.28559217854888
  0
LINE
  8
_7-0_
  6
CONTINUOUS
 62
    7
 10
259.18437358871597
 20
193.60319552823455
 11
259.25377193571767
 21
193.59828200162866
  0
ARC
  8
_7-0_
  6
CONTINUOUS
 62
    7
 10
259.23224554185532
 20
193.29424309890859
 40
0.3048000000005142
 50
20.911833439961309
 51
85.950134071826454
  0
LINE
  8
_7-0_
  6
CONTINUOUS
 62
    7
 10
259.51696860250569
 20
193.40303564798364
 11
259.61743323080747
 21
193.03559260323197
  0
LINE
  8
_7-0_
  6
CONTINUOUS
 62
    7
 10
259.51696860250569
 20
193.65303564798364
 11
259.51696860250569
 21
193.41240989907663
  0
LINE
  8
_7-0_
  6
CONTINUOUS
 62
    7
 10
259.63401612774043
 20
193.29012492551953
 11
259.687402331685
 21
193.07199148341567
  0
LINE
  8
_7-0_
  6
CONTINUOUS
 62
    7
 10
259.25377193571785
 20
193.84828200162854
 11
259.25377193571767
 21
193.59828200162866
  0
LINE
  8
_7-0_
  6
CONTINUOUS
 62
    7
 10
258.1343736261553
 20
218.00329586371333
 11
258.13437362615513
 21
194.00329586371333
  0
LINE
  8
_7-0_
  6
CONTINUOUS
 62
    7
 10
259.1843736261552
 20
218.00329586371333
 11
259.18437665407117
 21
204.25329591959268
  0
LINE
  8
_7-0_
  6
CONTINUOUS
 62
    7
 10
258.38437362615525
 20
218.00329586371333
 11
258.38437362615508
 21
204.25329586371333
  0
LINE
  8
_7-0_
  6
CONTINUOUS
 62
    7
 10
258.38437362615508
 20
204.25329586371333
 11
258.38437362615508
 21
194.00329586371333
  0
LINE
  8
_7-0_
  6
CONTINUOUS
 62
    7
 10
259.18437665407117
 20
203.15329557165057
 11
259.1843736261552
 21
194.00329586371333
  0
ARC
  8
_7-0_
  6
CONTINUOUS
 62
    7
 10
259.78437362615517
 20
204.60329586371329
 40
0.7500000000000279
 50
0
 51
89.999999999996745
  0
ARC
  8
_7-0_
  6
CONTINUOUS
 62
    7
 10
259.78437362615517
 20
200.40329586371333
 40
0.75
 50
270
 51
0
  0
LINE
  8
_7-0_
  6
CONTINUOUS
 62
    7
 10
260.53437362615517
 20
204.60329586371329
 11
260.53437362615517
 21
200.40329586371333
  0
LINE
  8
_7-0_
  6
CONTINUOUS
 62
    7
 10
259.18437665407117
 20
205.35329591363225
 11
259.78437362615517
 21
205.35329586371329
  0
LINE
  8
_7-0_
  6
CONTINUOUS
 62
    7
 10
259.18437665407117
 20
199.65329557165057
 11
259.78437362615517
 21
199.65329586371333
  0
LINE
  8
_7-0_
  6
CONTINUOUS
 62
    7
 10
259.18437665407117
 20
200.75329591959268
 11
259.18437665407117
 21
199.65329557165057
  0
LINE
  8
_7-0_
  6
CONTINUOUS
 62
    7
 10
259.18437665407117
 20
205.35329591363225
 11
259.18437665407117
 21
203.15329557165057
  0
LINE
  8
_7-0_
  6
CONTINUOUS
 62
    7
 10
261.93437574836866
 20
217.25330118645817
 11
259.18437571092943
 21
217.25330093478746
  0
LINE
  8
_7-0_
  6
CONTINUOUS
 62
    7
 10
261.93437426791064
 20
194.75330041522477
 11
259.1843742304714
 21
194.75330066689548
  0
LINE
  8
_7-0_
  6
CONTINUOUS
 62
    7
 10
259.18437571198194
 20
206.65330582674454
 11
259.18437571198194
 21
209.50330128456766
  0
LINE
  8
_7-0_
  6
CENTER2
 62
   18
 10
260.43437551437426
 20
213.50330081270743
 11
263.07823126077909
 21
213.50330081270743
  0
LINE
  8
_7-0_
  6
CENTER2
 62
   18
 10
261.43437551437421
 20
215.2756106926401
 11
261.43437551437421
 21
211.468664961503
  0
LINE
  8
_7-0_
  6
CENTER2
 62
   18
 10
260.43437551437426
 20
206.00330128456766
 11
263.07823126077909
 21
206.00330128456766
  0
LINE
  8
_7-0_
  6
CENTER2
 62
   18
 10
261.43437551437421
 20
207.77561116450033
 11
261.43437551437421
 21
203.96866543336324
  0
LINE
  8
_7-0_
  6
CENTER2
 62
   18
 10
260.43437403391624
 20
198.50330078897553
 11
263.07822978032106
 21
198.50330078897553
  0
LINE
  8
_7-0_
  6
CENTER2
 62
   18
 10
261.43437403391624
 20
196.73099090904287
 11
261.43437403391624
 21
200.53793664017996
  0
LINE
  8
_7-8_
  6
CONTINUOUS
 62
    7
 10
330.8878682090139
 20
128.93857135229831
 11
330.8878682090139
 21
113.51152036917348
  0
LINE
  8
_7-8_
  6
CONTINUOUS
 62
    7
 10
330.3878682090139
 20
116.53857135229831
 11
330.3878682090139
 21
115.43857135229832
  0
LINE
  8
_7-8_
  6
CONTINUOUS
 62
    7
 10
323.13786820901395
 20
119.7885713522983
 11
323.13786820901395
 21
115.53857135229831
  0
LINE
  8
_7-8_
  6
CONTINUOUS
 62
    7
 10
318.13786820901395
 20
119.7885713522983
 11
318.13786820901395
 21
115.53857135229831
  0
LINE
  8
_7-8_
  6
CONTINUOUS
 62
    7
 10
319.13786820901395
 20
119.7885713522983
 11
319.13786820901395
 21
115.53857135229831
  0
LINE
  8
_7-8_
  6
CONTINUOUS
 62
    7
 10
311.38786820901395
 20
128.93857135229831
 11
311.38786820901395
 21
113.51152036917348
  0
LINE
  8
_7-8_
  6
CONTINUOUS
 62
    7
 10
317.13786820901395
 20
115.53857135229831
 11
318.08538088102494
 21
123.4976777971909
  0
LINE
  8
_7-8_
  6
CONTINUOUS
 62
    7
 10
311.88786820901395
 20
116.53857135229831
 11
311.88786820901395
 21
115.43857135229832
  0
LINE
  8
_7-8_
  6
CONTINUOUS
 62
    7
 10
313.13786820901395
 20
115.43857135229832
 11
312.1130228903728
 21
116.66838573466772
  0
LINE
  8
_7-8_
  6
CONTINUOUS
 62
    7
 10
324.13786820901395
 20
119.7885713522983
 11
324.13786820901395
 21
115.53857135229831
  0
LINE
  8
_7-8_
  6
CONTINUOUS
 62
    7
 10
325.1378682090139
 20
115.53857135229831
 11
324.19035553700285
 21
123.4976777971909
  0
LINE
  8
_7-8_
  6
CONTINUOUS
 62
    7
 10
329.1378682090139
 20
115.43857135229832
 11
330.16271352765505
 21
116.66838573466772
  0
LINE
  8
_7-8_
  6
CONTINUOUS
 62
    7
 10
315.49923184537755
 20
113.92720771593475
 11
315.58786820901394
 21
113.18857135229832
  0
LINE
  8
_7-8_
  6
CONTINUOUS
 62
    7
 10
315.59497499020051
 20
113.83146457111179
 11
315.48786820901278
 21
113.93857135229944
  0
ARC
  8
_7-8_
  6
CONTINUOUS
 62
    7
 10
316.302081771387
 20
114.5385713522983
 40
1
 50
224.999999999999
 51
270
  0
ARC
  8
_7-8_
  6
CONTINUOUS
 62
    7
 10
316.28786820901393
 20
114.5385713522983
 40
1
 50
90
 51
216.86989764575409
  0
ARC
  8
_7-8_
  6
CONTINUOUS
 62
    7
 10
311.63786820901395
 20
113.51152036917348
 40
0.25
 50
180
 51
286.60154959901927
  0
LINE
  8
_7-8_
  6
CONTINUOUS
 62
    7
 10
313.13786820901384
 20
115.43857135229832
 11
314.63786820901395
 21
115.43857135229832
  0
LINE
  8
_7-8_
  6
CONTINUOUS
 62
    7
 10
312.31286820901391
 20
115.43857135229832
 11
312.31286820901391
 21
114.81357135229832
  0
LINE
  8
_7-8_
  6
CONTINUOUS
 62
    7
 10
312.31286820901391
 20
114.81357135229832
 11
313.10239741470161
 21
114.81357135229832
  0
ARC
  8
_7-8_
  6
CONTINUOUS
 62
    7
 10
311.13786820901395
 20
115.18857135229833
 40
2
 50
286.60154959902001
 51
349.19307712513938
  0
LINE
  8
_7-8_
  6
CONTINUOUS
 62
    7
 10
311.88786820901395
 20
115.43857135229832
 11
312.31286820901391
 21
115.43857135229832
  0
LINE
  8
_7-8_
  6
CONTINUOUS
 62
    7
 10
314.88786820901395
 20
115.68857135229832
 11
314.63786820901395
 21
115.43857135229835
  0
LINE
  8
_7-8_
  6
CONTINUOUS
 62
    7
 10
315.28786820901387
 20
115.68857135229832
 11
315.37648196062491
 21
114.95012342220583
  0
LINE
  8
_7-8_
  6
CONTINUOUS
 62
    7
 10
314.88786820901395
 20
115.68857135229832
 11
315.28786820901387
 21
115.68857135229832
  0
LINE
  8
_7-8_
  6
CONTINUOUS
 62
    7
 10
316.28786820901393
 20
114.93857135229832
 11
325.99286820901392
 21
114.93857135229832
  0
LINE
  8
_7-8_
  6
CONTINUOUS
 62
    7
 10
316.28786820901393
 20
115.53857135229831
 11
325.98786820901392
 21
115.53857135229831
  0
LINE
  8
_7-8_
  6
CONTINUOUS
 62
    7
 10
317.38786820901395
 20
112.93857135229829
 11
324.88786820901395
 21
112.93857135229832
  0
LINE
  8
_7-8_
  6
CONTINUOUS
 62
    7
 10
317.38786820901395
 20
114.28857135229831
 11
317.38786820901395
 21
112.93857135229832
  0
LINE
  8
_7-8_
  6
CONTINUOUS
 62
    7
 10
316.13786820901395
 20
114.90938127665164
 11
316.13786820901395
 21
114.28857135229831
  0
ARC
  8
_7-8_
  6
CONTINUOUS
 62
    7
 10
316.28786820901393
 20
114.5385713522983
 40
0.3999999999999914
 50
90
 51
270
  0
LINE
  8
_7-8_
  6
CONTINUOUS
 62
    7
 10
317.38786820901395
 20
114.28857135229831
 11
316.13786820901395
 21
114.28857135229831
  0
LINE
  8
_7-8_
  6
CONTINUOUS
 62
    7
 10
317.1378682090139
 20
114.08857135229831
 11
317.28786820901387
 21
113.93857135229831
  0
ARC
  8
_7-8_
  6
CONTINUOUS
 62
    7
 10
317.03786820901387
 20
113.43857135229831
 40
0.25
 50
270
 51
0
  0
LINE
  8
_7-8_
  6
CONTINUOUS
 62
    7
 10
317.28786820901382
 20
113.93857135229835
 11
317.28786820901387
 21
113.43857135229831
  0
LINE
  8
_7-8_
  6
CONTINUOUS
 62
    7
 10
317.13786820901395
 20
113.53857135229831
 11
316.302081771387
 21
113.53857135229831
  0
LINE
  8
_7-8_
  6
CONTINUOUS
 62
    7
 10
317.13786820901395
 20
114.13857135229831
 11
316.28786820901393
 21
114.13857135229831
  0
LINE
  8
_7-8_
  6
CONTINUOUS
 62
    7
 10
317.13786820901395
 20
114.13857135229831
 11
317.13786820901395
 21
113.53857135229831
  0
LINE
  8
_7-8_
  6
CONTINUOUS
 62
    7
 10
315.58786820901394
 20
113.18857135229832
 11
317.03786820901387
 21
113.18857135229832
  0
LINE
  8
_7-8_
  6
CONTINUOUS
 62
    7
 10
322.38786820901395
 20
115.53857135229831
 11
322.38786820901395
 21
112.93857135229832
  0
LINE
  8
_7-8_
  6
CONTINUOUS
 62
    7
 10
319.88786820901395
 20
115.53857135229831
 11
319.88786820901395
 21
112.93857135229832
  0
LINE
  8
_7-8_
  6
CONTINUOUS
 62
    7
 10
329.1378682090139
 20
115.43857135229832
 11
327.6378682090139
 21
115.43857135229832
  0
LINE
  8
_7-8_
  6
CONTINUOUS
 62
    7
 10
324.88786820901395
 20
114.28857135229831
 11
324.88786820901395
 21
112.93857135229832
  0
LINE
  8
_7-8_
  6
CONTINUOUS
 62
    7
 10
325.13786820901395
 20
113.53857135229831
 11
325.97365464664079
 21
113.53857135229831
  0
LINE
  8
_7-8_
  6
CONTINUOUS
 62
    7
 10
324.88786820901395
 20
114.28857135229831
 11
326.13786820901395
 21
114.28857135229831
  0
LINE
  8
_7-8_
  6
CONTINUOUS
 62
    7
 10
325.13786820901395
 20
114.13857135229831
 11
325.98786820901392
 21
114.13857135229831
  0
LINE
  8
_7-8_
  6
CONTINUOUS
 62
    7
 10
326.68786820901391
 20
113.18857135229832
 11
325.23786820901392
 21
113.18857135229832
  0
LINE
  8
_7-8_
  6
CONTINUOUS
 62
    7
 10
325.13786820901395
 20
114.13857135229831
 11
325.13786820901395
 21
113.53857135229831
  0
LINE
  8
_7-8_
  6
CONTINUOUS
 62
    7
 10
324.98786820901392
 20
113.93857135229835
 11
324.98786820901392
 21
113.43857135229831
  0
ARC
  8
_7-8_
  6
CONTINUOUS
 62
    7
 10
325.23786820901392
 20
113.43857135229831
 40
0.25
 50
180
 51
270
  0
LINE
  8
_7-8_
  6
CONTINUOUS
 62
    7
 10
325.13786820901395
 20
114.08857135229831
 11
324.98786820901392
 21
113.93857135229831
  0
LINE
  8
_7-8_
  6
CONTINUOUS
 62
    7
 10
326.13786820901395
 20
114.90938127665408
 11
326.13786820901395
 21
114.28857135229831
  0
ARC
  8
_7-8_
  6
CONTINUOUS
 62
    7
 10
325.98786820901392
 20
114.5385713522983
 40
1
 50
323.13010235424587
 51
89.999999999999971
  0
ARC
  8
_7-8_
  6
CONTINUOUS
 62
    7
 10
325.98786820901392
 20
114.5385713522983
 40
0.3999999999999914
 50
270
 51
90
  0
LINE
  8
_7-8_
  6
CONTINUOUS
 62
    7
 10
326.68076142782734
 20
113.83146457111179
 11
326.78786820901501
 21
113.93857135229944
  0
LINE
  8
_7-8_
  6
CONTINUOUS
 62
    7
 10
326.77650457265031
 20
113.92720771593475
 11
326.68786820901391
 21
113.18857135229832
  0
LINE
  8
_7-8_
  6
CONTINUOUS
 62
    7
 10
327.38786820901395
 20
115.68857135229832
 11
326.98786820901392
 21
115.68857135229832
  0
LINE
  8
_7-8_
  6
CONTINUOUS
 62
    7
 10
326.98786820901392
 20
115.68857135229832
 11
326.89925445740283
 21
114.95012342220583
  0
LINE
  8
_7-8_
  6
CONTINUOUS
 62
    7
 10
327.38786820901395
 20
115.68857135229832
 11
327.6378682090139
 21
115.43857135229835
  0
ARC
  8
_7-8_
  6
CONTINUOUS
 62
    7
 10
325.97365464664079
 20
114.5385713522983
 40
1
 50
270
 51
315.00000000000068
  0
LINE
  8
_7-8_
  6
CONTINUOUS
 62
    7
 10
329.962868209014
 20
114.81357135229832
 11
329.17333900332624
 21
114.81357135229832
  0
ARC
  8
_7-8_
  6
CONTINUOUS
 62
    7
 10
331.1378682090139
 20
115.18857135229833
 40
2
 50
190.8069228748603
 51
253.39845040097986
  0
ARC
  8
_7-8_
  6
CONTINUOUS
 62
    7
 10
330.6378682090139
 20
113.51152036917348
 40
0.25
 50
253.39845040098072
 51
0.0000000000000127
  0
LINE
  8
_7-8_
  6
CONTINUOUS
 62
    7
 10
329.96286820901389
 20
115.43857135229832
 11
329.962868209014
 21
114.81357135229832
  0
LINE
  8
_7-8_
  6
CONTINUOUS
 62
    7
 10
330.3878682090139
 20
115.43857135229832
 11
329.96286820901389
 21
115.43857135229832
  0
LINE
  8
_7-8_
  6
CONTINUOUS
 62
    7
 10
312.63786820901395
 20
130.18857135229831
 11
329.6378682090139
 21
130.18857135229831
  0
ARC
  8
_7-8_
  6
CONTINUOUS
 62
    7
 10
312.03786820901387
 20
116.53857135229831
 40
0.1499999999999914
 50
59.931752263272656
 51
180
  0
ARC
  8
_7-8_
  6
CONTINUOUS
 62
    7
 10
312.63786820901395
 20
128.93857135229831
 40
1.25
 50
90
 51
180
  0
ARC
  8
_7-8_
  6
CONTINUOUS
 62
    7
 10
323.69386139990541
 20
123.43857135229829
 40
0.5
 50
6.7889745744388223
 51
89.999999999999587
  0
LINE
  8
_7-8_
  6
CONTINUOUS
 62
    7
 10
318.58187501812238
 20
123.93857135229833
 11
323.69386139990541
 21
123.93857135229829
  0
ARC
  8
_7-8_
  6
CONTINUOUS
 62
    7
 10
318.58187501812238
 20
123.43857135229833
 40
0.5
 50
90
 51
173.21102542556118
  0
ARC
  8
_7-8_
  6
CONTINUOUS
 62
    7
 10
330.23786820901392
 20
116.53857135229831
 40
0.1499999999999914
 50
0
 51
120.0682477367273
  0
ARC
  8
_7-8_
  6
CONTINUOUS
 62
    7
 10
329.6378682090139
 20
128.93857135229831
 40
1.25
 50
0
 51
90
  0
ARC
  8
_7-8_
  6
CONTINUOUS
 62
    7
 10
318.88786820901395
 20
124.68857135229829
 40
0.5
 50
90
 51
162.54239687617479
  0
LINE
  8
_7-8_
  6
CONTINUOUS
 62
    7
 10
312.63786820901395
 20
129.43857135229831
 11
329.6378682090139
 21
129.43857135229831
  0
LINE
  8
_7-8_
  6
CONTINUOUS
 62
    7
 10
312.13786820901395
 20
128.93857135229831
 11
312.13786820901395
 21
121.43857135229829
  0
LINE
  8
_7-8_
  6
CONTINUOUS
 62
    7
 10
312.63786820901395
 20
120.93857135229829
 11
316.88786820901395
 21
120.93857135229829
  0
ARC
  8
_7-8_
  6
CONTINUOUS
 62
    7
 10
312.63786820901395
 20
121.43857135229829
 40
0.5
 50
180
 51
270
  0
LINE
  8
_7-8_
  6
CONTINUOUS
 62
    7
 10
317.37160154234726
 20
121.30357135229829
 11
318.06837013951587
 21
123.67891884264599
  0
ARC
  8
_7-8_
  6
CONTINUOUS
 62
    7
 10
316.88786820901395
 20
121.43857135229829
 40
0.5
 50
270
 51
344.33573314863178
  0
LINE
  8
_7-8_
  6
CONTINUOUS
 62
    7
 10
318.06835905458393
 20
123.67883755314488
 11
318.40853487568057
 21
124.83857135229828
  0
ARC
  8
_7-8_
  6
CONTINUOUS
 62
    7
 10
312.63786820901395
 20
128.93857135229831
 40
0.5
 50
90
 51
180
  0
LINE
  8
_7-8_
  6
CONTINUOUS
 62
    7
 10
329.6378682090139
 20
120.93857135229829
 11
325.38786820901395
 21
120.93857135229829
  0
LINE
  8
_7-8_
  6
CONTINUOUS
 62
    7
 10
323.38786820901395
 20
125.18857135229829
 11
321.13786820901395
 21
125.18857135229829
  0
LINE
  8
_7-8_
  6
CONTINUOUS
 62
    7
 10
318.88786820901395
 20
125.18857135229829
 11
321.13786820901395
 21
125.18857135229829
  0
LINE
  8
_7-8_
  6
CONTINUOUS
 62
    7
 10
324.90413487568071
 20
121.30357135229829
 11
324.20736627851198
 21
123.67891884264629
  0
ARC
  8
_7-8_
  6
CONTINUOUS
 62
    7
 10
325.38786820901395
 20
121.43857135229829
 40
0.5
 50
195.66426685136801
 51
270
  0
LINE
  8
_7-8_
  6
CONTINUOUS
 62
    7
 10
324.20737736344398
 20
123.6788375531446
 11
323.86720154234734
 21
124.83857135229828
  0
ARC
  8
_7-8_
  6
CONTINUOUS
 62
    7
 10
323.38786820901395
 20
124.68857135229829
 40
0.5
 50
17.45760312382519
 51
90
  0
LINE
  8
_7-8_
  6
CONTINUOUS
 62
    7
 10
330.1378682090139
 20
128.93857135229831
 11
330.1378682090139
 21
121.43857135229829
  0
ARC
  8
_7-8_
  6
CONTINUOUS
 62
    7
 10
329.6378682090139
 20
121.43857135229829
 40
0.5
 50
270
 51
0
  0
ARC
  8
_7-8_
  6
CONTINUOUS
 62
    7
 10
329.6378682090139
 20
128.93857135229831
 40
0.5
 50
0
 51
90
  0
LINE
  8
_7-8_
  6
CONTINUOUS
 62
    7
 10
323.3878434590365
 20
125.4386236022508
 11
321.13786820901395
 21
125.43862360225074
  0
LINE
  8
_7-8_
  6
CONTINUOUS
 62
    7
 10
312.63796170892891
 20
129.18858235228827
 11
329.63777470909894
 21
129.18858235228827
  0
LINE
  8
_7-8_
  6
CONTINUOUS
 62
    7
 10
323.3878434590365
 20
125.18862635224829
 11
321.13786820901395
 21
125.18862635224824
  0
LINE
  8
_7-8_
  6
CONTINUOUS
 62
    7
 10
312.63796170892891
 20
129.43857960229078
 11
329.63777470909894
 21
129.43857960229078
  0
CIRCLE
  8
_7-8_
  6
CONTINUOUS
 62
    7
 10
321.13786820901395
 20
127.5386005022718
 40
1.2499862500125
  0
LINE
  8
_7-8_
  6
CONTINUOUS
 62
    7
 10
312.38796445892643
 20
128.93858510228579
 11
312.38796445892643
 21
121.43866760221075
  0
LINE
  8
_7-8_
  6
CONTINUOUS
 62
    7
 10
312.13796720892401
 20
128.93858510228579
 11
312.13796720892401
 21
121.43866760221075
  0
LINE
  8
_7-8_
  6
CONTINUOUS
 62
    7
 10
314.64859333608723
 20
121.1886703522083
 11
316.8879149589714
 21
121.1886703522083
  0
LINE
  8
_7-8_
  6
CONTINUOUS
 62
    7
 10
314.64859333608723
 20
120.93867310220579
 11
316.8879149589714
 21
120.93867310220579
  0
LINE
  8
_7-8_
  6
CONTINUOUS
 62
    7
 10
312.63796170892891
 20
121.1886703522083
 11
314.64859333608723
 21
121.1886703522083
  0
LINE
  8
_7-8_
  6
CONTINUOUS
 62
    7
 10
312.63796170892891
 20
120.93867310220574
 11
314.64859333608723
 21
120.93867310220579
  0
ARC
  8
_7-8_
  6
CONTINUOUS
 62
    7
 10
312.63796170892891
 20
121.43866760221075
 40
0.2499972500025
 50
180
 51
270
  0
ARC
  8
_7-8_
  6
CONTINUOUS
 62
    7
 10
312.63796170892891
 20
121.43866760221075
 40
0.499994500005
 50
180
 51
270
  0
LINE
  8
_7-8_
  6
CONTINUOUS
 62
    7
 10
317.13175336464263
 20
121.37403670514549
 11
318.16867529171969
 21
124.90899782018084
  0
LINE
  8
_7-8_
  6
CONTINUOUS
 62
    7
 10
317.37164297124292
 20
121.30366908720944
 11
318.06835905458393
 21
123.67883755314488
  0
LINE
  8
_7-8_
  6
CONTINUOUS
 62
    7
 10
318.33445716311746
 20
124.58599019587265
 11
318.40856489831986
 21
124.83863020224478
  0
ARC
  8
_7-8_
  6
CONTINUOUS
 62
    7
 10
316.8879149589714
 20
121.43866760221079
 40
0.2499972500025
 50
270
 51
344.33573314863178
  0
ARC
  8
_7-8_
  6
CONTINUOUS
 62
    7
 10
316.8879149589714
 20
121.43866760221079
 40
0.499994500005
 50
270
 51
344.33573314863178
  0
ARC
  8
_7-8_
  6
CONTINUOUS
 62
    7
 10
318.88789295899135
 20
124.6886318522433
 40
0.7499917500074995
 50
90
 51
162.54239687617479
  0
ARC
  8
_7-8_
  6
CONTINUOUS
 62
    7
 10
318.88789295899135
 20
124.6886318522433
 40
0.499994500005
 50
90
 51
162.54239687617479
  0
LINE
  8
_7-8_
  6
CONTINUOUS
 62
    7
 10
318.88789295899135
 20
125.4386236022508
 11
321.13786820901395
 21
125.43862360225074
  0
LINE
  8
_7-8_
  6
CONTINUOUS
 62
    7
 10
318.88789295899135
 20
125.18862635224829
 11
321.13786820901395
 21
125.18862635224824
  0
ARC
  8
_7-8_
  6
CONTINUOUS
 62
    7
 10
312.63796170892891
 20
128.93858510228579
 40
0.2499972500025
 50
90
 51
180
  0
ARC
  8
_7-8_
  6
CONTINUOUS
 62
    7
 10
312.63796170892891
 20
128.93858510228579
 40
0.499994500005
 50
90
 51
180
  0
LINE
  8
_7-8_
  6
CONTINUOUS
 62
    7
 10
329.88777195910137
 20
128.93858510228579
 11
329.88777195910137
 21
121.43866760221075
  0
LINE
  8
_7-8_
  6
CONTINUOUS
 62
    7
 10
330.13776920910385
 20
128.93858510228579
 11
330.13776920910385
 21
121.43866760221075
  0
LINE
  8
_7-8_
  6
CONTINUOUS
 62
    7
 10
327.62714308194045
 20
121.1886703522083
 11
325.38782145905645
 21
121.1886703522083
  0
LINE
  8
_7-8_
  6
CONTINUOUS
 62
    7
 10
327.62714308194045
 20
120.93867310220579
 11
325.38782145905645
 21
120.93867310220579
  0
LINE
  8
_7-8_
  6
CONTINUOUS
 62
    7
 10
325.14398305338517
 20
121.37403670514549
 11
324.10706112630811
 21
124.90899782018084
  0
LINE
  8
_7-8_
  6
CONTINUOUS
 62
    7
 10
324.90409344678488
 20
121.30366908720944
 11
324.20737736344398
 21
123.6788375531446
  0
LINE
  8
_7-8_
  6
CONTINUOUS
 62
    7
 10
323.94127925491045
 20
124.58599019587269
 11
323.86717151970799
 21
124.83863020224478
  0
ARC
  8
_7-8_
  6
CONTINUOUS
 62
    7
 10
325.38782145905645
 20
121.43866760221079
 40
0.2499972500025
 50
195.66426685136801
 51
270
  0
ARC
  8
_7-8_
  6
CONTINUOUS
 62
    7
 10
325.38782145905645
 20
121.43866760221079
 40
0.499994500005
 50
195.66426685136801
 51
270
  0
ARC
  8
_7-8_
  6
CONTINUOUS
 62
    7
 10
323.3878434590365
 20
124.6886318522433
 40
0.7499917500074995
 50
17.45760312382519
 51
90
  0
ARC
  8
_7-8_
  6
CONTINUOUS
 62
    7
 10
323.3878434590365
 20
124.6886318522433
 40
0.499994500005
 50
17.45760312382519
 51
90
  0
ARC
  8
_7-8_
  6
CONTINUOUS
 62
    7
 10
329.63777470909894
 20
121.43866760221075
 40
0.499994500005
 50
270
 51
0
  0
LINE
  8
_7-8_
  6
CONTINUOUS
 62
    7
 10
327.62714308194045
 20
121.1886703522083
 11
329.63777470909894
 21
121.1886703522083
  0
LINE
  8
_7-8_
  6
CONTINUOUS
 62
    7
 10
327.62714308194045
 20
120.93867310220579
 11
329.63777470909894
 21
120.93867310220574
  0
ARC
  8
_7-8_
  6
CONTINUOUS
 62
    7
 10
329.63777470909894
 20
121.43866760221075
 40
0.2499972500025
 50
270
 51
0
  0
ARC
  8
_7-8_
  6
CONTINUOUS
 62
    7
 10
329.63777470909894
 20
128.93858510228579
 40
0.499994500005
 50
0
 51
90
  0
ARC
  8
_7-8_
  6
CONTINUOUS
 62
    7
 10
329.63777470909894
 20
128.93858510228579
 40
0.2499972500025
 50
0
 51
90
  0
LINE
  8
_7-8_
  6
CONTINUOUS
 62
    7
 10
312.38796445892643
 20
127.18860235228829
 11
316.8045869589265
 21
127.18860235228829
  0
LINE
  8
_7-8_
  6
CONTINUOUS
 62
    7
 10
322.3378544256966
 20
127.18860235228829
 11
329.88777195910137
 21
127.18860235228829
  0
LINE
  8
_7-8_
  6
CONTINUOUS
 62
    7
 10
312.63796170892891
 20
129.18858235228827
 11
329.63777470909894
 21
129.18858235228827
  0
LINE
  8
_7-8_
  6
CONTINUOUS
 62
    7
 10
315.7086551978034
 20
122.86451652706979
 11
315.7086551978034
 21
122.30531034603794
  0
LINE
  8
_7-8_
  6
CONTINUOUS
 62
    7
 10
315.45785795660077
 20
122.86304869279369
 11
315.45785795660077
 21
122.30531034603799
  0
LINE
  8
_7-8_
  6
CONTINUOUS
 62
    7
 10
316.23580387251666
 20
122.05451310483549
 11
316.46377940807013
 21
122.86451652706979
  0
LINE
  8
_7-8_
  6
CONTINUOUS
 62
    7
 10
316.23580387251666
 20
122.05451310483549
 11
316.00782833696331
 21
122.86451652706979
  0
LINE
  8
_7-8_
  6
CONTINUOUS
 62
    7
 10
316.11040525191543
 20
121.80371586363294
 11
315.81184281041947
 21
122.86451652706979
  0
LINE
  8
_7-8_
  6
CONTINUOUS
 62
    7
 10
316.72318850016102
 20
122.93488105268534
 11
316.72318850016102
 21
121.43009760547029
  0
LINE
  8
_7-8_
  6
CONTINUOUS
 62
    7
 10
316.36120249311795
 20
121.80371586363294
 11
316.65976493461386
 21
122.86451652706979
  0
LINE
  8
_7-8_
  6
CONTINUOUS
 62
    7
 10
314.73285352240878
 20
122.86451652706979
 11
314.73285352240878
 21
122.30531034603799
  0
LINE
  8
_7-8_
  6
CONTINUOUS
 62
    7
 10
314.98365076361136
 20
122.86451652706979
 11
314.98365076361136
 21
122.30531034603799
  0
LINE
  8
_7-8_
  6
CONTINUOUS
 62
    7
 10
313.52745616621456
 20
122.93488105268534
 11
313.52745616621456
 21
121.43009760547029
  0
LINE
  8
_7-8_
  6
CONTINUOUS
 62
    7
 10
314.22955581330387
 20
122.61511026710994
 11
314.22955581330387
 21
121.80371586363294
  0
LINE
  8
_7-8_
  6
CONTINUOUS
 62
    7
 10
313.97875857210141
 20
122.61511026710994
 11
313.97875857210141
 21
121.80371586363294
  0
LINE
  8
_7-8_
  6
CONTINUOUS
 62
    7
 10
313.52745616621456
 20
121.43009760547029
 11
316.72318850016102
 21
121.43009760547029
  0
LINE
  8
_7-8_
  6
CONTINUOUS
 62
    7
 10
313.52745616621456
 20
121.68089484667279
 11
316.72318850016102
 21
121.68089484667279
  0
ARC
  8
_7-8_
  6
CONTINUOUS
 62
    7
 10
315.23444800481382
 20
122.30531034603799
 40
0.2507972412025081
 50
180
 51
270
  0
ARC
  8
_7-8_
  6
CONTINUOUS
 62
    7
 10
315.23444800481382
 20
122.30531034603799
 40
0.501594482405016
 50
179.9999999999984
 51
270.00000000000329
  0
LINE
  8
_7-8_
  6
CONTINUOUS
 62
    7
 10
313.97875857210141
 20
121.80371586363294
 11
314.22955581330387
 21
121.80371586363294
  0
ARC
  8
_7-8_
  6
CONTINUOUS
 62
    7
 10
315.20706071539831
 20
122.30531034603799
 40
0.501594482405016
 50
271.56438231952307
 51
359.99999999999681
  0
ARC
  8
_7-8_
  6
CONTINUOUS
 62
    7
 10
315.20706071539831
 20
122.30531034603799
 40
0.2507972412025081
 50
273.1299323909468
 51
0.0000000000016411
  0
LINE
  8
_7-8_
  6
CONTINUOUS
 62
    7
 10
316.23580387251666
 20
121.80371586363294
 11
316.11040525191543
 21
121.80371586363294
  0
LINE
  8
_7-8_
  6
CONTINUOUS
 62
    7
 10
316.23580387251666
 20
121.80371586363294
 11
316.36120249311795
 21
121.80371586363294
  0
LINE
  8
_7-8_
  6
CONTINUOUS
 62
    7
 10
316.72318850016102
 20
122.93488105268534
 11
313.52745616621456
 21
122.93488105268534
  0
LINE
  8
_7-8_
  6
CONTINUOUS
 62
    7
 10
314.60575167510774
 20
122.86590750831244
 11
313.60256271029766
 21
122.86590750831244
  0
LINE
  8
_7-8_
  6
CONTINUOUS
 62
    7
 10
313.60256271029766
 20
122.86590750831244
 11
313.60256271029766
 21
122.61511026710994
  0
LINE
  8
_7-8_
  6
CONTINUOUS
 62
    7
 10
313.60256271029766
 20
122.61511026710994
 11
313.97875857210141
 21
122.61511026710994
  0
LINE
  8
_7-8_
  6
CONTINUOUS
 62
    7
 10
314.60575167510774
 20
122.61511026710994
 11
314.22955581330387
 21
122.61511026710994
  0
LINE
  8
_7-8_
  6
CONTINUOUS
 62
    7
 10
314.60575167510774
 20
122.86590750831244
 11
314.60575167510774
 21
122.61511026710994
  0
LINE
  8
_7-8_
  6
CONTINUOUS
 62
    7
 10
314.73285352240878
 20
122.86451652706979
 11
314.98365076361136
 21
122.86451652706979
  0
LINE
  8
_7-8_
  6
CONTINUOUS
 62
    7
 10
315.81184281041947
 20
122.86451652706979
 11
316.00782833696331
 21
122.86451652706979
  0
LINE
  8
_7-8_
  6
CONTINUOUS
 62
    7
 10
315.81184281041947
 20
122.86451652706979
 11
316.00782833696331
 21
122.86451652706979
  0
LINE
  8
_7-8_
  6
CONTINUOUS
 62
    7
 10
315.7086551978034
 20
122.86451652706979
 11
315.45785795660077
 21
122.86451652706979
  0
LINE
  8
_7-8_
  6
CONTINUOUS
 62
    7
 10
315.27545132558475
 20
122.86304869279365
 11
315.38763472906413
 21
122.86304869279365
  0
LINE
  8
_7-8_
  6
CONTINUOUS
 62
    7
 10
315.38763472906413
 20
122.86304869279365
 11
315.38763472906413
 21
122.76142786239464
  0
LINE
  8
_7-8_
  6
CONTINUOUS
 62
    7
 10
315.38763472906413
 20
122.76142786239464
 11
315.27545132558475
 21
122.76142786239464
  0
LINE
  8
_7-8_
  6
CONTINUOUS
 62
    7
 10
315.27545132558475
 20
122.76142786239464
 11
315.27545132558475
 21
122.86304869279365
  0
LINE
  8
_7-8_
  6
CONTINUOUS
 62
    7
 10
315.05474975332646
 20
122.86304869279365
 11
315.16693315680595
 21
122.86304869279365
  0
LINE
  8
_7-8_
  6
CONTINUOUS
 62
    7
 10
315.16693315680595
 20
122.86304869279365
 11
315.16693315680595
 21
122.76142786239464
  0
LINE
  8
_7-8_
  6
CONTINUOUS
 62
    7
 10
315.16693315680595
 20
122.76142786239464
 11
315.05474975332646
 21
122.76142786239464
  0
LINE
  8
_7-8_
  6
CONTINUOUS
 62
    7
 10
315.05474975332646
 20
122.76142786239464
 11
315.05474975332646
 21
122.86304869279365
  0
LINE
  8
_7-8_
  6
CONTINUOUS
 62
    7
 10
316.65976493461386
 20
122.86451652706979
 11
316.46377940807002
 21
122.86451652706979
  0
LINE
  8
_7-8_
  6
CONTINUOUS
 62
    7
 10
316.65976493461386
 20
122.86451652706979
 11
316.46377940807013
 21
122.86451652706979
  0
LINE
  8
_7-8_
  6
CONTINUOUS
 62
    7
 10
313.22128945892637
 20
122.93864485228829
 11
316.8045869589265
 21
122.93864485228829
  0
LINE
  8
_7-8_
  6
CONTINUOUS
 62
    7
 10
312.8879594589265
 20
126.85527235228835
 11
312.8879594589265
 21
123.27197485228829
  0
LINE
  8
_7-8_
  6
CONTINUOUS
 62
    7
 10
317.13791695892643
 20
126.85527235228829
 11
317.13791695892643
 21
123.27197485228829
  0
LINE
  8
_7-8_
  6
CONTINUOUS
 62
    7
 10
319.93788199233131
 20
127.18860235228829
 11
313.22128945892637
 21
127.18860235228829
  0
ARC
  8
_7-8_
  6
CONTINUOUS
 62
    7
 10
313.22128945892637
 20
123.27197485228829
 40
0.33333
 50
180
 51
270
  0
ARC
  8
_7-8_
  6
CONTINUOUS
 62
    7
 10
316.8045869589265
 20
123.27197485228829
 40
0.33333
 50
270
 51
0
  0
ARC
  8
_7-8_
  6
CONTINUOUS
 62
    7
 10
313.22128945892637
 20
126.85527235228835
 40
0.33333
 50
90
 51
180
  0
ARC
  8
_7-8_
  6
CONTINUOUS
 62
    7
 10
316.8045869589265
 20
126.85527235228829
 40
0.33333
 50
0
 51
90
  0
LINE
  8
_7-8_
  6
CONTINUOUS
 62
    7
 10
329.38777745909641
 20
126.85527235228829
 11
329.38777745909641
 21
123.16526634327368
  0
LINE
  8
_7-8_
  6
CONTINUOUS
 62
    7
 10
325.96847521259502
 20
122.83193634327375
 11
329.05444745909636
 21
122.83193634327375
  0
ARC
  8
_7-8_
  6
CONTINUOUS
 62
    7
 10
329.05444745909636
 20
123.16526634327368
 40
0.33333
 50
270
 51
0
  0
ARC
  8
_7-8_
  6
CONTINUOUS
 62
    7
 10
325.97259091569532
 20
126.85527235228829
 40
0.33333
 50
90
 51
180.2473640238893
  0
ARC
  8
_7-8_
  6
CONTINUOUS
 62
    7
 10
329.05444745909636
 20
126.85527235228829
 40
0.33333
 50
0
 51
90
  0
LINE
  8
_7-8_
  6
CONTINUOUS
 62
    7
 10
329.38777745909641
 20
125.82626240255345
 11
329.38777745909641
 21
125.12626940255344
  0
LINE
  8
_7-8_
  6
CONTINUOUS
 62
    7
 10
325.6351483190964
 20
126.85527235228835
 11
325.6351483190964
 21
123.16526634327374
  0
LINE
  8
_7-8_
  6
CONTINUOUS
 62
    7
 10
326.19239275985347
 20
122.80146514614094
 11
327.10911542971308
 21
122.80146514614094
  0
LINE
  8
_7-8_
  6
CONTINUOUS
 62
    7
 10
326.48529409059648
 20
122.51023013923919
 11
326.82237420890197
 21
122.51023013923919
  0
LINE
  8
_7-8_
  6
CONTINUOUS
 62
    7
 10
326.55938735677267
 20
122.29425813652579
 11
326.89646747507811
 21
122.29425813652579
  0
LINE
  8
_7-8_
  6
CONTINUOUS
 62
    7
 10
326.37483049922229
 20
121.99320619884464
 11
326.54441591699088
 21
121.99320619884464
  0
LINE
  8
_7-8_
  6
CONTINUOUS
 62
    7
 10
326.44587919955262
 20
121.51544986295934
 11
326.82657221401603
 21
121.5154498629594
  0
LINE
  8
_7-8_
  6
CONTINUOUS
 62
    7
 10
327.72716319828037
 20
122.80146514614094
 11
328.10553992017531
 21
121.69854739632184
  0
LINE
  8
_7-8_
  6
CONTINUOUS
 62
    7
 10
327.33190469157722
 20
122.80146514614094
 11
327.63725878996615
 21
121.91139861824659
  0
LINE
  8
_7-8_
  6
CONTINUOUS
 62
    7
 10
327.10911542971308
 20
122.80146514614094
 11
327.41446952810196
 21
121.91139861824659
  0
LINE
  8
_7-8_
  6
CONTINUOUS
 62
    7
 10
326.82237420890197
 20
122.51023013923919
 11
326.89646747507811
 21
122.29425813652579
  0
LINE
  8
_7-8_
  6
CONTINUOUS
 62
    7
 10
326.48529409059648
 20
122.51023013923919
 11
326.55938735677267
 21
122.29425813652579
  0
LINE
  8
_7-8_
  6
CONTINUOUS
 62
    7
 10
326.06163499498825
 20
122.61836761277849
 11
326.24407273435696
 21
122.08658590068219
  0
LINE
  8
_7-8_
  6
CONTINUOUS
 62
    7
 10
326.44587919955262
 20
121.51544986295934
 11
326.54441591699088
 21
121.99320619884464
  0
LINE
  8
_7-8_
  6
CONTINUOUS
 62
    7
 10
326.8264865141956
 20
121.5154498629594
 11
326.92502323163381
 21
121.99320619884464
  0
LINE
  8
_7-8_
  6
CONTINUOUS
 62
    7
 10
327.33190469157722
 20
122.80146514614094
 11
327.72716319828037
 21
122.80146514614094
  0
LINE
  8
_7-8_
  6
CONTINUOUS
 62
    7
 10
327.41446952810196
 20
121.91139861824659
 11
327.63725878996615
 21
121.91139861824659
  0
LINE
  8
_7-8_
  6
CONTINUOUS
 62
    7
 10
326.92502323163381
 20
121.99320619884464
 11
326.99974901653365
 21
121.99320619884464
  0
LINE
  8
_7-8_
  6
CONTINUOUS
 62
    7
 10
326.99974901653348
 20
121.99320619884464
 11
327.16365233232158
 21
121.5154498629594
  0
ARC
  8
_7-8_
  6
CONTINUOUS
 62
    7
 10
327.97478215531009
 20
121.65368848055939
 40
0.1382386176
 50
270
 51
18.93549763382947
  0
ARC
  8
_7-8_
  6
CONTINUOUS
 62
    7
 10
326.37483049922229
 20
122.13144481644465
 40
0.1382386176
 50
198.93549763382941
 51
270
  0
ARC
  8
_7-8_
  6
CONTINUOUS
 62
    7
 10
326.19239275985347
 20
122.66322652854094
 40
0.1382386176
 50
90
 51
198.93549763382941
  0
ARC
  8
_7-8_
  6
CONTINUOUS
 62
    7
 10
325.96847521259502
 20
123.16526634327368
 40
0.33333
 50
180
 51
270
  0
LINE
  8
_7-8_
  6
CONTINUOUS
 62
    7
 10
325.8768550627459
 20
121.96095955877774
 11
325.8768550627459
 21
121.88640857603364
  0
LINE
  8
_7-8_
  6
CONTINUOUS
 62
    7
 10
326.00040554254309
 20
121.97351384741278
 11
326.00040554254309
 21
121.88640857603364
  0
LINE
  8
_7-8_
  6
CONTINUOUS
 62
    7
 10
325.7890691975009
 20
121.51544986295934
 11
325.8768550627459
 21
121.51544986295934
  0
LINE
  8
_7-8_
  6
CONTINUOUS
 62
    7
 10
325.78906919749948
 20
122.09441512283575
 11
325.87685506274448
 21
122.09441512283575
  0
ARC
  8
_7-8_
  6
CONTINUOUS
 62
    7
 10
325.78809286195405
 20
121.97446910923133
 40
0.1199499871224912
 50
89.533634598998816
 51
180.4562988922353
  0
ARC
  8
_7-8_
  6
CONTINUOUS
 62
    7
 10
325.87597610810826
 20
121.96993740377884
 40
0.1244808222292334
 50
1.6463847780589009
 51
89.595433187023644
  0
ARC
  8
_7-8_
  6
CONTINUOUS
 62
    7
 10
325.83355618109561
 20
121.9489747914973
 40
0.044926916196476
 50
15.471642071272839
 51
171.9752330664339
  0
LINE
  8
_7-0_
  6
CONTINUOUS
 62
    7
 10
308.26286820901395
 20
125.28857135229834
 11
308.26286820901395
 21
121.28857135229834
  0
LINE
  8
_7-0_
  6
CONTINUOUS
 62
    7
 10
311.38786820901395
 20
125.28857135229834
 11
308.26286820901395
 21
125.28857135229834
  0
LINE
  8
_7-0_
  6
CONTINUOUS
 62
    7
 10
308.26286820901395
 20
121.28857135229834
 11
311.38786820901395
 21
121.28857135229834
  0
LINE
  8
_7-0_
  6
CONTINUOUS
 62
    7
 10
302.10203230089757
 20
122.58857135229834
 11
308.26286820901395
 21
122.58857135229834
  0
LINE
  8
_7-0_
  6
CONTINUOUS
 62
    7
 10
302.10203230089757
 20
123.98857135229835
 11
308.26286820901395
 21
123.98857135229835
  0
LINE
  8
_7-0_
  6
CONTINUOUS
 62
    7
 10
302.10203230089757
 20
125.11593015689376
 11
302.10203230089757
 21
121.46121254770292
  0
LINE
  8
_7-1_
  6
CONTINUOUS
 62
   18
 10
339.86984921833351
 20
113.18857135229832
 11
339.86984921833351
 21
130.18857135229831
  0
LINE
  8
_7-1_
  6
CONTINUOUS
 62
   18
 10
339.86984921833351
 20
113.18857135229832
 11
339.4816206506797
 21
114.63746009173192
  0
LINE
  8
_7-1_
  6
CONTINUOUS
 62
   18
 10
339.86984921833351
 20
113.18857135229832
 11
340.25807778598726
 21
114.63746009173192
  0
LINE
  8
_7-1_
  6
CONTINUOUS
 62
   18
 10
339.86984921833351
 20
130.18857135229831
 11
340.25807778598726
 21
128.73968261286469
  0
LINE
  8
_7-1_
  6
CONTINUOUS
 62
   18
 10
339.86984921833351
 20
130.18857135229831
 11
339.4816206506797
 21
128.73968261286469
  0
LINE
  8
_7-1_
  6
CONTINUOUS
 62
   18
 10
340.36984921833351
 20
113.18857135229832
 11
331.69515055469474
 21
113.18857135229832
  0
LINE
  8
_7-1_
  6
CONTINUOUS
 62
   18
 10
340.36984921833351
 20
130.18857135229831
 11
331.69515055469474
 21
130.18857135229831
  0
TEXT
  8
_7-1_
 62
    7
 10
339.36984921833351
 20
119.56357135229831
 40
4
 41
1
 50
90
  1
34
  0
ARC
  8
_7-0_
  6
CONTINUOUS
 62
    7
 10
287.7326506902973
 20
124.20225075459606
 40
1.0848100501831006
 50
122.62170014023206
 51
237.37829985976796
  0
ARC
  8
_7-0_
  6
CONTINUOUS
 62
    7
 10
286.56303058993108
 20
122.37489195000063
 40
1.0848100501831006
 50
302.62170014023206
 51
57.378299859767878
  0
ARC
  8
_7-0_
  6
CONTINUOUS
 62
    7
 10
288.76232629403119
 20
124.20225075459606
 40
1.0848100501831006
 50
122.62170014023206
 51
237.37829985976796
  0
ARC
  8
_7-0_
  6
CONTINUOUS
 62
    7
 10
287.59270619366498
 20
122.37489195000063
 40
1.0848100501831006
 50
302.62170014023206
 51
57.378299859767878
  0
LINE
  8
_7-0_
  6
CONTINUOUS
 62
    7
 10
260.53437362615517
 20
125.11593015689376
 11
287.14784064011416
 21
125.11593015689376
  0
LINE
  8
_7-0_
  6
CONTINUOUS
 62
    7
 10
288.17751624384811
 20
125.11593015689376
 11
302.10203230089757
 21
125.11593015689376
  0
LINE
  8
_7-0_
  6
CONTINUOUS
 62
    7
 10
302.10203230089757
 20
121.46121254770292
 11
288.17751624384811
 21
121.46121254770292
  0
LINE
  8
_7-0_
  6
CONTINUOUS
 62
    7
 10
287.14784064011416
 20
121.46121254770292
 11
260.53437362615517
 21
121.46121254770292
  0
ARC
  8
_7-0_
  6
CONTINUOUS
 62
    7
 10
287.7326506902973
 20
203.41697526601103
 40
1.0848100501831006
 50
122.62170014023206
 51
237.37829985976796
  0
ARC
  8
_7-0_
  6
CONTINUOUS
 62
    7
 10
286.56303058993108
 20
201.5896164614156
 40
1.0848100501831006
 50
302.62170014023206
 51
57.378299859767878
  0
ARC
  8
_7-0_
  6
CONTINUOUS
 62
    7
 10
288.76232629403119
 20
203.41697526601103
 40
1.0848100501831006
 50
122.62170014023206
 51
237.37829985976796
  0
ARC
  8
_7-0_
  6
CONTINUOUS
 62
    7
 10
287.59270619366498
 20
201.5896164614156
 40
1.0848100501831006
 50
302.62170014023206
 51
57.378299859767878
  0
LINE
  8
_7-0_
  6
CONTINUOUS
 62
    7
 10
260.53437362615517
 20
204.33065466830873
 11
287.14784064011416
 21
204.33065466830873
  0
LINE
  8
_7-0_
  6
CONTINUOUS
 62
    7
 10
288.17751624384811
 20
204.33065466830873
 11
302.10203230089757
 21
204.33065466830873
  0
LINE
  8
_7-1_
  6
CONTINUOUS
 62
   18
 10
259.1843736261552
 20
233.50584112149533
 11
257.73548488672162
 21
233.11761255384152
  0
LINE
  8
_7-1_
  6
CONTINUOUS
 62
   18
 10
259.1843736261552
 20
233.50584112149533
 11
257.73548488672162
 21
233.89406968914909
  0
LINE
  8
_7-1_
  6
CONTINUOUS
 62
   18
 10
259.1843736261552
 20
234.00584112149533
 11
259.1843736261552
 21
221.74599719407808
  0
LINE
  8
_7-1_
  6
CONTINUOUS
 62
   18
 10
259.1843736261552
 20
233.50584112149533
 11
311.38786820901395
 21
233.50584112149533
  0
LINE
  8
_7-1_
  6
CONTINUOUS
 62
   18
 10
259.1843736261552
 20
233.50584112149533
 11
260.63326236558879
 21
233.89406968914909
  0
LINE
  8
_7-1_
  6
CONTINUOUS
 62
   18
 10
259.1843736261552
 20
233.50584112149533
 11
260.63326236558879
 21
233.11761255384152
  0
LINE
  8
_7-1_
  6
CONTINUOUS
 62
   18
 10
311.38786820901395
 20
233.50584112149533
 11
309.93897946958031
 21
233.11761255384152
  0
LINE
  8
_7-1_
  6
CONTINUOUS
 62
   18
 10
311.38786820901395
 20
233.50584112149533
 11
309.93897946958031
 21
233.89406968914909
  0
LINE
  8
_7-1_
  6
CONTINUOUS
 62
   18
 10
311.38786820901395
 20
233.50584112149533
 11
330.88786820901395
 21
233.50584112149533
  0
LINE
  8
_7-1_
  6
CONTINUOUS
 62
   18
 10
311.38786820901395
 20
233.50584112149533
 11
312.83675694844754
 21
233.89406968914909
  0
LINE
  8
_7-1_
  6
CONTINUOUS
 62
   18
 10
311.38786820901395
 20
233.50584112149533
 11
312.83675694844754
 21
233.11761255384152
  0
LINE
  8
_7-1_
  6
CONTINUOUS
 62
   18
 10
330.88786820901395
 20
233.50584112149533
 11
329.43897946958031
 21
233.11761255384152
  0
LINE
  8
_7-1_
  6
CONTINUOUS
 62
   18
 10
330.88786820901395
 20
233.50584112149533
 11
329.43897946958031
 21
233.89406968914909
  0
TEXT
  8
_7-1_
 62
    7
 10
319.01286820901395
 20
234.00584112149533
 40
4
 41
1
 50
0
  1
39
  0
LINE
  8
_7-1_
  6
CONTINUOUS
 62
   18
 10
272.25587524019562
 20
212.45330081270739
 11
272.25587524019562
 21
207.45330081270739
  0
LINE
  8
_7-1_
  6
CONTINUOUS
 62
   18
 10
272.25587524019562
 20
212.45330081270739
 11
272.25587524019562
 21
214.55330081270744
  0
LINE
  8
_7-1_
  6
CONTINUOUS
 62
   18
 10
272.25587524019562
 20
212.45330081270739
 11
272.64410380784943
 21
211.00441207327378
  0
LINE
  8
_7-1_
  6
CONTINUOUS
 62
   18
 10
272.25587524019562
 20
212.45330081270739
 11
271.86764667254186
 21
211.00441207327378
  0
LINE
  8
_7-1_
  6
CONTINUOUS
 62
   18
 10
272.25587524019562
 20
214.55330081270744
 11
271.86764667254186
 21
216.00218955214103
  0
LINE
  8
_7-1_
  6
CONTINUOUS
 62
   18
 10
272.25587524019562
 20
214.55330081270744
 11
272.64410380784943
 21
216.00218955214103
  0
LINE
  8
_7-1_
  6
CONTINUOUS
 62
   18
 10
272.75587524019562
 20
212.45330081270739
 11
264.03902223993361
 21
212.45330081270739
  0
LINE
  8
_7-1_
  6
CONTINUOUS
 62
   18
 10
272.75587524019562
 20
214.55330081270744
 11
264.03902223993361
 21
214.55330081270744
  0
TEXT
  8
_7-1_
 62
    7
 10
271.75587524019562
 20
217.25330081270743
 40
4
 41
1
 50
90
  1
4.2
  0
LINE
  8
_7-1_
  6
CONTINUOUS
 62
   18
 10
272.25587524019562
 20
214.55330081270744
 11
272.25587524019562
 21
223.75330081270743
  0
LINE
  8
_7-1_
  6
CONTINUOUS
 62
   18
 10
311.38786820901395
 20
234.00584112149533
 11
311.38786820901395
 21
210.01290505721024
  0
LINE
  8
_7-1_
  6
CONTINUOUS
 62
   18
 10
330.88786820901395
 20
234.00584112149533
 11
330.88786820901395
 21
210.01290505721024
  0
LINE
  8
_7-1_
  6
CONTINUOUS
 62
   18
 10
261.43437403391624
 20
180.4062789934602
 11
259.98548529448265
 21
180.01805042580642
  0
LINE
  8
_7-1_
  6
CONTINUOUS
 62
   18
 10
261.43437403391624
 20
180.4062789934602
 11
259.98548529448265
 21
180.79450756111398
  0
LINE
  8
_7-1_
  6
CONTINUOUS
 62
   18
 10
261.43437403391624
 20
179.9062789934602
 11
261.43437403391624
 21
195.91458385191555
  0
LINE
  8
_7-1_
  6
CONTINUOUS
 62
   18
 10
263.43437426791064
 20
101.96780453033423
 11
261.98548552847705
 21
101.57957596268045
  0
LINE
  8
_7-1_
  6
CONTINUOUS
 62
   18
 10
263.43437426791064
 20
101.96780453033423
 11
261.98548552847705
 21
102.35603309798801
  0
LINE
  8
_7-1_
  6
CONTINUOUS
 62
   18
 10
263.43437426791064
 20
101.46780453033423
 11
263.43437426791064
 21
114.12129732298431
  0
LINE
  8
_7-1_
  6
CONTINUOUS
 62
   18
 10
284.01299003476748
 20
204.83276954826177
 11
284.55771926396664
 21
206.23036393393172
  0
LINE
  8
_7-1_
  6
CONTINUOUS
 62
   18
 10
284.01299003476748
 20
204.83276954826177
 11
283.78594219260287
 21
206.31548640503802
  0
LINE
  8
_7-1_
  6
CONTINUOUS
 62
   18
 10
284.01299003476748
 20
204.83276954826177
 11
285.22957989651865
 21
215.86318429480556
  0
TEXT
  8
_7-1_
 62
    7
 10
283.42447663657674
 20
217.01553964554798
 40
4
 41
1
 50
0
  1
③
  0
TEXT
  8
_7-2_
 62
    7
 10
308.28726099993514
 20
66.134578056757746
 40
4
 41
1
 50
0
  1
④
  0
TEXT
  8
_7-2_
 62
    7
 10
308.28726099993514
 20
61.094578285639585
 40
4
 41
1
 50
0
  1
③
  0
TEXT
  8
_7-2_
 62
    7
 10
308.28726099993514
 20
56.054578514521423
 40
4
 41
1
 50
0
  1
②
  0
TEXT
  8
_7-2_
 62
    7
 10
308.28726099993514
 20
51.014578743403262
 40
4
 41
1
 50
0
  1
①
  0
TEXT
  8
_7-2_
 62
    7
 10
313.86094520988967
 20
66.114578171198672
 40
4
 41
1
 50
0
  1
端子台
  0
TEXT
  8
_7-2_
 62
    7
 10
313.86094520988967
 20
61.074578400080497
 40
4
 41
1
 50
0
  1
DC2次側出力線
  0
TEXT
  8
_7-2_
 62
    7
 10
313.86094520988967
 20
56.03457862896235
 40
4
 41
1
 50
0
  1
AC1次側入力線
  0
TEXT
  8
_7-2_
 62
    7
 10
313.86094520988967
 20
50.994578857844174
 40
4
 41
1
 50
0
  1
本体
  0
TEXT
  8
_7-2_
 62
    7
 10
361.43784338267664
 20
61.074578400080497
 40
4
 41
1
 50
0
  1
UL AWG17 1.07m㎡
  0
TEXT
  8
_7-2_
 62
    7
 10
361.43784338267664
 20
66.114578171198672
 40
4
 41
1
 50
0
  1
壬生電機DTK-20×2P
  0
TEXT
  8
_7-2_
 62
    7
 10
361.43784338267664
 20
56.03457862896235
 40
4
 41
1
 50
0
  1
PNCTF 0.75m㎡
  0
TEXT
  8
_7-2_
 62
    7
 10
361.43784338267664
 20
51.051817398201336
 40
4
 41
1
 50
0
  1
ｼﾙﾊﾞｰｱﾙﾏｲﾄ処理
  0
TEXT
  8
_7-2_
 62
    7
 10
322.90477269890072
 20
46.003198242463682
 40
4
 41
1
 50
0
  1
部品名
  0
TEXT
  8
_7-2_
 62
    7
 10
348.69322178529421
 20
46.003198242463682
 40
4
 41
1
 50
0
  1
材質
  0
TEXT
  8
_7-2_
 62
    7
 10
350.69322178529421
 20
56.054578514521423
 40
4
 41
1
 50
0
  1
ー
  0
TEXT
  8
_7-2_
 62
    7
 10
350.69322178529421
 20
61.094578285639585
 40
4
 41
1
 50
0
  1
ー
  0
TEXT
  8
_7-2_
 62
    7
 10
348.69322178529421
 20
66.134578056757746
 40
4
 41
1
 50
0
  1
樹脂
  0
TEXT
  8
_7-2_
 62
    7
 10
377.57571294735157
 20
46.003198242463682
 40
4
 41
1
 50
0
  1
仕様
  0
LINE
  8
_0-0_
  6
CONTINUOUS
 62
    7
 10
22.213590141421036
 20
272.45457753700526
 11
402.2135825120265
 21
272.45457753700526
  0
LINE
  8
_0-0_
  6
CONTINUOUS
 62
    7
 10
22.213590141421036
 20
15.454571814959365
 11
22.213590141421036
 21
272.45457753700526
  0
LINE
  8
_0-0_
  6
CONTINUOUS
 62
    7
 10
402.2135825120265
 20
272.45457753700526
 11
402.2135825120265
 21
15.454571814959365
  0
LINE
  8
_0-0_
  6
CONTINUOUS
 62
    7
 10
402.2135825120265
 20
15.454571814959365
 11
22.213590141421036
 21
15.454571814959365
  0
LINE
  8
_0-0_
  6
CONTINUOUS
 62
    7
 10
357.2135767899806
 20
35.454576583330947
 11
357.2135767899806
 21
15.454571814959365
  0
LINE
  8
_0-0_
  6
CONTINUOUS
 62
    7
 10
357.2135767899806
 20
45.454579086726027
 11
357.2135767899806
 21
35.454576583330947
  0
LINE
  8
_0-0_
  6
CONTINUOUS
 62
    7
 10
352.2135767899806
 20
35.454576583330947
 11
352.2135767899806
 21
15.454571814959365
  0
LINE
  8
_0-0_
  6
CONTINUOUS
 62
    7
 10
317.23655747998304
 20
31.733779998247939
 11
317.23655747998304
 21
28.733783812945205
  0
LINE
  8
_0-0_
  6
CONTINUOUS
 62
    7
 10
317.23655747998304
 20
31.733779998247939
 11
324.23655700314589
 21
33.233779998247939
  0
LINE
  8
_0-0_
  6
CONTINUOUS
 62
    7
 10
324.23655700314589
 20
33.233779998247939
 11
324.23655700314589
 21
27.233779044573623
  0
LINE
  8
_0-0_
  6
CONTINUOUS
 62
    7
 10
317.23655747998304
 20
28.733783812945205
 11
324.23655700314589
 21
27.233779044573623
  0
LINE
  8
_0-0_
  6
CENTER2
 62
    7
 10
326.23652660477705
 20
30.233781905596572
 11
308.23655652630873
 21
30.233781905596572
  0
LINE
  8
_0-0_
  6
CENTER2
 62
    7
 10
312.23652696240492
 20
34.233783812945205
 11
312.23652696240492
 21
26.233780951922256
  0
LINE
  8
_0-0_
  6
CONTINUOUS
 62
    7
 10
352.2135767899806
 20
45.454579086726027
 11
352.2135767899806
 21
15.454571814959365
  0
LINE
  8
_0-0_
  6
CONTINUOUS
 62
    7
 10
382.21357488263197
 20
45.454579086726027
 11
382.21357488263197
 21
35.454576583330947
  0
LINE
  8
_0-0_
  6
CONTINUOUS
 62
    7
 10
387.21360921490736
 20
45.454579086726027
 11
387.21360921490736
 21
35.454576583330947
  0
LINE
  8
_0-0_
  6
CONTINUOUS
 62
    7
 10
327.21360826123304
 20
35.454576583330947
 11
327.21360826123304
 21
25.454573722307998
  0
LINE
  8
_0-0_
  6
CONTINUOUS
 62
    7
 10
332.21357726681776
 20
35.454576583330947
 11
332.21357726681776
 21
25.454573722307998
  0
LINE
  8
_0-0_
  6
CONTINUOUS
 62
    7
 10
342.21360730755873
 20
45.454579086726027
 11
342.21360730755873
 21
35.454576583330947
  0
LINE
  8
_0-0_
  6
CONTINUOUS
 62
    7
 10
337.2135767899806
 20
45.454579086726027
 11
337.2135767899806
 21
35.454576583330947
  0
LINE
  8
_0-0_
  6
CONTINUOUS
 62
    7
 10
327.21360826123304
 20
45.454579086726027
 11
327.21360826123304
 21
35.454576583330947
  0
LINE
  8
_0-0_
  6
CONTINUOUS
 62
    7
 10
322.21357726681776
 20
45.454579086726027
 11
322.21357726681776
 21
35.454576583330947
  0
LINE
  8
_0-0_
  6
CONTINUOUS
 62
    7
 10
312.21357774365492
 20
45.454579086726027
 11
312.21357774365492
 21
35.454576583330947
  0
LINE
  8
_0-0_
  6
CONTINUOUS
 62
    7
 10
402.2135825120265
 20
45.454579086726027
 11
307.2135767899806
 21
45.454579086726027
  0
LINE
  8
_0-0_
  6
CONTINUOUS
 62
    7
 10
402.2135825120265
 20
35.454576583330947
 11
307.2135767899806
 21
35.454576583330947
  0
LINE
  8
_0-0_
  6
CONTINUOUS
 62
    7
 10
402.2135825120265
 20
25.454573722307998
 11
307.2135767899806
 21
25.454573722307998
  0
CIRCLE
  8
_0-0_
  6
CONTINUOUS
 62
    7
 10
312.23652696240492
 20
30.233781905596572
 40
3
  0
CIRCLE
  8
_0-0_
  6
CONTINUOUS
 62
    7
 10
312.23652696240492
 20
30.233781905596572
 40
1.5
  0
TEXT
  8
_0-0_
 62
    7
 10
354.8394312821681
 20
23.580647494021192
 40
3
 41
1
 50
-0.0000025044782034
  1
図番
  7
TATEGAKI
  0
TEXT
  8
_0-0_
 62
    7
 10
354.71668958294935
 20
33.732334162417217
 40
3
 41
1
 50
-0.0000025044782034
  1
品名
  7
TATEGAKI
  0
TEXT
  8
_0-0_
 62
    7
 10
354.79249524701185
 20
43.530579234782024
 40
3
 41
1
 50
-0.0000025044782034
  1
作図
  7
TATEGAKI
  0
TEXT
  8
_0-0_
 62
    7
 10
384.49153279889173
 20
43.468367125216289
 40
3
 41
1
 50
-0.0000025044782034
  1
尺度
  7
TATEGAKI
  0
TEXT
  8
_0-0_
 62
    7
 10
329.78111314404554
 20
33.732334162417217
 40
3
 41
1
 50
-0.0000025044782034
  1
材質
  7
TATEGAKI
  0
TEXT
  8
_0-0_
 62
    7
 10
309.71464490521498
 20
43.449549223604932
 40
3
 41
1
 50
-0.0000025044780613
  1
設計
  7
TATEGAKI
  0
TEXT
  8
_0-0_
 62
    7
 10
324.69724988568373
 20
43.449549223604961
 40
3
 41
1
 50
-0.0000025044782034
  1
製図
  7
TATEGAKI
  0
TEXT
  8
_0-0_
 62
    7
 10
339.67985486615248
 20
43.449549223604961
 40
3
 41
1
 50
-0.0000025044782034
  1
検図
  7
TATEGAKI
  0
TEXT
  8
_0-0_
 62
    7
 10
312.95114564526625
 20
18.359829993670302
 40
4
 41
1
 50
0
  1
ＦＫＫ株式会社
  0
LINE
  8
_0-0_
  6
CONTINUOUS
 62
    7
 10
402.2135825120265
 20
45.454579086726027
 11
307.2135767899806
 21
45.454579086726027
  0
LINE
  8
_0-0_
  6
CONTINUOUS
 62
    7
 10
307.2135767899806
 20
45.454579086726027
 11
307.2135767899806
 21
15.454571814959365
  0
LINE
  8
_0-0_
  6
CONTINUOUS
 62
    7
 10
402.2135825120265
 20
45.454579086726027
 11
307.2135767899806
 21
45.454579086726027
  0
TEXT
  8
_7-3_
 62
    7
 10
391.14633738312409
 20
38.212027522108797
 40
4.0044000000000039
 41
0.999999999999994
 50
0
  1
1:2
  0
TEXT
  8
_7-3_
 62
    7
 10
357.7135767899806
 20
28.44907467388424
 40
4
 41
1
 50
0
  1
JPVO-030024FA-T
  0
TEXT
  8
_7-3_
 62
    3
 10
360.50811527866937
 20
17.293548366962852
 40
6.0066000000000059
 41
0.9999999999999987
 50
0
  1
F1229050
  0
LINE
  8
_7-3_
  6
CONTINUOUS
 62
   18
 10
332.21357726681776
 20
35.454576583330947
 11
352.2135767899806
 21
25.454573722307998
  0
LINE
  8
_7-b_
  6
CONTINUOUS
 62
    7
 10
37.686661265413704
 20
21.939608316091423
 11
132.6866612654137
 21
21.939608316091423
  0
TEXT
  8
_7-b_
 62
    7
 10
38.186661265413704
 20
44.939608316091408
 40
4
 41
1
 50
0
  1
使用環境
  0
LINE
  8
_7-b_
  6
CONTINUOUS
 62
    7
 10
37.686661265413704
 20
44.439608316091408
 11
37.686661265413704
 21
34.439608316091408
  0
LINE
  8
_7-b_
  6
CONTINUOUS
 62
    7
 10
67.686661265413704
 20
44.439608316091408
 11
67.686661265413704
 21
34.439608316091408
  0
TEXT
  8
_7-b_
 62
    7
 10
68.936661265413704
 20
39.939608316091408
 40
4
 41
1
 50
0
  1
動作湿度
  0
LINE
  8
_7-b_
  6
CONTINUOUS
 62
    7
 10
67.686661265413704
 20
44.439608316091408
 11
67.686661265413704
 21
34.439608316091408
  0
LINE
  8
_7-b_
  6
CONTINUOUS
 62
    7
 10
87.686661265413704
 20
44.439608316091408
 11
87.686661265413704
 21
34.439608316091408
  0
LINE
  8
_7-b_
  6
CONTINUOUS
 62
    7
 10
37.686661265413704
 20
44.439608316091408
 11
37.686661265413704
 21
34.439608316091408
  0
LINE
  8
_7-b_
  6
CONTINUOUS
 62
    7
 10
37.686661265413704
 20
44.439608316091408
 11
112.6866612654137
 21
44.439608316091408
  0
LINE
  8
_7-b_
  6
CONTINUOUS
 62
    7
 10
112.6866612654137
 20
44.439608316091408
 11
112.6866612654137
 21
34.439608316091408
  0
LINE
  8
_7-b_
  6
CONTINUOUS
 62
    7
 10
37.686661265413704
 20
34.439608316091408
 11
112.6866612654137
 21
34.439608316091408
  0
LINE
  8
_7-b_
  6
CONTINUOUS
 62
    7
 10
37.686661265413704
 20
39.439608316091408
 11
112.6866612654137
 21
39.439608316091408
  0
TEXT
  8
_7-b_
 62
    7
 10
38.186661265413704
 20
72.439608316091408
 40
4
 41
1
 50
0
  1
電気特性
  0
TEXT
  8
_7-b_
 62
    7
 10
38.186661265413704
 20
27.439608316091423
 40
4
 41
1
 50
0
  1
保護機能
  0
TEXT
  8
_7-b_
 62
    7
 10
39.186661265413704
 20
22.439608316091423
 40
4
 41
1
 50
0
  1
過電圧保護
  0
LINE
  8
_7-b_
  6
CONTINUOUS
 62
    7
 10
37.686661265413704
 20
26.939608316091423
 11
132.6866612654137
 21
26.939608316091423
  0
TEXT
  8
_7-b_
 62
    7
 10
64.186661265413704
 20
22.439608316091423
 40
4
 41
1
 50
0
  1
過負荷保護
  0
TEXT
  8
_7-b_
 62
    7
 10
88.936661265413704
 20
22.439608316091423
 40
4
 41
1
 50
0
  1
短絡保護
  0
TEXT
  8
_7-b_
 62
    7
 10
109.1866612654137
 20
22.439608316091423
 40
4
 41
1
 50
0
  1
過昇温保護
  0
LINE
  8
_7-b_
  6
CONTINUOUS
 62
    7
 10
37.686661265413704
 20
26.939608316091423
 11
37.686661265413704
 21
21.939608316091423
  0
LINE
  8
_7-b_
  6
CONTINUOUS
 62
    7
 10
87.686661265413704
 20
26.939608316091423
 11
87.686661265413704
 21
21.939608316091423
  0
LINE
  8
_7-b_
  6
CONTINUOUS
 62
    7
 10
37.686661265413704
 20
26.939608316091423
 11
37.686661265413704
 21
21.939608316091423
  0
LINE
  8
_7-b_
  6
CONTINUOUS
 62
    7
 10
62.686661265413704
 20
26.939608316091423
 11
62.686661265413704
 21
21.939608316091423
  0
LINE
  8
_7-b_
  6
CONTINUOUS
 62
    7
 10
107.6866612654137
 20
26.939608316091423
 11
107.6866612654137
 21
21.939608316091423
  0
LINE
  8
_7-b_
  6
CONTINUOUS
 62
    7
 10
37.686661265413704
 20
21.939608316091423
 11
132.6866612654137
 21
21.939608316091423
  0
LINE
  8
_7-b_
  6
CONTINUOUS
 62
    7
 10
132.6866612654137
 20
26.939608316091423
 11
132.6866612654137
 21
21.939608316091423
  0
LINE
  8
_7-b_
  6
CONTINUOUS
 62
    7
 10
72.686661265413704
 20
71.939608316091408
 11
72.686661265413704
 21
51.939608316091408
  0
LINE
  8
_7-b_
  6
CONTINUOUS
 62
    7
 10
37.686661265413704
 20
71.939608316091408
 11
37.686661265413704
 21
51.939608316091408
  0
TEXT
  8
_7-b_
 62
    7
 10
50.936661265413704
 20
67.439608316091408
 40
4
 41
1
 50
0
  1
型番
  0
LINE
  8
_7-b_
  6
CONTINUOUS
 62
    7
 10
92.686661265413704
 20
71.939608316091408
 11
92.686661265413704
 21
51.939608316091408
  0
TEXT
  8
_7-b_
 62
    7
 10
73.936661265413704
 20
67.439608316091408
 40
4
 41
1
 50
0
  1
出力電力
  0
TEXT
  8
_7-b_
 62
    7
 10
113.9366612654137
 20
67.439608316091408
 40
4
 41
1
 50
0
  1
出力電流
  0
LINE
  8
_7-b_
  6
CONTINUOUS
 62
    7
 10
112.6866612654137
 20
71.939608316091408
 11
112.6866612654137
 21
51.939608316091408
  0
TEXT
  8
_7-b_
 62
    7
 10
93.936661265413704
 20
67.439608316091408
 40
4
 41
1
 50
0
  1
出力電圧
  0
LINE
  8
_7-b_
  6
CONTINUOUS
 62
    7
 10
132.6866612654137
 20
71.939608316091408
 11
132.6866612654137
 21
51.939608316091408
  0
TEXT
  8
_7-b_
 62
    7
 10
133.9366612654137
 20
67.439608316091408
 40
4
 41
1
 50
0
  1
入力電圧
  0
TEXT
  8
_7-b_
 62
    7
 10
137.1866612654137
 20
59.939608316091408
 40
4
 41
1
 50
0
  1
AC100
  0
TEXT
  8
_7-b_
 62
    7
 10
136.0616612654137
 20
54.939608316091408
 40
4
 41
1
 50
0
  1
～242V
  0
LINE
  8
_7-b_
  6
CONTINUOUS
 62
    7
 10
207.6866612654137
 20
71.939608316091408
 11
207.6866612654137
 21
51.939608316091408
  0
TEXT
  8
_7-b_
 62
    7
 10
189.9366612654137
 20
57.439608316091408
 40
4
 41
1
 50
0
  1
50/60Hz
  0
TEXT
  8
_7-b_
 62
    7
 10
191.1866612654137
 20
67.439608316091408
 40
4
 41
1
 50
0
  1
周波数
  0
LINE
  8
_7-b_
  6
CONTINUOUS
 62
    7
 10
187.6866612654137
 20
71.939608316091408
 11
187.6866612654137
 21
51.939608316091408
  0
LINE
  8
_7-b_
  6
CONTINUOUS
 62
    7
 10
152.6866612654137
 20
71.939608316091408
 11
152.6866612654137
 21
51.939608316091408
  0
LINE
  8
_7-b_
  6
CONTINUOUS
 62
    7
 10
152.6866612654137
 20
61.939608316091408
 11
187.6866612654137
 21
61.939608316091408
  0
LINE
  8
_7-b_
  6
CONTINUOUS
 62
    7
 10
152.6866612654137
 20
56.939608316091408
 11
187.6866612654137
 21
56.939608316091408
  0
LINE
  8
_7-b_
  6
CONTINUOUS
 62
    7
 10
232.6866612654137
 20
71.939608316091408
 11
232.6866612654137
 21
51.939608316091408
  0
TEXT
  8
_7-b_
 62
    7
 10
210.3116612654137
 20
67.439608316091408
 40
4
 41
1
 50
0
  1
効率/力率
  0
TEXT
  8
_7-b_
 62
    7
 10
215.8116612654137
 20
54.939608316091408
 40
4
 41
1
 50
0
  1
0.95
  0
LINE
  8
_7-b_
  6
CONTINUOUS
 62
    7
 10
267.6866612654137
 20
71.939608316091408
 11
267.6866612654137
 21
51.939608316091408
  0
LINE
  8
_7-b_
  6
CONTINUOUS
 62
    7
 10
37.686661265413704
 20
71.939608316091408
 11
267.6866612654137
 21
71.939608316091408
  0
LINE
  8
_7-b_
  6
CONTINUOUS
 62
    7
 10
37.686661265413704
 20
66.939608316091408
 11
267.6866612654137
 21
66.939608316091408
  0
LINE
  8
_7-b_
  6
CONTINUOUS
 62
    7
 10
37.686661265413704
 20
51.939608316091408
 11
267.6866612654137
 21
51.939608316091408
  0
TEXT
  8
_7-b_
 62
    7
 10
241.4366612654137
 20
67.439608316091408
 40
4
 41
1
 50
0
  1
適合規格
  0
TEXT
  8
_7-b_
 62
    7
 10
234.6866612654137
 20
62.439608316091408
 40
4
 41
1
 50
0
  1
電気用品安全法
  0
TEXT
  8
_7-b_
 62
    7
 10
244.6866612654137
 20
57.439608316091408
 40
4
 41
1
 50
0
  1
(PSE)
  0
TEXT
  8
_7-b_
 62
    7
 10
245.8116612654137
 20
52.439608316091408
 40
4
 41
1
 50
0
  1
RoHS
  0
TEXT
  8
_7-b_
 62
    7
 10
63.436661265413704
 20
34.939608316091408
 40
2.5
 41
1
 50
0
  1
※1
  0
TEXT
  8
_7-b_
 62
    7
 10
39.436661265413704
 20
39.939608316091408
 40
4
 41
1
 50
0
  1
使用環境温度
  0
TEXT
  8
_7-b_
 62
    7
 10
104.89550640018022
 20
34.939608316091408
 40
2.5
 41
1
 50
0
  1
※2
  0
TEXT
  8
_7-b_
 62
    7
 10
114.1866612654137
 20
41.771921456776169
 40
3
 41
1
 50
0
  1
※1 正規取り付け方向・ＬＥＤ負荷80％時の使用温度範囲
  0
TEXT
  8
_7-b_
 62
    7
 10
161.4366612654137
 20
67.439608316091408
 40
4
 41
1
 50
0
  1
入力電流
  0
TEXT
  8
_7-b_
 62
    7
 10
38.436661265413732
 20
57.439608316091408
 40
4
 41
1
 50
0
  1
JPVO-030024FA-T
  0
TEXT
  8
_7-b_
 62
    7
 10
79.436661265413675
 20
57.439608316091423
 40
4
 41
1
 50
0
  1
30W
  0
TEXT
  8
_7-b_
 62
    7
 10
97.186661265413704
 20
57.439608316091408
 40
4
 41
1
 50
0
  1
DC24V
  0
TEXT
  8
_7-b_
 62
    7
 10
42.811661265413704
 20
34.939608316091408
 40
4
 41
1
 50
0
  1
-40～55℃
  0
TEXT
  8
_7-b_
 62
    7
 10
215.93666126541373
 20
59.939608316091423
 40
4
 41
1
 50
0
  1
83％
  0
TEXT
  8
_7-b_
 62
    7
 10
155.6866612654137
 20
62.439608316091408
 40
4
 41
1
 50
0
  1
0.35A(AC100V)
  0
TEXT
  8
_7-b_
 62
    7
 10
155.6866612654137
 20
57.439608316091408
 40
4
 41
1
 50
0
  1
0.18A(AC200V)
  0
TEXT
  8
_7-b_
 62
    7
 10
155.6866612654137
 20
52.439608316091408
 40
4
 41
1
 50
0
  1
0.14A(AC242V)
  0
TEXT
  8
_7-b_
 62
    7
 10
68.936661265413704
 20
34.939608316091408
 40
4
 41
1
 50
0
  1
10～90％
  0
TEXT
  8
_7-b_
 62
    7
 10
95.936661265413704
 20
34.939608316091408
 40
4
 41
1
 50
0
  1
75℃
  0
CIRCLE
  8
_7-0_
  6
CONTINUOUS
 62
    7
 10
236.6843736261552
 20
206.90329586371333
 40
1
  0
LINE
  8
_7-1_
  6
CONTINUOUS
 62
   18
 10
236.6843736261552
 20
225.60028168398986
 11
259.1843736261552
 21
225.60028168398986
  0
LINE
  8
_7-1_
  6
CONTINUOUS
 62
   18
 10
236.6843736261552
 20
225.60028168398986
 11
238.13326236558881
 21
225.98851025164364
  0
LINE
  8
_7-1_
  6
CONTINUOUS
 62
   18
 10
236.6843736261552
 20
225.60028168398986
 11
238.13326236558881
 21
225.21205311633607
  0
LINE
  8
_7-1_
  6
CONTINUOUS
 62
   18
 10
259.1843736261552
 20
225.60028168398986
 11
257.73548488672162
 21
225.21205311633607
  0
LINE
  8
_7-1_
  6
CONTINUOUS
 62
   18
 10
259.1843736261552
 20
225.60028168398986
 11
257.73548488672162
 21
225.98851025164364
  0
LINE
  8
_7-1_
  6
CONTINUOUS
 62
   18
 10
259.1843736261552
 20
226.10028168398986
 11
259.1843736261552
 21
221.74599719407808
  0
TEXT
  8
_7-1_
 62
    7
 10
245.8093736261552
 20
226.10028168398986
 40
4
 41
1
 50
0
  1
45
  0
LINE
  8
_7-1_
  6
CONTINUOUS
 62
   18
 10
230.12058913442223
 20
206.90329586371333
 11
230.12058913442223
 21
221.00329586371333
  0
LINE
  8
_7-1_
  6
CONTINUOUS
 62
   18
 10
230.12058913442223
 20
206.90329586371333
 11
229.73236056676844
 21
208.35218460314695
  0
LINE
  8
_7-1_
  6
CONTINUOUS
 62
   18
 10
230.12058913442223
 20
206.90329586371333
 11
230.50881770207598
 21
208.35218460314695
  0
LINE
  8
_7-1_
  6
CONTINUOUS
 62
   18
 10
230.12058913442223
 20
221.00329586371333
 11
230.50881770207598
 21
219.55440712427974
  0
LINE
  8
_7-1_
  6
CONTINUOUS
 62
   18
 10
230.12058913442223
 20
221.00329586371333
 11
229.73236056676844
 21
219.55440712427974
  0
LINE
  8
_7-1_
  6
CONTINUOUS
 62
   18
 10
229.62058913442223
 20
206.90329586371333
 11
234.98455105249365
 21
206.90329586371333
  0
LINE
  8
_7-1_
  6
CONTINUOUS
 62
   18
 10
229.62058913442223
 20
221.00329586371333
 11
234.98455105249365
 21
221.00329586371333
  0
TEXT
  8
_7-1_
 62
    7
 10
229.62058913442223
 20
208.75329586371333
 40
4
 41
1
 50
90
  1
28.2
  0
LINE
  8
_7-1_
  6
CONTINUOUS
 62
   18
 10
236.6843736261552
 20
226.10028168398986
 11
236.6843736261552
 21
208.67369420910122
  0
LINE
  8
_7-1_
  6
CONTINUOUS
 62
   18
 10
236.05138003319066
 20
208.68342213293738
 11
235.2006492021334
 21
209.91883989753711
  0
LINE
  8
_7-1_
  6
CONTINUOUS
 62
   18
 10
236.05138003319066
 20
208.68342213293738
 11
235.93233440401229
 21
210.17869071689597
  0
LINE
  8
_7-1_
  6
CONTINUOUS
 62
   18
 10
236.05138003319066
 20
208.68342213293738
 11
230.59376803567477
 21
224.05090854699528
  0
TEXT
  8
_7-1_
 62
    7
 10
219.05454624858066
 20
225.03669534457156
 40
4
 41
1
 50
0
  1
Tcﾎﾟｲﾝﾄ
  0
TEXT
  8
_7-b_
 62
    7
 10
114.1866612654137
 20
37.771921456776169
 40
3
 41
1
 50
0
  1
※2 周囲を囲ってご使用される場合にはTcポイント75℃以下になる様にご注意ください。
  0
TEXT
  8
_0-0_
 62
    7
 10
312.80075756082493
 20
38.649524635510076
 40
4
 41
1
 50
0
  1
原田
  0
TEXT
  8
_0-0_
 62
    7
 10
327.98929362216568
 20
38.472913751075878
 40
4
 41
1
 50
0
  1
原田
  0
TEXT
  8
_0-0_
 62
    7
 10
345.18880748237199
 20
38.472913751075878
 40
4
 41
1
 50
0
  1
長
  0
TEXT
  8
_7-3_
 62
    7
 10
357.71421074717932
 20
38.929683394683564
 40
3.00330000000001
 41
0.9999999999999976
 50
0
  1
2022年 9月 9日
  0
TEXT
  8
_7-b_
 62
    7
 10
117.1866612654137
 20
57.439608316091408
 40
4
 41
1
 50
0
  1
1.25A
  0
LINE
  8
_7-0_
  6
CONTINUOUS
 62
    7
 10
287.14784064011416
 20
200.67593705911789
 11
260.53437362615517
 21
200.67593705911789
  0
LINE
  8
_7-0_
  6
CONTINUOUS
 62
    7
 10
302.10203230089757
 20
204.33065466830873
 11
302.10203230089757
 21
200.67593705911789
  0
LINE
  8
_7-0_
  6
CONTINUOUS
 62
    7
 10
288.17751624384811
 20
200.67593705911789
 11
302.10203230089757
 21
200.67593705911789
  0
TEXT
  8
_7-1_
 62
    7
 10
322.40091542875654
 20
179.88558544882641
 40
4
 41
1
 50
0
  1
極性表示
  0
LINE
  8
_7-1_
  6
CONTINUOUS
 62
   18
 10
322.26672635164641
 20
198.47441420875287
 11
322.65495491930022
 21
197.02552546931929
  0
LINE
  8
_7-1_
  6
CONTINUOUS
 62
   18
 10
322.26672635164641
 20
198.47441420875287
 11
323.32738652342624
 21
197.41375403697304
  0
LINE
  8
_7-1_
  6
CONTINUOUS
 62
   18
 10
322.26672635164641
 20
198.47441420875287
 11
330.40091542875654
 21
184.38558544882641
  0
LINE
  8
_7-1_
  6
CONTINUOUS
 62
   18
 10
328.73457971220193
 20
209.64734006472284
 11
333.24469446693262
 21
217.45908796788245
  0
TEXT
  8
_7-1_
 62
    7
 10
332.64026096392171
 20
217.87628004600844
 40
4
 41
1
 50
0
  1
④
  0
LINE
  8
_7-1_
  6
CONTINUOUS
 62
   18
 10
328.73457971220193
 20
209.64734006472284
 11
329.79523988398176
 21
210.70800023650267
  0
LINE
  8
_7-1_
  6
CONTINUOUS
 62
   18
 10
328.73457971220193
 20
209.64734006472284
 11
329.12280827985568
 21
211.09622880415645
  0
TEXT
  8
_7-1_
 62
    7
 10
352.59982563548783
 20
200.00329586371333
 40
4
 41
1
 50
90
  1
50
  0
LINE
  8
_7-1_
  6
CONTINUOUS
 62
   18
 10
353.59982563548783
 20
214.62829586371333
 11
327.48295953364487
 21
214.62829586371333
  0
LINE
  8
_7-1_
  6
CONTINUOUS
 62
   18
 10
353.59982563548783
 20
189.62829586371333
 11
327.48295953364487
 21
189.62829586371333
  0
LINE
  8
_7-1_
  6
CONTINUOUS
 62
   18
 10
353.09982563548783
 20
214.62829586371333
 11
352.71159706783402
 21
213.17940712427972
  0
LINE
  8
_7-1_
  6
CONTINUOUS
 62
   18
 10
353.09982563548783
 20
214.62829586371333
 11
353.48805420314158
 21
213.17940712427972
  0
LINE
  8
_7-1_
  6
CONTINUOUS
 62
   18
 10
353.09982563548783
 20
189.62829586371333
 11
353.48805420314158
 21
191.07718460314691
  0
LINE
  8
_7-1_
  6
CONTINUOUS
 62
   18
 10
353.09982563548783
 20
189.62829586371333
 11
352.71159706783402
 21
191.07718460314691
  0
LINE
  8
_7-1_
  6
CONTINUOUS
 62
   18
 10
353.09982563548783
 20
189.62829586371333
 11
353.09982563548783
 21
214.62829586371333
  0
TEXT
  8
_7-1_
 62
    7
 10
345.98483742691064
 20
197.75329586371333
 40
4
 41
1
 50
90
  1
41.5
  0
LINE
  8
_7-1_
  6
CONTINUOUS
 62
   18
 10
346.98483742691064
 20
212.50329586371333
 11
322.81355609229626
 21
212.50329586371333
  0
LINE
  8
_7-1_
  6
CONTINUOUS
 62
   18
 10
346.98483742691064
 20
191.75329586371333
 11
322.81355609229626
 21
191.75329586371333
  0
LINE
  8
_7-1_
  6
CONTINUOUS
 62
   18
 10
346.48483742691064
 20
212.50329586371333
 11
346.09660885925688
 21
211.05440712427972
  0
LINE
  8
_7-1_
  6
CONTINUOUS
 62
   18
 10
346.48483742691064
 20
212.50329586371333
 11
346.87306599456445
 21
211.05440712427972
  0
LINE
  8
_7-1_
  6
CONTINUOUS
 62
   18
 10
346.48483742691064
 20
191.75329586371333
 11
346.87306599456445
 21
193.20218460314691
  0
LINE
  8
_7-1_
  6
CONTINUOUS
 62
   18
 10
346.48483742691064
 20
191.75329586371333
 11
346.09660885925688
 21
193.20218460314691
  0
LINE
  8
_7-1_
  6
CONTINUOUS
 62
   18
 10
346.48483742691064
 20
191.75329586371333
 11
346.48483742691064
 21
212.50329586371333
  0
TEXT
  8
_7-1_
 62
    7
 10
339.36984921833351
 20
200.00329586371333
 40
4
 41
1
 50
90
  1
28
  0
LINE
  8
_7-1_
  6
CONTINUOUS
 62
   18
 10
340.36984921833351
 20
209.12829586371333
 11
331.69515055469474
 21
209.12829586371333
  0
LINE
  8
_7-1_
  6
CONTINUOUS
 62
   18
 10
340.36984921833351
 20
195.12829586371333
 11
331.69515055469474
 21
195.12829586371333
  0
LINE
  8
_7-1_
  6
CONTINUOUS
 62
   18
 10
339.86984921833351
 20
209.12829586371333
 11
339.4816206506797
 21
207.67940712427972
  0
LINE
  8
_7-1_
  6
CONTINUOUS
 62
   18
 10
339.86984921833351
 20
209.12829586371333
 11
340.25807778598726
 21
207.67940712427972
  0
LINE
  8
_7-1_
  6
CONTINUOUS
 62
   18
 10
339.86984921833351
 20
195.12829586371333
 11
340.25807778598726
 21
196.57718460314691
  0
LINE
  8
_7-1_
  6
CONTINUOUS
 62
   18
 10
339.86984921833351
 20
195.12829586371333
 11
339.4816206506797
 21
196.57718460314691
  0
LINE
  8
_7-1_
  6
CONTINUOUS
 62
   18
 10
339.86984921833351
 20
195.12829586371333
 11
339.86984921833351
 21
209.12829586371333
  0
LINE
  8
_7-0_
  6
CONTINUOUS
 62
    7
 10
303.2804763755746
 20
203.90329586371331
 11
302.10203230089757
 21
203.90329586371331
  0
LINE
  8
_7-0_
  6
CONTINUOUS
 62
    7
 10
303.2804763755746
 20
202.50329586371333
 11
302.10203230089757
 21
202.50329586371333
  0
ARC
  8
_7-0_
  6
CONTINUOUS
 62
    7
 10
303.2804763755746
 20
204.40329586371331
 40
1.8999999999999999
 50
270
 51
300.0015052212019
  0
ARC
  8
_7-0_
  6
CONTINUOUS
 62
    7
 10
303.2804763755746
 20
204.40329586371331
 40
0.5
 50
269.99999999999994
 51
300.0015052212019
  0
LINE
  8
_7-0_
  6
CONTINUOUS
 62
    7
 10
303.2804763755746
 20
201.10329586371329
 11
302.10203230089757
 21
201.10329586371329
  0
LINE
  8
_7-0_
  6
CONTINUOUS
 62
    7
 10
303.2804763755746
 20
202.50329586371333
 11
302.10203230089757
 21
202.50329586371333
  0
ARC
  8
_7-0_
  6
CONTINUOUS
 62
    7
 10
303.2804763755746
 20
200.60329586371332
 40
1.8999999999999999
 50
59.998494778798082
 51
90
  0
ARC
  8
_7-0_
  6
CONTINUOUS
 62
    7
 10
303.2804763755746
 20
200.60329586371329
 40
0.5
 50
59.998494778798082
 51
90.000000000000056
  0
LINE
  8
_7-8_
  6
CONTINUOUS
 62
    7
 10
324.01286820901395
 20
197.62829586371333
 11
324.01286820901395
 21
202.12829586371333
  0
LINE
  8
_7-8_
  6
CONTINUOUS
 62
    7
 10
313.26286820901395
 20
197.97827568158061
 11
313.26286820901395
 21
201.97827568158061
  0
ARC
  8
_7-8_
  6
CONTINUOUS
 62
    7
 10
315.51789346218328
 20
200.37327061054384
 40
0.180277563773203
 50
258.69006752598477
 51
11.309932474021422
  0
ARC
  8
_7-8_
  6
CONTINUOUS
 62
    7
 10
316.0128682090139
 20
199.87829586371327
 40
1.7000000000000023
 50
315.00000000000034
 51
135.00000000000034
  0
ARC
  8
_7-8_
  6
CONTINUOUS
 62
    7
 10
316.50784295584452
 20
200.37327061054384
 40
0.180277563773203
 50
168.690067525979
 51
281.30993247401596
  0
ARC
  8
_7-8_
  6
CONTINUOUS
 62
    7
 10
325.76789346218328
 20
200.37327061054384
 40
0.180277563773203
 50
258.69006752598477
 51
11.309932474021422
  0
ARC
  8
_7-8_
  6
CONTINUOUS
 62
    7
 10
326.75784295584452
 20
200.37327061054384
 40
0.180277563773203
 50
168.690067525979
 51
281.30993247401596
  0
ARC
  8
_7-8_
  6
CONTINUOUS
 62
    7
 10
326.26286820901395
 20
199.87829586371327
 40
1.7000000000000023
 50
315.00000000000034
 51
135.00000000000034
  0
LINE
  8
_7-8_
  6
CONTINUOUS
 62
    7
 10
330.88786820901395
 20
208.37829586371333
 11
330.88786820901395
 21
196.87829586371333
  0
LINE
  8
_7-8_
  6
CONTINUOUS
 62
    7
 10
330.38786820901395
 20
195.87829586371333
 11
330.38786820901395
 21
208.37829586371333
  0
LINE
  8
_7-8_
  6
CONTINUOUS
 62
    7
 10
329.01286820901395
 20
197.62829586371333
 11
329.01286820901395
 21
202.12829586371333
  0
ARC
  8
_7-8_
  6
CONTINUOUS
 62
    7
 10
316.0128682090139
 20
199.87829586371327
 40
1.7000000000000023
 50
135.00000000000034
 51
315.00000000000034
  0
LINE
  8
_7-8_
  6
CONTINUOUS
 62
    7
 10
324.26286820901395
 20
202.12829586371333
 11
324.26286820901384
 21
197.62829586371339
  0
LINE
  8
_7-8_
  6
CONTINUOUS
 62
    7
 10
328.26286820901395
 20
197.62829586371333
 11
328.26286820901395
 21
202.12829586371333
  0
ARC
  8
_7-8_
  6
CONTINUOUS
 62
    7
 10
326.26286820901395
 20
199.87829586371327
 40
1.7000000000000023
 50
135.00000000000034
 51
315.00000000000034
  0
LINE
  8
_7-8_
  6
CONTINUOUS
 62
    7
 10
313.26286820901395
 20
197.62829586371333
 11
313.26286820901395
 21
202.12829586371333
  0
LINE
  8
_7-8_
  6
CONTINUOUS
 62
    7
 10
314.01286820901395
 20
197.62829586371333
 11
314.01286820901395
 21
202.12829586371333
  0
LINE
  8
_7-8_
  6
CONTINUOUS
 62
    7
 10
330.88786820901395
 20
197.62829586371333
 11
323.63786820901384
 21
197.62829586371333
  0
LINE
  8
_7-8_
  6
CONTINUOUS
 62
    7
 10
330.88786820901407
 20
195.12829586371333
 11
311.38786820901407
 21
195.12829586371333
  0
LINE
  8
_7-8_
  6
CONTINUOUS
 62
    7
 10
315.38786820901401
 20
194.62829586371333
 11
326.88786820901407
 21
194.62829586371333
  0
LINE
  8
_7-8_
  6
CONTINUOUS
 62
    7
 10
324.13786820901401
 20
195.12829586371333
 11
318.13786820901401
 21
195.12829586371333
  0
LINE
  8
_7-8_
  6
CONTINUOUS
 62
    7
 10
330.88786820901407
 20
195.87829586371333
 11
311.38786820901407
 21
195.87829586371333
  0
LINE
  8
_7-8_
  6
CONTINUOUS
 62
    7
 10
319.13786820901395
 20
197.12829586371333
 11
323.13786820901401
 21
197.12829586371333
  0
CIRCLE
  8
_7-8_
  6
CONTINUOUS
 62
    7
 10
323.88786820901401
 20
191.97829586371329
 40
0.625
  0
LINE
  8
_7-8_
  6
CONTINUOUS
 62
    7
 10
326.88786820901407
 20
194.62829586371333
 11
326.88786820901407
 21
189.62829586371333
  0
LINE
  8
_7-8_
  6
CONTINUOUS
 62
    7
 10
326.88786820901407
 20
189.62829586371333
 11
322.43786820901402
 21
189.62829586371333
  0
LINE
  8
_7-8_
  6
CONTINUOUS
 62
    7
 10
322.43786820901402
 20
189.62829586371333
 11
322.43786820901402
 21
192.12829586371333
  0
LINE
  8
_7-8_
  6
CONTINUOUS
 62
    7
 10
328.26286820901395
 20
198.87829586371327
 11
327.66286820901393
 21
198.87829586371327
  0
LINE
  8
_7-8_
  6
CONTINUOUS
 62
    7
 10
328.26286820901395
 20
198.37829586371327
 11
327.26286820901395
 21
198.37829586371327
  0
LINE
  8
_7-8_
  6
CONTINUOUS
 62
    7
 10
323.13786820901395
 20
196.87829586371333
 11
330.88786820901395
 21
196.87829586371333
  0
LINE
  8
_7-8_
  6
CONTINUOUS
 62
    7
 10
330.88786820901407
 20
195.12829586371333
 11
330.88786820901407
 21
196.87829586371333
  0
LINE
  8
_7-8_
  6
CONTINUOUS
 62
    7
 10
326.13786820901401
 20
195.12829586371333
 11
326.13786820901401
 21
194.62829586371333
  0
LINE
  8
_7-8_
  6
CONTINUOUS
 62
    7
 10
325.13786820901401
 20
194.62829586371333
 11
325.13786820901401
 21
195.12829586371333
  0
LINE
  8
_7-8_
  6
CONTINUOUS
 62
    7
 10
323.63786820901401
 20
194.12829586371333
 11
323.13786820901401
 21
194.62829586371333
  0
LINE
  8
_7-8_
  6
CONTINUOUS
 62
    7
 10
323.63786820901401
 20
194.12829586371333
 11
324.13786820901401
 21
194.62829586371333
  0
LINE
  8
_7-8_
  6
CONTINUOUS
 62
    7
 10
324.13786820901395
 20
194.62829586371333
 11
324.13786820901401
 21
195.12829586371333
  0
LINE
  8
_7-8_
  6
CONTINUOUS
 62
    7
 10
325.73253839316294
 20
200.19673325566429
 11
324.59320438279729
 21
200.19801872405264
  0
LINE
  8
_7-8_
  6
CONTINUOUS
 62
    7
 10
325.73253839316294
 20
199.55985847176231
 11
324.59320438279729
 21
199.5585730033739
  0
LINE
  8
_7-8_
  6
CONTINUOUS
 62
    7
 10
324.26286820901395
 20
198.37829586371333
 11
325.26286820901395
 21
198.37829586371333
  0
LINE
  8
_7-8_
  6
CONTINUOUS
 62
    7
 10
325.76286820901384
 20
197.62829586371327
 11
325.76286820901384
 21
198.22829586371329
  0
LINE
  8
_7-8_
  6
CONTINUOUS
 62
    7
 10
326.76286820901384
 20
197.62829586371327
 11
326.76286820901384
 21
198.22829586371329
  0
LINE
  8
_7-8_
  6
CONTINUOUS
 62
    7
 10
325.94467015748
 20
199.34796577782338
 11
325.94467015748
 21
198.71156967475548
  0
LINE
  8
_7-8_
  6
CONTINUOUS
 62
    7
 10
326.5810662605478
 20
199.34796577782338
 11
326.58106626054791
 21
198.71156967475553
  0
ARC
  8
_7-8_
  6
CONTINUOUS
 62
    7
 10
326.22751286995458
 20
199.84294052465401
 40
0.8544003745317489
 50
272.48955292199889
 51
294.44395478041712
  0
LINE
  8
_7-8_
  6
CONTINUOUS
 62
    7
 10
326.26286820901395
 20
198.71156967475548
 11
326.58106626054791
 21
198.71156967475553
  0
LINE
  8
_7-8_
  6
CONTINUOUS
 62
    7
 10
326.26286820901384
 20
198.71156967475548
 11
325.94467015748
 21
198.71156967475548
  0
ARC
  8
_7-8_
  6
CONTINUOUS
 62
    7
 10
326.29822354807322
 20
199.84294052465395
 40
0.8544003745317489
 50
245.55604521958269
 51
267.51044707800099
  0
ARC
  8
_7-8_
  6
CONTINUOUS
 62
    7
 10
325.76789346218333
 20
199.38332111688271
 40
0.180277563773203
 50
348.69006752598107
 51
101.30993247401767
  0
LINE
  8
_7-8_
  6
CONTINUOUS
 62
    7
 10
326.79319829490384
 20
200.19649391524723
 11
327.92456914480226
 21
200.19649391524723
  0
ARC
  8
_7-8_
  6
CONTINUOUS
 62
    7
 10
326.75784295584452
 20
199.38332111688271
 40
0.180277563773203
 50
78.690067525982243
 51
191.30993247401929
  0
LINE
  8
_7-8_
  6
CONTINUOUS
 62
    7
 10
326.79319802486486
 20
199.55985847176231
 11
327.93253203523056
 21
199.55857300337396
  0
ARC
  8
_7-8_
  6
CONTINUOUS
 62
    7
 10
326.26286820901395
 20
199.87829586371333
 40
0.8732124598286504
 50
338.62937773065721
 51
21.370622269343897
  0
ARC
  8
_7-8_
  6
CONTINUOUS
 62
    7
 10
326.26286820901395
 20
199.87829586371327
 40
0.8732124598286504
 50
158.62937773065635
 51
201.37062226934318
  0
LINE
  8
_7-8_
  6
CONTINUOUS
 62
    7
 10
323.63786820901384
 20
197.62829586371333
 11
323.63786820901384
 21
196.87829586371333
  0
LINE
  8
_7-8_
  6
CONTINUOUS
 62
    7
 10
323.13786820901395
 20
196.87829586371333
 11
323.13786820901395
 21
197.12829586371333
  0
LINE
  8
_7-8_
  6
CONTINUOUS
 62
    7
 10
324.26286820901395
 20
198.87829586371333
 11
324.86286820901392
 21
198.87829586371333
  0
LINE
  8
_7-8_
  6
CONTINUOUS
 62
    7
 10
315.38786820901401
 20
189.62829586371333
 11
315.38786820901401
 21
194.62829586371333
  0
LINE
  8
_7-8_
  6
CONTINUOUS
 62
    7
 10
319.837868209014
 20
189.62829586371333
 11
315.38786820901401
 21
189.62829586371333
  0
LINE
  8
_7-8_
  6
CONTINUOUS
 62
    7
 10
319.837868209014
 20
189.62829586371333
 11
319.837868209014
 21
192.12829586371333
  0
ARC
  8
_7-8_
  6
CONTINUOUS
 62
    7
 10
315.97751286995458
 20
199.84294052465401
 40
0.8544003745317489
 50
272.48955292199889
 51
294.44395478041712
  0
ARC
  8
_7-8_
  6
CONTINUOUS
 62
    7
 10
316.50784295584446
 20
199.38332111688271
 40
0.180277563773203
 50
78.690067525982243
 51
191.30993247401929
  0
LINE
  8
_7-8_
  6
CONTINUOUS
 62
    7
 10
311.38786820901407
 20
196.87829586371333
 11
319.13786820901395
 21
196.87829586371333
  0
LINE
  8
_7-8_
  6
CONTINUOUS
 62
    7
 10
316.51286820901395
 20
197.62829586371327
 11
316.51286820901395
 21
198.22829586371329
  0
LINE
  8
_7-8_
  6
CONTINUOUS
 62
    7
 10
316.54319829490378
 20
200.19649391524723
 11
317.67456914480226
 21
200.19649391524723
  0
LINE
  8
_7-8_
  6
CONTINUOUS
 62
    7
 10
316.54319802486486
 20
199.55985847176231
 11
317.68253203523056
 21
199.55857300337396
  0
LINE
  8
_7-8_
  6
CONTINUOUS
 62
    7
 10
311.38786820901407
 20
195.12829586371333
 11
311.38786820901407
 21
196.87829586371333
  0
LINE
  8
_7-8_
  6
CONTINUOUS
 62
    7
 10
316.13786820901407
 20
195.12829586371333
 11
316.13786820901401
 21
194.62829586371333
  0
LINE
  8
_7-8_
  6
CONTINUOUS
 62
    7
 10
315.51286820901395
 20
197.62829586371327
 11
315.51286820901395
 21
198.22829586371329
  0
LINE
  8
_7-8_
  6
CONTINUOUS
 62
    7
 10
316.33106626054785
 20
199.34796577782338
 11
316.33106626054785
 21
198.71156967475553
  0
LINE
  8
_7-8_
  6
CONTINUOUS
 62
    7
 10
315.69467015748
 20
199.34796577782338
 11
315.69467015748
 21
198.71156967475548
  0
LINE
  8
_7-8_
  6
CONTINUOUS
 62
    7
 10
316.01286820901395
 20
198.71156967475548
 11
316.33106626054785
 21
198.71156967475553
  0
LINE
  8
_7-8_
  6
CONTINUOUS
 62
    7
 10
316.0128682090139
 20
198.71156967475548
 11
315.69467015748
 21
198.71156967475548
  0
ARC
  8
_7-8_
  6
CONTINUOUS
 62
    7
 10
316.04822354807322
 20
199.84294052465395
 40
0.8544003745317489
 50
245.55604521958269
 51
267.51044707800099
  0
LINE
  8
_7-8_
  6
CONTINUOUS
 62
    7
 10
314.01286820901395
 20
198.87829586371333
 11
314.61286820901392
 21
198.87829586371333
  0
ARC
  8
_7-8_
  6
CONTINUOUS
 62
    7
 10
315.51789346218333
 20
199.38332111688271
 40
0.180277563773203
 50
348.69006752598107
 51
101.30993247401767
  0
ARC
  8
_7-8_
  6
CONTINUOUS
 62
    7
 10
316.0128682090139
 20
199.87829586371327
 40
0.8732124598286504
 50
158.62937773065635
 51
201.37062226934318
  0
LINE
  8
_7-8_
  6
CONTINUOUS
 62
    7
 10
315.48253839316294
 20
200.19673325566429
 11
314.34320438279729
 21
200.19801872405264
  0
LINE
  8
_7-8_
  6
CONTINUOUS
 62
    7
 10
315.48253839316294
 20
199.55985847176231
 11
314.34320438279729
 21
199.5585730033739
  0
LINE
  8
_7-8_
  6
CONTINUOUS
 62
    7
 10
314.01286820901395
 20
198.37829586371333
 11
315.01286820901395
 21
198.37829586371333
  0
LINE
  8
_7-8_
  6
CONTINUOUS
 62
    7
 10
330.88786820901395
 20
202.87829586371333
 11
323.63786820901384
 21
202.87829586371333
  0
LINE
  8
_7-8_
  6
CONTINUOUS
 62
    7
 10
330.88786820901395
 20
202.12829586371333
 11
323.63786820901384
 21
202.12829586371333
  0
LINE
  8
_7-8_
  6
CONTINUOUS
 62
    7
 10
328.26286820901395
 20
200.87829586371327
 11
327.66286820901393
 21
200.87829586371327
  0
LINE
  8
_7-8_
  6
CONTINUOUS
 62
    7
 10
328.26286820901395
 20
201.37829586371327
 11
327.26286820901395
 21
201.37829586371327
  0
LINE
  8
_7-8_
  6
CONTINUOUS
 62
    7
 10
328.26286820901395
 20
204.12829586371327
 11
327.66286820901393
 21
204.12829586371327
  0
LINE
  8
_7-8_
  6
CONTINUOUS
 62
    7
 10
328.26286820901395
 20
203.62829586371327
 11
327.26286820901395
 21
203.62829586371327
  0
LINE
  8
_7-8_
  6
CONTINUOUS
 62
    7
 10
328.26286820901395
 20
206.12829586371327
 11
327.66286820901393
 21
206.12829586371327
  0
LINE
  8
_7-8_
  6
CONTINUOUS
 62
    7
 10
328.26286820901395
 20
206.62829586371327
 11
327.26286820901395
 21
206.62829586371327
  0
ARC
  8
_7-8_
  6
CONTINUOUS
 62
    7
 10
326.26286820901395
 20
205.12829586371327
 40
1.7000000000000023
 50
315.00000000000034
 51
135.00000000000034
  0
LINE
  8
_7-8_
  6
CONTINUOUS
 62
    7
 10
329.01286820901395
 20
202.87829586371333
 11
329.01286820901395
 21
207.37829586371333
  0
LINE
  8
_7-8_
  6
CONTINUOUS
 62
    7
 10
328.26286820901395
 20
202.87829586371333
 11
328.26286820901395
 21
207.37829586371333
  0
LINE
  8
_7-8_
  6
CONTINUOUS
 62
    7
 10
325.94467015748
 20
204.59796577782333
 11
325.94467015748
 21
203.96156967475548
  0
LINE
  8
_7-8_
  6
CONTINUOUS
 62
    7
 10
326.5810662605478
 20
204.59796577782338
 11
326.58106626054791
 21
203.96156967475553
  0
ARC
  8
_7-8_
  6
CONTINUOUS
 62
    7
 10
326.26286820901395
 20
205.12829586371327
 40
1.7000000000000023
 50
135.00000000000034
 51
315.00000000000034
  0
LINE
  8
_7-8_
  6
CONTINUOUS
 62
    7
 10
324.26286820901395
 20
206.9739673392583
 11
324.26286820901384
 21
202.87829586371339
  0
LINE
  8
_7-8_
  6
CONTINUOUS
 62
    7
 10
324.26286820901395
 20
203.62829586371333
 11
325.26286820901395
 21
203.62829586371333
  0
LINE
  8
_7-8_
  6
CONTINUOUS
 62
    7
 10
324.26286820901395
 20
201.37829586371333
 11
325.26286820901395
 21
201.37829586371333
  0
LINE
  8
_7-8_
  6
CONTINUOUS
 62
    7
 10
326.26286820901395
 20
201.04502205267112
 11
326.58106626054791
 21
201.04502205267107
  0
ARC
  8
_7-8_
  6
CONTINUOUS
 62
    7
 10
326.22751286995458
 20
199.91365120277259
 40
0.8544003745317489
 50
65.556045219581022
 51
87.510447077998634
  0
ARC
  8
_7-8_
  6
CONTINUOUS
 62
    7
 10
326.29822354807322
 20
199.91365120277259
 40
0.8544003745317489
 50
92.489552922001379
 51
114.44395478041896
  0
LINE
  8
_7-8_
  6
CONTINUOUS
 62
    7
 10
326.26286820901384
 20
201.04502205267107
 11
325.94467015747989
 21
201.04502205267107
  0
LINE
  8
_7-8_
  6
CONTINUOUS
 62
    7
 10
325.76286820901384
 20
202.12829586371327
 11
325.76286820901384
 21
201.52829586371331
  0
LINE
  8
_7-8_
  6
CONTINUOUS
 62
    7
 10
326.76286820901384
 20
202.12829586371327
 11
326.76286820901384
 21
201.52829586371331
  0
LINE
  8
_7-8_
  6
CONTINUOUS
 62
    7
 10
325.94467015748
 20
200.40862594960316
 11
325.94467015747989
 21
201.04502205267107
  0
LINE
  8
_7-8_
  6
CONTINUOUS
 62
    7
 10
326.58106626054791
 20
200.40862594960321
 11
326.58106626054791
 21
201.04502205267107
  0
LINE
  8
_7-8_
  6
CONTINUOUS
 62
    7
 10
325.76286820901384
 20
202.87829586371327
 11
325.76286820901384
 21
203.47829586371329
  0
LINE
  8
_7-8_
  6
CONTINUOUS
 62
    7
 10
326.76286820901384
 20
202.87829586371327
 11
326.76286820901384
 21
203.47829586371329
  0
ARC
  8
_7-8_
  6
CONTINUOUS
 62
    7
 10
326.22751286995458
 20
205.09294052465395
 40
0.8544003745317489
 50
272.48955292199889
 51
294.44395478041712
  0
LINE
  8
_7-8_
  6
CONTINUOUS
 62
    7
 10
326.26286820901395
 20
203.96156967475548
 11
326.58106626054791
 21
203.96156967475553
  0
LINE
  8
_7-8_
  6
CONTINUOUS
 62
    7
 10
326.26286820901384
 20
203.96156967475548
 11
325.94467015748
 21
203.96156967475548
  0
ARC
  8
_7-8_
  6
CONTINUOUS
 62
    7
 10
326.29822354807322
 20
205.09294052465395
 40
0.8544003745317489
 50
245.55604521958269
 51
267.51044707800099
  0
LINE
  8
_7-8_
  6
CONTINUOUS
 62
    7
 10
323.63786820901384
 20
202.12829586371333
 11
323.63786820901384
 21
202.87829586371333
  0
LINE
  8
_7-8_
  6
CONTINUOUS
 62
    7
 10
324.26286820901395
 20
200.87829586371333
 11
324.86286820901392
 21
200.87829586371333
  0
LINE
  8
_7-8_
  6
CONTINUOUS
 62
    7
 10
324.26286820901395
 20
204.12829586371333
 11
324.86286820901392
 21
204.12829586371333
  0
LINE
  8
_7-8_
  6
CONTINUOUS
 62
    7
 10
325.73253839316294
 20
204.80985847176225
 11
324.59320438279729
 21
204.8085730033739
  0
LINE
  8
_7-8_
  6
CONTINUOUS
 62
    7
 10
325.73253839316294
 20
205.44673325566424
 11
324.59320438279729
 21
205.44801872405264
  0
LINE
  8
_7-8_
  6
CONTINUOUS
 62
    7
 10
324.26286820901395
 20
206.62829586371333
 11
325.26286820901395
 21
206.62829586371333
  0
ARC
  8
_7-8_
  6
CONTINUOUS
 62
    7
 10
325.76789346218328
 20
205.62327061054384
 40
0.180277563773203
 50
258.69006752598477
 51
11.309932474021422
  0
ARC
  8
_7-8_
  6
CONTINUOUS
 62
    7
 10
326.26286820901395
 20
205.12829586371327
 40
0.8732124598286504
 50
158.62937773065635
 51
201.37062226934318
  0
ARC
  8
_7-8_
  6
CONTINUOUS
 62
    7
 10
326.26286820901395
 20
205.12829586371333
 40
0.8732124598286504
 50
338.62937773065721
 51
21.370622269343897
  0
ARC
  8
_7-8_
  6
CONTINUOUS
 62
    7
 10
326.75784295584452
 20
205.62327061054384
 40
0.180277563773203
 50
168.690067525979
 51
281.30993247401596
  0
LINE
  8
_7-8_
  6
CONTINUOUS
 62
    7
 10
326.79319802486486
 20
204.80985847176231
 11
327.93253203523056
 21
204.80857300337396
  0
LINE
  8
_7-8_
  6
CONTINUOUS
 62
    7
 10
325.94467015748
 20
205.65862594960316
 11
325.94467015747989
 21
206.29502205267107
  0
LINE
  8
_7-8_
  6
CONTINUOUS
 62
    7
 10
326.79319829490384
 20
205.44649391524723
 11
327.92456914480226
 21
205.44649391524723
  0
LINE
  8
_7-8_
  6
CONTINUOUS
 62
    7
 10
326.26286820901395
 20
206.29502205267112
 11
326.58106626054791
 21
206.29502205267107
  0
LINE
  8
_7-8_
  6
CONTINUOUS
 62
    7
 10
326.58106626054791
 20
205.65862594960321
 11
326.58106626054791
 21
206.29502205267107
  0
ARC
  8
_7-8_
  6
CONTINUOUS
 62
    7
 10
326.22751286995458
 20
205.16365120277259
 40
0.8544003745317489
 50
65.556045219581022
 51
87.510447077998634
  0
ARC
  8
_7-8_
  6
CONTINUOUS
 62
    7
 10
326.29822354807322
 20
205.16365120277259
 40
0.8544003745317489
 50
92.489552922001379
 51
114.44395478041896
  0
LINE
  8
_7-8_
  6
CONTINUOUS
 62
    7
 10
326.26286820901384
 20
206.29502205267107
 11
325.94467015747989
 21
206.29502205267107
  0
ARC
  8
_7-8_
  6
CONTINUOUS
 62
    7
 10
325.76789346218333
 20
204.63332111688265
 40
0.180277563773203
 50
348.69006752598107
 51
101.30993247401767
  0
ARC
  8
_7-8_
  6
CONTINUOUS
 62
    7
 10
326.75784295584452
 20
204.63332111688271
 40
0.180277563773203
 50
78.690067525982243
 51
191.30993247401929
  0
LINE
  8
_7-8_
  6
CONTINUOUS
 62
    7
 10
325.76286820901384
 20
207.37829586371327
 11
325.76286820901384
 21
206.77829586371325
  0
LINE
  8
_7-8_
  6
CONTINUOUS
 62
    7
 10
326.76286820901384
 20
207.37829586371327
 11
326.76286820901384
 21
206.77829586371325
  0
LINE
  8
_7-8_
  6
CONTINUOUS
 62
    7
 10
324.26286820901395
 20
206.12829586371333
 11
324.86286820901392
 21
206.12829586371333
  0
LINE
  8
_7-8_
  6
CONTINUOUS
 62
    7
 10
324.26286820901395
 20
207.37829586371333
 11
324.26286820901395
 21
206.97396733925813
  0
ARC
  8
_7-8_
  6
CONTINUOUS
 62
    7
 10
316.0128682090139
 20
205.12829586371327
 40
1.7000000000000023
 50
135.00000000000034
 51
315.00000000000034
  0
ARC
  8
_7-8_
  6
CONTINUOUS
 62
    7
 10
316.50784295584452
 20
205.62327061054384
 40
0.180277563773203
 50
168.690067525979
 51
281.30993247401596
  0
ARC
  8
_7-8_
  6
CONTINUOUS
 62
    7
 10
315.97751286995458
 20
199.91365120277259
 40
0.8544003745317489
 50
65.556045219581022
 51
87.510447077998634
  0
ARC
  8
_7-8_
  6
CONTINUOUS
 62
    7
 10
316.50784295584446
 20
204.63332111688271
 40
0.180277563773203
 50
78.690067525982243
 51
191.30993247401929
  0
ARC
  8
_7-8_
  6
CONTINUOUS
 62
    7
 10
315.97751286995458
 20
205.09294052465395
 40
0.8544003745317489
 50
272.48955292199889
 51
294.44395478041712
  0
ARC
  8
_7-8_
  6
CONTINUOUS
 62
    7
 10
315.97751286995458
 20
205.16365120277259
 40
0.8544003745317489
 50
65.556045219581022
 51
87.510447077998634
  0
ARC
  8
_7-8_
  6
CONTINUOUS
 62
    7
 10
316.0128682090139
 20
205.12829586371327
 40
1.7000000000000023
 50
315.00000000000034
 51
135.00000000000034
  0
LINE
  8
_7-8_
  6
CONTINUOUS
 62
    7
 10
316.51286820901395
 20
202.12829586371327
 11
316.51286820901395
 21
201.52829586371331
  0
LINE
  8
_7-8_
  6
CONTINUOUS
 62
    7
 10
316.51286820901395
 20
202.87829586371327
 11
316.51286820901395
 21
203.47829586371329
  0
LINE
  8
_7-8_
  6
CONTINUOUS
 62
    7
 10
316.54319829490378
 20
205.44649391524723
 11
317.67456914480226
 21
205.44649391524723
  0
LINE
  8
_7-8_
  6
CONTINUOUS
 62
    7
 10
316.54319802486486
 20
204.80985847176231
 11
317.68253203523056
 21
204.80857300337396
  0
LINE
  8
_7-8_
  6
CONTINUOUS
 62
    7
 10
316.51286820901395
 20
207.37829586371327
 11
316.51286820901395
 21
206.77829586371325
  0
LINE
  8
_7-8_
  6
CONTINUOUS
 62
    7
 10
316.33106626054785
 20
204.59796577782338
 11
316.33106626054785
 21
203.96156967475553
  0
LINE
  8
_7-8_
  6
CONTINUOUS
 62
    7
 10
315.69467015748
 20
204.59796577782338
 11
315.69467015748
 21
203.96156967475548
  0
LINE
  8
_7-8_
  6
CONTINUOUS
 62
    7
 10
313.26286820901395
 20
202.87829586371333
 11
313.26286820901395
 21
207.37829586371333
  0
LINE
  8
_7-8_
  6
CONTINUOUS
 62
    7
 10
314.01286820901395
 20
202.87829586371333
 11
314.01286820901395
 21
207.37829586371333
  0
LINE
  8
_7-8_
  6
CONTINUOUS
 62
    7
 10
316.01286820901395
 20
201.04502205267112
 11
316.33106626054791
 21
201.04502205267107
  0
ARC
  8
_7-8_
  6
CONTINUOUS
 62
    7
 10
316.04822354807322
 20
199.91365120277259
 40
0.8544003745317489
 50
92.489552922001379
 51
114.44395478041896
  0
LINE
  8
_7-8_
  6
CONTINUOUS
 62
    7
 10
316.01286820901384
 20
201.04502205267107
 11
315.69467015747994
 21
201.04502205267107
  0
LINE
  8
_7-8_
  6
CONTINUOUS
 62
    7
 10
314.01286820901395
 20
200.87829586371333
 11
314.61286820901392
 21
200.87829586371333
  0
LINE
  8
_7-8_
  6
CONTINUOUS
 62
    7
 10
315.51286820901395
 20
202.12829586371327
 11
315.51286820901395
 21
201.52829586371331
  0
LINE
  8
_7-8_
  6
CONTINUOUS
 62
    7
 10
314.01286820901395
 20
201.37829586371333
 11
315.01286820901395
 21
201.37829586371333
  0
LINE
  8
_7-8_
  6
CONTINUOUS
 62
    7
 10
316.33106626054791
 20
200.40862594960321
 11
316.33106626054791
 21
201.04502205267107
  0
LINE
  8
_7-8_
  6
CONTINUOUS
 62
    7
 10
315.69467015747994
 20
200.40862594960316
 11
315.69467015747994
 21
201.04502205267107
  0
LINE
  8
_7-8_
  6
CONTINUOUS
 62
    7
 10
315.51286820901395
 20
202.87829586371327
 11
315.51286820901395
 21
203.47829586371329
  0
LINE
  8
_7-8_
  6
CONTINUOUS
 62
    7
 10
316.01286820901395
 20
203.96156967475548
 11
316.33106626054785
 21
203.96156967475553
  0
LINE
  8
_7-8_
  6
CONTINUOUS
 62
    7
 10
316.0128682090139
 20
203.96156967475548
 11
315.69467015748
 21
203.96156967475548
  0
ARC
  8
_7-8_
  6
CONTINUOUS
 62
    7
 10
316.04822354807322
 20
205.09294052465395
 40
0.8544003745317489
 50
245.55604521958269
 51
267.51044707800099
  0
LINE
  8
_7-8_
  6
CONTINUOUS
 62
    7
 10
314.01286820901395
 20
203.62829586371333
 11
315.01286820901395
 21
203.62829586371333
  0
LINE
  8
_7-8_
  6
CONTINUOUS
 62
    7
 10
314.01286820901395
 20
204.12829586371333
 11
314.61286820901392
 21
204.12829586371333
  0
ARC
  8
_7-8_
  6
CONTINUOUS
 62
    7
 10
315.51789346218328
 20
205.62327061054384
 40
0.180277563773203
 50
258.69006752598477
 51
11.309932474021422
  0
ARC
  8
_7-8_
  6
CONTINUOUS
 62
    7
 10
316.0128682090139
 20
205.12829586371327
 40
0.8732124598286504
 50
158.62937773065635
 51
201.37062226934318
  0
LINE
  8
_7-8_
  6
CONTINUOUS
 62
    7
 10
315.48253839316294
 20
204.80985847176225
 11
314.34320438279729
 21
204.8085730033739
  0
LINE
  8
_7-8_
  6
CONTINUOUS
 62
    7
 10
316.01286820901395
 20
206.29502205267112
 11
316.33106626054791
 21
206.29502205267107
  0
LINE
  8
_7-8_
  6
CONTINUOUS
 62
    7
 10
316.33106626054791
 20
205.65862594960321
 11
316.33106626054791
 21
206.29502205267107
  0
ARC
  8
_7-8_
  6
CONTINUOUS
 62
    7
 10
316.04822354807322
 20
205.16365120277259
 40
0.8544003745317489
 50
92.489552922001379
 51
114.44395478041896
  0
LINE
  8
_7-8_
  6
CONTINUOUS
 62
    7
 10
315.69467015747994
 20
205.65862594960316
 11
315.69467015747994
 21
206.29502205267107
  0
LINE
  8
_7-8_
  6
CONTINUOUS
 62
    7
 10
316.01286820901384
 20
206.29502205267107
 11
315.69467015747994
 21
206.29502205267107
  0
LINE
  8
_7-8_
  6
CONTINUOUS
 62
    7
 10
314.01286820901395
 20
206.12829586371333
 11
314.61286820901392
 21
206.12829586371333
  0
LINE
  8
_7-8_
  6
CONTINUOUS
 62
    7
 10
315.48253839316294
 20
205.44673325566424
 11
314.34320438279729
 21
205.44801872405264
  0
ARC
  8
_7-8_
  6
CONTINUOUS
 62
    7
 10
315.51789346218333
 20
204.63332111688265
 40
0.180277563773203
 50
348.69006752598107
 51
101.30993247401767
  0
LINE
  8
_7-8_
  6
CONTINUOUS
 62
    7
 10
315.51286820901395
 20
207.37829586371327
 11
315.51286820901395
 21
206.77829586371325
  0
LINE
  8
_7-8_
  6
CONTINUOUS
 62
    7
 10
314.01286820901395
 20
206.62829586371333
 11
315.01286820901395
 21
206.62829586371333
  0
LINE
  8
_7-8_
  6
CONTINUOUS
 62
    7
 10
311.38786820901395
 20
209.12829586371333
 11
311.3878682090139
 21
207.37829586371333
  0
LINE
  8
_7-8_
  6
CONTINUOUS
 62
    7
 10
330.88786820901395
 20
209.12829586371333
 11
330.8878682090139
 21
207.37829586371333
  0
LINE
  8
_7-8_
  6
CONTINUOUS
 62
    7
 10
319.13786820901395
 20
207.12829586371333
 11
323.13786820901384
 21
207.12829586371333
  0
LINE
  8
_7-8_
  6
CONTINUOUS
 62
    7
 10
323.13786820901395
 20
207.37829586371333
 11
330.8878682090139
 21
207.37829586371333
  0
LINE
  8
_7-8_
  6
CONTINUOUS
 62
    7
 10
323.13786820901395
 20
207.12829586371333
 11
323.13786820901384
 21
207.37829586371333
  0
LINE
  8
_7-8_
  6
CONTINUOUS
 62
    7
 10
311.3878682090139
 20
207.37829586371333
 11
319.13786820901395
 21
207.37829586371333
  0
LINE
  8
_7-8_
  6
CONTINUOUS
 62
    7
 10
330.88786820901395
 20
209.12829586371333
 11
311.38786820901395
 21
209.12829586371333
  0
LINE
  8
_7-8_
  6
CONTINUOUS
 62
    7
 10
315.3878682090139
 20
209.62829586371333
 11
326.88786820901384
 21
209.62829586371333
  0
LINE
  8
_7-8_
  6
CONTINUOUS
 62
    7
 10
324.13786820901384
 20
209.12829586371333
 11
318.1378682090139
 21
209.12829586371333
  0
LINE
  8
_7-8_
  6
CONTINUOUS
 62
    7
 10
330.88786820901395
 20
208.37829586371333
 11
311.38786820901395
 21
208.37829586371333
  0
CIRCLE
  8
_7-8_
  6
CONTINUOUS
 62
    7
 10
323.88786820901384
 20
212.27829586371336
 40
0.625
  0
LINE
  8
_7-8_
  6
CONTINUOUS
 62
    7
 10
326.88786820901384
 20
209.62829586371333
 11
326.88786820901384
 21
214.62829586371333
  0
LINE
  8
_7-8_
  6
CONTINUOUS
 62
    7
 10
325.13786820901395
 20
209.62829586371333
 11
325.13786820901395
 21
209.12829586371333
  0
LINE
  8
_7-8_
  6
CONTINUOUS
 62
    7
 10
326.13786820901395
 20
209.12829586371333
 11
326.13786820901395
 21
209.62829586371333
  0
LINE
  8
_7-8_
  6
CONTINUOUS
 62
    7
 10
323.63786820901384
 20
210.12829586371333
 11
324.13786820901384
 21
209.62829586371333
  0
LINE
  8
_7-8_
  6
CONTINUOUS
 62
    7
 10
323.63786820901384
 20
210.12829586371333
 11
323.13786820901384
 21
209.62829586371333
  0
LINE
  8
_7-8_
  6
CONTINUOUS
 62
    7
 10
324.13786820901384
 20
209.62829586371333
 11
324.13786820901395
 21
209.12829586371333
  0
LINE
  8
_7-8_
  6
CONTINUOUS
 62
    7
 10
326.88786820901384
 20
214.62829586371333
 11
322.43786820901385
 21
214.62829586371333
  0
LINE
  8
_7-8_
  6
CONTINUOUS
 62
    7
 10
322.43786820901385
 20
214.62829586371333
 11
322.43786820901385
 21
212.12829586371333
  0
LINE
  8
_7-8_
  6
CONTINUOUS
 62
    7
 10
319.83786820901389
 20
214.62829586371333
 11
315.3878682090139
 21
214.62829586371333
  0
LINE
  8
_7-8_
  6
CONTINUOUS
 62
    7
 10
319.83786820901389
 20
214.62829586371333
 11
319.83786820901389
 21
212.12829586371333
  0
LINE
  8
_7-8_
  6
CONTINUOUS
 62
    7
 10
315.3878682090139
 20
214.62829586371333
 11
315.3878682090139
 21
209.62829586371333
  0
LINE
  8
_7-8_
  6
CONTINUOUS
 62
    7
 10
316.1378682090139
 20
209.12829586371333
 11
316.1378682090139
 21
209.62829586371333
  0
LINE
  8
_7-8_
  6
CONTINUOUS
 62
    7
 10
318.63786820901395
 20
202.87829586371333
 11
311.38786820901395
 21
202.87829586371333
  0
LINE
  8
_7-8_
  6
CONTINUOUS
 62
    7
 10
318.63786820901395
 20
202.12829586371333
 11
311.38786820901395
 21
202.12829586371333
  0
LINE
  8
_7-8_
  6
CONTINUOUS
 62
    7
 10
318.63786820901395
 20
197.62829586371333
 11
311.38786820901395
 21
197.62829586371333
  0
LINE
  8
_7-8_
  6
CONTINUOUS
 62
    7
 10
311.8878682090139
 20
208.37829586371333
 11
311.8878682090139
 21
207.02831604584605
  0
LINE
  8
_7-8_
  6
CONTINUOUS
 62
    7
 10
311.38786820901407
 20
208.37829586371333
 11
311.38786820901407
 21
207.02831604584605
  0
LINE
  8
_7-8_
  6
CONTINUOUS
 62
    7
 10
311.38786820901407
 20
203.02831604584605
 11
311.38786820901407
 21
201.97827568158061
  0
LINE
  8
_7-8_
  6
CONTINUOUS
 62
    7
 10
311.38786820901407
 20
197.97827568158061
 11
311.38786820901407
 21
196.87829586371333
  0
LINE
  8
_7-8_
  6
CONTINUOUS
 62
    7
 10
311.8878682090139
 20
203.02831604584605
 11
311.8878682090139
 21
201.97827568158061
  0
LINE
  8
_7-8_
  6
CONTINUOUS
 62
    7
 10
311.88786820901395
 20
197.97827568158061
 11
311.88786820901395
 21
195.87829586371333
  0
LINE
  8
_7-8_
  6
CONTINUOUS
 62
    7
 10
318.01286820901395
 20
197.62829586371327
 11
318.01286820901395
 21
202.12829586371327
  0
ARC
  8
_7-8_
  6
CONTINUOUS
 62
    7
 10
321.13786820901401
 20
192.12829586371333
 40
1.3000000000000109
 50
0
 51
180
  0
CIRCLE
  8
_7-8_
  6
CONTINUOUS
 62
    7
 10
318.38786820901401
 20
191.97829586371329
 40
0.625
  0
LINE
  8
_7-8_
  6
CONTINUOUS
 62
    7
 10
318.63786820901401
 20
194.12829586371333
 11
318.13786820901401
 21
194.62829586371333
  0
LINE
  8
_7-8_
  6
CONTINUOUS
 62
    7
 10
318.63786820901401
 20
194.12829586371333
 11
319.13786820901401
 21
194.62829586371333
  0
LINE
  8
_7-8_
  6
CONTINUOUS
 62
    7
 10
317.13786820901401
 20
194.62829586371333
 11
317.13786820901407
 21
195.12829586371333
  0
LINE
  8
_7-8_
  6
CONTINUOUS
 62
    7
 10
318.13786820901395
 20
194.62829586371333
 11
318.13786820901395
 21
195.12829586371333
  0
LINE
  8
_7-8_
  6
CONTINUOUS
 62
    7
 10
318.63786820901395
 20
197.62829586371333
 11
318.63786820901395
 21
196.87829586371333
  0
LINE
  8
_7-8_
  6
CONTINUOUS
 62
    7
 10
319.13786820901401
 20
196.87829586371333
 11
319.13786820901395
 21
197.12829586371333
  0
LINE
  8
_7-8_
  6
CONTINUOUS
 62
    7
 10
318.01286820901395
 20
198.87829586371327
 11
317.41286820901393
 21
198.87829586371327
  0
ARC
  8
_7-8_
  6
CONTINUOUS
 62
    7
 10
316.0128682090139
 20
199.87829586371333
 40
0.8732124598286504
 50
338.62937773065721
 51
21.370622269343897
  0
LINE
  8
_7-8_
  6
CONTINUOUS
 62
    7
 10
318.01286820901395
 20
198.37829586371327
 11
317.01286820901395
 21
198.37829586371327
  0
LINE
  8
_7-8_
  6
CONTINUOUS
 62
    7
 10
318.01286820901395
 20
202.87829586371327
 11
318.01286820901395
 21
207.37829586371327
  0
LINE
  8
_7-8_
  6
CONTINUOUS
 62
    7
 10
318.63786820901395
 20
202.12829586371333
 11
318.63786820901395
 21
202.87829586371333
  0
LINE
  8
_7-8_
  6
CONTINUOUS
 62
    7
 10
318.01286820901395
 20
200.87829586371327
 11
317.41286820901393
 21
200.87829586371327
  0
LINE
  8
_7-8_
  6
CONTINUOUS
 62
    7
 10
318.01286820901395
 20
201.37829586371327
 11
317.01286820901395
 21
201.37829586371327
  0
LINE
  8
_7-8_
  6
CONTINUOUS
 62
    7
 10
318.01286820901395
 20
204.12829586371327
 11
317.41286820901393
 21
204.12829586371327
  0
LINE
  8
_7-8_
  6
CONTINUOUS
 62
    7
 10
318.01286820901395
 20
203.62829586371327
 11
317.01286820901395
 21
203.62829586371327
  0
ARC
  8
_7-8_
  6
CONTINUOUS
 62
    7
 10
316.0128682090139
 20
205.12829586371333
 40
0.8732124598286504
 50
338.62937773065721
 51
21.370622269343897
  0
LINE
  8
_7-8_
  6
CONTINUOUS
 62
    7
 10
318.01286820901395
 20
206.12829586371327
 11
317.41286820901393
 21
206.12829586371327
  0
LINE
  8
_7-8_
  6
CONTINUOUS
 62
    7
 10
318.01286820901395
 20
206.62829586371327
 11
317.01286820901395
 21
206.62829586371327
  0
LINE
  8
_7-8_
  6
CONTINUOUS
 62
    7
 10
319.1378682090139
 20
207.12829586371333
 11
319.1378682090139
 21
207.37829586371333
  0
ARC
  8
_7-8_
  6
CONTINUOUS
 62
    7
 10
321.13786820901384
 20
212.12829586371333
 40
1.3000000000000109
 50
180
 51
0
  0
CIRCLE
  8
_7-8_
  6
CONTINUOUS
 62
    7
 10
318.3878682090139
 20
212.27829586371336
 40
0.625
  0
LINE
  8
_7-8_
  6
CONTINUOUS
 62
    7
 10
318.6378682090139
 20
210.12829586371333
 11
319.1378682090139
 21
209.62829586371333
  0
LINE
  8
_7-8_
  6
CONTINUOUS
 62
    7
 10
318.6378682090139
 20
210.12829586371333
 11
318.1378682090139
 21
209.62829586371333
  0
LINE
  8
_7-8_
  6
CONTINUOUS
 62
    7
 10
318.1378682090139
 20
209.62829586371333
 11
318.1378682090139
 21
209.12829586371333
  0
LINE
  8
_7-8_
  6
CONTINUOUS
 62
    7
 10
317.1378682090139
 20
209.62829586371333
 11
317.1378682090139
 21
209.12829586371333
  0
LINE
  8
_7-8_
  6
CONTINUOUS
 62
    7
 10
318.26286820901384
 20
197.62829586371333
 11
318.26286820901395
 21
202.12829586371333
  0
LINE
  8
_7-8_
  6
CONTINUOUS
 62
    7
 10
321.03786820901399
 20
201.12829586371333
 11
321.03786820901393
 21
199.97829586371329
  0
LINE
  8
_7-8_
  6
CONTINUOUS
 62
    7
 10
321.23786820901398
 20
201.12829586371333
 11
321.03786820901399
 21
201.12829586371333
  0
LINE
  8
_7-8_
  6
CONTINUOUS
 62
    7
 10
321.23786820901398
 20
201.12829586371333
 11
321.23786820901398
 21
199.97829586371329
  0
LINE
  8
_7-8_
  6
CONTINUOUS
 62
    7
 10
322.38786820901395
 20
199.97829586371329
 11
321.23786820901398
 21
199.97829586371329
  0
LINE
  8
_7-8_
  6
CONTINUOUS
 62
    7
 10
322.38786820901395
 20
199.77829586371331
 11
322.38786820901395
 21
199.97829586371329
  0
LINE
  8
_7-8_
  6
CONTINUOUS
 62
    7
 10
322.38786820901395
 20
199.77829586371331
 11
321.23786820901398
 21
199.77829586371331
  0
LINE
  8
_7-8_
  6
CONTINUOUS
 62
    7
 10
321.23786820901398
 20
199.77829586371331
 11
321.23786820901392
 21
198.62829586371333
  0
LINE
  8
_7-8_
  6
CONTINUOUS
 62
    7
 10
321.03786820901393
 20
198.62829586371333
 11
321.23786820901392
 21
198.62829586371333
  0
LINE
  8
_7-8_
  6
CONTINUOUS
 62
    7
 10
321.03786820901393
 20
199.77829586371331
 11
321.03786820901393
 21
198.62829586371333
  0
LINE
  8
_7-8_
  6
CONTINUOUS
 62
    7
 10
321.03786820901393
 20
199.97829586371329
 11
319.88786820901395
 21
199.97829586371329
  0
LINE
  8
_7-8_
  6
CONTINUOUS
 62
    7
 10
319.88786820901395
 20
199.97829586371329
 11
319.88786820901395
 21
199.77829586371331
  0
LINE
  8
_7-8_
  6
CONTINUOUS
 62
    7
 10
321.03786820901393
 20
199.77829586371331
 11
319.88786820901395
 21
199.77829586371331
  0
LINE
  8
_7-8_
  6
CONTINUOUS
 62
    7
 10
321.23786820901398
 20
206.37829586371333
 11
321.03786820901399
 21
206.37829586371333
  0
LINE
  8
_7-8_
  6
CONTINUOUS
 62
    7
 10
321.03786820901393
 20
203.87829586371333
 11
321.23786820901392
 21
203.87829586371333
  0
LINE
  8
_7-8_
  6
CONTINUOUS
 62
    7
 10
321.03786820901399
 20
206.37829586371333
 11
321.03786820901393
 21
203.87829586371333
  0
LINE
  8
_7-8_
  6
CONTINUOUS
 62
    7
 10
321.23786820901398
 20
206.37829586371333
 11
321.23786820901392
 21
203.87829586371333
  0
LINE
  8
_7-8_
  6
CENTER1
 62
   18
 10
320.38786820901384
 20
212.50329586371333
 11
321.88786820901384
 21
212.50329586371333
  0
LINE
  8
_7-8_
  6
CENTER1
 62
   18
 10
321.13786820901384
 20
211.75329586371333
 11
321.13786820901384
 21
213.25329586371333
  0
LINE
  8
_7-8_
  6
CENTER1
 62
   18
 10
320.38786820901401
 20
191.75329586371333
 11
321.88786820901401
 21
191.75329586371333
  0
LINE
  8
_7-8_
  6
CENTER1
 62
   18
 10
321.13786820901401
 20
191.00329586371333
 11
321.13786820901401
 21
192.50329586371333
  0
LINE
  8
_7-0_
  6
CONTINUOUS
 62
    7
 10
306.1343809069848
 20
199.53285237247061
 11
303.53048775119356
 21
201.03630199768963
  0
LINE
  8
_7-0_
  6
CONTINUOUS
 62
    7
 10
304.23051960292667
 20
202.24871917282328
 11
306.83441275871791
 21
200.74526954760429
  0
LINE
  8
_7-0_
  6
CONTINUOUS
 62
    7
 10
308.26286820901395
 20
197.97827568158061
 11
313.26286820901395
 21
197.97827568158061
  0
LINE
  8
_7-0_
  6
CONTINUOUS
 62
    7
 10
308.26286820901395
 20
201.97827568158061
 11
308.26286820901395
 21
197.97827568158061
  0
LINE
  8
_7-0_
  6
CONTINUOUS
 62
    7
 10
313.26286820901395
 20
201.97827568158061
 11
308.26286820901395
 21
201.97827568158061
  0
LINE
  8
_7-0_
  6
CONTINUOUS
 62
    7
 10
313.26286820901395
 20
197.97827568158061
 11
313.26286820901395
 21
201.97827568158061
  0
LINE
  8
_7-1_
  6
CONTINUOUS
 62
   18
 10
319.83786820901389
 20
219.38657033365359
 11
314.83786820901389
 21
219.38657033365359
  0
LINE
  8
_7-1_
  6
CONTINUOUS
 62
   18
 10
322.43786820901385
 20
219.38657033365359
 11
327.43786820901385
 21
219.38657033365359
  0
LINE
  8
_7-1_
  6
CONTINUOUS
 62
   18
 10
319.83786820901389
 20
219.38657033365359
 11
322.43786820901385
 21
219.38657033365359
  0
LINE
  8
_7-1_
  6
CONTINUOUS
 62
   18
 10
319.83786820901389
 20
219.38657033365359
 11
318.38897946958024
 21
218.99834176599981
  0
LINE
  8
_7-1_
  6
CONTINUOUS
 62
   18
 10
319.83786820901389
 20
219.38657033365359
 11
318.38897946958024
 21
219.77479890130737
  0
LINE
  8
_7-1_
  6
CONTINUOUS
 62
   18
 10
322.43786820901385
 20
219.38657033365359
 11
323.88675694844744
 21
219.77479890130737
  0
LINE
  8
_7-1_
  6
CONTINUOUS
 62
   18
 10
322.43786820901385
 20
219.38657033365359
 11
323.88675694844744
 21
218.99834176599981
  0
LINE
  8
_7-1_
  6
CONTINUOUS
 62
   18
 10
319.83786820901389
 20
219.88657033365359
 11
319.83786820901389
 21
215.13952091885755
  0
LINE
  8
_7-1_
  6
CONTINUOUS
 62
   18
 10
322.43786820901385
 20
219.88657033365359
 11
322.43786820901385
 21
215.13952091885755
  0
TEXT
  8
_7-1_
 62
    7
 10
317.88786820901384
 20
219.88657033365359
 40
4
 41
1
 50
0
  1
5.2
  0
ARC
  8
_7-0_
  6
CONTINUOUS
 62
    7
 10
163.68437362615532
 20
214.803290911516
 40
0.25
 50
180
 51
270
  0
ARC
  8
_7-0_
  6
CONTINUOUS
 62
    7
 10
163.68437362615532
 20
212.20329091151597
 40
0.25
 50
90
 51
180
  0
LINE
  8
_7-0_
  6
CONTINUOUS
 62
    7
 10
163.68437362615532
 20
212.45329091151597
 11
165.43437386120231
 21
212.45329091151597
  0
ARC
  8
_7-0_
  6
CONTINUOUS
 62
    7
 10
165.43437386120231
 20
213.50329091151598
 40
1.0500000000000109
 50
270
 51
90
  0
LINE
  8
_7-0_
  6
CONTINUOUS
 62
    7
 10
165.43437386120231
 20
214.55329091151597
 11
163.68437362615532
 21
214.553290911516
  0
ARC
  8
_7-0_
  6
CONTINUOUS
 62
    7
 10
164.93437362720771
 20
215.75329128526672
 40
1.5000000000000139
 50
90
 51
180
  0
LINE
  8
_7-0_
  6
CONTINUOUS
 62
    7
 10
163.43437362615537
 20
214.803290911516
 11
163.43437362720771
 21
215.75329128526672
  0
ARC
  8
_7-0_
  6
CONTINUOUS
 62
    7
 10
163.68437510661328
 20
197.2032908877841
 40
0.25
 50
90
 51
180
  0
ARC
  8
_7-0_
  6
CONTINUOUS
 62
    7
 10
163.68437510661328
 20
199.80329088778415
 40
0.25
 50
180
 51
270
  0
LINE
  8
_7-0_
  6
CONTINUOUS
 62
    7
 10
163.68437510661328
 20
199.55329088778412
 11
165.43437534166031
 21
199.55329088778412
  0
ARC
  8
_7-0_
  6
CONTINUOUS
 62
    7
 10
165.43437534166031
 20
198.50329088778411
 40
1.0500000000000109
 50
270
 51
90
  0
LINE
  8
_7-0_
  6
CONTINUOUS
 62
    7
 10
165.43437534166031
 20
197.45329088778413
 11
163.68437510661328
 21
197.4532908877841
  0
ARC
  8
_7-0_
  6
CONTINUOUS
 62
    7
 10
164.93437510766568
 20
196.25329051403338
 40
1.5000000000000139
 50
180
 51
270
  0
LINE
  8
_7-0_
  6
CONTINUOUS
 62
    7
 10
163.43437510661334
 20
197.2032908877841
 11
163.43437510766568
 21
196.25329051403338
  0
ARC
  8
_7-0_
  6
CONTINUOUS
 62
    7
 10
163.68437362615532
 20
207.30329138337629
 40
0.25
 50
180
 51
270
  0
ARC
  8
_7-0_
  6
CONTINUOUS
 62
    7
 10
163.68437362615532
 20
204.70329138337623
 40
0.25
 50
90
 51
180
  0
LINE
  8
_7-0_
  6
CONTINUOUS
 62
    7
 10
163.68437362615532
 20
204.95329138337626
 11
165.43437386120231
 21
204.95329138337626
  0
ARC
  8
_7-0_
  6
CONTINUOUS
 62
    7
 10
165.43437386120231
 20
206.00329138337627
 40
1.0500000000000109
 50
270
 51
90
  0
LINE
  8
_7-0_
  6
CONTINUOUS
 62
    7
 10
165.43437386120231
 20
207.05329138337623
 11
163.68437362615532
 21
207.05329138337629
  0
LINE
  8
_7-0_
  6
CONTINUOUS
 62
    7
 10
163.43437362615523
 20
199.80329088778415
 11
163.43437362615537
 21
204.70329138337623
  0
LINE
  8
_7-0_
  6
CONTINUOUS
 62
    7
 10
163.43437362615537
 20
211.34551347290414
 11
163.43437362615537
 21
212.20329091151597
  0
LINE
  8
_7-0_
  6
CONTINUOUS
 62
    7
 10
163.43437362615537
 20
207.30329138337629
 11
163.43437362658463
 21
207.69079586371333
  0
LINE
  8
_7-0_
  6
CONTINUOUS
 62
    7
 10
168.73437366853875
 20
210.50329566999823
 11
168.48437365666444
 21
210.50329566999823
  0
LINE
  8
_7-0_
  6
CONTINUOUS
 62
    7
 10
168.73437366853875
 20
201.50329605742842
 11
168.48437365666427
 21
201.50329605742842
  0
LINE
  8
_7-0_
  6
CONTINUOUS
 62
    7
 10
164.93437362720771
 20
217.25329128526675
 11
167.68437370703043
 21
217.25329103359604
  0
LINE
  8
_7-0_
  6
CONTINUOUS
 62
    7
 10
168.48437365666444
 20
218.15329604103715
 11
168.73437366853875
 21
218.15329604103715
  0
LINE
  8
_7-0_
  6
CONTINUOUS
 62
    7
 10
167.6149753589762
 20
218.15830972579811
 11
167.68437370597791
 21
218.15339662387521
  0
ARC
  8
_7-0_
  6
CONTINUOUS
 62
    7
 10
167.63650175283856
 20
218.4623486285181
 40
0.3048000000005047
 50
199.56724636964329
 51
265.95013407182648
  0
LINE
  8
_7-0_
  6
CONTINUOUS
 62
    7
 10
167.2517042880454
 20
218.72049290939719
 11
167.35347607578557
 21
218.34912151351124
  0
LINE
  8
_7-0_
  6
CONTINUOUS
 62
    7
 10
167.68437370597791
 20
220.60319502159507
 11
167.6149753589762
 21
220.59828200162797
  0
LINE
  8
_7-0_
  6
CONTINUOUS
 62
    7
 10
167.6149753589762
 20
218.40830972579817
 11
167.68437370597791
 21
218.40339619919211
  0
ARC
  8
_7-0_
  6
CONTINUOUS
 62
    7
 10
167.63650175283856
 20
218.71234862851821
 40
0.3048000000005097
 50
199.56724636964329
 51
265.95013407182972
  0
ARC
  8
_7-0_
  6
CONTINUOUS
 62
    7
 10
167.63650175283856
 20
220.29424309890856
 40
0.3048000000005075
 50
94.049865928173531
 51
159.08816656003858
  0
LINE
  8
_7-0_
  6
CONTINUOUS
 62
    7
 10
167.2517042880454
 20
218.9704924847141
 11
167.35347607578557
 21
218.59912202015073
  0
LINE
  8
_7-0_
  6
CONTINUOUS
 62
    7
 10
167.35177869218836
 20
220.40303564798364
 11
167.25131406388658
 21
220.03559302791509
  0
LINE
  8
_7-0_
  6
CONTINUOUS
 62
    7
 10
168.73437366853875
 20
219.00329586371333
 11
168.4843736685388
 21
219.00329586371333
  0
LINE
  8
_7-0_
  6
CONTINUOUS
 62
    7
 10
168.73437366853875
 20
220.85329611107263
 11
168.48437365666444
 21
220.85329611107263
  0
LINE
  8
_7-0_
  6
CONTINUOUS
 62
    7
 10
168.73437366853875
 20
220.0032958637133
 11
168.4843736685388
 21
220.0032958637133
  0
LINE
  8
_7-0_
  6
CONTINUOUS
 62
    7
 10
167.68437366853885
 20
219.00329586371333
 11
168.4843736685388
 21
219.00329586371333
  0
LINE
  8
_7-0_
  6
CONTINUOUS
 62
    7
 10
167.68437366853885
 20
220.0032958637133
 11
168.4843736685388
 21
220.0032958637133
  0
LINE
  8
_7-0_
  6
CONTINUOUS
 62
    7
 10
168.4843736685388
 20
219.00329586371333
 11
168.4843736685388
 21
220.0032958637133
  0
LINE
  8
_7-0_
  6
CONTINUOUS
 62
    7
 10
167.68437366853885
 20
219.00329586371333
 11
167.68437366853885
 21
220.0032958637133
  0
LINE
  8
_7-0_
  6
CONTINUOUS
 62
    7
 10
167.68437366853885
 20
221.00329586371333
 11
168.4843736685388
 21
221.00329586371333
  0
LINE
  8
_7-0_
  6
CONTINUOUS
 62
    7
 10
168.4843736685388
 20
220.0032958637133
 11
168.4843736685388
 21
221.00329586371333
  0
LINE
  8
_7-0_
  6
CONTINUOUS
 62
    7
 10
167.68437366853885
 20
220.0032958637133
 11
167.68437366853885
 21
221.00329586371333
  0
LINE
  8
_7-0_
  6
CONTINUOUS
 62
    7
 10
167.68437366853885
 20
218.00329586371333
 11
168.4843736685388
 21
218.00329586371333
  0
LINE
  8
_7-0_
  6
CONTINUOUS
 62
    7
 10
168.4843736685388
 20
218.00329586371333
 11
168.4843736685388
 21
219.00329586371333
  0
LINE
  8
_7-0_
  6
CONTINUOUS
 62
    7
 10
167.68437366853885
 20
218.00329586371333
 11
167.68437366853885
 21
219.00329586371333
  0
LINE
  8
_7-0_
  6
CONTINUOUS
 62
    7
 10
167.23473151619958
 20
218.71646493926198
 11
167.23266235026949
 21
218.71527098372132
  0
LINE
  8
_7-0_
  6
CONTINUOUS
 62
    7
 10
167.23266235026949
 20
218.71527098372132
 11
167.23267597086214
 21
218.71527843430192
  0
LINE
  8
_7-0_
  6
CONTINUOUS
 62
    7
 10
167.14261765997326
 20
219.15677562608871
 11
167.18110992047411
 21
218.93570292993933
  0
LINE
  8
_7-0_
  6
CONTINUOUS
 62
    7
 10
167.18110992047411
 20
218.93570292993933
 11
167.23473116695362
 21
218.71646680190713
  0
LINE
  8
_7-0_
  6
CONTINUOUS
 62
    7
 10
167.1881546772592
 20
219.15677562608871
 11
167.14261765997326
 21
219.15677562608871
  0
LINE
  8
_7-0_
  6
CONTINUOUS
 62
    7
 10
167.1881546772592
 20
219.59981601938162
 11
167.18134496300888
 21
219.57199182614237
  0
LINE
  8
_7-0_
  6
CONTINUOUS
 62
    7
 10
167.18134496300888
 20
219.57199182614237
 11
167.15254637352609
 21
219.40677613272816
  0
LINE
  8
_7-0_
  6
CONTINUOUS
 62
    7
 10
167.14261765997326
 20
219.15677562608871
 11
167.1881546772592
 21
219.15677562608871
  0
LINE
  8
_7-0_
  6
CONTINUOUS
 62
    7
 10
167.35177869218836
 20
220.40303564798364
 11
167.35177869218836
 21
219.50329586371339
  0
LINE
  8
_7-0_
  6
CONTINUOUS
 62
    7
 10
167.23473163261496
 20
219.40677520140562
 11
167.23266229863685
 21
219.50329586371339
  0
LINE
  8
_7-0_
  6
CONTINUOUS
 62
    7
 10
167.23473151619958
 20
218.96646544590146
 11
167.23266235026949
 21
218.96527055903823
  0
LINE
  8
_7-0_
  6
CONTINUOUS
 62
    7
 10
167.23266235026949
 20
218.96527055903823
 11
167.23267597086214
 21
218.96527800961882
  0
LINE
  8
_7-0_
  6
CONTINUOUS
 62
    7
 10
167.14261765997326
 20
219.40677613272816
 11
167.18110992047411
 21
219.18570343657881
  0
LINE
  8
_7-0_
  6
CONTINUOUS
 62
    7
 10
167.18110992047411
 20
219.18570343657881
 11
167.23473116695362
 21
218.96646637722403
  0
LINE
  8
_7-0_
  6
CONTINUOUS
 62
    7
 10
167.23473151619958
 20
219.40677613272816
 11
167.14261765997326
 21
219.40677613272816
  0
LINE
  8
_7-0_
  6
CONTINUOUS
 62
    7
 10
167.23266229863685
 20
219.50329586371339
 11
167.23473163261496
 21
219.40677520140562
  0
LINE
  8
_7-0_
  6
CONTINUOUS
 62
    7
 10
167.35177869218836
 20
219.50329586371339
 11
167.23266229863685
 21
219.50329586371339
  0
LINE
  8
_7-0_
  6
CONTINUOUS
 62
    7
 10
167.23473163261496
 20
219.59981695070416
 11
167.23266229863685
 21
219.50329586371339
  0
LINE
  8
_7-0_
  6
CONTINUOUS
 62
    7
 10
167.14261765997326
 20
219.59981601938162
 11
167.23473163261496
 21
219.59981601938162
  0
LINE
  8
_7-0_
  6
CONTINUOUS
 62
    7
 10
167.23473116695362
 20
220.04012484356317
 11
167.18134496300888
 21
219.82199233278188
  0
LINE
  8
_7-0_
  6
CONTINUOUS
 62
    7
 10
167.18134496300888
 20
219.82199233278188
 11
167.14261765997326
 21
219.59981601938162
  0
LINE
  8
_7-0_
  6
CONTINUOUS
 62
    7
 10
167.23473163261496
 20
219.59981601938162
 11
167.14261765997326
 21
219.59981601938162
  0
LINE
  8
_7-0_
  6
CONTINUOUS
 62
    7
 10
167.14261765997326
 20
219.40677613272816
 11
167.23473163261496
 21
219.40677520140562
  0
LINE
  8
_7-0_
  6
CONTINUOUS
 62
    7
 10
168.73437366853875
 20
219.00329586371333
 11
168.73437366853875
 21
218.00329586371333
  0
LINE
  8
_7-0_
  6
CONTINUOUS
 62
    7
 10
168.73437366853875
 20
219.00329586371333
 11
168.73437366853875
 21
220.0032958637133
  0
LINE
  8
_7-0_
  6
CONTINUOUS
 62
    7
 10
168.73437366853875
 20
220.0032958637133
 11
168.73437366853875
 21
221.00329586371333
  0
LINE
  8
_7-0_
  6
CONTINUOUS
 62
    7
 10
167.6149753589762
 20
218.40830972579817
 11
167.6149753589762
 21
218.15830972579811
  0
LINE
  8
_7-0_
  6
CONTINUOUS
 62
    7
 10
167.6149753589762
 20
219.50329586371339
 11
167.6149753589762
 21
218.40830972579817
  0
LINE
  8
_7-0_
  6
CONTINUOUS
 62
    7
 10
167.6149753589762
 20
220.59828200162797
 11
167.6149753589762
 21
219.50329586371339
  0
LINE
  8
_7-0_
  6
CONTINUOUS
 62
    7
 10
168.73437366853875
 20
193.85329568638951
 11
168.48437365666427
 21
193.85329568638951
  0
LINE
  8
_7-0_
  6
CONTINUOUS
 62
    7
 10
167.68437370597791
 20
193.85319510355151
 11
167.61497535897603
 21
193.84828200162854
  0
ARC
  8
_7-0_
  6
CONTINUOUS
 62
    7
 10
167.63650175283839
 20
193.54424309890853
 40
0.304800000000506
 50
94.049865928173531
 51
159.08816656003858
  0
LINE
  8
_7-0_
  6
CONTINUOUS
 62
    7
 10
167.35177869218819
 20
193.65303564798364
 11
167.25131406388641
 21
193.28559217854888
  0
LINE
  8
_7-0_
  6
CONTINUOUS
 62
    7
 10
167.68437370597791
 20
193.60319552823455
 11
167.6149753589762
 21
193.59828200162866
  0
LINE
  8
_7-0_
  6
CONTINUOUS
 62
    7
 10
167.61497535897603
 20
191.4083097257988
 11
167.68437370597791
 21
191.40339670583159
  0
ARC
  8
_7-0_
  6
CONTINUOUS
 62
    7
 10
167.63650175283856
 20
191.71234862851821
 40
0.3048000000005047
 50
199.56724636964329
 51
265.95013407182648
  0
ARC
  8
_7-0_
  6
CONTINUOUS
 62
    7
 10
167.63650175283856
 20
193.29424309890859
 40
0.3048000000005142
 50
94.049865928173531
 51
159.08816656003858
  0
LINE
  8
_7-0_
  6
CONTINUOUS
 62
    7
 10
167.25170428804523
 20
191.97049206003106
 11
167.35347607578557
 21
191.59912159546763
  0
LINE
  8
_7-0_
  6
CONTINUOUS
 62
    7
 10
167.35177869218819
 20
193.40303564798364
 11
167.25131406388641
 21
193.03559260323197
  0
LINE
  8
_7-0_
  6
CONTINUOUS
 62
    7
 10
168.73437366853875
 20
192.00329586371333
 11
168.48437366853863
 21
192.00329586371333
  0
LINE
  8
_7-0_
  6
CONTINUOUS
 62
    7
 10
168.73437366853875
 20
191.15329561635411
 11
168.48437365666427
 21
191.15329561635411
  0
LINE
  8
_7-0_
  6
CONTINUOUS
 62
    7
 10
168.73437366853875
 20
193.00329586371333
 11
168.48437366853863
 21
193.00329586371333
  0
LINE
  8
_7-0_
  6
CONTINUOUS
 62
    7
 10
167.68437366853868
 20
193.00329586371333
 11
168.48437366853863
 21
193.00329586371333
  0
LINE
  8
_7-0_
  6
CONTINUOUS
 62
    7
 10
167.68437366853868
 20
193.00329586371333
 11
167.68437366853868
 21
194.00329586371333
  0
LINE
  8
_7-0_
  6
CONTINUOUS
 62
    7
 10
167.68437366853868
 20
194.00329586371333
 11
168.48437366853863
 21
194.00329586371333
  0
LINE
  8
_7-0_
  6
CONTINUOUS
 62
    7
 10
168.48437366853863
 20
193.00329586371333
 11
168.48437366853863
 21
194.00329586371333
  0
LINE
  8
_7-0_
  6
CONTINUOUS
 62
    7
 10
167.68437366853868
 20
192.00329586371333
 11
168.48437366853863
 21
192.00329586371333
  0
LINE
  8
_7-0_
  6
CONTINUOUS
 62
    7
 10
168.48437366853863
 20
192.00329586371333
 11
168.48437366853863
 21
193.00329586371333
  0
LINE
  8
_7-0_
  6
CONTINUOUS
 62
    7
 10
167.68437366853868
 20
192.00329586371333
 11
167.68437366853868
 21
193.00329586371333
  0
LINE
  8
_7-0_
  6
CONTINUOUS
 62
    7
 10
167.68437366853868
 20
191.00329586371333
 11
168.48437366853863
 21
191.00329586371333
  0
LINE
  8
_7-0_
  6
CONTINUOUS
 62
    7
 10
168.48437366853863
 20
191.00329586371333
 11
168.48437366853863
 21
192.00329586371333
  0
LINE
  8
_7-0_
  6
CONTINUOUS
 62
    7
 10
167.68437366853868
 20
191.00329586371333
 11
167.68437366853868
 21
192.00329586371333
  0
LINE
  8
_7-0_
  6
CONTINUOUS
 62
    7
 10
167.35177869218819
 20
193.65303564798364
 11
167.35177869218819
 21
193.41240989907663
  0
LINE
  8
_7-0_
  6
CONTINUOUS
 62
    7
 10
167.1525353140704
 20
192.59981559469849
 11
167.18110992047411
 21
192.43570351853526
  0
LINE
  8
_7-0_
  6
CONTINUOUS
 62
    7
 10
167.18110992047411
 20
192.43570351853526
 11
167.18818506165803
 21
192.40677570804507
  0
LINE
  8
_7-0_
  6
CONTINUOUS
 62
    7
 10
167.14261765997326
 20
192.84981610133797
 11
167.18815467725903
 21
192.84981610133797
  0
LINE
  8
_7-0_
  6
CONTINUOUS
 62
    7
 10
167.23473116695362
 20
193.29012492551953
 11
167.18134496300888
 21
193.07199148341567
  0
LINE
  8
_7-0_
  6
CONTINUOUS
 62
    7
 10
167.18134496300888
 20
193.07199148341567
 11
167.14261765997326
 21
192.84981610133797
  0
LINE
  8
_7-0_
  6
CONTINUOUS
 62
    7
 10
167.18815467725903
 20
192.84981610133797
 11
167.14261765997326
 21
192.84981610133797
  0
LINE
  8
_7-0_
  6
CONTINUOUS
 62
    7
 10
167.35177869218819
 20
193.40303564798364
 11
167.35177869218819
 21
192.50329586371339
  0
LINE
  8
_7-0_
  6
CONTINUOUS
 62
    7
 10
167.23473163261479
 20
192.4067747767225
 11
167.23266229863668
 21
192.50329586371339
  0
LINE
  8
_7-0_
  6
CONTINUOUS
 62
    7
 10
167.23473151619941
 20
191.96646502121836
 11
167.23266235026932
 21
191.96527106567771
  0
LINE
  8
_7-0_
  6
CONTINUOUS
 62
    7
 10
167.23266235026932
 20
191.96527106567771
 11
167.23267597086197
 21
191.96527851625833
  0
LINE
  8
_7-0_
  6
CONTINUOUS
 62
    7
 10
167.14261765997326
 20
192.40677570804507
 11
167.18110992047411
 21
192.1857039432183
  0
LINE
  8
_7-0_
  6
CONTINUOUS
 62
    7
 10
167.18110992047411
 20
192.1857039432183
 11
167.23473116695362
 21
191.96646688386351
  0
LINE
  8
_7-0_
  6
CONTINUOUS
 62
    7
 10
167.23473151619941
 20
192.40677570804507
 11
167.14261765997326
 21
192.40677570804507
  0
LINE
  8
_7-0_
  6
CONTINUOUS
 62
    7
 10
167.23266229863668
 20
192.50329586371339
 11
167.23473163261479
 21
192.4067747767225
  0
LINE
  8
_7-0_
  6
CONTINUOUS
 62
    7
 10
167.35177869218819
 20
192.50329586371339
 11
167.23266229863668
 21
192.50329586371339
  0
LINE
  8
_7-0_
  6
CONTINUOUS
 62
    7
 10
167.23473163261479
 20
192.59981652602107
 11
167.23266229863668
 21
192.50329586371339
  0
LINE
  8
_7-0_
  6
CONTINUOUS
 62
    7
 10
167.14261765997326
 20
192.59981559469849
 11
167.23473163261479
 21
192.59981559469849
  0
LINE
  8
_7-0_
  6
CONTINUOUS
 62
    7
 10
167.23473116695362
 20
193.04012535020262
 11
167.18134496300888
 21
192.82199190809876
  0
LINE
  8
_7-0_
  6
CONTINUOUS
 62
    7
 10
167.18134496300888
 20
192.82199190809876
 11
167.14261765997326
 21
192.59981559469849
  0
LINE
  8
_7-0_
  6
CONTINUOUS
 62
    7
 10
167.23473163261479
 20
192.59981559469849
 11
167.14261765997326
 21
192.59981559469849
  0
LINE
  8
_7-0_
  6
CONTINUOUS
 62
    7
 10
167.14261765997326
 20
192.40677570804507
 11
167.23473163261479
 21
192.40677570804507
  0
LINE
  8
_7-0_
  6
CONTINUOUS
 62
    7
 10
168.73437366853875
 20
194.00329586371333
 11
168.73437366853875
 21
193.00329586371333
  0
LINE
  8
_7-0_
  6
CONTINUOUS
 62
    7
 10
168.73437366853875
 20
192.00329586371333
 11
168.73437366853875
 21
193.00329586371333
  0
LINE
  8
_7-0_
  6
CONTINUOUS
 62
    7
 10
168.73437366853875
 20
191.00329586371333
 11
168.73437366853875
 21
192.00329586371333
  0
LINE
  8
_7-0_
  6
CONTINUOUS
 62
    7
 10
167.61497535897603
 20
193.84828200162854
 11
167.6149753589762
 21
193.59828200162866
  0
LINE
  8
_7-0_
  6
CONTINUOUS
 62
    7
 10
167.61497535897603
 20
192.50329586371339
 11
167.61497535897603
 21
191.4083097257988
  0
LINE
  8
_7-0_
  6
CONTINUOUS
 62
    7
 10
167.6149753589762
 20
193.59828200162866
 11
167.61497535897603
 21
192.50329586371339
  0
LINE
  8
_7-0_
  6
CONTINUOUS
 62
    7
 10
168.73437366853875
 20
218.00329586371333
 11
168.73437366853875
 21
194.00329586371333
  0
LINE
  8
_7-0_
  6
CONTINUOUS
 62
    7
 10
168.73437514899671
 20
201.50328612930189
 11
168.48437513712241
 21
201.50328612930189
  0
LINE
  8
_7-0_
  6
CONTINUOUS
 62
    7
 10
164.93437510766568
 20
194.75329051403338
 11
167.68437518748839
 21
194.75329076570409
  0
LINE
  8
_7-0_
  6
CONTINUOUS
 62
    7
 10
168.48437366853863
 20
194.00329586371333
 11
168.48437366853886
 21
206.00329138337627
  0
LINE
  8
_7-0_
  6
CONTINUOUS
 62
    7
 10
168.4843736685388
 20
206.00329138337627
 11
168.4843736685388
 21
218.00329586371333
  0
LINE
  8
_7-0_
  6
CONTINUOUS
 62
    7
 10
167.68437370597791
 20
208.12829586930126
 11
167.68437366853885
 21
218.00329586371333
  0
LINE
  8
_7-0_
  6
CONTINUOUS
 62
    7
 10
166.33437366853871
 20
211.34551347290414
 11
166.33437366853871
 21
207.69079586371333
  0
LINE
  8
_7-0_
  6
CONTINUOUS
 62
    7
 10
167.68437370597791
 20
206.65329592555315
 11
167.08437366853871
 21
206.65329586371336
  0
ARC
  8
_7-0_
  6
CONTINUOUS
 62
    7
 10
167.08437366853871
 20
207.40329586371336
 40
0.75
 50
180
 51
270
  0
LINE
  8
_7-0_
  6
CONTINUOUS
 62
    7
 10
167.68437370597791
 20
206.65329592555315
 11
167.68437370597791
 21
209.50329138337627
  0
LINE
  8
_7-0_
  6
CONTINUOUS
 62
    7
 10
167.68437370597791
 20
209.50329138337627
 11
167.68437370597791
 21
212.35329580187354
  0
LINE
  8
_7-0_
  6
CONTINUOUS
 62
    7
 10
167.68437370597791
 20
212.35329580187354
 11
167.08437366853871
 21
212.35329586371341
  0
ARC
  8
_7-0_
  6
CONTINUOUS
 62
    7
 10
167.08437366853871
 20
211.60329586371329
 40
0.7500000000000139
 50
90
 51
180
  0
LINE
  8
_7-0_
  6
CONTINUOUS
 62
    7
 10
166.33437366853871
 20
207.40329586371336
 11
166.33437366853871
 21
211.60329586371329
  0
LINE
  8
_7-0_
  6
CONTINUOUS
 62
    7
 10
167.68437366853868
 20
194.00329586371333
 11
167.68437371649883
 21
206.65329592555315
  0
LINE
  8
_7-0_
  6
CONTINUOUS
 62
    7
 10
167.68437370597791
 20
117.63847105034753
 11
167.6149753589762
 21
117.63355749021323
  0
LINE
  8
_7-0_
  6
CONTINUOUS
 62
    7
 10
167.6149753589762
 20
115.44358521438343
 11
167.68437370597791
 21
115.43867170407565
  0
ARC
  8
_7-0_
  6
CONTINUOUS
 62
    7
 10
167.63650175283856
 20
115.74762411710349
 40
0.3048000000005051
 50
200.91183343996132
 51
265.95013407182972
  0
LINE
  8
_7-0_
  6
CONTINUOUS
 62
    7
 10
167.22669757842487
 20
116.04280884207355
 11
167.22857582322723
 21
116.03455709123178
  0
LINE
  8
_7-0_
  6
CONTINUOUS
 62
    7
 10
167.22857582322723
 20
116.03455709123178
 11
167.35347607578557
 21
115.64820560456379
  0
LINE
  8
_7-0_
  6
CONTINUOUS
 62
    7
 10
167.18773674625373
 20
116.21397813146128
 11
167.22669757842487
 21
116.04280884207355
  0
LINE
  8
_7-0_
  6
CONTINUOUS
 62
    7
 10
167.18772242716914
 20
116.21374646497085
 11
167.22662179205036
 21
116.0425978975104
  0
LINE
  8
_7-0_
  6
CONTINUOUS
 62
    7
 10
168.73437366853875
 20
115.78857135229864
 11
168.4843736685388
 21
115.78857135229864
  0
LINE
  8
_7-0_
  6
CONTINUOUS
 62
    7
 10
168.73437366853875
 20
114.93857135942334
 11
168.48437365666444
 21
114.93857135942334
  0
LINE
  8
_7-0_
  6
CONTINUOUS
 62
    7
 10
167.68437366853868
 20
114.78857135229864
 11
168.4843736685388
 21
114.78857135229864
  0
LINE
  8
_7-0_
  6
CONTINUOUS
 62
    7
 10
167.68437366853868
 20
114.78857135229864
 11
167.68437366853868
 21
115.78857135229864
  0
LINE
  8
_7-0_
  6
CONTINUOUS
 62
    7
 10
167.68437366853868
 20
115.78857135229864
 11
168.4843736685388
 21
115.78857135229864
  0
LINE
  8
_7-0_
  6
CONTINUOUS
 62
    7
 10
168.4843736685388
 20
114.78857135229864
 11
168.4843736685388
 21
115.78857135229864
  0
LINE
  8
_7-0_
  6
CONTINUOUS
 62
    7
 10
167.35177869218819
 20
115.63883156802833
 11
167.35177869218819
 21
115.65298888043574
  0
LINE
  8
_7-0_
  6
CONTINUOUS
 62
    7
 10
167.23473163261479
 20
116.00174077616199
 11
167.23266235026932
 21
116.00054600571408
  0
LINE
  8
_7-0_
  6
CONTINUOUS
 62
    7
 10
167.14261765997326
 20
116.44205157940405
 11
167.18111003688949
 21
116.22097818476274
  0
LINE
  8
_7-0_
  6
CONTINUOUS
 62
    7
 10
167.18111003688949
 20
116.22097818476274
 11
167.18309945832407
 21
116.21284389698075
  0
LINE
  8
_7-0_
  6
CONTINUOUS
 62
    7
 10
167.23473116695362
 20
116.4420513465734
 11
167.14261777638864
 21
116.4420513465734
  0
LINE
  8
_7-0_
  6
CONTINUOUS
 62
    7
 10
167.23473151619958
 20
116.63509100039615
 11
167.23266235026932
 21
116.5385660512106
  0
LINE
  8
_7-0_
  6
CONTINUOUS
 62
    7
 10
167.23266235026932
 20
116.5385660512106
 11
167.23473151619958
 21
116.44205181223469
  0
LINE
  8
_7-0_
  6
CONTINUOUS
 62
    7
 10
167.14261765997326
 20
116.63509134964215
 11
167.23473116695362
 21
116.63509134964215
  0
LINE
  8
_7-0_
  6
CONTINUOUS
 62
    7
 10
167.23473151619958
 20
117.07540203646885
 11
167.18134507942426
 21
116.85726743021174
  0
LINE
  8
_7-0_
  6
CONTINUOUS
 62
    7
 10
167.18134507942426
 20
116.85726743021174
 11
167.14261765997326
 21
116.6350911168115
  0
LINE
  8
_7-0_
  6
CONTINUOUS
 62
    7
 10
167.23266229863668
 20
117.07659666559973
 11
167.23473163261479
 21
117.07540203646885
  0
ARC
  8
_7-0_
  6
CONTINUOUS
 62
    7
 10
171.14806336562475
 20
115.9876841421896
 40
4.0639999998782272
 50
159.0872659357648
 51
164.45821460158418
  0
LINE
  8
_7-0_
  6
CONTINUOUS
 62
    7
 10
167.23473163261479
 20
116.0017406597467
 11
167.18312064591276
 21
116.2126201467322
  0
LINE
  8
_7-0_
  6
CONTINUOUS
 62
    7
 10
167.23473151619958
 20
116.4420513465734
 11
167.14261765997326
 21
116.4420514629887
  0
LINE
  8
_7-0_
  6
CONTINUOUS
 62
    7
 10
167.23473151619958
 20
116.6350912332268
 11
167.14261765997326
 21
116.6350912332268
  0
LINE
  8
_7-0_
  6
CONTINUOUS
 62
    7
 10
168.73437366853875
 20
114.78857135229864
 11
168.73437366853875
 21
115.78857135229864
  0
LINE
  8
_7-0_
  6
CONTINUOUS
 62
    7
 10
167.6149753589762
 20
117.63355749021323
 11
167.6149753589762
 21
115.44358521438343
  0
ARC
  8
_7-0_
  6
CONTINUOUS
 62
    7
 10
167.6365017527905
 20
117.32951858751269
 40
0.3048000000005075
 50
94.049865928173531
 51
159.08816656003858
  0
LINE
  8
_7-0_
  6
CONTINUOUS
 62
    7
 10
167.68437370597791
 20
131.38847015851303
 11
167.6149753589762
 21
131.38355749021329
  0
LINE
  8
_7-0_
  6
CONTINUOUS
 62
    7
 10
167.6149753589762
 20
129.19358521438351
 11
167.68437370597791
 21
129.18867133611007
  0
ARC
  8
_7-0_
  6
CONTINUOUS
 62
    7
 10
167.63650175283856
 20
129.49762411710352
 40
0.3048000000005051
 50
200.91183343996132
 51
265.95013407182972
  0
LINE
  8
_7-0_
  6
CONTINUOUS
 62
    7
 10
167.22669757842487
 20
129.79280911439224
 11
167.22857582322723
 21
129.78455759638114
  0
LINE
  8
_7-0_
  6
CONTINUOUS
 62
    7
 10
167.22857582322723
 20
129.78455759638114
 11
167.35347607578557
 21
129.39820587688254
  0
LINE
  8
_7-0_
  6
CONTINUOUS
 62
    7
 10
167.18773674625373
 20
129.96397875302599
 11
167.22669757842487
 21
129.79280911439224
  0
LINE
  8
_7-0_
  6
CONTINUOUS
 62
    7
 10
167.18772242716914
 20
129.96374592238234
 11
167.22662179205036
 21
129.79259863549037
  0
LINE
  8
_7-0_
  6
CONTINUOUS
 62
    7
 10
168.73437366853875
 20
130.78857135229864
 11
168.4843736685388
 21
130.78857135229864
  0
LINE
  8
_7-0_
  6
CONTINUOUS
 62
    7
 10
168.73437366853875
 20
122.72952727227959
 11
168.73437366853875
 21
120.04761543231774
  0
LINE
  8
_7-0_
  6
CONTINUOUS
 62
    7
 10
168.73437366853875
 20
117.73226452942037
 11
168.73437366853875
 21
117.04487817517696
  0
LINE
  8
_7-0_
  6
CONTINUOUS
 62
    7
 10
168.73437366853875
 20
131.63857124799059
 11
168.48437365666444
 21
131.63857124799059
  0
LINE
  8
_7-0_
  6
CONTINUOUS
 62
    7
 10
167.68437366853868
 20
130.78857135229864
 11
168.4843736685388
 21
130.78857135229864
  0
LINE
  8
_7-0_
  6
CONTINUOUS
 62
    7
 10
167.68437366853868
 20
115.78857135229864
 11
167.68437366853868
 21
130.78857135229864
  0
LINE
  8
_7-0_
  6
CONTINUOUS
 62
    7
 10
168.4843736685388
 20
115.78857135229864
 11
168.4843736685388
 21
130.78857135229864
  0
LINE
  8
_7-0_
  6
CONTINUOUS
 62
    7
 10
167.68437366853868
 20
131.78857135229864
 11
168.4843736685388
 21
131.78857135229864
  0
LINE
  8
_7-0_
  6
CONTINUOUS
 62
    7
 10
167.68437366853868
 20
130.78857135229864
 11
167.68437366853868
 21
131.78857135229864
  0
LINE
  8
_7-0_
  6
CONTINUOUS
 62
    7
 10
168.4843736685388
 20
130.78857135229864
 11
168.4843736685388
 21
131.78857135229864
  0
LINE
  8
_7-0_
  6
CONTINUOUS
 62
    7
 10
167.35177869218836
 20
129.38883156802845
 11
167.35177869218836
 21
129.40298888043579
  0
LINE
  8
_7-0_
  6
CONTINUOUS
 62
    7
 10
167.23473163261479
 20
129.75174151414199
 11
167.23266235026932
 21
129.75054569595619
  0
LINE
  8
_7-0_
  6
CONTINUOUS
 62
    7
 10
167.14261765997326
 20
130.1920522009687
 11
167.18111003688949
 21
129.97097857349677
  0
LINE
  8
_7-0_
  6
CONTINUOUS
 62
    7
 10
167.18111003688949
 20
129.97097857349677
 11
167.18309945832407
 21
129.96284440213008
  0
LINE
  8
_7-0_
  6
CONTINUOUS
 62
    7
 10
167.23473116695362
 20
130.1920522009687
 11
167.14261777638864
 21
130.1920522009687
  0
LINE
  8
_7-0_
  6
CONTINUOUS
 62
    7
 10
167.23473151619958
 20
130.38509115629955
 11
167.23266235026932
 21
130.28856515937607
  0
LINE
  8
_7-0_
  6
CONTINUOUS
 62
    7
 10
167.23266235026932
 20
130.28856515937607
 11
167.23473151619958
 21
130.1920522009687
  0
LINE
  8
_7-0_
  6
CONTINUOUS
 62
    7
 10
167.14261765997326
 20
130.38509115629955
 11
167.23473116695362
 21
130.38509115629955
  0
LINE
  8
_7-0_
  6
CONTINUOUS
 62
    7
 10
167.23473151619958
 20
130.82540184312628
 11
167.18134507942426
 21
130.60726746969984
  0
LINE
  8
_7-0_
  6
CONTINUOUS
 62
    7
 10
167.18134507942426
 20
130.60726746969984
 11
167.14261765997326
 21
130.38509115629955
  0
LINE
  8
_7-0_
  6
CONTINUOUS
 62
    7
 10
167.23266229863685
 20
130.82659666559979
 11
167.23473163261479
 21
130.82540184312628
  0
ARC
  8
_7-0_
  6
CONTINUOUS
 62
    7
 10
171.14806336562475
 20
129.7376841421896
 40
4.0639999998782272
 50
159.0872659357648
 51
164.45821460158418
  0
LINE
  8
_7-0_
  6
CONTINUOUS
 62
    7
 10
167.23473163261479
 20
129.75174151414199
 11
167.18312064591276
 21
129.96262088471218
  0
LINE
  8
_7-0_
  6
CONTINUOUS
 62
    7
 10
167.23473151619958
 20
130.1920522009687
 11
167.14261765997326
 21
130.1920522009687
  0
LINE
  8
_7-0_
  6
CONTINUOUS
 62
    7
 10
167.23473151619958
 20
130.38509115629955
 11
167.14261765997326
 21
130.38509115629955
  0
LINE
  8
_7-0_
  6
CONTINUOUS
 62
    7
 10
168.73437366853875
 20
130.78857135229864
 11
168.73437366853875
 21
131.78857135229864
  0
LINE
  8
_7-0_
  6
CONTINUOUS
 62
    7
 10
168.73437366853875
 20
115.78857135229864
 11
168.73437366853875
 21
116.81574939042917
  0
LINE
  8
_7-0_
  6
CONTINUOUS
 62
    7
 10
168.73437366853875
 20
116.81574939042917
 11
168.73437366853875
 21
117.04487817517696
  0
LINE
  8
_7-0_
  6
CONTINUOUS
 62
    7
 10
168.73437366853875
 20
117.73226452942037
 11
168.73437366853875
 21
117.96139331416813
  0
LINE
  8
_7-0_
  6
CONTINUOUS
 62
    7
 10
168.73437366853875
 20
117.96139331416813
 11
168.73437366853875
 21
119.65291354478429
  0
LINE
  8
_7-0_
  6
CONTINUOUS
 62
    7
 10
168.73437366853875
 20
119.65291354478429
 11
168.73437366853875
 21
119.76261584155719
  0
LINE
  8
_7-0_
  6
CONTINUOUS
 62
    7
 10
168.73437366853875
 20
119.76261584155719
 11
168.73437366853875
 21
120.04761543231774
  0
LINE
  8
_7-0_
  6
CONTINUOUS
 62
    7
 10
167.6149753589762
 20
131.38355749021329
 11
167.6149753589762
 21
129.19358521438351
  0
ARC
  8
_7-0_
  6
CONTINUOUS
 62
    7
 10
167.6365017527905
 20
131.07951858751269
 40
0.3048000000005075
 50
94.049865928173531
 51
159.08816656003858
  0
LINE
  8
_7-0_
  6
CONTINUOUS
 62
    7
 10
168.73437366853875
 20
122.72952727227959
 11
168.73437366853875
 21
130.78857135229864
  0
LINE
  8
_7-0_
  6
CONTINUOUS
 62
    7
 10
164.93437510661334
 20
115.5885713522986
 11
164.93437510661334
 21
114.78857135229864
  0
LINE
  8
_7-0_
  6
CONTINUOUS
 62
    7
 10
167.37649161774135
 20
115.588571332089
 11
164.93437510661334
 21
115.5885713522986
  0
LINE
  8
_7-0_
  6
CONTINUOUS
 62
    7
 10
167.68437366853868
 20
114.78857135229864
 11
164.93437510661334
 21
114.78857135229864
  0
LINE
  8
_7-0_
  6
CONTINUOUS
 62
    7
 10
163.43437510661334
 20
115.5885713522986
 11
163.43437510661334
 21
114.78857135229864
  0
LINE
  8
_7-0_
  6
CONTINUOUS
 62
    7
 10
164.93437510661334
 20
115.5885713522986
 11
163.43437510661334
 21
115.5885713522986
  0
LINE
  8
_7-0_
  6
CONTINUOUS
 62
    7
 10
164.93437510661334
 20
114.78857135229864
 11
163.43437510661334
 21
114.78857135229864
  0
LINE
  8
_7-0_
  6
CONTINUOUS
 62
    7
 10
166.33437366853871
 20
125.11593015689371
 11
166.33437366853871
 21
121.46121254770287
  0
LINE
  8
_7-0_
  6
CONTINUOUS
 62
    7
 10
168.73437366853875
 20
124.2737123539878
 11
168.48437365666444
 21
124.2737123539878
  0
LINE
  8
_7-0_
  6
CONTINUOUS
 62
    7
 10
167.68437370597791
 20
120.42371260954271
 11
167.08437366853871
 21
120.4237125477029
  0
ARC
  8
_7-0_
  6
CONTINUOUS
 62
    7
 10
167.08437366853871
 20
121.1737125477029
 40
0.75
 50
180
 51
270
  0
LINE
  8
_7-0_
  6
CONTINUOUS
 62
    7
 10
167.68437370597791
 20
120.42371260954271
 11
167.68437370597791
 21
123.27370806736581
  0
LINE
  8
_7-0_
  6
CONTINUOUS
 62
    7
 10
167.68437370597791
 20
123.27370806736581
 11
167.68437370597791
 21
126.1237124858631
  0
LINE
  8
_7-0_
  6
CONTINUOUS
 62
    7
 10
167.68437370597791
 20
126.1237124858631
 11
167.08437366853871
 21
126.12371254770295
  0
ARC
  8
_7-0_
  6
CONTINUOUS
 62
    7
 10
167.08437366853871
 20
125.37371254770283
 40
0.7500000000000139
 50
90
 51
180
  0
LINE
  8
_7-0_
  6
CONTINUOUS
 62
    7
 10
166.33437366853871
 20
121.1737125477029
 11
166.33437366853871
 21
125.37371254770283
  0
LINE
  8
_7-0_
  6
CONTINUOUS
 62
    7
 10
167.68437366853885
 20
221.00329586371333
 11
258.1343736261553
 21
221.00329586371333
  0
LINE
  8
_7-0_
  6
CONTINUOUS
 62
    7
 10
258.1343736261553
 20
220.0032958637133
 11
168.73437366853875
 21
220.0032958637133
  0
LINE
  8
_7-0_
  6
CONTINUOUS
 62
    7
 10
258.1343736261553
 20
219.00329586371333
 11
168.73437366853875
 21
219.00329586371321
  0
LINE
  8
_7-0_
  6
CONTINUOUS
 62
    7
 10
258.1343736261553
 20
218.00329586371333
 11
168.73437366853875
 21
218.00329586371333
  0
LINE
  8
_7-0_
  6
CONTINUOUS
 62
    7
 10
258.13437362615513
 20
194.00329586371333
 11
168.73437366853875
 21
194.00329586371333
  0
LINE
  8
_7-0_
  6
CONTINUOUS
 62
    7
 10
258.13437362615513
 20
193.00329586371333
 11
168.73437366853875
 21
193.00329586371333
  0
LINE
  8
_7-0_
  6
CONTINUOUS
 62
    7
 10
168.73437366853875
 20
192.00329586371333
 11
258.13437362615513
 21
192.00329586371333
  0
LINE
  8
_7-0_
  6
CONTINUOUS
 62
    7
 10
258.13437362615513
 20
191.00329586371333
 11
168.73437366853875
 21
191.00329586371333
  0
LINE
  8
_7-0_
  6
CONTINUOUS
 62
    7
 10
167.68437366853868
 20
131.78857135229867
 11
258.13437362615513
 21
131.78857135229898
  0
LINE
  8
_7-0_
  6
CONTINUOUS
 62
    7
 10
258.13437362615513
 20
130.78857135229898
 11
168.4843736685388
 21
130.78857135229858
  0
LINE
  8
_7-0_
  6
CONTINUOUS
 62
    7
 10
168.73437366853875
 20
127.68857136234316
 11
258.13437362615513
 21
127.68857144209664
  0
LINE
  8
_7-0_
  6
CONTINUOUS
 62
    7
 10
168.73437366853875
 20
127.53857169353528
 11
258.13437362615513
 21
127.53857169353568
  0
LINE
  8
_7-0_
  6
CONTINUOUS
 62
    7
 10
258.13437362615513
 20
127.4635713553956
 11
168.73437366853875
 21
127.46357135264508
  0
LINE
  8
_7-0_
  6
CONTINUOUS
 62
    7
 10
168.73437366853875
 20
125.96139367723029
 11
258.13437362615513
 21
125.96139367723074
  0
LINE
  8
_7-0_
  6
CONTINUOUS
 62
    7
 10
258.13437362615513
 20
125.73226410948842
 11
168.73437366853875
 21
125.73226410948794
  0
LINE
  8
_7-0_
  6
CONTINUOUS
 62
    7
 10
168.73437366853875
 20
125.04487817808852
 11
258.13437362615513
 21
125.04487820120613
  0
LINE
  8
_7-0_
  6
CONTINUOUS
 62
    7
 10
258.13437362615496
 20
124.81574956380927
 11
168.73437366853875
 21
124.8157495638089
  0
LINE
  8
_7-0_
  6
CONTINUOUS
 62
    7
 10
168.73437366853875
 20
123.12422934972804
 11
258.13437362615513
 21
123.12422934972855
  0
LINE
  8
_7-0_
  6
CONTINUOUS
 62
    7
 10
258.13437362615513
 20
123.01452700640072
 11
168.73437366871468
 21
123.01452687907601
  0
LINE
  8
_7-0_
  6
CONTINUOUS
 62
    7
 10
168.73437366853875
 20
119.76261584370537
 11
258.13437362615513
 21
119.76261586076194
  0
LINE
  8
_7-0_
  6
CONTINUOUS
 62
    7
 10
258.13437362615513
 20
119.65291351002724
 11
168.73437366853875
 21
119.65291354089649
  0
LINE
  8
_7-0_
  6
CONTINUOUS
 62
    7
 10
168.73437366853875
 20
117.96139331220204
 11
258.13437362615496
 21
117.96139329659135
  0
LINE
  8
_7-0_
  6
CONTINUOUS
 62
    7
 10
258.13437362615496
 20
117.73226466083139
 11
168.73437366853875
 21
117.73226466083093
  0
LINE
  8
_7-0_
  6
CONTINUOUS
 62
    7
 10
168.73437366853875
 20
117.04487818804636
 11
258.13437362615513
 21
117.04487829022954
  0
LINE
  8
_7-0_
  6
CONTINUOUS
 62
    7
 10
258.13437362615496
 20
116.81574917577199
 11
168.73437366853875
 21
116.8157493664183
  0
LINE
  8
_7-0_
  6
CONTINUOUS
 62
    7
 10
168.73437366853875
 20
115.78857135229867
 11
258.13437362615513
 21
115.7885713522989
  0
LINE
  8
_7-0_
  6
CONTINUOUS
 62
    7
 10
258.13437362615496
 20
114.7885713522989
 11
163.43437510661334
 21
114.78857135229867
  0
LINE
  8
_7-0_
  6
CENTER2
 62
   18
 10
166.43437534166008
 20
198.50329088778411
 11
163.79051959525526
 21
198.50329088778411
  0
LINE
  8
_7-0_
  6
CENTER2
 62
   18
 10
165.43437534166014
 20
196.73098100785145
 11
165.43437534166014
 21
200.53792673898854
  0
LINE
  8
_7-0_
  6
CENTER2
 62
   18
 10
166.43437386120208
 20
206.00329138337627
 11
163.79051811479726
 21
206.00329138337627
  0
LINE
  8
_7-0_
  6
CENTER2
 62
   18
 10
165.43437386120214
 20
207.77560126330894
 11
165.43437386120214
 21
203.96865553217185
  0
LINE
  8
_7-0_
  6
CENTER2
 62
   18
 10
166.43437386120208
 20
213.50329091151598
 11
163.79051811479726
 21
213.50329091151598
  0
LINE
  8
_7-0_
  6
CENTER2
 62
   18
 10
165.43437386120214
 20
215.27560079144865
 11
165.43437386120214
 21
211.46865506031156
  0
LINE
  8
_7-0_
  6
CONTINUOUS
 62
    7
 10
114.64719626168223
 20
207.69079586371333
 11
114.64719626168223
 21
211.34551347290414
  0
LINE
  8
_7-0_
  6
CONTINUOUS
 62
    7
 10
108.34364866512876
 20
209.27440650650896
 11
105.19187486685208
 21
209.27440650650896
  0
LINE
  8
_7-0_
  6
CONTINUOUS
 62
    7
 10
105.19187486685208
 20
209.27440650650896
 11
105.19187486685208
 21
209.87859198829454
  0
LINE
  8
_7-0_
  6
CONTINUOUS
 62
    7
 10
105.19187486685208
 20
209.87859198829454
 11
108.34364866512876
 21
209.87859198829454
  0
LINE
  8
_7-0_
  6
CONTINUOUS
 62
    7
 10
108.34364866512876
 20
209.87859198829454
 11
108.34364866512876
 21
209.27440650650896
  0
LINE
  8
_7-0_
  6
CONTINUOUS
 62
    7
 10
108.34364866512876
 20
208.07068067918521
 11
105.19187486685208
 21
208.07068067918521
  0
LINE
  8
_7-0_
  6
CONTINUOUS
 62
    7
 10
105.19187486685208
 20
208.07068067918521
 11
105.19187486685208
 21
208.67486616097082
  0
LINE
  8
_7-0_
  6
CONTINUOUS
 62
    7
 10
105.19187486685208
 20
208.67486616097082
 11
108.34364866512876
 21
208.67486616097082
  0
LINE
  8
_7-0_
  6
CONTINUOUS
 62
    7
 10
108.34364866512876
 20
208.67486616097082
 11
108.34364866512876
 21
208.07068067918521
  0
LINE
  8
_7-0_
  6
CONTINUOUS
 62
    7
 10
114.64719626168223
 20
209.27440650650896
 11
108.34364866512876
 21
209.27440650650896
  0
LINE
  8
_7-0_
  6
CONTINUOUS
 62
    7
 10
108.34364866512876
 20
209.27440650650896
 11
108.34364866512876
 21
209.87859198829454
  0
LINE
  8
_7-0_
  6
CONTINUOUS
 62
    7
 10
108.34364866512876
 20
209.87859198829454
 11
114.64719626168223
 21
209.87859198829454
  0
LINE
  8
_7-0_
  6
CONTINUOUS
 62
    7
 10
114.64719626168223
 20
209.87859198829454
 11
114.64719626168223
 21
209.27440650650896
  0
LINE
  8
_7-0_
  6
CONTINUOUS
 62
    7
 10
114.64719626168223
 20
208.07068067918521
 11
108.34364866512876
 21
208.07068067918521
  0
LINE
  8
_7-0_
  6
CONTINUOUS
 62
    7
 10
108.34364866512876
 20
208.07068067918521
 11
108.34364866512876
 21
208.67486616097082
  0
LINE
  8
_7-0_
  6
CONTINUOUS
 62
    7
 10
108.34364866512876
 20
208.67486616097082
 11
114.64719626168223
 21
208.67486616097082
  0
LINE
  8
_7-0_
  6
CONTINUOUS
 62
    7
 10
114.64719626168223
 20
208.67486616097082
 11
114.64719626168223
 21
208.07068067918521
  0
LINE
  8
_7-0_
  6
CONTINUOUS
 62
    7
 10
114.64719626168223
 20
210.49599329582599
 11
108.34364866512876
 21
210.49599329582599
  0
LINE
  8
_7-0_
  6
CONTINUOUS
 62
    7
 10
108.34364866512876
 20
210.49599329582599
 11
108.34364866512876
 21
211.10017877761168
  0
LINE
  8
_7-0_
  6
CONTINUOUS
 62
    7
 10
108.34364866512876
 20
211.10017877761168
 11
114.64719626168223
 21
211.10017877761168
  0
LINE
  8
_7-0_
  6
CONTINUOUS
 62
    7
 10
114.64719626168223
 20
211.10017877761168
 11
114.64719626168223
 21
210.49599329582599
  0
LINE
  8
_7-0_
  6
CONTINUOUS
 62
    7
 10
108.34364866512876
 20
210.49599329582599
 11
105.19187486685208
 21
210.49599329582599
  0
LINE
  8
_7-0_
  6
CONTINUOUS
 62
    7
 10
105.19187486685208
 20
210.49599329582599
 11
105.19187486685208
 21
211.10017877761168
  0
LINE
  8
_7-0_
  6
CONTINUOUS
 62
    7
 10
105.19187486685208
 20
211.10017877761168
 11
108.34364866512876
 21
211.10017877761168
  0
LINE
  8
_7-0_
  6
CONTINUOUS
 62
    7
 10
108.34364866512876
 20
211.10017877761168
 11
108.34364866512876
 21
210.49599329582599
  0
LINE
  8
_7-0_
  6
CONTINUOUS
 62
    7
 10
114.64719626168223
 20
121.46121254770287
 11
114.64719626168223
 21
125.11593015689371
  0
LINE
  8
_7-0_
  6
CONTINUOUS
 62
    7
 10
108.34364866512876
 20
122.98647861140545
 11
105.19187486685208
 21
122.98647861140545
  0
LINE
  8
_7-0_
  6
CONTINUOUS
 62
    7
 10
105.19187486685208
 20
122.98647861140545
 11
105.19187486685208
 21
123.59066409319112
  0
LINE
  8
_7-0_
  6
CONTINUOUS
 62
    7
 10
105.19187486685208
 20
123.59066409319112
 11
108.34364866512876
 21
123.59066409319112
  0
LINE
  8
_7-0_
  6
CONTINUOUS
 62
    7
 10
108.34364866512876
 20
123.59066409319112
 11
108.34364866512876
 21
122.98647861140545
  0
LINE
  8
_7-0_
  6
CONTINUOUS
 62
    7
 10
114.64719626168223
 20
124.099924104324
 11
108.34364866512876
 21
124.099924104324
  0
LINE
  8
_7-0_
  6
CONTINUOUS
 62
    7
 10
108.34364866512876
 20
124.099924104324
 11
108.34364866512876
 21
124.70410958610966
  0
LINE
  8
_7-0_
  6
CONTINUOUS
 62
    7
 10
108.34364866512876
 20
124.70410958610966
 11
114.64719626168223
 21
124.70410958610966
  0
LINE
  8
_7-0_
  6
CONTINUOUS
 62
    7
 10
114.64719626168223
 20
124.70410958610966
 11
114.64719626168223
 21
124.099924104324
  0
LINE
  8
_7-0_
  6
CONTINUOUS
 62
    7
 10
108.34364866512876
 20
124.099924104324
 11
105.19187486685208
 21
124.099924104324
  0
LINE
  8
_7-0_
  6
CONTINUOUS
 62
    7
 10
105.19187486685208
 20
124.099924104324
 11
105.19187486685208
 21
124.70410958610966
  0
LINE
  8
_7-0_
  6
CONTINUOUS
 62
    7
 10
105.19187486685208
 20
124.70410958610966
 11
108.34364866512876
 21
124.70410958610966
  0
LINE
  8
_7-0_
  6
CONTINUOUS
 62
    7
 10
108.34364866512876
 20
124.70410958610966
 11
108.34364866512876
 21
124.099924104324
  0
LINE
  8
_7-0_
  6
CONTINUOUS
 62
    7
 10
108.34364866512876
 20
121.7827527840817
 11
105.19187486685208
 21
121.7827527840817
  0
LINE
  8
_7-0_
  6
CONTINUOUS
 62
    7
 10
105.19187486685208
 20
121.7827527840817
 11
105.19187486685208
 21
122.38693826586737
  0
LINE
  8
_7-0_
  6
CONTINUOUS
 62
    7
 10
105.19187486685208
 20
122.38693826586737
 11
108.34364866512876
 21
122.38693826586737
  0
LINE
  8
_7-0_
  6
CONTINUOUS
 62
    7
 10
108.34364866512876
 20
122.38693826586737
 11
108.34364866512876
 21
121.7827527840817
  0
LINE
  8
_7-0_
  6
CONTINUOUS
 62
    7
 10
114.64719626168223
 20
122.98647861140545
 11
108.34364866512876
 21
122.98647861140545
  0
LINE
  8
_7-0_
  6
CONTINUOUS
 62
    7
 10
108.34364866512876
 20
122.98647861140545
 11
108.34364866512876
 21
123.59066409319112
  0
LINE
  8
_7-0_
  6
CONTINUOUS
 62
    7
 10
108.34364866512876
 20
123.59066409319112
 11
114.64719626168223
 21
123.59066409319112
  0
LINE
  8
_7-0_
  6
CONTINUOUS
 62
    7
 10
114.64719626168223
 20
123.59066409319112
 11
114.64719626168223
 21
122.98647861140545
  0
LINE
  8
_7-0_
  6
CONTINUOUS
 62
    7
 10
114.64719626168223
 20
121.7827527840817
 11
108.34364866512876
 21
121.7827527840817
  0
LINE
  8
_7-0_
  6
CONTINUOUS
 62
    7
 10
108.34364866512876
 20
121.7827527840817
 11
108.34364866512876
 21
122.38693826586737
  0
LINE
  8
_7-0_
  6
CONTINUOUS
 62
    7
 10
108.34364866512876
 20
122.38693826586737
 11
114.64719626168223
 21
122.38693826586737
  0
LINE
  8
_7-0_
  6
CONTINUOUS
 62
    7
 10
114.64719626168223
 20
122.38693826586737
 11
114.64719626168223
 21
121.7827527840817
  0
ARC
  8
_7-0_
  6
CONTINUOUS
 62
    7
 10
132.30674049491398
 20
210.43183407060644
 40
1.0848100501831006
 50
122.62170014023206
 51
237.37829985976796
  0
ARC
  8
_7-0_
  6
CONTINUOUS
 62
    7
 10
131.13712039454782
 20
208.604475266011
 40
1.0848100501831006
 50
302.62170014023206
 51
57.378299859767878
  0
ARC
  8
_7-0_
  6
CONTINUOUS
 62
    7
 10
133.33641609864793
 20
210.43183407060644
 40
1.0848100501831006
 50
122.62170014023206
 51
237.37829985976796
  0
ARC
  8
_7-0_
  6
CONTINUOUS
 62
    7
 10
132.16679599828171
 20
208.604475266011
 40
1.0848100501831006
 50
302.62170014023206
 51
57.378299859767878
  0
LINE
  8
_7-0_
  6
CONTINUOUS
 62
    7
 10
114.64719626168223
 20
211.34551347290414
 11
131.7219304447309
 21
211.34551347290414
  0
LINE
  8
_7-0_
  6
CONTINUOUS
 62
    7
 10
132.75160604846479
 20
211.34551347290414
 11
166.33437366853871
 21
211.34551347290414
  0
LINE
  8
_7-0_
  6
CONTINUOUS
 62
    7
 10
166.33437366853871
 20
207.69079586371333
 11
132.75160604846487
 21
207.69079586371333
  0
LINE
  8
_7-0_
  6
CONTINUOUS
 62
    7
 10
131.7219304447309
 20
207.69079586371333
 11
114.64719626168223
 21
207.69079586371333
  0
ARC
  8
_7-0_
  6
CONTINUOUS
 62
    7
 10
132.30674049491398
 20
124.202250754596
 40
1.0848100501831006
 50
122.62170014023206
 51
237.37829985976796
  0
ARC
  8
_7-0_
  6
CONTINUOUS
 62
    7
 10
131.13712039454782
 20
122.37489195000057
 40
1.0848100501831006
 50
302.62170014023206
 51
57.378299859767878
  0
ARC
  8
_7-0_
  6
CONTINUOUS
 62
    7
 10
133.33641609864793
 20
124.202250754596
 40
1.0848100501831006
 50
122.62170014023206
 51
237.37829985976796
  0
ARC
  8
_7-0_
  6
CONTINUOUS
 62
    7
 10
132.16679599828171
 20
122.37489195000057
 40
1.0848100501831006
 50
302.62170014023206
 51
57.378299859767878
  0
LINE
  8
_7-0_
  6
CONTINUOUS
 62
    7
 10
114.64719626168223
 20
125.11593015689371
 11
131.7219304447309
 21
125.11593015689371
  0
LINE
  8
_7-0_
  6
CONTINUOUS
 62
    7
 10
132.75160604846479
 20
125.11593015689371
 11
166.33437366853871
 21
125.11593015689371
  0
LINE
  8
_7-0_
  6
CONTINUOUS
 62
    7
 10
166.33437366853871
 20
121.46121254770287
 11
132.75160604846482
 21
121.46121254770287
  0
LINE
  8
_7-0_
  6
CONTINUOUS
 62
    7
 10
131.7219304447309
 20
121.46121254770287
 11
114.64719626168223
 21
121.46121254770287
  0
LINE
  8
_7-1_
  6
CONTINUOUS
 62
   18
 10
105.19187486685208
 20
233.50584112149533
 11
167.68437366853885
 21
233.50584112149533
  0
LINE
  8
_7-1_
  6
CONTINUOUS
 62
   18
 10
105.19187486685208
 20
233.50584112149533
 11
106.64076360628568
 21
233.89406968914909
  0
LINE
  8
_7-1_
  6
CONTINUOUS
 62
   18
 10
105.19187486685208
 20
233.50584112149533
 11
106.64076360628568
 21
233.11761255384152
  0
LINE
  8
_7-1_
  6
CONTINUOUS
 62
   18
 10
167.68437366853885
 20
233.50584112149533
 11
166.23548492910526
 21
233.11761255384152
  0
LINE
  8
_7-1_
  6
CONTINUOUS
 62
   18
 10
167.68437366853885
 20
233.50584112149533
 11
166.23548492910526
 21
233.89406968914909
  0
LINE
  8
_7-1_
  6
CONTINUOUS
 62
   18
 10
167.68437366853885
 20
234.00584112149533
 11
167.68437366853885
 21
221.74599719407808
  0
LINE
  8
_7-1_
  6
CONTINUOUS
 62
   18
 10
167.68437366853885
 20
233.50584112149533
 11
169.13326240797243
 21
233.89406968914909
  0
LINE
  8
_7-1_
  6
CONTINUOUS
 62
   18
 10
167.68437366853885
 20
233.50584112149533
 11
169.13326240797243
 21
233.11761255384152
  0
LINE
  8
_7-1_
  6
CONTINUOUS
 62
   18
 10
156.28960089309109
 20
198.50329088778411
 11
156.28960089309109
 21
213.50329091151598
  0
LINE
  8
_7-1_
  6
CONTINUOUS
 62
   18
 10
156.28960089309109
 20
198.50329088778411
 11
155.9013723254373
 21
199.95217962721773
  0
LINE
  8
_7-1_
  6
CONTINUOUS
 62
   18
 10
156.28960089309109
 20
198.50329088778411
 11
156.67782946074487
 21
199.95217962721773
  0
LINE
  8
_7-1_
  6
CONTINUOUS
 62
   18
 10
156.28960089309109
 20
213.50329091151598
 11
156.67782946074487
 21
212.0544021720824
  0
LINE
  8
_7-1_
  6
CONTINUOUS
 62
   18
 10
156.28960089309109
 20
213.50329091151598
 11
155.9013723254373
 21
212.0544021720824
  0
LINE
  8
_7-1_
  6
CONTINUOUS
 62
   18
 10
155.78960089309109
 20
198.50329088778411
 11
162.82352306970039
 21
198.50329088778411
  0
LINE
  8
_7-1_
  6
CONTINUOUS
 62
   18
 10
155.78960089309109
 20
213.50329091151598
 11
162.82352306970039
 21
213.50329091151598
  0
LINE
  8
_7-1_
  6
CONTINUOUS
 62
   18
 10
150.82372368765831
 20
194.75329051403338
 11
150.82372368765831
 21
217.25329128526675
  0
LINE
  8
_7-1_
  6
CONTINUOUS
 62
   18
 10
150.82372368765831
 20
194.75329051403338
 11
150.43549512000453
 21
196.20217925346696
  0
LINE
  8
_7-1_
  6
CONTINUOUS
 62
   18
 10
150.82372368765831
 20
194.75329051403338
 11
151.21195225531209
 21
196.20217925346696
  0
LINE
  8
_7-1_
  6
CONTINUOUS
 62
   18
 10
150.82372368765831
 20
217.25329128526675
 11
151.21195225531209
 21
215.80440254583314
  0
LINE
  8
_7-1_
  6
CONTINUOUS
 62
   18
 10
150.82372368765831
 20
217.25329128526675
 11
150.43549512000453
 21
215.80440254583314
  0
LINE
  8
_7-1_
  6
CONTINUOUS
 62
   18
 10
150.32372368765831
 20
194.75329051403338
 11
162.82352306970039
 21
194.75329051403338
  0
LINE
  8
_7-1_
  6
CONTINUOUS
 62
   18
 10
150.32372368765831
 20
217.25329128526675
 11
162.82352306970039
 21
217.25329128526675
  0
LINE
  8
_7-1_
  6
CONTINUOUS
 62
   18
 10
144.41545386059917
 20
191.00329586371333
 11
144.41545386059917
 21
221.00329586371333
  0
LINE
  8
_7-1_
  6
CONTINUOUS
 62
   18
 10
144.41545386059917
 20
191.00329586371333
 11
144.02722529294538
 21
192.45218460314691
  0
LINE
  8
_7-1_
  6
CONTINUOUS
 62
   18
 10
144.41545386059917
 20
191.00329586371333
 11
144.80368242825295
 21
192.45218460314691
  0
LINE
  8
_7-1_
  6
CONTINUOUS
 62
   18
 10
144.41545386059917
 20
221.00329586371333
 11
144.80368242825295
 21
219.55440712427974
  0
LINE
  8
_7-1_
  6
CONTINUOUS
 62
   18
 10
144.41545386059917
 20
221.00329586371333
 11
144.02722529294538
 21
219.55440712427974
  0
LINE
  8
_7-1_
  6
CONTINUOUS
 62
   18
 10
143.91545386059917
 20
191.00329586371333
 11
166.90722443008121
 21
191.00329586371333
  0
LINE
  8
_7-1_
  6
CONTINUOUS
 62
   18
 10
143.91545386059917
 20
221.00329586371333
 11
166.90722443008121
 21
221.00329586371333
  0
TEXT
  8
_7-1_
 62
    7
 10
155.78960089309109
 20
201.81793988557953
 40
4
 41
1
 50
90
  1
30
  0
TEXT
  8
_7-1_
 62
    7
 10
150.32372368765831
 20
201.81793988557953
 40
4
 41
1
 50
90
  1
45
  0
TEXT
  8
_7-1_
 62
    7
 10
143.91545386059917
 20
201.81794484964279
 40
4
 41
1
 50
90
  1
60
  0
LINE
  8
_7-1_
  6
CONTINUOUS
 62
   18
 10
105.19187486685208
 20
234.00584112149533
 11
105.19187486685208
 21
213.38200934579438
  0
LINE
  8
_7-1_
  6
CONTINUOUS
 62
   18
 10
165.43437534166014
 20
180.4062789934602
 11
166.88326408109372
 21
180.79450756111398
  0
LINE
  8
_7-1_
  6
CONTINUOUS
 62
   18
 10
165.43437534166014
 20
180.4062789934602
 11
166.88326408109372
 21
180.01805042580642
  0
LINE
  8
_7-1_
  6
CONTINUOUS
 62
   18
 10
165.43437534166014
 20
179.9062789934602
 11
165.43437534166014
 21
195.91458385191555
  0
LINE
  8
_7-1_
  6
CONTINUOUS
 62
   18
 10
163.43437510661334
 20
101.96780453033423
 11
164.88326384604692
 21
102.35603309798801
  0
LINE
  8
_7-1_
  6
CONTINUOUS
 62
   18
 10
163.43437510661334
 20
101.96780453033423
 11
164.88326384604692
 21
101.57957596268045
  0
LINE
  8
_7-1_
  6
CONTINUOUS
 62
   18
 10
163.43437510661334
 20
101.46780453033423
 11
163.43437510661334
 21
114.12129732298431
  0
LINE
  8
_7-1_
  6
CONTINUOUS
 62
   18
 10
156.9589933470616
 20
114.78857135229867
 11
156.9589933470616
 21
131.78857135229867
  0
LINE
  8
_7-1_
  6
CONTINUOUS
 62
   18
 10
156.9589933470616
 20
114.78857135229867
 11
156.57076477940785
 21
116.23746009173227
  0
LINE
  8
_7-1_
  6
CONTINUOUS
 62
   18
 10
156.9589933470616
 20
114.78857135229867
 11
157.34722191471541
 21
116.23746009173227
  0
LINE
  8
_7-1_
  6
CONTINUOUS
 62
   18
 10
156.9589933470616
 20
131.78857135229867
 11
157.34722191471541
 21
130.33968261286506
  0
LINE
  8
_7-1_
  6
CONTINUOUS
 62
   18
 10
156.9589933470616
 20
131.78857135229867
 11
156.57076477940785
 21
130.33968261286506
  0
LINE
  8
_7-1_
  6
CONTINUOUS
 62
   18
 10
156.4589933470616
 20
114.78857135229867
 11
162.74170362743544
 21
114.78857135229867
  0
LINE
  8
_7-1_
  6
CONTINUOUS
 62
   18
 10
156.4589933470616
 20
131.78857135229867
 11
166.95622128940283
 21
131.78857135229867
  0
TEXT
  8
_7-1_
 62
    7
 10
156.4589933470616
 20
116.71121254770287
 40
4
 41
1
 50
90
  1
34
  0
LINE
  8
_7-1_
  6
CONTINUOUS
 62
   18
 10
179.67847528457096
 20
214.14887794200797
 11
180.22320451377009
 21
215.54647232767791
  0
LINE
  8
_7-1_
  6
CONTINUOUS
 62
   18
 10
179.67847528457096
 20
214.14887794200797
 11
179.45142744240635
 21
215.63159479878419
  0
LINE
  8
_7-1_
  6
CONTINUOUS
 62
   18
 10
179.67847528457096
 20
214.14887794200797
 11
180.89506514632211
 21
225.17929268855175
  0
LINE
  8
_7-1_
  6
CONTINUOUS
 62
   18
 10
136.1127790447247
 20
211.54584765552004
 11
136.6575082739238
 21
212.94344204118999
  0
LINE
  8
_7-1_
  6
CONTINUOUS
 62
   18
 10
136.1127790447247
 20
211.54584765552004
 11
135.88573120256006
 21
213.02856451229632
  0
LINE
  8
_7-1_
  6
CONTINUOUS
 62
   18
 10
136.1127790447247
 20
211.54584765552004
 11
137.32936890647584
 21
222.57626240206383
  0
TEXT
  8
_7-1_
 62
    7
 10
179.08996188638022
 20
226.33164803929417
 40
4
 41
1
 50
0
  1
①
  0
TEXT
  8
_7-1_
 62
    7
 10
135.52426564653396
 20
223.72861775280625
 40
4
 41
1
 50
0
  1
②
  0
TEXT
  8
_7-1_
 62
    7
 10
72.177881992973652
 20
211.62046636956426
 40
4
 41
1
 50
0
  1
PE (G/Y)
  0
TEXT
  8
_7-1_
 62
    7
 10
71.879851125490972
 20
206.45459799986406
 40
4
 41
1
 50
0
  1
AC/L(BLACK)
  0
TEXT
  8
_7-1_
 62
    7
 10
71.482476635514046
 20
200.89135514018693
 40
4
 41
1
 50
0
  1
AC/N(WHITE)
  0
LINE
  8
_7-1_
  6
CONTINUOUS
 62
   18
 10
163.43437510661334
 20
101.96780453033423
 11
263.43437426791064
 21
101.96780453033423
  0
TEXT
  8
_7-1_
 62
    7
 10
210.18437468726199
 20
102.46780453033423
 40
4
 41
1
 50
0
  1
200
  0
LINE
  8
_7-1_
  6
CONTINUOUS
 62
   18
 10
165.43437534166014
 20
180.4062789934602
 11
261.43437403391624
 21
180.4062789934602
  0
TEXT
  8
_7-1_
 62
    7
 10
210.18437468778819
 20
180.9062789934602
 40
4
 41
1
 50
0
  1
192
  0
LINE
  8
_7-1_
  6
CONTINUOUS
 62
   18
 10
167.68437366853885
 20
233.50584112149533
 11
259.1843736261552
 21
233.50584112149533
  0
TEXT
  8
_7-1_
 62
    7
 10
210.18437364734703
 20
234.00584112149533
 40
4
 41
1
 50
0
  1
183
  0
LINE
  8
_0-0_
  6
CONTINUOUS
 62
    7
 10
9.9942125336886249
 20
101.41625086206869
 11
9.9942125336886249
 21
185.31125086206873
  0
LINE
  8
_0-0_
  6
CONTINUOUS
 62
    7
 10
16.162962533688613
 20
262.4971183620687
 11
16.162962533688613
 21
210.67961836206876
  0
LINE
  8
_0-0_
  6
CONTINUOUS
 62
    7
 10
9.9942125336886249
 20
210.67961836206876
 11
9.9942125336886249
 21
262.4971183620687
  0
LINE
  8
_0-0_
  6
CONTINUOUS
 62
    7
 10
16.162962533688613
 20
185.31125086206873
 11
16.162962533688613
 21
101.41625086206869
  0
LINE
  8
_0-0_
  6
CONTINUOUS
 62
    7
 10
9.9942125336886249
 20
262.4971183620687
 11
22.213590141421036
 21
262.4971183620687
  0
LINE
  8
_0-0_
  6
CONTINUOUS
 62
    7
 10
9.9942125336886249
 20
245.22461836206872
 11
22.213590141421036
 21
245.22461836206872
  0
LINE
  8
_0-0_
  6
CONTINUOUS
 62
    7
 10
22.213590141421036
 20
227.95211836206874
 11
9.9942125336886249
 21
227.95211836206874
  0
LINE
  8
_0-0_
  6
CONTINUOUS
 62
    7
 10
22.213590141421036
 20
210.67961836206876
 11
9.9942125336886249
 21
210.67961836206876
  0
LINE
  8
_0-0_
  6
CONTINUOUS
 62
    7
 10
9.9942125336886249
 20
185.31125086206873
 11
22.213590141421036
 21
185.31125086206873
  0
LINE
  8
_0-0_
  6
CONTINUOUS
 62
    7
 10
9.9942125336886249
 20
170.50625086206872
 11
22.213590141421036
 21
170.50625086206872
  0
LINE
  8
_0-0_
  6
CONTINUOUS
 62
    7
 10
22.213590141421036
 20
155.70125086206871
 11
9.9942125336886249
 21
155.70125086206871
  0
LINE
  8
_0-0_
  6
CONTINUOUS
 62
    7
 10
9.9942125336886249
 20
140.89625086206871
 11
22.213590141421036
 21
140.89625086206871
  0
LINE
  8
_0-0_
  6
CONTINUOUS
 62
    7
 10
22.213590141421036
 20
126.09125086206873
 11
9.9942125336886249
 21
126.09125086206873
  0
LINE
  8
_0-0_
  6
CONTINUOUS
 62
    7
 10
9.9942125336886249
 20
111.28625086206872
 11
22.213590141421036
 21
111.28625086206872
  0
LINE
  8
_0-0_
  6
CONTINUOUS
 62
    7
 10
22.213590141421036
 20
101.41625086206869
 11
9.9942125336886249
 21
101.41625086206869
  0
TEXT
  8
_0-0_
 62
    7
 10
21.03890133755479
 20
248.69086612956871
 40
3.7012499999999874
 41
0.698413000000002
 50
90
  1
JIS  2級
  0
TEXT
  8
_0-0_
 62
    7
 10
14.929212533688627
 20
246.14993394644369
 40
3.7012500000000159
 41
0.8333329999999976
 50
90
  1
ネジの等級
  0
TEXT
  8
_0-0_
 62
    7
 10
21.009482546228127
 20
232.55882704323136
 40
3.7012499999999897
 41
0.8680560000000048
 50
89.580999999999988
  1
±0.1
  0
TEXT
  8
_0-0_
 62
    7
 10
14.929212533688627
 20
227.95211404394373
 40
3.7012499999999874
 41
0.6666670000000022
 50
90
  1
偏心又は片寄り
  0
TEXT
  8
_0-0_
 62
    7
 10
14.911741314790191
 20
216.22107892894257
 40
3.7012500000000518
 41
0.8333329999999942
 50
89.676000000000001
  1
角度
  0
TEXT
  8
_0-0_
 62
    7
 10
21.019182623659759
 20
215.29072520110798
 40
3.7012500000000154
 41
0.8680559999999944
 50
89.719000000000036
  1
±30'
  0
TEXT
  8
_0-0_
 62
    7
 10
21.03890133755479
 20
173.8926355245687
 40
3.7012499999999874
 41
0.8680560000000051
 50
90
  1
±0.8
  0
TEXT
  8
_0-0_
 62
    7
 10
15.889775033688607
 20
172.8327508620687
 40
2.5380000000000109
 41
0.9999999999999968
 50
90
  1
1000以下
  0
TEXT
  8
_0-0_
 62
    7
 10
12.861848178790125
 20
172.21108831812608
 40
2.5379999999999753
 41
1.0000000000000086
 50
90.566999999999993
  1
250をこえ
  0
TEXT
  8
_0-0_
 62
    7
 10
21.038901337554818
 20
159.08763552456869
 40
3.7012500000000159
 41
0.8680559999999972
 50
90
  1
±0.5
  0
TEXT
  8
_0-0_
 62
    7
 10
15.889775033688607
 20
158.6622508620687
 40
2.5380000000000109
 41
0.9999999999999952
 50
90
  1
250以下
  0
TEXT
  8
_0-0_
 62
    7
 10
12.765760784535046
 20
158.01800517984293
 40
2.5380000000000064
 41
0.9999999999999954
 50
89.553000000000011
  1
63をこえ
  0
TEXT
  8
_0-0_
 62
    7
 10
15.889775033688607
 20
144.49175086206872
 40
2.5380000000000109
 41
0.9999999999999942
 50
90
  1
63以下
  0
TEXT
  8
_0-0_
 62
    7
 10
21.038901337554818
 20
144.28263552456871
 40
3.7012500000000159
 41
0.8680559999999946
 50
90
  1
±0.3
  0
TEXT
  8
_0-0_
 62
    7
 10
12.760700685616058
 20
143.21178468234134
 40
2.5379999999999887
 41
1.0000000000000042
 50
89.496000000000009
  1
16をこえ
  0
TEXT
  8
_0-0_
 62
    7
 10
15.889775033688607
 20
129.68675086206872
 40
2.5380000000000109
 41
0.9999999999999981
 50
90
  1
16以下
  0
TEXT
  8
_0-0_
 62
    7
 10
21.03890133755479
 20
129.47763552456871
 40
3.7012499999999874
 41
0.868056000000004
 50
90
  1
±0.2
  0
TEXT
  8
_0-0_
 62
    7
 10
12.785232149502633
 20
129.04653807240916
 40
2.5380000000000042
 41
0.9999999999999997
 50
89.740000000000094
  1
4をこえ
  0
TEXT
  8
_0-0_
 62
    7
 10
21.024309532286366
 20
114.66594370753449
 40
3.7012500000000447
 41
0.8680559999999907
 50
89.792000000000086
  1
±0.1
  0
TEXT
  8
_0-0_
 62
    7
 10
14.929212533688627
 20
114.06219021269373
 40
3.7012500000000159
 41
0.8333329999999965
 50
90
  1
４以下
  0
TEXT
  8
_0-0_
 62
    7
 10
14.929212533688627
 20
103.26687709581872
 40
3.7012500000000159
 41
0.8333329999999943
 50
90
  1
寸法
  0
TEXT
  8
_0-0_
 62
    7
 10
21.020071636277521
 20
101.71720270559174
 40
3.7012499999999279
 41
0.8333330000000178
 50
89.767000000000066
  1
寸法差
  0
TEXT
  8
_7-1_
 62
    7
 10
277.53612091758458
 20
234.00584112149533
 40
4
 41
1
 50
0
  1
130±20
  0
TEXT
  8
_7-1_
 62
    7
 10
128.68812426769545
 20
234.00584112149533
 40
4
 41
1
 50
0
  1
150±10
  0
ENDSEC
  0
EOF
