  0
SECTION
  2
HEADER
  9
$ACADVER
  1
AC1009
  9
$INSBASE
 10
0
 20
0
 30
0
  9
$EXTMIN
 10
0
 20
0
  9
$EXTMAX
 10
420
 20
297
  9
$LIMMIN
 10
0
 20
0
  9
$LIMMAX
 10
420
 20
297
  9
$LTSCALE
 40
1
  0
ENDSEC
  0
SECTION
  2
TABLES
  0
TABLE
  2
LTYPE
 70
     9
  0
LTYPE
  2
CONTINUOUS
 70
    64
  3
実線
 72
    65
 73
     0
 40
0.0
  0
LTYPE
  2
DASHED1
 70
    64
  3
--  --  --  --  --  --  --  --  
 72
    65
 73
     2
 40
2.5
 49
1.25
 49
-1.25
  0
LTYPE
  2
DASHED2
 70
    64
  3
----    ----    ----    ----    
 72
    65
 73
     2
 40
5.0
 49
2.5
 49
-2.5
  0
LTYPE
  2
DASHED3
 70
    64
  3
------  ------  ------  ------  
 72
    65
 73
     2
 40
5.0
 49
3.75
 49
-1.25
  0
LTYPE
  2
CENTER1
 70
    64
  3
----- - ----- - ----- - ----- - 
 72
    65
 73
     4
 40
10.0
 49
6.25
 49
-1.25
 49
1.25
 49
-1.25
  0
LTYPE
  2
CENTER2
 70
    64
  3
----------  --  ----------  --  
 72
    65
 73
     4
 40
20.0
 49
12.5
 49
-2.5
 49
2.5
 49
-2.5
  0
LTYPE
  2
PHANTOM1
 70
    64
  3
--- - - --- - - --- - - --- - - 
 72
    65
 73
     6
 40
10.0
 49
3.25
 49
-1.25
 49
1.25
 49
-1.25
 49
1.25
 49
-1.25
  0
LTYPE
  2
PHANTOM2
 70
    64
  3
--------  -  -  --------  -  -  
 72
    65
 73
     6
 40
20.0
 49
10.0
 49
-2.5
 49
1.25
 49
-2.5
 49
1.25
 49
-2.5
  0
LTYPE
  2
DOT
 70
    64
  3
-   -   -   -   -   -   -   -   
 72
    65
 73
     2
 40
2.5
 49
0.625
 49
-1.875
  0
LTYPE
  2
DUMMY
 70
    64
  3
ダミー
 72
    65
 73
     0
 40
0.0
  0
LTYPE
  2
RAND1
 70
    64
  3
ランダム線1
 72
    65
 73
     4
 40
10.0
 49
1.0
 49
-2.0
 49
3.0
 49
-4.0
  0
LTYPE
  2
RAND2
 70
    64
  3
ランダム線2
 72
    65
 73
     4
 40
14.0
 49
2.0
 49
-3.0
 49
4.0
 49
-5.0
  0
LTYPE
  2
RAND3
 70
    64
  3
ランダム線3
 72
    65
 73
     4
 40
18.0
 49
3.0
 49
-4.0
 49
5.0
 49
-6.0
  0
LTYPE
  2
RAND4
 70
    64
  3
ランダム線4
 72
    65
 73
     4
 40
22.0
 49
4.0
 49
-5.0
 49
6.0
 49
-7.0
  0
LTYPE
  2
RAND5
 70
    64
  3
ランダム線5
 72
    65
 73
     4
 40
26.0
 49
5.0
 49
-6.0
 49
7.0
 49
-8.0
  0
LTYPE
  2
LONG1
 70
    64
  3
----------  --  ----------  --  
 72
    65
 73
     4
 40
40.0
 49
32.5
 49
-2.5
 49
2.5
 49
-2.5
  0
LTYPE
  2
LONG2
 70
    64
  3
--------  -  -  --------  -  -  
 72
    65
 73
     6
 40
40.0
 49
30.0
 49
-2.5
 49
1.25
 49
-2.5
 49
1.25
 49
-2.5
  0
LTYPE
  2
LONG3
 70
    64
  3
+++++++++++++++..+++++++++++++++
 72
    65
 73
     2
 40
40.0
 49
37.5
 49
-2.5
  0
LTYPE
  2
LONG4
 70
    64
  3
+++++++++++++++..+++++++++++++++
 72
    65
 73
     2
 40
80.0
 49
75.0
 49
-5.0
  0
LTYPE
  2
LONG5
 70
    64
  3
----------  --  ----------  --  
 72
    65
 73
     4
 40
60.0
 49
37.5
 49
-7.5
 49
7.5
 49
-7.5
  0
LTYPE
  2
dashed
 70
   64
  3
-------   -------------   ------
 72
   65
 73
    2
 40
7.5
 49
6
 49
-1.5
  0
LTYPE
  2
dashed_spaced
 70
   64
  3
----        --------        ----
 72
   65
 73
    2
 40
12
 49
6
 49
-6
  0
LTYPE
  2
long_dashed_dotted
 70
   64
  3
------------- --- --------------
 72
   65
 73
    4
 40
15.25
 49
12
 49
-1.5
 49
0.25
 49
-1.5
  0
LTYPE
  2
long_dashed_double-dotted
 70
   64
  3
----------- --- --- ------------
 72
   65
 73
    6
 40
17
 49
12
 49
-1.5
 49
0.25
 49
-1.5
 49
0.25
 49
-1.5
  0
LTYPE
  2
long_dashed_triplicate-dotted
 70
   64
  3
--------- --- --- --- ----------
 72
   65
 73
    8
 40
18.75
 49
12
 49
-1.5
 49
0.25
 49
-1.5
 49
0.25
 49
-1.5
 49
0.25
 49
-1.5
  0
LTYPE
  2
dotted
 70
   64
  3
   -       -       -       -    
 72
   65
 73
    2
 40
1.75
 49
0.25
 49
-1.5
  0
LTYPE
  2
chain
 70
   64
  3
-------------- -- --------------
 72
   65
 73
    4
 40
18.5
 49
12
 49
-1.5
 49
3.5
 49
-1.5
  0
LTYPE
  2
chain_double_dash
 70
   64
  3
------------ -- -- -------------
 72
   65
 73
    6
 40
23.5
 49
12
 49
-1.5
 49
3.5
 49
-1.5
 49
3.5
 49
-1.5
  0
LTYPE
  2
dashed_dotted
 70
   64
  3
-----------     -     ----------
 72
   65
 73
    4
 40
9.25
 49
6
 49
-1.5
 49
0.25
 49
-1.5
  0
LTYPE
  2
double-dashed_dotted
 70
   64
  3
------   -----------   -   -----
 72
   65
 73
    6
 40
16.75
 49
6
 49
-1.5
 49
6
 49
-1.5
 49
0.25
 49
-1.5
  0
LTYPE
  2
dashed_double-dotted
 70
   64
  3
---------    -    -    ---------
 72
   65
 73
    6
 40
11
 49
6
 49
-1.5
 49
0.25
 49
-1.5
 49
0.25
 49
-1.5
  0
LTYPE
  2
double-dashed_double-dotted
 70
   64
  3
-----   ---------   -   -   ----
 72
   65
 73
    8
 40
18.5
 49
6
 49
-1.5
 49
6
 49
-1.5
 49
0.25
 49
-1.5
 49
0.25
 49
-1.5
  0
LTYPE
  2
dashed_triplicate-dotted
 70
   64
  3
-------    -    -    -    ------
 72
   65
 73
    8
 40
12.75
 49
6
 49
-1.5
 49
0.25
 49
-1.5
 49
0.25
 49
-1.5
 49
0.25
 49
-1.5
  0
LTYPE
  2
double-dashed_triplicate-dotted
 70
   64
  3
-----  ---------  -  -  -  -----
 72
   65
 73
   10
 40
20.25
 49
6
 49
-1.5
 49
6
 49
-1.5
 49
0.25
 49
-1.5
 49
0.25
 49
-1.5
 49
0.25
 49
-1.5
  0
LTYPE
  2
undefined
 70
   64
  3
--------------------------------
 72
   65
 73
    0
 40
0
  0
LTYPE
  2
_
 70
   64
  3
                                
 72
   65
 73
    0
 40
0
  0
LTYPE
  2
__18
 70
   64
  3
                                
 72
   65
 73
    0
 40
0
  0
LTYPE
  2
__19
 70
   64
  3
                                
 72
   65
 73
    0
 40
0
  0
LTYPE
  2
__20
 70
   64
  3
                                
 72
   65
 73
    0
 40
0
  0
LTYPE
  2
__21
 70
   64
  3
                                
 72
   65
 73
    0
 40
0
  0
LTYPE
  2
__22
 70
   64
  3
                                
 72
   65
 73
    0
 40
0
  0
LTYPE
  2
__23
 70
   64
  3
                                
 72
   65
 73
    0
 40
0
  0
LTYPE
  2
__24
 70
   64
  3
                                
 72
   65
 73
    0
 40
0
  0
LTYPE
  2
__25
 70
   64
  3
                                
 72
   65
 73
    0
 40
0
  0
LTYPE
  2
__26
 70
   64
  3
                                
 72
   65
 73
    0
 40
0
  0
LTYPE
  2
__27
 70
   64
  3
                                
 72
   65
 73
    0
 40
0
  0
LTYPE
  2
__28
 70
   64
  3
                                
 72
   65
 73
    0
 40
0
  0
LTYPE
  2
__29
 70
   64
  3
                                
 72
   65
 73
    0
 40
0
  0
LTYPE
  2
__30
 70
   64
  3
                                
 72
   65
 73
    0
 40
0
  0
LTYPE
  2
__31
 70
   64
  3
                                
 72
   65
 73
    0
 40
0
  0
LTYPE
  2
__32
 70
   64
  3
                                
 72
   65
 73
    0
 40
0
  0
ENDTAB
  0
TABLE
  2
STYLE
  5
3
100
AcDbSymbolTable
 70
     1
  0
STYLE
  5
10
100
AcDbSymbolTableRecord
100
AcDbTextStyleTableRecord
  2
STANDARD
 70
     0
 40
0.0
 41
1.0
 50
0.0
 71
     0
 42
0.2
  3
txt
  4
bigfont.shx
  0
STYLE
  5
26
100
AcDbSymbolTableRecord
100
AcDbTextStyleTableRecord
  2
TATEGAKI
 70
    68
 40
0.0
 41
1.0
 50
0.0
 71
     0
 42
1.0
  3
txt
  4
bigfont.shx
  0
ENDTAB
  0
TABLE
  2
LAYER
 70
   16
  0
LAYER
  2
_0-0_
 70
   64
 62
    7
  6
CONTINUOUS
  0
LAYER
  2
_1-0_
 70
   64
 62
    7
  6
CONTINUOUS
  0
LAYER
  2
_1-1_
 70
   64
 62
    7
  6
CONTINUOUS
  0
LAYER
  2
_1-2_
 70
   64
 62
    7
  6
CONTINUOUS
  0
LAYER
  2
_1-3_
 70
   64
 62
    7
  6
CONTINUOUS
  0
LAYER
  2
_1-4_
 70
   64
 62
    7
  6
CONTINUOUS
  0
LAYER
  2
_1-5_
 70
   64
 62
    7
  6
CONTINUOUS
  0
LAYER
  2
_1-6_
 70
   64
 62
    7
  6
CONTINUOUS
  0
LAYER
  2
_1-7_
 70
   64
 62
    7
  6
CONTINUOUS
  0
LAYER
  2
_1-8_
 70
   64
 62
    7
  6
CONTINUOUS
  0
LAYER
  2
_1-9_
 70
   64
 62
    7
  6
CONTINUOUS
  0
LAYER
  2
_1-a_
 70
   64
 62
    7
  6
CONTINUOUS
  0
LAYER
  2
_1-b_
 70
   64
 62
    7
  6
CONTINUOUS
  0
LAYER
  2
_1-d_
 70
   64
 62
    7
  6
CONTINUOUS
  0
LAYER
  2
_1-f_
 70
   64
 62
    7
  6
CONTINUOUS
  0
LAYER
  2
ADD_LINE
 70
   64
 62
    7
  6
CONTINUOUS
  0
ENDTAB
  0
ENDSEC
  0
SECTION
  2
BLOCKS
  0
BLOCK
  2
-000-MG
 70
   64
 10
0
 20
0
 30
0
  0
LINE
  8
_1-2_
  6
CONTINUOUS
 62
    7
 10
-10
 20
-0.9000000000000056
 11
10
 21
-0.9000000000000056
  0
LINE
  8
_1-2_
  6
CONTINUOUS
 62
    7
 10
10
 20
-0.9000000000000056
 11
10
 21
0.9000000000000056
  0
LINE
  8
_1-2_
  6
CONTINUOUS
 62
    7
 10
10
 20
0.9000000000000056
 11
-10
 21
0.9000000000000056
  0
LINE
  8
_1-2_
  6
CONTINUOUS
 62
    7
 10
-10
 20
0.9000000000000056
 11
-10
 21
-0.9000000000000056
  0
LINE
  8
_2-2_
  6
CONTINUOUS
 62
   18
 10
9.7066017177984225
 20
-0.8999999999997632
 11
9.9999999999998934
 21
-0.6066017177982914
  0
LINE
  8
_2-2_
  6
CONTINUOUS
 62
   18
 10
8.9994949366118266
 20
-0.8999999999996921
 11
10.000000000000153
 21
0.1005050633886339
  0
LINE
  8
_2-2_
  6
CONTINUOUS
 62
   18
 10
8.2923881554247068
 20
-0.9000000000001446
 11
10.000000000000439
 21
0.8076118445755868
  0
LINE
  8
_2-2_
  6
CONTINUOUS
 62
   18
 10
7.5852813742380487
 20
-0.9000000000001358
 11
9.3852813742377919
 21
0.8999999999996068
  0
LINE
  8
_2-2_
  6
CONTINUOUS
 62
   18
 10
6.8781745930514369
 20
-0.9000000000000811
 11
8.6781745930511782
 21
0.8999999999996601
  0
LINE
  8
_2-2_
  6
CONTINUOUS
 62
   18
 10
6.1710678118648232
 20
-0.9000000000000274
 11
7.9710678118645646
 21
0.8999999999997134
  0
LINE
  8
_2-2_
  6
CONTINUOUS
 62
   18
 10
5.4639610306782096
 20
-0.8999999999999741
 11
7.2639610306779527
 21
0.8999999999997685
  0
LINE
  8
_2-2_
  6
CONTINUOUS
 62
   18
 10
4.756854249491596
 20
-0.8999999999999206
 11
6.5568542494913391
 21
0.8999999999998222
  0
LINE
  8
_2-2_
  6
CONTINUOUS
 62
   18
 10
4.0497474683069461
 20
-0.8999999999997223
 11
5.8497474683066901
 21
0.9000000000000207
  0
LINE
  8
_2-2_
  6
CONTINUOUS
 62
   18
 10
3.3426406871203342
 20
-0.8999999999996675
 11
5.1426406871200765
 21
0.9000000000000745
  0
LINE
  8
_2-2_
  6
CONTINUOUS
 62
   18
 10
2.6355339059337215
 20
-0.8999999999996132
 11
4.4355339059334629
 21
0.9000000000001282
  0
LINE
  8
_2-2_
  6
CONTINUOUS
 62
   18
 10
1.9284271247471079
 20
-0.8999999999995599
 11
3.7284271247468501
 21
0.9000000000001819
  0
LINE
  8
_2-2_
  6
CONTINUOUS
 62
   18
 10
1.2213203435604942
 20
-0.8999999999995065
 11
3.0213203435602374
 21
0.9000000000002359
  0
LINE
  8
_2-2_
  6
CONTINUOUS
 62
   18
 10
0.5142135623736052
 20
-0.8999999999997285
 11
2.3142135623732996
 21
0.8999999999999657
  0
LINE
  8
_2-2_
  6
CONTINUOUS
 62
   18
 10
-0.1928932188129897
 20
-0.8999999999996565
 11
1.6071067811861788
 21
0.8999999999995116
  0
LINE
  8
_2-2_
  6
CONTINUOUS
 62
   18
 10
-0.8999999999995838
 20
-0.8999999999995836
 11
0.8999999999995838
 21
0.8999999999995836
  0
LINE
  8
_2-2_
  6
CONTINUOUS
 62
   18
 10
-1.6071067811861788
 20
-0.8999999999995116
 11
0.1928932188129897
 21
0.8999999999996565
  0
LINE
  8
_2-2_
  6
CONTINUOUS
 62
   18
 10
-2.3142135623732996
 20
-0.8999999999999657
 11
-0.5142135623736052
 21
0.8999999999997285
  0
LINE
  8
_2-2_
  6
CONTINUOUS
 62
   18
 10
-3.0213203435602374
 20
-0.9000000000002359
 11
-1.2213203435604942
 21
0.8999999999995065
  0
LINE
  8
_2-2_
  6
CONTINUOUS
 62
   18
 10
-3.7284271247468501
 20
-0.9000000000001819
 11
-1.9284271247471079
 21
0.8999999999995599
  0
LINE
  8
_2-2_
  6
CONTINUOUS
 62
   18
 10
-4.4355339059334629
 20
-0.9000000000001282
 11
-2.6355339059337215
 21
0.8999999999996132
  0
LINE
  8
_2-2_
  6
CONTINUOUS
 62
   18
 10
-5.1426406871200765
 20
-0.9000000000000745
 11
-3.3426406871203342
 21
0.8999999999996675
  0
LINE
  8
_2-2_
  6
CONTINUOUS
 62
   18
 10
-5.8497474683066901
 20
-0.9000000000000207
 11
-4.0497474683069461
 21
0.8999999999997223
  0
LINE
  8
_2-2_
  6
CONTINUOUS
 62
   18
 10
-6.5568542494913391
 20
-0.8999999999998222
 11
-4.756854249491596
 21
0.8999999999999206
  0
LINE
  8
_2-2_
  6
CONTINUOUS
 62
   18
 10
-7.2639610306779527
 20
-0.8999999999997685
 11
-5.4639610306782096
 21
0.8999999999999741
  0
LINE
  8
_2-2_
  6
CONTINUOUS
 62
   18
 10
-7.9710678118645646
 20
-0.8999999999997134
 11
-6.1710678118648232
 21
0.9000000000000274
  0
LINE
  8
_2-2_
  6
CONTINUOUS
 62
   18
 10
-8.6781745930511782
 20
-0.8999999999996601
 11
-6.8781745930514369
 21
0.9000000000000811
  0
LINE
  8
_2-2_
  6
CONTINUOUS
 62
   18
 10
-9.3852813742377919
 20
-0.8999999999996068
 11
-7.5852813742380487
 21
0.9000000000001358
  0
LINE
  8
_2-2_
  6
CONTINUOUS
 62
   18
 10
-10.000000000000439
 20
-0.8076118445755868
 11
-8.2923881554247068
 21
0.9000000000001446
  0
LINE
  8
_2-2_
  6
CONTINUOUS
 62
   18
 10
-10.000000000000153
 20
-0.1005050633886339
 11
-8.9994949366118266
 21
0.8999999999996921
  0
LINE
  8
_2-2_
  6
CONTINUOUS
 62
   18
 10
-9.9999999999998934
 20
0.6066017177982914
 11
-9.7066017177984225
 21
0.8999999999997632
  0
ENDBLK
  0
ENDSEC
  0
SECTION
  2
ENTITIES
  0
TEXT
  8
_1-f_
 62
    7
 10
120.97866940485012
 20
26.08918495708113
 40
3.5
 41
1
 50
0
  1
100％
  0
LINE
  8
_0-0_
  6
CONTINUOUS
 62
    7
 10
396.28582420887415
 20
275.89925962428231
 11
276.30998320887409
 21
275.89925962428231
  0
TEXT
  8
_0-0_
 62
    7
 10
307.28582820887414
 20
47.501616696061134
 40
4
 41
1.0000000000000009
 50
0
  1
難波
  0
LINE
  8
_0-0_
  6
CONTINUOUS
 62
    7
 10
16.286964263866651
 20
191.4593531263065
 11
396.28582420887409
 21
191.4593531263065
  0
LINE
  8
_0-0_
  6
CONTINUOUS
 62
    7
 10
19.288154579167582
 20
79.711547667917316
 11
298.28537120035105
 21
79.711547667917316
  0
LINE
  8
_0-0_
  6
CONTINUOUS
 62
    7
 10
396.28582420887415
 20
84.296150624282276
 11
301.28583220887413
 21
84.296150624282276
  0
LINE
  8
_0-0_
  6
CONTINUOUS
 62
    7
 10
316.30997520887399
 20
270.89927962428226
 11
316.30997520887399
 21
191.4593531263065
  0
LINE
  8
_0-0_
  6
CONTINUOUS
 62
    7
 10
396.28582420887415
 20
281.29615162428229
 11
396.28582420887415
 21
24.29614462428232
  0
LINE
  8
_0-0_
  6
CONTINUOUS
 62
    7
 10
38.701512579319626
 20
273.09939465860793
 11
18.917795474056504
 21
273.09939465860793
  0
TEXT
  8
_0-0_
 62
    7
 10
19.139678455822661
 20
273.41300675785135
 40
4.9999999999999858
 41
1.0000000000000013
 50
0
  1
◆外形図
  0
LINE
  8
_0-0_
  6
CONTINUOUS
 62
    7
 10
281.2328422088741
 20
275.74344662428223
 11
278.98285020887408
 21
271.24344462428223
  0
LINE
  8
_0-0_
  6
CONTINUOUS
 62
    7
 10
281.2328422088741
 20
275.74344662428223
 11
283.4828422088741
 21
271.24344462428223
  0
LINE
  8
_0-0_
  6
CONTINUOUS
 62
    7
 10
276.30996720887413
 20
275.89925962428231
 11
276.30996720887413
 21
270.89927962428231
  0
LINE
  8
_0-0_
  6
CONTINUOUS
 62
    7
 10
286.30997520887411
 20
275.89925962428231
 11
286.30997520887411
 21
270.89927962428231
  0
LINE
  8
_0-0_
  6
CONTINUOUS
 62
    7
 10
316.30997520887411
 20
275.89925962428231
 11
316.30997520887411
 21
270.89927962428231
  0
LINE
  8
_0-0_
  6
CONTINUOUS
 62
    7
 10
276.30996720887413
 20
281.29615162428229
 11
276.30996720887413
 21
275.89925962428231
  0
LINE
  8
_0-0_
  6
CONTINUOUS
 62
    7
 10
286.30997520887411
 20
281.29615162428229
 11
286.30997520887411
 21
275.89925962428231
  0
LINE
  8
_0-0_
  6
CONTINUOUS
 62
    7
 10
316.30997520887411
 20
281.29615162428229
 11
316.30997520887411
 21
275.89925962428231
  0
LINE
  8
_0-0_
  6
CONTINUOUS
 62
    7
 10
376.30997520887411
 20
281.29615162428229
 11
376.30997520887411
 21
270.89927962428231
  0
LINE
  8
_0-0_
  6
CONTINUOUS
 62
    7
 10
386.30997520887399
 20
281.29615162428229
 11
386.30997520887399
 21
270.89927962428231
  0
LINE
  8
_0-0_
  6
CONTINUOUS
 62
    7
 10
276.30996720887413
 20
270.89927962428231
 11
396.28582420887415
 21
270.89927962428231
  0
TEXT
  8
_0-0_
 62
    7
 10
278.12561721922964
 20
277.05770329473376
 40
3
 41
1
 50
0
  1
Ｎｏ
  0
TEXT
  8
_0-0_
 62
    7
 10
293.47695794332435
 20
277.1070645189269
 40
3
 41
1.0000000000000007
 50
0
  1
年　月　日
  0
TEXT
  8
_0-0_
 62
    7
 10
334.19996790274001
 20
277.03302268263712
 40
3
 41
1.0000000000000011
 50
0
  1
訂　正　記　事
  0
TEXT
  8
_0-0_
 62
    7
 10
377.61316458068654
 20
276.39749692114924
 40
4.0000000000000142
 41
0.9999999999999973
 50
0
  1
担当
  0
TEXT
  8
_0-0_
 62
    7
 10
387.28796452255972
 20
276.4468581453425
 40
4
 41
1.0000000000000009
 50
0
  1
検印
  0
TEXT
  8
_0-0_
 62
    7
 10
280.25640555343307
 20
271.2642403594474
 40
4
 41
1
 50
0
  1
1
  0
LINE
  8
_0-0_
  6
CONTINUOUS
 62
    7
 10
278.98285020887408
 20
271.24344462428223
 11
283.4828422088741
 21
271.24344462428223
  0
LINE
  8
_0-0_
  6
CONTINUOUS
 62
    7
 10
351.28582420887415
 20
54.296150624282276
 11
351.28582420887415
 21
44.296148624282282
  0
LINE
  8
_0-0_
  6
CONTINUOUS
 62
    7
 10
311.30880320887411
 20
40.575352624282303
 11
311.30880320887411
 21
37.575355624282295
  0
LINE
  8
_0-0_
  6
CONTINUOUS
 62
    7
 10
311.30880320887411
 20
40.575352624282303
 11
318.30880120887412
 21
42.075351624282277
  0
LINE
  8
_0-0_
  6
CONTINUOUS
 62
    7
 10
318.30880120887412
 20
42.075351624282277
 11
318.30880120887412
 21
36.075350624282279
  0
LINE
  8
_0-0_
  6
CONTINUOUS
 62
    7
 10
311.30880320887411
 20
37.575355624282295
 11
318.30880120887412
 21
36.075350624282279
  0
LINE
  8
_0-0_
  6
CONTINUOUS
 62
    7
 10
346.28583220887413
 20
54.296150624282276
 11
346.28583220887413
 21
24.29614462428232
  0
LINE
  8
_0-0_
  6
CONTINUOUS
 62
    7
 10
376.28583220887413
 20
54.296150624282276
 11
376.28583220887413
 21
44.296148624282282
  0
LINE
  8
_0-0_
  6
CONTINUOUS
 62
    7
 10
381.28587420887413
 20
54.296150624282276
 11
381.28587420887413
 21
44.296148624282282
  0
LINE
  8
_0-0_
  6
CONTINUOUS
 62
    7
 10
321.28584920887408
 20
44.296148624282282
 11
321.28584920887408
 21
34.296145624282317
  0
LINE
  8
_0-0_
  6
CONTINUOUS
 62
    7
 10
326.2858412088741
 20
44.296148624282282
 11
326.2858412088741
 21
34.296145624282317
  0
LINE
  8
_0-0_
  6
CONTINUOUS
 62
    7
 10
336.28587420887413
 20
54.296150624282276
 11
336.28587420887413
 21
44.296148624282282
  0
LINE
  8
_0-0_
  6
CONTINUOUS
 62
    7
 10
331.28583220887413
 20
54.296150624282276
 11
331.28583220887413
 21
44.296148624282282
  0
LINE
  8
_0-0_
  6
CONTINUOUS
 62
    7
 10
321.28584920887408
 20
54.296150624282276
 11
321.28584920887408
 21
44.296148624282282
  0
LINE
  8
_0-0_
  6
CONTINUOUS
 62
    7
 10
316.28583220887413
 20
54.296150624282276
 11
316.28583220887413
 21
44.296148624282282
  0
LINE
  8
_0-0_
  6
CONTINUOUS
 62
    7
 10
306.28582420887415
 20
54.296150624282276
 11
306.28582420887415
 21
44.296148624282282
  0
CIRCLE
  8
_0-0_
  6
CONTINUOUS
 62
    7
 10
306.30878720887415
 20
39.0753536242823
 40
3
  0
CIRCLE
  8
_0-0_
  6
CONTINUOUS
 62
    7
 10
306.30878720887415
 20
39.0753536242823
 40
1.5
  0
LINE
  8
_0-0_
  6
CONTINUOUS
 62
    7
 10
321.28584920887408
 20
54.296150624282276
 11
321.28584920887408
 21
59.296150624282276
  0
TEXT
  8
_0-0_
 62
    7
 10
307.02526320887409
 20
54.692025624282294
 40
4
 41
1.0000000000000009
 50
0
  1
出図
  0
LINE
  8
_0-0_
  6
CONTINUOUS
 62
    7
 10
351.28583220887413
 20
54.296150624282276
 11
351.28583220887413
 21
59.296150624282276
  0
TEXT
  8
_0-0_
 62
    7
 10
332.94829920887412
 20
55.192235624282304
 40
3
 41
2
 50
0
  1
.   .
  0
TEXT
  8
_0-0_
 62
    7
 10
303.64708920887415
 20
52.291121624282297
 40
3
 41
1
 50
0
  1
設計
  7
TATEGAKI
  0
TEXT
  8
_0-0_
 62
    7
 10
318.59985020887416
 20
52.291121624282297
 40
3
 41
1
 50
0
  1
製図
  7
TATEGAKI
  0
TEXT
  8
_0-0_
 62
    7
 10
333.46308220887408
 20
52.291121624282297
 40
3
 41
1
 50
0
  1
検図
  7
TATEGAKI
  0
TEXT
  8
_0-0_
 62
    7
 10
348.81446320887414
 20
52.372151624282296
 40
2.9999999999999911
 41
1.0000000000000029
 50
0
  1
作図
  7
TATEGAKI
  0
TEXT
  8
_0-0_
 62
    7
 10
378.81193420887416
 20
52.309938624282282
 40
3
 41
1
 50
0
  1
尺度
  7
TATEGAKI
  0
TEXT
  8
_0-0_
 62
    7
 10
323.92244520887414
 20
42.573905624282318
 40
3
 41
1
 50
0
  1
材質
  7
TATEGAKI
  0
TEXT
  8
_0-0_
 62
    7
 10
348.7983592088741
 20
42.573905624282318
 40
3
 41
1
 50
0
  1
品名
  7
TATEGAKI
  0
TEXT
  8
_0-0_
 62
    7
 10
349.01061820887412
 20
32.422218624282308
 40
3
 41
1
 50
0
  1
図番
  7
TATEGAKI
  0
TEXT
  8
_0-0_
 62
    7
 10
334.77316365016964
 20
37.078458624282263
 40
4.0000000000000284
 41
0.9999999999999964
 50
0
  1
-
  0
TEXT
  8
_0-0_
 62
    7
 10
307.92822759502076
 20
26.677714006619894
 40
4
 41
0.9999999999999994
 50
0
  1
ＦＫＫ株式会社
  0
TEXT
  8
_0-0_
 62
    7
 10
385.38042315168639
 20
47.408528353794125
 40
3
 41
1
 50
0
  1
1：1
  0
LINE
  8
_0-0_
  6
CONTINUOUS
 62
    7
 10
16.285857208874063
 20
281.29615162428229
 11
396.28582420887415
 21
281.29615162428229
  0
LINE
  8
_0-0_
  6
CONTINUOUS
 62
    7
 10
16.289024208874054
 20
24.29614462428232
 11
16.285857208874063
 21
281.29615162428229
  0
LINE
  8
_0-0_
  6
CONTINUOUS
 62
    7
 10
396.28582420887415
 20
24.29614462428232
 11
16.289024208874054
 21
24.29614462428232
  0
LINE
  8
_0-0_
  6
CONTINUOUS
 62
    7
 10
346.28583220887413
 20
44.296148624282282
 11
346.28583220887413
 21
24.29614462428232
  0
LINE
  8
_0-0_
  6
CONTINUOUS
 62
    7
 10
351.28582420887415
 20
44.296148624282282
 11
351.28582420887415
 21
24.29614462428232
  0
LINE
  8
_0-0_
  6
CONTINUOUS
 62
    7
 10
396.28582420887415
 20
34.296145624282317
 11
301.28583220887413
 21
34.296145624282317
  0
LINE
  8
_0-0_
  6
CONTINUOUS
 62
    7
 10
396.28582420887415
 20
44.296148624282282
 11
301.28583220887413
 21
44.296148624282282
  0
LINE
  8
_0-0_
  6
CONTINUOUS
 62
    7
 10
396.28582420887415
 20
54.296150624282276
 11
301.28583220887413
 21
54.296150624282276
  0
LINE
  8
_0-0_
  6
CONTINUOUS
 62
    7
 10
396.28582420887415
 20
59.296150624282276
 11
301.28583220887413
 21
59.296150624282276
  0
LINE
  8
_0-0_
  6
CONTINUOUS
 62
    7
 10
396.28582420887415
 20
74.296150624282276
 11
301.28583220887413
 21
74.296150624282276
  0
LINE
  8
_0-0_
  6
CONTINUOUS
 62
    7
 10
396.28582420887415
 20
64.296150624282276
 11
301.28583220887413
 21
64.296150624282276
  0
LINE
  8
_0-0_
  6
CONTINUOUS
 62
    7
 10
396.28582420887415
 20
69.296150624282276
 11
301.28583220887413
 21
69.296150624282276
  0
LINE
  8
_0-0_
  6
CONTINUOUS
 62
    7
 10
396.28582420887415
 20
79.296150624282276
 11
301.28583220887413
 21
79.296150624282276
  0
TEXT
  8
_0-0_
 62
    7
 10
304.54077070887405
 20
79.87907797616451
 40
3.5
 41
1
 50
0
  1
⑤
  0
TEXT
  8
_0-0_
 62
    7
 10
304.54077070887405
 20
74.87907797616451
 40
3.5
 41
1
 50
0
  1
④
  0
TEXT
  8
_0-0_
 62
    7
 10
304.54077070887405
 20
69.844233108454958
 40
3.5
 41
1
 50
0
  1
③
  0
TEXT
  8
_0-0_
 62
    7
 10
304.54077070887405
 20
64.883430077035243
 40
3.5
 41
1
 50
0
  1
②
  0
TEXT
  8
_0-0_
 62
    7
 10
304.54077070887405
 20
59.848585209325691
 40
3.5
 41
1
 50
0
  1
①
  0
TEXT
  8
_0-0_
 62
    7
 10
390.28582420887409
 20
74.934553347087132
 40
4
 41
1
 50
0
  1
1
  0
TEXT
  8
_0-0_
 62
    7
 10
390.28582420887409
 20
69.626616839150628
 40
4
 41
1
 50
0
  1
1
  0
TEXT
  8
_0-0_
 62
    7
 10
390.28582420887409
 20
64.737727950261743
 40
4
 41
1
 50
0
  1
1
  0
TEXT
  8
_0-0_
 62
    7
 10
390.28582420887409
 20
59.833318779185888
 40
4
 41
1
 50
0
  1
1
  0
TEXT
  8
_0-0_
 62
    7
 10
304.54077070887405
 20
84.87907797616451
 40
3.5
 41
1
 50
0
  1
⑥
  0
TEXT
  8
_0-0_
 62
    7
 10
19.166865692585304
 20
119.25991721785768
 40
5
 41
1.0000000000000013
 50
0
  1
◆型式内容
  0
LINE
  8
_0-0_
  6
CONTINUOUS
 62
    7
 10
19.446989553003846
 20
118.85125859390412
 11
44.848305342477545
 21
118.85125859390412
  0
LINE
  8
_0-0_
  6
CONTINUOUS
 62
    7
 10
16.287915142780605
 20
125.29614266091731
 11
396.28582420887409
 21
125.29614266091731
  0
TEXT
  8
_0-0_
 62
    7
 10
313.8192182388741
 20
119.29614266091731
 40
3.5
 41
1
 50
0
  1
※本製品は入力電圧DC24V専用です。
  0
TEXT
  8
_0-0_
 62
    7
 10
313.8192182388741
 20
115.29614266091731
 40
3.5
 41
1
 50
0
  1
※電源の入力は必ず片側からだけにしてください。
  0
TEXT
  8
_0-0_
 62
    7
 10
313.8192182388741
 20
111.29614266091731
 40
3.5
 41
1
 50
0
  1
※定格表を参考にして最大連結長さを守って下さい。
  0
TEXT
  8
_0-0_
 62
    7
 10
313.8192182388741
 20
107.29614266091731
 40
3.5
 41
1
 50
0
  1
※取付箇所の下地・強度にご注意下さい。
  0
TEXT
  8
_0-0_
 62
    7
 10
313.8192182388741
 20
103.29614266091731
 40
3.5
 41
1
 50
0
  1
　落下等による破損の原因になります。
  0
TEXT
  8
_0-0_
 62
    7
 10
240.24778966887411
 20
119.29614266091731
 40
3.5
 41
1
 50
0
  1
屋内専用
  0
TEXT
  8
_0-0_
 62
    7
 10
240.24778966887411
 20
115.29614266091731
 40
3.5
 41
1
 50
0
  1
注記）使用環境　5～40℃
  0
TEXT
  8
_0-0_
 62
    7
 10
240.24778966887411
 20
111.29614266091731
 40
3.5
 41
1
 50
0
  1
　　　浴室、サウナ等 高温・高湿環境不可
  0
TEXT
  8
_0-0_
 62
    7
 10
240.24778966887411
 20
107.29614266091731
 40
3.5
 41
1
 50
0
  1
　　　海・温泉等 塩害・腐食ガス 環境不可
  0
TEXT
  8
_0-0_
 62
    7
 10
240.24778966887411
 20
103.29614266091731
 40
3.5
 41
1
 50
0
  1
　　　直射日光・水没 不可 結露の無い事
  0
TEXT
  8
_1-f_
 62
    7
 10
24.42687565102807
 20
99.233016802245615
 40
5
 41
1.0000000000000004
 50
0
  1
①
  0
TEXT
  8
_0-0_
 62
    7
 10
320.25242920887399
 20
64.696987209520984
 40
4
 41
1
 50
0
  1
アルミフレーム
  0
TEXT
  8
_0-0_
 62
    7
 10
324.25242920887399
 20
59.808098320632098
 40
4
 41
1
 50
0
  1
樹脂カバー
  0
TEXT
  8
_0-0_
 62
    7
 10
364.24748670887402
 20
74.211019926528806
 40
1.9999999999999716
 41
1.0000000000000142
 50
0
  1
リード線：AWG22
  0
TEXT
  8
_0-0_
 62
    7
 10
358.14748670887406
 20
76.832394503496829
 40
2.0000000000000142
 41
0.7999999999999938
 50
0
  1
日本圧着端子SMP-02V-NC相当（PA66）
  0
TEXT
  8
_0-0_
 62
    7
 10
358.94748670887407
 20
71.731341272640094
 40
1.9999999999999858
 41
0.8000000000000047
 50
0
  1
日本圧着端子SMR-02V-N相当（PA66)
  0
TEXT
  8
_0-0_
 62
    7
 10
364.24748670887402
 20
69.440123214704556
 40
1.9999999999999716
 41
1.0000000000000142
 50
0
  1
リード線：AWG22
  0
TEXT
  8
_0-0_
 62
    7
 10
346.29789970887407
 20
265.57686192427963
 40
4
 41
1
 50
0
  1
A-A 断面図
  0
TEXT
  8
_1-f_
 62
    7
 10
258.72790337367155
 20
74.231547667917411
 40
4.5
 41
1
 50
0
  1
[lm]
  0
TEXT
  8
_1-f_
 62
    7
 10
75.738425924741335
 20
31.08918495708113
 40
3.5
 41
1
 50
0
  1
97％
  0
TEXT
  8
_1-f_
 62
    7
 10
74.863425924741335
 20
26.08918495708113
 40
3.5
 41
1
 50
0
  1
100％
  0
TEXT
  8
_1-f_
 62
    7
 10
98.796047668743583
 20
31.08918495708113
 40
3.5
 41
1
 50
0
  1
99％
  0
TEXT
  8
_1-f_
 62
    7
 10
120.97866940485012
 20
31.08918495708113
 40
3.5
 41
1
 50
0
  1
100％
  0
TEXT
  8
_1-f_
 62
    7
 10
144.91129108999348
 20
31.08918495708113
 40
3.5
 41
1
 50
0
  1
99％
  0
TEXT
  8
_1-f_
 62
    7
 10
167.96891281174422
 20
31.08918495708113
 40
3.5
 41
1
 50
0
  1
97％
  0
TEXT
  8
_1-f_
 62
    7
 10
167.09391281174422
 20
26.08918495708113
 40
3.5
 41
1
 50
0
  1
100％
  0
TEXT
  8
_1-f_
 62
    7
 10
191.02653443281162
 20
31.08918495708113
 40
3.5
 41
1
 50
0
  1
93％
  0
TEXT
  8
_1-f_
 62
    7
 10
190.15153443281162
 20
26.08918495708113
 40
3.5
 41
1
 50
0
  1
100％
  0
TEXT
  8
_1-f_
 62
    7
 10
214.08415625524566
 20
31.08918495708113
 40
3.5
 41
1
 50
0
  1
93％
  0
TEXT
  8
_1-f_
 62
    7
 10
214.08415625524566
 20
26.08918495708113
 40
3.5
 41
1
 50
0
  1
95％
  0
TEXT
  8
_1-f_
 62
    7
 10
237.14177813790417
 20
31.08918495708113
 40
3.5
 41
1
 50
0
  1
90％
  0
TEXT
  8
_1-f_
 62
    7
 10
237.14177813790417
 20
26.08918495708113
 40
3.5
 41
1
 50
0
  1
90％
  0
TEXT
  8
_1-f_
 62
    7
 10
260.19939969874713
 20
31.08918495708113
 40
3.5
 41
1
 50
0
  1
77％
  0
TEXT
  8
_1-f_
 62
    7
 10
260.19939969874713
 20
26.08918495708113
 40
3.5
 41
1
 50
0
  1
82％
  0
TEXT
  8
_1-f_
 62
    7
 10
285.88202138424828
 20
31.08918495708113
 40
3.5
 41
1
 50
0
  1
-
  0
TEXT
  8
_1-f_
 62
    7
 10
283.25702138424828
 20
26.08918495708113
 40
3.5
 41
1
 50
0
  1
70％
  0
LINE
  8
_0-0_
  6
CONTINUOUS
 62
    7
 10
44.652054966899584
 20
35.49953181187243
 11
298.28583220887413
 21
35.49953181187243
  0
LINE
  8
_0-0_
  6
CONTINUOUS
 62
    7
 10
19.288800474542455
 20
25.49953181187243
 11
298.28583220887413
 21
25.49953181187243
  0
LINE
  8
_0-0_
  6
CONTINUOUS
 62
    7
 10
44.652116581683913
 20
30.49953181187243
 11
298.28583220887407
 21
30.49953181187243
  0
LINE
  8
_0-0_
  6
CONTINUOUS
 62
    7
 10
19.288800474542455
 20
25.49953181187243
 11
19.288615630189497
 21
40.49953181187243
  0
LINE
  8
_0-0_
  6
CONTINUOUS
 62
    7
 10
19.288615630189497
 20
40.49953181187243
 11
298.28583220887413
 21
40.49953181187243
  0
LINE
  8
_0-0_
  6
CONTINUOUS
 62
    7
 10
298.28583220887413
 20
40.49953181187243
 11
298.28583220887413
 21
25.49953181187243
  0
LINE
  8
_0-0_
  6
CONTINUOUS
 62
    7
 10
44.652178192616674
 20
25.499844363681945
 11
44.651993348263716
 21
40.499844363681945
  0
TEXT
  8
_0-0_
 62
    7
 10
25.845304491152376
 20
28.935745803641964
 40
3.5
 41
1
 50
0
  1
N色基準
  0
TEXT
  8
_0-0_
 62
    7
 10
23.220304491152376
 20
33.459555327451497
 40
3.5
 41
1
 50
0
  1
全光束比率
  0
LINE
  8
_0-0_
  6
CONTINUOUS
 62
    7
 10
67.70979990086596
 20
25.500128501759633
 11
67.709615056513002
 21
40.500128501759633
  0
LINE
  8
_0-0_
  6
CONTINUOUS
 62
    7
 10
90.767421619115254
 20
25.50041263983745
 11
90.767236774762296
 21
40.50041263983745
  0
LINE
  8
_0-0_
  6
CONTINUOUS
 62
    7
 10
113.82504333736455
 20
25.500696777915266
 11
113.82485849301159
 21
40.500696777915266
  0
LINE
  8
_0-0_
  6
CONTINUOUS
 62
    7
 10
136.88266505561384
 20
25.500980915993082
 11
136.88248021126088
 21
40.500980915993082
  0
LINE
  8
_0-0_
  6
CONTINUOUS
 62
    7
 10
159.94028677386314
 20
25.501265054070899
 11
159.94010192951018
 21
40.501265054070899
  0
LINE
  8
_0-0_
  6
CONTINUOUS
 62
    7
 10
182.99790849211243
 20
25.501549192148715
 11
182.99772364775947
 21
40.501549192148715
  0
LINE
  8
_0-0_
  6
CONTINUOUS
 62
    7
 10
206.05553021036172
 20
25.501833330226532
 11
206.05534536600877
 21
40.501833330226532
  0
LINE
  8
_0-0_
  6
CONTINUOUS
 62
    7
 10
229.11315192861105
 20
25.502117468304363
 11
229.11296708425809
 21
40.502117468304363
  0
LINE
  8
_0-0_
  6
CONTINUOUS
 62
    7
 10
252.17077364686034
 20
25.502401606382179
 11
252.17058880250738
 21
40.502401606382179
  0
LINE
  8
_0-0_
  6
CONTINUOUS
 62
    7
 10
275.22839536510963
 20
25.502685744459995
 11
275.22821052075665
 21
40.502685744459995
  0
TEXT
  8
_0-0_
 62
    7
 10
50.930804212034758
 20
36.08918495708113
 40
3.5
 41
1
 50
0
  1
演色性
  0
TEXT
  8
_0-0_
 62
    7
 10
52.680804212034758
 20
31.08918495708113
 40
3.5
 41
1
 50
0
  1
Ra80
  0
TEXT
  8
_0-0_
 62
    7
 10
52.680804212034758
 20
26.08918495708113
 40
3.5
 41
1
 50
0
  1
Ra95
  0
TEXT
  8
_0-0_
 62
    7
 10
278.88202138424828
 20
36.08918495708113
 40
3.5
 41
1
 50
0
  1
L22:2200K
  0
TEXT
  8
_0-0_
 62
    7
 10
73.113425924741335
 20
36.08918495708113
 40
3.5
 41
1
 50
0
  1
D:6500K
  0
TEXT
  8
_0-0_
 62
    7
 10
95.296047668743583
 20
36.142095009991138
 40
3.5
 41
1
 50
0
  1
DN:5700K
  0
TEXT
  8
_0-0_
 62
    7
 10
119.22866940485012
 20
36.08918495708113
 40
3.5
 41
1
 50
0
  1
N:5000K
  0
TEXT
  8
_0-0_
 62
    7
 10
141.41129108999348
 20
36.08918495708113
 40
3.5
 41
1
 50
0
  1
NW:4500K
  0
TEXT
  8
_0-0_
 62
    7
 10
165.34391281174422
 20
36.08918495708113
 40
3.5
 41
1
 50
0
  1
W:4000K
  0
TEXT
  8
_0-0_
 62
    7
 10
187.52653443281162
 20
36.08918495708113
 40
3.5
 41
1
 50
0
  1
WW:3500K
  0
TEXT
  8
_0-0_
 62
    7
 10
209.70915625524566
 20
36.08918495708113
 40
3.5
 41
1
 50
0
  1
L30:3000K
  0
TEXT
  8
_0-0_
 62
    7
 10
232.76677813790417
 20
36.08918495708113
 40
3.5
 41
1
 50
0
  1
L27:2700K
  0
TEXT
  8
_0-0_
 62
    7
 10
255.8243996987471
 20
36.08918495708113
 40
3.5
 41
1
 50
0
  1
L25:2500K
  0
LINE
  8
_0-0_
  6
CONTINUOUS
 62
    7
 10
19.288590984589888
 20
42.49953181187243
 11
298.28580760577347
 21
42.49953181187243
  0
LINE
  8
_0-0_
  6
CONTINUOUS
 62
    7
 10
19.288590984589888
 20
42.49953181187243
 11
19.288154579167582
 21
85.913550310917316
  0
LINE
  8
_0-0_
  6
CONTINUOUS
 62
    7
 10
19.288154579167582
 20
85.913550310917316
 11
298.28537120035105
 21
85.913550310917316
  0
LINE
  8
_0-0_
  6
CONTINUOUS
 62
    7
 10
298.28580760577347
 20
42.49953181187243
 11
298.28537120035105
 21
85.913550310917316
  0
LINE
  8
_0-0_
  6
CONTINUOUS
 62
    7
 10
270.22809040752418
 20
42.499247672617997
 11
270.22765400210176
 21
85.913266171662869
  0
LINE
  8
_0-0_
  6
CONTINUOUS
 62
    7
 10
242.28377506964591
 20
42.498903316025462
 11
242.28333866422355
 21
85.912921815070348
  0
LINE
  8
_0-0_
  6
CONTINUOUS
 62
    7
 10
214.17598259178007
 20
42.498556944911186
 11
214.17554618635771
 21
85.912575443956058
  0
LINE
  8
_0-0_
  6
CONTINUOUS
 62
    7
 10
186.43727153388622
 20
42.498215121971327
 11
186.43683512846383
 21
85.912233621016213
  0
LINE
  8
_0-0_
  6
CONTINUOUS
 62
    7
 10
167.01370688536099
 20
42.497975766221998
 11
167.01327047993863
 21
85.91199426526687
  0
LINE
  8
_0-0_
  6
CONTINUOUS
 62
    7
 10
140.05756403740773
 20
42.497643586836432
 11
140.05712763198534
 21
85.911662085881318
  0
LINE
  8
_0-0_
  6
CONTINUOUS
 62
    7
 10
112.53082412949777
 20
42.497304376007904
 11
112.53038772407538
 21
85.911322875052775
  0
LINE
  8
_0-0_
  6
CONTINUOUS
 62
    7
 10
77.642243512146791
 20
42.496874445533862
 11
77.6418071067244
 21
85.910892944578734
  0
LINE
  8
_0-0_
  6
CONTINUOUS
 62
    7
 10
19.288154579167582
 20
61.105539738917315
 11
270.22790337377262
 21
61.105539738917315
  0
LINE
  8
_0-0_
  6
CONTINUOUS
 62
    7
 10
19.288154579167582
 20
73.509545024917315
 11
167.01339515156053
 21
73.509545024917315
  0
LINE
  8
_0-0_
  6
CONTINUOUS
 62
    7
 10
186.43695980249177
 20
73.509545024917315
 11
270.22777868650905
 21
73.509545024917315
  0
LINE
  8
_0-0_
  6
CONTINUOUS
 62
    7
 10
19.288154579167582
 20
67.307542381917315
 11
167.01345749519228
 21
67.307542381917315
  0
LINE
  8
_0-0_
  6
CONTINUOUS
 62
    7
 10
186.43702214612355
 20
67.307542381917315
 11
270.22784103014089
 21
67.307542381917315
  0
LINE
  8
_0-0_
  6
CONTINUOUS
 62
    7
 10
19.288154579167582
 20
54.903537095917315
 11
167.01358218245585
 21
54.903537095917315
  0
LINE
  8
_0-0_
  6
CONTINUOUS
 62
    7
 10
186.43714683338709
 20
54.903537095917315
 11
270.2279657174044
 21
54.903537095917315
  0
LINE
  8
_0-0_
  6
CONTINUOUS
 62
    7
 10
19.288154579167582
 20
48.701534452917315
 11
167.0136445260876
 21
48.701534452917315
  0
LINE
  8
_0-0_
  6
CONTINUOUS
 62
    7
 10
186.4372091770189
 20
48.701534452917315
 11
270.22802806103618
 21
48.701534452917315
  0
TEXT
  8
_1-f_
 62
    7
 10
169.97505278650092
 20
68.029547667917413
 40
4.5
 41
1
 50
0
  1
80以上
  0
TEXT
  8
_1-f_
 62
    7
 10
169.97505278650092
 20
49.423547667917404
 40
4.5
 41
1
 50
0
  1
95以上
  0
TEXT
  8
_1-f_
 62
    7
 10
277.25651259947574
 20
58.725547667917397
 40
4.5
 41
1
 50
0
  1
3960
  0
TEXT
  8
_1-f_
 62
    7
 10
101.27283032216791
 20
74.231547667917411
 40
4.5
 41
1
 50
0
  1
[mm]
  0
TEXT
  8
_1-f_
 62
    7
 10
101.27283032216791
 20
68.029547667917413
 40
4.5
 41
1
 50
0
  1
[mm]
  0
TEXT
  8
_1-f_
 62
    7
 10
101.27283032216791
 20
61.827547667917415
 40
4.5
 41
1
 50
0
  1
[mm]
  0
TEXT
  8
_1-f_
 62
    7
 10
101.27283032216791
 20
55.625547667917402
 40
4.5
 41
1
 50
0
  1
[mm]
  0
TEXT
  8
_1-f_
 62
    7
 10
101.27283032216791
 20
49.423547667917404
 40
4.5
 41
1
 50
0
  1
[mm]
  0
TEXT
  8
_1-f_
 62
    7
 10
101.27283032216791
 20
43.221547667917406
 40
4.5
 41
1
 50
0
  1
[mm]
  0
TEXT
  8
_1-f_
 62
    7
 10
132.85842491418924
 20
74.231547667917411
 40
4.5
 41
1
 50
0
  1
ｇ
  0
TEXT
  8
_1-f_
 62
    7
 10
132.85842491418924
 20
68.029547667917413
 40
4.5
 41
1
 50
0
  1
ｇ
  0
TEXT
  8
_1-f_
 62
    7
 10
132.85842491418924
 20
61.827547667917415
 40
4.5
 41
1
 50
0
  1
ｇ
  0
TEXT
  8
_1-f_
 62
    7
 10
132.85842491418924
 20
55.625547667917402
 40
4.5
 41
1
 50
0
  1
ｇ
  0
TEXT
  8
_1-f_
 62
    7
 10
132.85842491418924
 20
49.423547667917404
 40
4.5
 41
1
 50
0
  1
ｇ
  0
TEXT
  8
_1-f_
 62
    7
 10
132.85842491418924
 20
43.221547667917406
 40
4.5
 41
1
 50
0
  1
ｇ
  0
TEXT
  8
_1-f_
 62
    7
 10
160.18395095436824
 20
74.231547667917411
 40
4.5
 41
1
 50
0
  1
個
  0
TEXT
  8
_1-f_
 62
    7
 10
160.18395095436824
 20
68.029547667917413
 40
4.5
 41
1
 50
0
  1
個
  0
TEXT
  8
_1-f_
 62
    7
 10
160.18395095436824
 20
61.827547667917415
 40
4.5
 41
1
 50
0
  1
個
  0
TEXT
  8
_1-f_
 62
    7
 10
160.18395095436824
 20
55.625547667917402
 40
4.5
 41
1
 50
0
  1
個
  0
TEXT
  8
_1-f_
 62
    7
 10
160.18395095436824
 20
49.423547667917404
 40
4.5
 41
1
 50
0
  1
個
  0
TEXT
  8
_1-f_
 62
    7
 10
160.18395095436824
 20
43.221547667917406
 40
4.5
 41
1
 50
0
  1
個
  0
TEXT
  8
_1-f_
 62
    7
 10
204.69392429531842
 20
74.231547667917411
 40
4.5
 41
1
 50
0
  1
[W]
  0
TEXT
  8
_1-f_
 62
    7
 10
204.69392429531842
 20
68.029547667917413
 40
4.5
 41
1
 50
0
  1
[W]
  0
TEXT
  8
_1-f_
 62
    7
 10
204.69392429531842
 20
61.827547667917415
 40
4.5
 41
1
 50
0
  1
[W]
  0
TEXT
  8
_1-f_
 62
    7
 10
204.69392429531842
 20
55.625547667917402
 40
4.5
 41
1
 50
0
  1
[W]
  0
TEXT
  8
_1-f_
 62
    7
 10
204.69392429531842
 20
49.423547667917404
 40
4.5
 41
1
 50
0
  1
[W]
  0
TEXT
  8
_1-f_
 62
    7
 10
204.69392429531842
 20
43.221547667917406
 40
4.5
 41
1
 50
0
  1
[W]
  0
TEXT
  8
_1-f_
 62
    7
 10
233.03358803233181
 20
74.231547667917411
 40
4.5
 41
1
 50
0
  1
[A]
  0
TEXT
  8
_1-f_
 62
    7
 10
233.03358803233181
 20
68.029547667917413
 40
4.5
 41
1
 50
0
  1
[A]
  0
TEXT
  8
_1-f_
 62
    7
 10
233.03358803233181
 20
61.827547667917415
 40
4.5
 41
1
 50
0
  1
[A]
  0
TEXT
  8
_1-f_
 62
    7
 10
233.03358803233181
 20
55.625547667917402
 40
4.5
 41
1
 50
0
  1
[A]
  0
TEXT
  8
_1-f_
 62
    7
 10
233.03358803233181
 20
49.423547667917404
 40
4.5
 41
1
 50
0
  1
[A]
  0
TEXT
  8
_1-f_
 62
    7
 10
233.03358803233181
 20
43.221547667917406
 40
4.5
 41
1
 50
0
  1
[A]
  0
TEXT
  8
_1-f_
 62
    7
 10
258.72790337367155
 20
68.029547667917413
 40
4.5
 41
1
 50
0
  1
[lm]
  0
TEXT
  8
_1-f_
 62
    7
 10
258.72790337367155
 20
61.827547667917415
 40
4.5
 41
1
 50
0
  1
[lm]
  0
TEXT
  8
_1-f_
 62
    7
 10
258.72790337367155
 20
55.625547667917402
 40
4.5
 41
1
 50
0
  1
[lm]
  0
TEXT
  8
_1-f_
 62
    7
 10
258.72790337367155
 20
49.423547667917404
 40
4.5
 41
1
 50
0
  1
[lm]
  0
TEXT
  8
_1-f_
 62
    7
 10
258.72790337367155
 20
43.221547667917406
 40
4.5
 41
1
 50
0
  1
[lm]
  0
TEXT
  8
_1-f_
 62
    7
 10
289.52000573236819
 20
58.725547667917397
 40
4.5
 41
1
 50
0
  1
mm
  0
TEXT
  8
_1-f_
 62
    7
 10
90.280637075454038
 20
74.231547667917411
 40
4.5
 41
1
 50
0
  1
505
  0
TEXT
  8
_1-f_
 62
    7
 10
88.030637075454038
 20
68.029547667917413
 40
4.5
 41
1
 50
0
  1
1000
  0
TEXT
  8
_1-f_
 62
    7
 10
88.030637075454038
 20
61.827547667917415
 40
4.5
 41
1
 50
0
  1
1495
  0
TEXT
  8
_1-f_
 62
    7
 10
90.280637075454038
 20
55.625547667917402
 40
4.5
 41
1
 50
0
  1
505
  0
TEXT
  8
_1-f_
 62
    7
 10
88.030637075454038
 20
49.423547667917404
 40
4.5
 41
1
 50
0
  1
1000
  0
TEXT
  8
_1-f_
 62
    7
 10
88.030637075454038
 20
43.221547667917406
 40
4.5
 41
1
 50
0
  1
1495
  0
TEXT
  8
_1-f_
 62
    7
 10
147.76351983821777
 20
74.231547667917411
 40
4.5
 41
1
 50
0
  1
108
  0
TEXT
  8
_1-f_
 62
    7
 10
147.76351983821777
 20
68.029547667917413
 40
4.5
 41
1
 50
0
  1
216
  0
TEXT
  8
_1-f_
 62
    7
 10
147.76351983821777
 20
61.827547667917415
 40
4.5
 41
1
 50
0
  1
324
  0
TEXT
  8
_1-f_
 62
    7
 10
147.76351983821777
 20
55.625547667917402
 40
4.5
 41
1
 50
0
  1
108
  0
TEXT
  8
_1-f_
 62
    7
 10
147.76351983821777
 20
49.423547667917404
 40
4.5
 41
1
 50
0
  1
216
  0
TEXT
  8
_1-f_
 62
    7
 10
147.76351983821777
 20
43.221547667917406
 40
4.5
 41
1
 50
0
  1
324
  0
TEXT
  8
_1-f_
 62
    7
 10
194.92579555047894
 20
74.231547667917411
 40
4.5
 41
1
 50
0
  1
7.7
  0
TEXT
  8
_1-f_
 62
    7
 10
192.67579555047894
 20
68.029547667917413
 40
4.5
 41
1
 50
0
  1
15.5
  0
TEXT
  8
_1-f_
 62
    7
 10
192.67579555047894
 20
61.827547667917415
 40
4.5
 41
1
 50
0
  1
23.2
  0
TEXT
  8
_1-f_
 62
    7
 10
194.92579555047894
 20
55.625547667917402
 40
4.5
 41
1
 50
0
  1
8.1
  0
TEXT
  8
_1-f_
 62
    7
 10
192.67579555047894
 20
49.423547667917404
 40
4.5
 41
1
 50
0
  1
15.9
  0
TEXT
  8
_1-f_
 62
    7
 10
220.78358803182658
 20
74.231547667917411
 40
4.5
 41
1
 50
0
  1
0.32
  0
TEXT
  8
_1-f_
 62
    7
 10
220.78358803182658
 20
68.029547667917413
 40
4.5
 41
1
 50
0
  1
0.65
  0
TEXT
  8
_1-f_
 62
    7
 10
220.78358803182658
 20
61.827547667917415
 40
4.5
 41
1
 50
0
  1
0.97
  0
TEXT
  8
_1-f_
 62
    7
 10
220.78358803182658
 20
55.625547667917402
 40
4.5
 41
1
 50
0
  1
0.34
  0
TEXT
  8
_1-f_
 62
    7
 10
220.78358803182658
 20
49.423547667917404
 40
4.5
 41
1
 50
0
  1
0.66
  0
TEXT
  8
_1-f_
 62
    7
 10
220.78358803182658
 20
43.221547667917406
 40
4.5
 41
1
 50
0
  1
0.99
  0
TEXT
  8
_0-0_
 62
    7
 10
203.91025936400479
 20
86.940931443258734
 40
3.5
 41
1
 50
0
  1
照明器具の消費電力は、JIS　C　8105-3の試験方法による。
  0
TEXT
  8
_0-0_
 62
    7
 10
19.166865692585304
 20
86.322208934870872
 40
5
 41
1.0000000000000013
 50
0
  1
◆代表特性 定格入力DC24V
  0
TEXT
  8
_0-0_
 62
    7
 10
41.464980898677538
 20
80.233550310917394
 40
4.5
 41
1
 50
0
  1
型式
  0
TEXT
  8
_0-0_
 62
    7
 10
90.586099012739055
 20
80.233550310917394
 40
4.5
 41
1
 50
0
  1
全長
  0
TEXT
  8
_0-0_
 62
    7
 10
121.7937576526718
 20
80.233550310917394
 40
4.5
 41
1
 50
0
  1
重量
  0
TEXT
  8
_0-0_
 62
    7
 10
174.47505278650092
 20
80.233550310917394
 40
4.5
 41
1
 50
0
  1
Ra
  0
TEXT
  8
_0-0_
 62
    7
 10
191.30619064329139
 20
80.233550310917394
 40
4.5
 41
1
 50
0
  1
入力電力
  0
TEXT
  8
_0-0_
 62
    7
 10
219.22944241541154
 20
80.233550310917394
 40
4.5
 41
1
 50
0
  1
入力電流
  0
TEXT
  8
_0-0_
 62
    7
 10
270.7565125997877
 20
80.233550310917394
 40
4.5
 41
1
 50
0
  1
最大連結長さ
  0
TEXT
  8
_0-0_
 62
    7
 10
143.41019903474017
 20
80.233550310917394
 40
4.5
 41
1
 50
0
  1
LED PKG数
  0
TEXT
  8
_0-0_
 62
    7
 10
347.29789970887407
 20
260.26587301587301
 40
4
 41
1
 50
0
  1
Ｓ=２：１
  0
TEXT
  8
_1-f_
 62
    7
 10
123.05737698692539
 20
74.231547667917411
 40
4.5
 41
1
 50
0
  1
78
  0
TEXT
  8
_1-f_
 62
    7
 10
120.80737698692539
 20
68.029547667917413
 40
4.5
 41
1
 50
0
  1
154
  0
TEXT
  8
_1-f_
 62
    7
 10
120.80737698692539
 20
61.827547667917415
 40
4.5
 41
1
 50
0
  1
229
  0
TEXT
  8
_1-f_
 62
    7
 10
123.05737698692539
 20
55.625547667917402
 40
4.5
 41
1
 50
0
  1
78
  0
TEXT
  8
_1-f_
 62
    7
 10
120.80737698692539
 20
49.423547667917404
 40
4.5
 41
1
 50
0
  1
154
  0
TEXT
  8
_1-f_
 62
    7
 10
120.80737698692539
 20
43.221547667917406
 40
4.5
 41
1
 50
0
  1
229
  0
TEXT
  8
_1-f_
 62
    7
 10
248.97791342524289
 20
74.231547667917411
 40
4.5
 41
1
 50
0
  1
733
  0
TEXT
  8
_1-f_
 62
    7
 10
246.72791342524289
 20
68.029547667917413
 40
4.5
 41
1
 50
0
  1
1465
  0
TEXT
  8
_1-f_
 62
    7
 10
246.72791342524289
 20
61.827547667917415
 40
4.5
 41
1
 50
0
  1
2198
  0
TEXT
  8
_1-f_
 62
    7
 10
248.97791342524289
 20
55.625547667917402
 40
4.5
 41
1
 50
0
  1
582
  0
TEXT
  8
_1-f_
 62
    7
 10
246.72791342524289
 20
49.423547667917404
 40
4.5
 41
1
 50
0
  1
1164
  0
TEXT
  8
_1-f_
 62
    7
 10
246.72791342524289
 20
43.221547667917406
 40
4.5
 41
1
 50
0
  1
1746
  0
TEXT
  8
_0-0_
 62
    7
 10
390.28582420887409
 20
84.934553347087132
 40
4
 41
1
 50
0
  1
1
  0
TEXT
  8
_0-0_
 62
    7
 10
361.84748670887404
 20
85.191548198938307
 40
2.5
 41
0.8800000000000001
 50
0
  1
ラミネートフィルム
  0
TEXT
  8
_0-0_
 62
    7
 10
325.50242920887399
 20
84.890314412939247
 40
3.5000000000000142
 41
0.9999999999999954
 50
0
  1
型式シール
  0
TEXT
  8
_0-0_
 62
    7
 10
327.25242920887399
 20
79.890314412939247
 40
3.5000000000000142
 41
0.9999999999999954
 50
0
  1
樹脂端板
  0
LINE
  8
_0-0_
  6
CONTINUOUS
 62
    7
 10
396.28582420887415
 20
89.296150624282276
 11
301.28583220887413
 21
89.296150624282276
  0
TEXT
  8
_0-0_
 62
    7
 10
390.28582420887409
 20
79.934553347087132
 40
4
 41
1
 50
0
  1
2
  0
TEXT
  8
_0-0_
 62
    7
 10
251.08520314847476
 20
82.155864197530747
 40
3.5
 41
1
 50
0
  1
全光束
  0
TEXT
  8
_0-0_
 62
    7
 10
251.33520314847476
 20
79.671051342347511
 40
2.5
 41
1
 50
0
  1
N：5000K
  0
LINE
  8
_0-0_
  6
CENTER2
 62
    7
 10
320.30878320887416
 20
39.0753536242823
 11
302.30879820887412
 21
39.0753536242823
  0
LINE
  8
_0-0_
  6
CENTER2
 62
    7
 10
306.30878720887415
 20
43.075354624282298
 11
306.30878720887415
 21
35.075351624282277
  0
TEXT
  8
_0-0_
 62
    7
 10
390.28582420887409
 20
89.934553347087132
 40
4
 41
1
 50
0
  1
1
  0
LINE
  8
_0-0_
  6
CONTINUOUS
 62
    7
 10
301.28583220887413
 20
94.296150624282276
 11
301.28583220887413
 21
24.29614462428232
  0
LINE
  8
_0-0_
  6
CONTINUOUS
 62
    7
 10
396.28582420887415
 20
94.296150624282276
 11
301.28583220887413
 21
94.296150624282276
  0
LINE
  8
_0-0_
  6
CONTINUOUS
 62
    7
 10
311.29570920887397
 20
94.296150624282276
 11
311.29570920887397
 21
59.296150624282276
  0
LINE
  8
_0-0_
  6
CONTINUOUS
 62
    7
 10
357.20914920887401
 20
59.296150624282276
 11
357.20914920887401
 21
94.296150624282276
  0
LINE
  8
_0-0_
  6
CONTINUOUS
 62
    7
 10
386.28582420887403
 20
94.296150624282276
 11
386.28582420887403
 21
54.296150624282276
  0
TEXT
  8
_0-0_
 62
    7
 10
304.54077070887405
 20
89.87907797616451
 40
3.5
 41
1
 50
0
  1
⑦
  0
TEXT
  8
_0-0_
 62
    7
 10
325.50242920887399
 20
89.890314412939247
 40
3.5000000000000142
 41
0.9999999999999954
 50
0
  1
両面テープ
  0
LINE
  8
_1-2_
  6
CONTINUOUS
 62
   18
 10
155.05794617675048
 20
247.09095328220451
 11
160.72272861091022
 21
252.75573571636437
  0
LINE
  8
_1-2_
  6
CONTINUOUS
 62
   18
 10
230.62479428566945
 20
236.39077408636467
 11
230.67809791832241
 21
236.44407771901774
  0
LINE
  8
_1-2_
  6
CONTINUOUS
 62
   18
 10
229.91768750448279
 20
236.39077408636467
 11
230.67809791832229
 21
237.15118450020418
  0
LINE
  8
_1-2_
  6
CONTINUOUS
 62
   18
 10
229.21058072329623
 20
236.3907740863649
 11
230.67809791832229
 21
237.85829128139085
  0
LINE
  8
_1-2_
  6
CONTINUOUS
 62
   18
 10
228.50347394210957
 20
236.3907740863649
 11
230.67809791832229
 21
238.56539806257751
  0
LINE
  8
_1-2_
  6
CONTINUOUS
 62
   18
 10
227.79636716092301
 20
236.3907740863649
 11
230.67809791832218
 21
239.27250484376418
  0
LINE
  8
_1-2_
  6
CONTINUOUS
 62
   18
 10
227.08926037973634
 20
236.3907740863649
 11
230.67809791832218
 21
239.97961162495085
  0
LINE
  8
_1-2_
  6
CONTINUOUS
 62
   18
 10
226.38215359854922
 20
236.39077408636444
 11
230.67809791832263
 21
240.68671840613797
  0
LINE
  8
_1-2_
  6
CONTINUOUS
 62
   18
 10
225.67504681736415
 20
236.39077408636422
 11
230.67809791832286
 21
241.39382518732305
  0
LINE
  8
_1-2_
  6
CONTINUOUS
 62
   18
 10
224.96794003617748
 20
236.39077408636422
 11
230.67809791832275
 21
242.10093196850949
  0
LINE
  8
_1-2_
  6
CONTINUOUS
 62
   18
 10
224.26083325499081
 20
236.39077408636422
 11
230.67809791832275
 21
242.80803874969615
  0
LINE
  8
_1-2_
  6
CONTINUOUS
 62
   18
 10
223.55372647380426
 20
236.39077408636444
 11
230.67809791832263
 21
243.51514553088282
  0
LINE
  8
_1-2_
  6
CONTINUOUS
 62
   18
 10
222.84661969261771
 20
236.39077408636444
 11
230.67809791832252
 21
244.22225231206926
  0
LINE
  8
_1-2_
  6
CONTINUOUS
 62
   18
 10
222.13951291143104
 20
236.39077408636444
 11
230.67809791832252
 21
244.92935909325593
  0
LINE
  8
_1-2_
  6
CONTINUOUS
 62
   18
 10
221.43240613024437
 20
236.39077408636444
 11
230.67809791832241
 21
245.63646587444259
  0
LINE
  8
_1-2_
  6
CONTINUOUS
 62
   18
 10
220.72529934905782
 20
236.39077408636467
 11
230.67809791832229
 21
246.34357265562903
  0
LINE
  8
_1-2_
  6
CONTINUOUS
 62
   18
 10
220.01819256787127
 20
236.39077408636467
 11
230.67809791832263
 21
247.05067943681615
  0
LINE
  8
_1-2_
  6
CONTINUOUS
 62
   18
 10
219.3110857866846
 20
236.39077408636467
 11
230.67809791832252
 21
247.75778621800259
  0
LINE
  8
_1-2_
  6
CONTINUOUS
 62
   18
 10
218.60397900549793
 20
236.3907740863649
 11
230.67809791832252
 21
248.46489299918926
  0
LINE
  8
_1-2_
  6
CONTINUOUS
 62
   18
 10
217.89687222431138
 20
236.3907740863649
 11
230.67809791832252
 21
249.17199978037593
  0
LINE
  8
_1-2_
  6
CONTINUOUS
 62
   18
 10
217.18976544312483
 20
236.3907740863649
 11
230.67809791832241
 21
249.87910656156259
  0
LINE
  8
_1-2_
  6
CONTINUOUS
 62
   18
 10
216.48265866193816
 20
236.3907740863649
 11
230.67809791832241
 21
250.58621334274926
  0
LINE
  8
_1-2_
  6
CONTINUOUS
 62
   18
 10
215.77555188075104
 20
236.39077408636444
 11
230.67809791832286
 21
251.29332012393638
  0
LINE
  8
_1-2_
  6
CONTINUOUS
 62
   18
 10
215.06844509956494
 20
236.39077408636422
 11
230.67809791832275
 21
252.00042690512191
  0
LINE
  8
_1-2_
  6
CONTINUOUS
 62
   18
 10
214.3613383183793
 20
236.39077408636422
 11
230.67809791832263
 21
252.70753368630767
  0
LINE
  8
_1-2_
  6
CONTINUOUS
 62
   18
 10
213.65423153719274
 20
236.39077408636444
 11
230.01919316719278
 21
252.75573571636437
  0
LINE
  8
_1-2_
  6
CONTINUOUS
 62
   18
 10
212.94712475600608
 20
236.39077408636444
 11
229.31208638600623
 21
252.7557357163646
  0
LINE
  8
_1-2_
  6
CONTINUOUS
 62
   18
 10
212.24001797481941
 20
236.39077408636444
 11
228.60497960481968
 21
252.7557357163646
  0
LINE
  8
_1-2_
  6
CONTINUOUS
 62
   18
 10
211.53291119363286
 20
236.39077408636444
 11
227.89787282363301
 21
252.7557357163646
  0
LINE
  8
_1-2_
  6
CONTINUOUS
 62
   18
 10
210.82580441244619
 20
236.39077408636444
 11
227.19076604244646
 21
252.75573571636482
  0
LINE
  8
_1-2_
  6
CONTINUOUS
 62
   18
 10
210.11869763125964
 20
236.39077408636467
 11
226.48365926125979
 21
252.75573571636482
  0
LINE
  8
_1-2_
  6
CONTINUOUS
 62
   18
 10
209.41159085007297
 20
236.39077408636467
 11
225.77655248007267
 21
252.75573571636437
  0
LINE
  8
_1-2_
  6
CONTINUOUS
 62
   18
 10
208.70448406888642
 20
236.39077408636467
 11
225.06944569888611
 21
252.75573571636437
  0
LINE
  8
_1-2_
  6
CONTINUOUS
 62
   18
 10
207.99737728769975
 20
236.39077408636467
 11
224.36233891769945
 21
252.75573571636437
  0
LINE
  8
_1-2_
  6
CONTINUOUS
 62
   18
 10
207.2902705065132
 20
236.3907740863649
 11
223.65523213651278
 21
252.75573571636437
  0
LINE
  8
_1-2_
  6
CONTINUOUS
 62
   18
 10
206.58316372532653
 20
236.3907740863649
 11
222.94812535532623
 21
252.7557357163646
  0
LINE
  8
_1-2_
  6
CONTINUOUS
 62
   18
 10
205.87605694413998
 20
236.3907740863649
 11
222.24101857413967
 21
252.7557357163646
  0
LINE
  8
_1-2_
  6
CONTINUOUS
 62
   18
 10
205.16895016295297
 20
236.39077408636467
 11
221.53391179295255
 21
252.75573571636414
  0
LINE
  8
_1-2_
  6
CONTINUOUS
 62
   18
 10
204.4618433817663
 20
236.39077408636467
 11
220.82680501176588
 21
252.75573571636414
  0
LINE
  8
_1-2_
  6
CONTINUOUS
 62
   18
 10
203.75473660058111
 20
236.39077408636422
 11
220.11969823058126
 21
252.75573571636437
  0
LINE
  8
_1-2_
  6
CONTINUOUS
 62
   18
 10
203.04762981939456
 20
236.39077408636444
 11
219.41259144939471
 21
252.7557357163646
  0
LINE
  8
_1-2_
  6
CONTINUOUS
 62
   18
 10
202.34052303820778
 20
236.39077408636422
 11
218.70548466820804
 21
252.7557357163646
  0
LINE
  8
_1-2_
  6
CONTINUOUS
 62
   18
 10
201.63341625702122
 20
236.39077408636444
 11
217.99837788702138
 21
252.7557357163646
  0
LINE
  8
_1-2_
  6
CONTINUOUS
 62
   18
 10
200.92630947583467
 20
236.39077408636444
 11
217.29127110583482
 21
252.7557357163646
  0
LINE
  8
_1-2_
  6
CONTINUOUS
 62
   18
 10
200.219202694648
 20
236.39077408636444
 11
216.58416432464816
 21
252.7557357163646
  0
LINE
  8
_1-2_
  6
CONTINUOUS
 62
   18
 10
199.51209591346145
 20
236.39077408636467
 11
215.8770575434616
 21
252.75573571636482
  0
LINE
  8
_1-2_
  6
CONTINUOUS
 62
   18
 10
198.80498913227478
 20
236.39077408636467
 11
215.16995076227448
 21
252.75573571636437
  0
LINE
  8
_1-2_
  6
CONTINUOUS
 62
   18
 10
198.09788235108823
 20
236.39077408636467
 11
214.46284398108781
 21
252.75573571636437
  0
LINE
  8
_1-2_
  6
CONTINUOUS
 62
   18
 10
197.39077556990156
 20
236.39077408636467
 11
213.75573719990126
 21
252.75573571636437
  0
LINE
  8
_1-2_
  6
CONTINUOUS
 62
   18
 10
196.68366878871501
 20
236.3907740863649
 11
213.04863041871459
 21
252.75573571636437
  0
LINE
  8
_1-2_
  6
CONTINUOUS
 62
   18
 10
195.97656200752834
 20
236.3907740863649
 11
212.34152363752804
 21
252.7557357163646
  0
LINE
  8
_1-2_
  6
CONTINUOUS
 62
   18
 10
195.26945522634179
 20
236.3907740863649
 11
211.63441685634137
 21
252.7557357163646
  0
LINE
  8
_1-2_
  6
CONTINUOUS
 62
   18
 10
194.56234844515512
 20
236.3907740863649
 11
210.92731007515482
 21
252.7557357163646
  0
LINE
  8
_1-2_
  6
CONTINUOUS
 62
   18
 10
193.85524166396812
 20
236.39077408636467
 11
210.2202032939677
 21
252.75573571636414
  0
LINE
  8
_1-2_
  6
CONTINUOUS
 62
   18
 10
193.14813488278293
 20
236.39077408636422
 11
209.51309651278308
 21
252.75573571636437
  0
LINE
  8
_1-2_
  6
CONTINUOUS
 62
   18
 10
192.44102810159637
 20
236.39077408636444
 11
208.80598973159653
 21
252.7557357163646
  0
LINE
  8
_1-2_
  6
CONTINUOUS
 62
   18
 10
191.73392132040959
 20
236.39077408636422
 11
208.09888295040986
 21
252.7557357163646
  0
LINE
  8
_1-2_
  6
CONTINUOUS
 62
   18
 10
191.02681453922304
 20
236.39077408636444
 11
207.39177616922319
 21
252.7557357163646
  0
LINE
  8
_1-2_
  6
CONTINUOUS
 62
   18
 10
190.31970775803637
 20
236.39077408636444
 11
206.68466938803664
 21
252.7557357163646
  0
LINE
  8
_1-2_
  6
CONTINUOUS
 62
   18
 10
189.61260097684982
 20
236.39077408636444
 11
205.97756260684997
 21
252.7557357163646
  0
LINE
  8
_1-2_
  6
CONTINUOUS
 62
   18
 10
188.90549419566315
 20
236.39077408636444
 11
205.27045582566342
 21
252.75573571636482
  0
LINE
  8
_1-2_
  6
CONTINUOUS
 62
   18
 10
188.1983874144766
 20
236.39077408636467
 11
204.56334904447675
 21
252.75573571636482
  0
LINE
  8
_1-2_
  6
CONTINUOUS
 62
   18
 10
187.49128063328993
 20
236.39077408636467
 11
203.85624226328963
 21
252.75573571636437
  0
LINE
  8
_1-2_
  6
CONTINUOUS
 62
   18
 10
186.78417385210338
 20
236.39077408636467
 11
203.14913548210308
 21
252.75573571636437
  0
LINE
  8
_1-2_
  6
CONTINUOUS
 62
   18
 10
186.07706707091671
 20
236.39077408636467
 11
202.44202870091641
 21
252.75573571636437
  0
LINE
  8
_1-2_
  6
CONTINUOUS
 62
   18
 10
185.36996028973016
 20
236.3907740863649
 11
201.73492191972986
 21
252.7557357163646
  0
LINE
  8
_1-2_
  6
CONTINUOUS
 62
   18
 10
184.66285350854361
 20
236.3907740863649
 11
201.02781513854319
 21
252.7557357163646
  0
LINE
  8
_1-2_
  6
CONTINUOUS
 62
   18
 10
183.95574672735694
 20
236.3907740863649
 11
200.32070835735664
 21
252.7557357163646
  0
LINE
  8
_1-2_
  6
CONTINUOUS
 62
   18
 10
183.24863994616993
 20
236.39077408636467
 11
199.61360157616951
 21
252.75573571636414
  0
LINE
  8
_1-2_
  6
CONTINUOUS
 62
   18
 10
182.54153316498474
 20
236.39077408636422
 11
198.90649479498489
 21
252.75573571636437
  0
LINE
  8
_1-2_
  6
CONTINUOUS
 62
   18
 10
181.83442638379819
 20
236.39077408636444
 11
198.19938801379834
 21
252.7557357163646
  0
LINE
  8
_1-2_
  6
CONTINUOUS
 62
   18
 10
181.12731960261141
 20
236.39077408636422
 11
197.49228123261156
 21
252.75573571636437
  0
LINE
  8
_1-2_
  6
CONTINUOUS
 62
   18
 10
180.42021282142485
 20
236.39077408636444
 11
196.78517445142501
 21
252.7557357163646
  0
LINE
  8
_1-2_
  6
CONTINUOUS
 62
   18
 10
179.71310604023819
 20
236.39077408636444
 11
196.07806767023845
 21
252.7557357163646
  0
LINE
  8
_1-2_
  6
CONTINUOUS
 62
   18
 10
179.00599925905163
 20
236.39077408636444
 11
195.37096088905179
 21
252.7557357163646
  0
LINE
  8
_1-2_
  6
CONTINUOUS
 62
   18
 10
178.29889247786497
 20
236.39077408636444
 11
194.66385410786512
 21
252.7557357163646
  0
LINE
  8
_1-2_
  6
CONTINUOUS
 62
   18
 10
177.59178569667841
 20
236.39077408636467
 11
193.95674732667857
 21
252.75573571636482
  0
LINE
  8
_1-2_
  6
CONTINUOUS
 62
   18
 10
176.88467891549175
 20
236.39077408636467
 11
193.24964054549145
 21
252.75573571636437
  0
LINE
  8
_1-2_
  6
CONTINUOUS
 62
   18
 10
176.17757213430519
 20
236.39077408636467
 11
192.54253376430478
 21
252.75573571636437
  0
LINE
  8
_1-2_
  6
CONTINUOUS
 62
   18
 10
175.47046535311853
 20
236.39077408636467
 11
191.83542698311823
 21
252.75573571636437
  0
LINE
  8
_1-2_
  6
CONTINUOUS
 62
   18
 10
174.76335857193197
 20
236.3907740863649
 11
191.12832020193156
 21
252.75573571636437
  0
LINE
  8
_1-2_
  6
CONTINUOUS
 62
   18
 10
174.05625179074531
 20
236.3907740863649
 11
190.421213420745
 21
252.7557357163646
  0
LINE
  8
_1-2_
  6
CONTINUOUS
 62
   18
 10
173.34914500955875
 20
236.3907740863649
 11
189.71410663955845
 21
252.7557357163646
  0
LINE
  8
_1-2_
  6
CONTINUOUS
 62
   18
 10
172.64203822837175
 20
236.39077408636467
 11
189.00699985837144
 21
252.75573571636437
  0
LINE
  8
_1-2_
  6
CONTINUOUS
 62
   18
 10
171.93493144718667
 20
236.39077408636444
 11
188.29989307718671
 21
252.75573571636437
  0
LINE
  8
_1-2_
  6
CONTINUOUS
 62
   18
 10
171.227824666
 20
236.39077408636444
 11
187.59278629600016
 21
252.7557357163646
  0
LINE
  8
_1-2_
  6
CONTINUOUS
 62
   18
 10
170.52071788481345
 20
236.39077408636444
 11
186.8856795148136
 21
252.7557357163646
  0
LINE
  8
_1-2_
  6
CONTINUOUS
 62
   18
 10
169.81361110362656
 20
236.39077408636422
 11
186.17857273362682
 21
252.7557357163646
  0
LINE
  8
_1-2_
  6
CONTINUOUS
 62
   18
 10
169.10650432244
 20
236.39077408636444
 11
185.47146595244016
 21
252.7557357163646
  0
LINE
  8
_1-2_
  6
CONTINUOUS
 62
   18
 10
168.39939754125334
 20
236.39077408636444
 11
184.7643591712536
 21
252.7557357163646
  0
LINE
  8
_1-2_
  6
CONTINUOUS
 62
   18
 10
167.69229076006678
 20
236.39077408636444
 11
184.05725239006694
 21
252.7557357163646
  0
LINE
  8
_1-2_
  6
CONTINUOUS
 62
   18
 10
166.98518397888012
 20
236.39077408636444
 11
183.35014560888038
 21
252.75573571636482
  0
LINE
  8
_1-2_
  6
CONTINUOUS
 62
   18
 10
166.27807719769356
 20
236.39077408636467
 11
182.64303882769326
 21
252.75573571636437
  0
LINE
  8
_1-2_
  6
CONTINUOUS
 62
   18
 10
165.5709704165069
 20
236.39077408636467
 11
181.93593204650659
 21
252.75573571636437
  0
LINE
  8
_1-2_
  6
CONTINUOUS
 62
   18
 10
164.86386363532034
 20
236.39077408636467
 11
181.22882526532004
 21
252.75573571636437
  0
LINE
  8
_1-2_
  6
CONTINUOUS
 62
   18
 10
164.15675685413368
 20
236.39077408636467
 11
180.52171848413337
 21
252.75573571636437
  0
LINE
  8
_1-2_
  6
CONTINUOUS
 62
   18
 10
163.44965007294712
 20
236.3907740863649
 11
179.81461170294682
 21
252.7557357163646
  0
LINE
  8
_1-2_
  6
CONTINUOUS
 62
   18
 10
162.74254329176057
 20
236.3907740863649
 11
179.10750492176015
 21
252.7557357163646
  0
LINE
  8
_1-2_
  6
CONTINUOUS
 62
   18
 10
162.03543651057367
 20
236.39077408636467
 11
178.40039814057326
 21
252.75573571636437
  0
LINE
  8
_1-2_
  6
CONTINUOUS
 62
   18
 10
161.32832972938701
 20
236.39077408636467
 11
177.69329135938659
 21
252.75573571636437
  0
LINE
  8
_1-2_
  6
CONTINUOUS
 62
   18
 10
160.62122294820182
 20
236.39077408636444
 11
176.98618457820197
 21
252.7557357163646
  0
LINE
  8
_1-2_
  6
CONTINUOUS
 62
   18
 10
159.91411616701527
 20
236.39077408636444
 11
176.27907779701542
 21
252.7557357163646
  0
LINE
  8
_1-2_
  6
CONTINUOUS
 62
   18
 10
159.20700938582837
 20
236.39077408636422
 11
175.57197101582852
 21
252.75573571636437
  0
LINE
  8
_1-2_
  6
CONTINUOUS
 62
   18
 10
158.49990260464182
 20
236.39077408636444
 11
174.86486423464197
 21
252.7557357163646
  0
LINE
  8
_1-2_
  6
CONTINUOUS
 62
   18
 10
157.79279582345515
 20
236.39077408636444
 11
174.15775745345542
 21
252.7557357163646
  0
LINE
  8
_1-2_
  6
CONTINUOUS
 62
   18
 10
137.28669916904533
 20
236.39077408636422
 11
153.6516607990456
 21
252.7557357163646
  0
LINE
  8
_1-2_
  6
CONTINUOUS
 62
   18
 10
136.57959238785878
 20
236.39077408636444
 11
152.94455401785893
 21
252.7557357163646
  0
LINE
  8
_1-2_
  6
CONTINUOUS
 62
   18
 10
135.87248560667211
 20
236.39077408636444
 11
152.23744723667238
 21
252.7557357163646
  0
LINE
  8
_1-2_
  6
CONTINUOUS
 62
   18
 10
135.16537882548556
 20
236.39077408636444
 11
151.53034045548571
 21
252.7557357163646
  0
LINE
  8
_1-2_
  6
CONTINUOUS
 62
   18
 10
134.45827204429889
 20
236.39077408636444
 11
150.82323367429916
 21
252.75573571636482
  0
LINE
  8
_1-2_
  6
CONTINUOUS
 62
   18
 10
133.75116526311234
 20
236.39077408636467
 11
150.11612689311193
 21
252.75573571636414
  0
LINE
  8
_1-2_
  6
CONTINUOUS
 62
   18
 10
133.04405848192567
 20
236.39077408636467
 11
149.40902011192537
 21
252.75573571636437
  0
LINE
  8
_1-2_
  6
CONTINUOUS
 62
   18
 10
132.33695170073912
 20
236.39077408636467
 11
148.70191333073882
 21
252.75573571636437
  0
LINE
  8
_1-2_
  6
CONTINUOUS
 62
   18
 10
131.62984491955245
 20
236.39077408636467
 11
147.99480654955215
 21
252.75573571636437
  0
LINE
  8
_1-2_
  6
CONTINUOUS
 62
   18
 10
130.9227381383659
 20
236.3907740863649
 11
147.2876997683656
 21
252.7557357163646
  0
LINE
  8
_1-2_
  6
CONTINUOUS
 62
   18
 10
130.21563135717923
 20
236.3907740863649
 11
146.58059298717893
 21
252.7557357163646
  0
LINE
  8
_1-2_
  6
CONTINUOUS
 62
   18
 10
129.50852457599245
 20
236.39077408636467
 11
145.87348620599215
 21
252.75573571636437
  0
LINE
  8
_1-2_
  6
CONTINUOUS
 62
   18
 10
128.80141779480738
 20
236.39077408636444
 11
145.16637942480742
 21
252.7557357163646
  0
LINE
  8
_1-2_
  6
CONTINUOUS
 62
   18
 10
128.09431101362071
 20
236.39077408636444
 11
144.45927264362086
 21
252.7557357163646
  0
LINE
  8
_1-2_
  6
CONTINUOUS
 62
   18
 10
127.3872042324337
 20
236.39077408636422
 11
143.75216586243397
 21
252.75573571636437
  0
LINE
  8
_1-2_
  6
CONTINUOUS
 62
   18
 10
126.68009745124715
 20
236.39077408636422
 11
143.0450590812473
 21
252.75573571636437
  0
LINE
  8
_1-2_
  6
CONTINUOUS
 62
   18
 10
125.9729906700606
 20
236.39077408636444
 11
142.33795230006075
 21
252.7557357163646
  0
LINE
  8
_1-2_
  6
CONTINUOUS
 62
   18
 10
125.26588388887393
 20
236.39077408636444
 11
141.63084551887408
 21
252.7557357163646
  0
LINE
  8
_1-2_
  6
CONTINUOUS
 62
   18
 10
124.55877710768738
 20
236.39077408636444
 11
140.92373873768753
 21
252.7557357163646
  0
LINE
  8
_1-2_
  6
CONTINUOUS
 62
   18
 10
123.85167032650071
 20
236.39077408636444
 11
140.21663195650086
 21
252.7557357163646
  0
LINE
  8
_1-2_
  6
CONTINUOUS
 62
   18
 10
123.14456354531416
 20
236.39077408636467
 11
139.50952517531374
 21
252.75573571636414
  0
LINE
  8
_1-2_
  6
CONTINUOUS
 62
   18
 10
122.43745676412749
 20
236.39077408636467
 11
138.80241839412719
 21
252.75573571636437
  0
LINE
  8
_1-2_
  6
CONTINUOUS
 62
   18
 10
121.73034998294094
 20
236.39077408636467
 11
138.09531161294052
 21
252.75573571636437
  0
LINE
  8
_1-2_
  6
CONTINUOUS
 62
   18
 10
121.02324320175427
 20
236.39077408636467
 11
137.38820483175397
 21
252.75573571636437
  0
LINE
  8
_1-2_
  6
CONTINUOUS
 62
   18
 10
120.31613642056772
 20
236.3907740863649
 11
136.6810980505673
 21
252.75573571636437
  0
LINE
  8
_1-2_
  6
CONTINUOUS
 62
   18
 10
119.60902963938105
 20
236.3907740863649
 11
135.97399126938075
 21
252.7557357163646
  0
LINE
  8
_1-2_
  6
CONTINUOUS
 62
   18
 10
118.90192285819427
 20
236.3907740863649
 11
135.26688448819397
 21
252.75573571636437
  0
LINE
  8
_1-2_
  6
CONTINUOUS
 62
   18
 10
118.19481607700715
 20
236.39077408636422
 11
134.5597777070073
 21
252.75573571636437
  0
LINE
  8
_1-2_
  6
CONTINUOUS
 62
   18
 10
117.48770929582253
 20
236.39077408636444
 11
133.85267092582268
 21
252.7557357163646
  0
LINE
  8
_1-2_
  6
CONTINUOUS
 62
   18
 10
116.78060251463597
 20
236.39077408636467
 11
133.14556414463613
 21
252.75573571636482
  0
LINE
  8
_1-2_
  6
CONTINUOUS
 62
   18
 10
116.07349573344896
 20
236.39077408636422
 11
132.43845736344912
 21
252.75573571636437
  0
LINE
  8
_1-2_
  6
CONTINUOUS
 62
   18
 10
115.3663889522623
 20
236.39077408636422
 11
131.73135058226256
 21
252.7557357163646
  0
LINE
  8
_1-2_
  6
CONTINUOUS
 62
   18
 10
114.65928217107574
 20
236.39077408636444
 11
131.0242438010759
 21
252.7557357163646
  0
LINE
  8
_1-2_
  6
CONTINUOUS
 62
   18
 10
113.95217538988908
 20
236.39077408636444
 11
130.31713701988934
 21
252.7557357163646
  0
LINE
  8
_1-2_
  6
CONTINUOUS
 62
   18
 10
113.24506860870252
 20
236.39077408636444
 11
129.61003023870268
 21
252.7557357163646
  0
LINE
  8
_1-2_
  6
CONTINUOUS
 62
   18
 10
112.53796182751586
 20
236.39077408636444
 11
128.90292345751556
 21
252.75573571636414
  0
LINE
  8
_1-2_
  6
CONTINUOUS
 62
   18
 10
111.8308550463293
 20
236.39077408636467
 11
128.195816676329
 21
252.75573571636437
  0
LINE
  8
_1-2_
  6
CONTINUOUS
 62
   18
 10
111.12374826514264
 20
236.39077408636467
 11
127.48870989514234
 21
252.75573571636437
  0
LINE
  8
_1-2_
  6
CONTINUOUS
 62
   18
 10
110.41664148395608
 20
236.39077408636467
 11
126.78160311395578
 21
252.75573571636437
  0
LINE
  8
_1-2_
  6
CONTINUOUS
 62
   18
 10
109.70953470276942
 20
236.39077408636467
 11
126.07449633276912
 21
252.75573571636437
  0
LINE
  8
_1-2_
  6
CONTINUOUS
 62
   18
 10
109.00242792158286
 20
236.3907740863649
 11
125.36738955158256
 21
252.7557357163646
  0
LINE
  8
_1-2_
  6
CONTINUOUS
 62
   18
 10
108.29532114039631
 20
236.3907740863649
 11
124.6602827703959
 21
252.7557357163646
  0
LINE
  8
_1-2_
  6
CONTINUOUS
 62
   18
 10
107.58821435920953
 20
236.3907740863649
 11
123.95317598920911
 21
252.75573571636437
  0
LINE
  8
_1-2_
  6
CONTINUOUS
 62
   18
 10
106.88110757802434
 20
236.39077408636444
 11
123.24606920802449
 21
252.7557357163646
  0
LINE
  8
_1-2_
  6
CONTINUOUS
 62
   18
 10
106.17400079683779
 20
236.39077408636467
 11
122.53896242683794
 21
252.75573571636482
  0
LINE
  8
_1-2_
  6
CONTINUOUS
 62
   18
 10
105.46689401565078
 20
236.39077408636422
 11
121.83185564565093
 21
252.75573571636437
  0
LINE
  8
_1-2_
  6
CONTINUOUS
 62
   18
 10
104.75978723446411
 20
236.39077408636422
 11
121.12474886446427
 21
252.75573571636437
  0
LINE
  8
_1-2_
  6
CONTINUOUS
 62
   18
 10
104.05268045327745
 20
236.39077408636444
 11
120.41764208327771
 21
252.7557357163646
  0
LINE
  8
_1-2_
  6
CONTINUOUS
 62
   18
 10
103.34557367209089
 20
236.39077408636444
 11
119.71053530209105
 21
252.7557357163646
  0
LINE
  8
_1-2_
  6
CONTINUOUS
 62
   18
 10
102.63846689090434
 20
236.39077408636444
 11
119.00342852090449
 21
252.7557357163646
  0
LINE
  8
_1-2_
  6
CONTINUOUS
 62
   18
 10
101.93136010971767
 20
236.39077408636444
 11
118.29632173971737
 21
252.75573571636414
  0
LINE
  8
_1-2_
  6
CONTINUOUS
 62
   18
 10
101.22425332853112
 20
236.39077408636467
 11
117.5892149585307
 21
252.75573571636414
  0
LINE
  8
_1-2_
  6
CONTINUOUS
 62
   18
 10
100.51714654734445
 20
236.39077408636467
 11
116.88210817734415
 21
252.75573571636437
  0
LINE
  8
_1-2_
  6
CONTINUOUS
 62
   18
 10
99.8100397661579
 20
236.39077408636467
 11
116.17500139615748
 21
252.75573571636437
  0
LINE
  8
_1-2_
  6
CONTINUOUS
 62
   18
 10
99.102932984971233
 20
236.39077408636467
 11
115.46789461497093
 21
252.75573571636437
  0
LINE
  8
_1-2_
  6
CONTINUOUS
 62
   18
 10
98.395826203784679
 20
236.3907740863649
 11
114.76078783378426
 21
252.75573571636437
  0
LINE
  8
_1-2_
  6
CONTINUOUS
 62
   18
 10
97.688719422598012
 20
236.3907740863649
 11
114.05368105259771
 21
252.7557357163646
  0
LINE
  8
_1-2_
  6
CONTINUOUS
 62
   18
 10
96.981612641411346
 20
236.3907740863649
 11
113.34657427141093
 21
252.75573571636437
  0
LINE
  8
_1-2_
  6
CONTINUOUS
 62
   18
 10
96.274505860226157
 20
236.39077408636444
 11
112.63946749022631
 21
252.7557357163646
  0
LINE
  8
_1-2_
  6
CONTINUOUS
 62
   18
 10
95.567399079039603
 20
236.39077408636467
 11
111.93236070903976
 21
252.75573571636482
  0
LINE
  8
_1-2_
  6
CONTINUOUS
 62
   18
 10
94.860292297852482
 20
236.39077408636422
 11
111.22525392785275
 21
252.75573571636437
  0
LINE
  8
_1-2_
  6
CONTINUOUS
 62
   18
 10
94.153185516665928
 20
236.39077408636422
 11
110.51814714666608
 21
252.75573571636437
  0
LINE
  8
_1-2_
  6
CONTINUOUS
 62
   18
 10
93.446078735479261
 20
236.39077408636422
 11
109.81104036547953
 21
252.7557357163646
  0
LINE
  8
_1-2_
  6
CONTINUOUS
 62
   18
 10
92.738971954292708
 20
236.39077408636444
 11
109.10393358429286
 21
252.7557357163646
  0
LINE
  8
_1-2_
  6
CONTINUOUS
 62
   18
 10
92.031865173106041
 20
236.39077408636444
 11
108.39682680310631
 21
252.7557357163646
  0
LINE
  8
_1-2_
  6
CONTINUOUS
 62
   18
 10
91.324758391919488
 20
236.39077408636444
 11
107.68972002191964
 21
252.7557357163646
  0
LINE
  8
_1-2_
  6
CONTINUOUS
 62
   18
 10
90.617651610732821
 20
236.39077408636444
 11
106.98261324073252
 21
252.75573571636414
  0
LINE
  8
_1-2_
  6
CONTINUOUS
 62
   18
 10
89.910544829546268
 20
236.39077408636467
 11
106.27550645954597
 21
252.75573571636437
  0
LINE
  8
_1-2_
  6
CONTINUOUS
 62
   18
 10
89.203438048359715
 20
236.39077408636467
 11
105.5683996783593
 21
252.75573571636437
  0
LINE
  8
_1-2_
  6
CONTINUOUS
 62
   18
 10
88.496331267173048
 20
236.39077408636467
 11
104.86129289717275
 21
252.75573571636437
  0
LINE
  8
_1-2_
  6
CONTINUOUS
 62
   18
 10
87.789224485986381
 20
236.39077408636467
 11
104.15418611598608
 21
252.75573571636437
  0
LINE
  8
_1-2_
  6
CONTINUOUS
 62
   18
 10
87.082117704799828
 20
236.3907740863649
 11
103.44707933479953
 21
252.7557357163646
  0
LINE
  8
_1-2_
  6
CONTINUOUS
 62
   18
 10
86.375010923613161
 20
236.3907740863649
 11
102.73997255361286
 21
252.7557357163646
  0
LINE
  8
_1-2_
  6
CONTINUOUS
 62
   18
 10
85.667904142427972
 20
236.39077408636467
 11
102.03286577242812
 21
252.7557357163646
  0
LINE
  8
_1-2_
  6
CONTINUOUS
 62
   18
 10
84.960797361241418
 20
236.39077408636467
 11
101.32575899124157
 21
252.75573571636482
  0
LINE
  8
_1-2_
  6
CONTINUOUS
 62
   18
 10
84.253690580054297
 20
236.39077408636422
 11
100.61865221005445
 21
252.75573571636437
  0
LINE
  8
_1-2_
  6
CONTINUOUS
 62
   18
 10
83.546583798867744
 20
236.39077408636422
 11
99.911545428867896
 21
252.75573571636437
  0
LINE
  8
_1-2_
  6
CONTINUOUS
 62
   18
 10
82.839477017681077
 20
236.39077408636422
 11
99.204438647681229
 21
252.75573571636437
  0
LINE
  8
_1-2_
  6
CONTINUOUS
 62
   18
 10
82.13237023649441
 20
236.39077408636444
 11
98.497331866494676
 21
252.7557357163646
  0
LINE
  8
_1-2_
  6
CONTINUOUS
 62
   18
 10
81.425263455307856
 20
236.39077408636444
 11
97.790225085308123
 21
252.7557357163646
  0
LINE
  8
_1-2_
  6
CONTINUOUS
 62
   18
 10
80.718156674121303
 20
236.39077408636444
 11
97.083118304121456
 21
252.7557357163646
  0
LINE
  8
_1-2_
  6
CONTINUOUS
 62
   18
 10
80.678097918322635
 20
237.05782211175256
 11
96.376011522934334
 21
252.75573571636414
  0
LINE
  8
_1-2_
  6
CONTINUOUS
 62
   18
 10
80.678097918322521
 20
237.764928892939
 11
95.668904741747667
 21
252.75573571636414
  0
LINE
  8
_1-2_
  6
CONTINUOUS
 62
   18
 10
80.678097918322521
 20
238.47203567412566
 11
94.961797960561114
 21
252.75573571636437
  0
LINE
  8
_1-2_
  6
CONTINUOUS
 62
   18
 10
80.678097918322521
 20
239.17914245531233
 11
94.254691179374447
 21
252.75573571636437
  0
LINE
  8
_1-2_
  6
CONTINUOUS
 62
   18
 10
80.678097918322408
 20
239.886249236499
 11
93.547584398187894
 21
252.75573571636437
  0
LINE
  8
_1-2_
  6
CONTINUOUS
 62
   18
 10
80.678097918322408
 20
240.59335601768566
 11
92.840477617001227
 21
252.7557357163646
  0
LINE
  8
_1-2_
  6
CONTINUOUS
 62
   18
 10
80.678097918322294
 20
241.3004627988721
 11
92.133370835814674
 21
252.7557357163646
  0
LINE
  8
_1-2_
  6
CONTINUOUS
 62
   18
 10
80.678097918322521
 20
242.00756958005809
 11
91.42626405462903
 21
252.7557357163646
  0
LINE
  8
_1-2_
  6
CONTINUOUS
 62
   18
 10
80.678097918322408
 20
242.71467636124385
 11
90.719157273443386
 21
252.75573571636482
  0
LINE
  8
_1-2_
  6
CONTINUOUS
 62
   18
 10
80.678097918322294
 20
243.42178314243051
 11
90.012050492256833
 21
252.75573571636482
  0
LINE
  8
_1-2_
  6
CONTINUOUS
 62
   18
 10
80.678097918322749
 20
244.12888992361763
 11
89.304943711069711
 21
252.75573571636437
  0
LINE
  8
_1-2_
  6
CONTINUOUS
 62
   18
 10
80.678097918322749
 20
244.83599670480407
 11
88.597836929883044
 21
252.75573571636437
  0
LINE
  8
_1-2_
  6
CONTINUOUS
 62
   18
 10
80.678097918322749
 20
245.54310348599074
 11
87.890730148696491
 21
252.7557357163646
  0
LINE
  8
_1-2_
  6
CONTINUOUS
 62
   18
 10
80.678097918322635
 20
246.25021026717741
 11
87.183623367509824
 21
252.7557357163646
  0
LINE
  8
_1-2_
  6
CONTINUOUS
 62
   18
 10
80.678097918322521
 20
246.95731704836385
 11
86.476516586323271
 21
252.7557357163646
  0
LINE
  8
_1-2_
  6
CONTINUOUS
 62
   18
 10
80.678097918322862
 20
247.66442382955097
 11
85.769409805136149
 21
252.75573571636414
  0
LINE
  8
_1-2_
  6
CONTINUOUS
 62
   18
 10
80.678097918322749
 20
248.37153061073741
 11
85.062303023949482
 21
252.75573571636414
  0
LINE
  8
_1-2_
  6
CONTINUOUS
 62
   18
 10
80.678097918322749
 20
249.07863739192408
 11
84.355196242762929
 21
252.75573571636437
  0
LINE
  8
_1-2_
  6
CONTINUOUS
 62
   18
 10
80.678097918322749
 20
249.78574417311074
 11
83.648089461576262
 21
252.75573571636437
  0
LINE
  8
_1-2_
  6
CONTINUOUS
 62
   18
 10
80.678097918322635
 20
250.49285095429741
 11
82.940982680389709
 21
252.75573571636437
  0
LINE
  8
_1-2_
  6
CONTINUOUS
 62
   18
 10
80.678097918322635
 20
251.19995773548408
 11
82.233875899203042
 21
252.75573571636437
  0
LINE
  8
_1-2_
  6
CONTINUOUS
 62
   18
 10
80.678097918322521
 20
251.90706451667052
 11
81.526769118016489
 21
252.7557357163646
  0
LINE
  8
_1-2_
  6
CONTINUOUS
 62
   18
 10
80.678097918322521
 20
252.61417129785718
 11
80.819662336829822
 21
252.7557357163646
  0
LINE
  8
_1-2_
  6
CONTINUOUS
 62
   18
 10
137.993805950232
 20
236.39077408636422
 11
153.43213995341608
 21
251.8291080895483
  0
LINE
  8
_1-2_
  6
CONTINUOUS
 62
   18
 10
138.7009127314189
 20
236.39077408636444
 11
153.11438014686797
 21
250.80424150181352
  0
LINE
  8
_1-2_
  6
CONTINUOUS
 62
   18
 10
139.40801951260545
 20
236.39077408636444
 11
152.97535823658694
 21
249.95811281034594
  0
LINE
  8
_1-2_
  6
CONTINUOUS
 62
   18
 10
155.52058249589192
 20
252.5033370696508
 11
155.7729811426056
 21
252.7557357163646
  0
LINE
  8
_1-2_
  6
CONTINUOUS
 62
   18
 10
155.02626400949708
 20
251.30191180207112
 11
156.48008792379022
 21
252.75573571636437
  0
LINE
  8
_1-2_
  6
CONTINUOUS
 62
   18
 10
154.81025072732911
 20
250.37879173871647
 11
157.18719470497712
 21
252.7557357163646
  0
LINE
  8
_1-2_
  6
CONTINUOUS
 62
   18
 10
154.72655227749766
 20
249.58798650769836
 11
157.89430148616378
 21
252.7557357163646
  0
LINE
  8
_1-2_
  6
CONTINUOUS
 62
   18
 10
154.7277334994954
 20
248.88206094850943
 11
158.60140826735034
 21
252.75573571636437
  0
LINE
  8
_1-2_
  6
CONTINUOUS
 62
   18
 10
154.7911445970413
 20
248.23836526486866
 11
159.308515048537
 21
252.75573571636437
  0
LINE
  8
_1-2_
  6
CONTINUOUS
 62
   18
 10
154.90391083665276
 20
247.64402472329357
 11
160.01562182972356
 21
252.75573571636437
  0
LINE
  8
_1-2_
  6
CONTINUOUS
 62
   18
 10
155.24785025961438
 20
246.57375058388175
 11
161.42983539209735
 21
252.75573571636482
  0
LINE
  8
_1-2_
  6
CONTINUOUS
 62
   18
 10
155.46988148202576
 20
246.08867502510657
 11
162.1369421732839
 21
252.7557357163646
  0
LINE
  8
_1-2_
  6
CONTINUOUS
 62
   18
 10
140.11512629379064
 20
236.39077408636467
 11
152.93924328883969
 21
249.21489108141373
  0
LINE
  8
_1-2_
  6
CONTINUOUS
 62
   18
 10
140.82223307497753
 20
236.3907740863649
 11
152.97457225901627
 21
248.54311327040364
  0
LINE
  8
_1-2_
  6
CONTINUOUS
 62
   18
 10
141.52933985616409
 20
236.3907740863649
 11
153.06468661843923
 21
247.92612084864004
  0
LINE
  8
_1-2_
  6
CONTINUOUS
 62
   18
 10
142.23644663735075
 20
236.3907740863649
 11
153.1995552077762
 21
247.35388265679035
  0
LINE
  8
_1-2_
  6
CONTINUOUS
 62
   18
 10
142.94355341853731
 20
236.39077408636467
 11
153.37265120070555
 21
246.81987186853303
  0
LINE
  8
_1-2_
  6
CONTINUOUS
 62
   18
 10
143.65066019972397
 20
236.39077408636467
 11
153.57952042607923
 21
246.31963431271993
  0
LINE
  8
_1-2_
  6
CONTINUOUS
 62
   18
 10
144.35776698091053
 20
236.39077408636467
 11
153.81704255753817
 21
245.85004966299221
  0
LINE
  8
_1-2_
  6
CONTINUOUS
 62
   18
 10
145.06487376209708
 20
236.39077408636444
 11
154.08301803093644
 21
245.40891835520392
  0
LINE
  8
_1-2_
  6
CONTINUOUS
 62
   18
 10
145.77198054328375
 20
236.39077408636444
 11
154.37592492536993
 21
244.99471846845063
  0
LINE
  8
_1-2_
  6
CONTINUOUS
 62
   18
 10
146.4790873244703
 20
236.39077408636444
 11
154.69477275531796
 21
244.60645951721199
  0
LINE
  8
_1-2_
  6
CONTINUOUS
 62
   18
 10
155.72140391289958
 20
245.63309067479372
 11
162.84404895447057
 21
252.7557357163646
  0
LINE
  8
_1-2_
  6
CONTINUOUS
 62
   18
 10
147.18619410565697
 20
236.39077408636444
 11
155.0181321901685
 21
244.22271217087587
  0
LINE
  8
_1-2_
  6
CONTINUOUS
 62
   18
 10
156.00056919402044
 20
245.20514917472792
 11
163.55115573565712
 21
252.7557357163646
  0
LINE
  8
_1-2_
  6
CONTINUOUS
 62
   18
 10
147.89330088684352
 20
236.39077408636422
 11
155.31571102947129
 21
243.81318422899199
  0
LINE
  8
_1-2_
  6
CONTINUOUS
 62
   18
 10
156.30612656414752
 20
244.80359976366822
 11
164.25826251684379
 21
252.7557357163646
  0
LINE
  8
_1-2_
  6
CONTINUOUS
 62
   18
 10
148.60040766803019
 20
236.39077408636422
 11
155.58657032712557
 21
243.37693674545972
  0
LINE
  8
_1-2_
  6
CONTINUOUS
 62
   18
 10
156.63352119002292
 20
244.42388760835706
 11
164.96536929803034
 21
252.75573571636437
  0
LINE
  8
_1-2_
  6
CONTINUOUS
 62
   18
 10
149.30751444921708
 20
236.39077408636444
 11
155.82929128128177
 21
242.91255091842913
  0
LINE
  8
_1-2_
  6
CONTINUOUS
 62
   18
 10
156.94450370998408
 20
244.02776334713144
 11
165.67247607921723
 21
252.7557357163646
  0
LINE
  8
_1-2_
  6
CONTINUOUS
 62
   18
 10
150.01462123040363
 20
236.39077408636444
 11
156.04180915428873
 21
242.41796201024954
  0
LINE
  8
_1-2_
  6
CONTINUOUS
 62
   18
 10
157.22929239047875
 20
243.60544524643956
 11
166.37958286040379
 21
252.7557357163646
  0
LINE
  8
_1-2_
  6
CONTINUOUS
 62
   18
 10
150.72172801158882
 20
236.39077408636467
 11
156.22119130835239
 21
241.89023738312835
  0
LINE
  8
_1-2_
  6
CONTINUOUS
 62
   18
 10
157.48674545968385
 20
243.15579153445969
 11
167.08668964158841
 21
252.75573571636437
  0
LINE
  8
_1-2_
  6
CONTINUOUS
 62
   18
 10
157.63193075366365
 20
236.93701579775961
 11
173.45065067226875
 21
252.7557357163646
  0
LINE
  8
_1-2_
  6
CONTINUOUS
 62
   18
 10
158.04128337799187
 20
238.0534752032745
 11
172.7435438910822
 21
252.75573571636482
  0
LINE
  8
_1-2_
  6
CONTINUOUS
 62
   18
 10
158.22310305584489
 20
238.94240166231407
 11
172.03643710989496
 21
252.75573571636414
  0
LINE
  8
_1-2_
  6
CONTINUOUS
 62
   18
 10
154.96436869870871
 20
236.39077408636467
 11
156.0933219525138
 21
237.51972734016977
  0
LINE
  8
_1-2_
  6
CONTINUOUS
 62
   18
 10
158.28628681826484
 20
239.7126922059208
 11
171.32933032870841
 21
252.75573571636437
  0
LINE
  8
_1-2_
  6
CONTINUOUS
 62
   18
 10
154.25726191752216
 20
236.39077408636467
 11
156.36906628653838
 21
238.5025784553809
  0
LINE
  8
_1-2_
  6
CONTINUOUS
 62
   18
 10
158.27061667765946
 20
240.40412884650209
 11
170.62222354752174
 21
252.75573571636437
  0
LINE
  8
_1-2_
  6
CONTINUOUS
 62
   18
 10
153.55015513633549
 20
236.39077408636467
 11
156.48626498034486
 21
239.32688393037415
  0
LINE
  8
_1-2_
  6
CONTINUOUS
 62
   18
 10
158.19598970312865
 20
241.03660865315783
 11
169.91511676633519
 21
252.75573571636437
  0
LINE
  8
_1-2_
  6
CONTINUOUS
 62
   18
 10
152.84304835514894
 20
236.3907740863649
 11
156.50797832788618
 21
240.05570405910203
  0
LINE
  8
_1-2_
  6
CONTINUOUS
 62
   18
 10
158.07400593238759
 20
241.62173166360344
 11
169.20800998514864
 21
252.7557357163646
  0
LINE
  8
_1-2_
  6
CONTINUOUS
 62
   18
 10
152.13594157396227
 20
236.3907740863649
 11
156.46194143407428
 21
240.71677394647691
  0
LINE
  8
_1-2_
  6
CONTINUOUS
 62
   18
 10
157.91206406573434
 20
242.16689657813686
 11
168.50090320396197
 21
252.7557357163646
  0
LINE
  8
_1-2_
  6
CONTINUOUS
 62
   18
 10
151.42883479277572
 20
236.3907740863649
 11
156.36326239802412
 21
241.3252016916133
  0
LINE
  8
_1-2_
  6
CONTINUOUS
 62
   18
 10
157.71515258723201
 20
242.67709188082131
 11
167.79379642277542
 21
252.7557357163646
  0
LINE
  8
_1-2_
  6
CONTINUOUS
 62
   18
 10
230.40639527949253
 20
210.00954687033345
 11
230.67809791832241
 21
210.28124950916322
  0
LINE
  8
_1-2_
  6
CONTINUOUS
 62
   18
 10
229.69928849830586
 20
210.00954687033345
 11
230.67809791832241
 21
210.98835629034988
  0
LINE
  8
_1-2_
  6
CONTINUOUS
 62
   18
 10
228.99218171711931
 20
210.00954687033345
 11
230.67809791832229
 21
211.69546307153655
  0
LINE
  8
_1-2_
  6
CONTINUOUS
 62
   18
 10
228.28507493593264
 20
210.00954687033345
 11
230.67809791832229
 21
212.40256985272322
  0
LINE
  8
_1-2_
  6
CONTINUOUS
 62
   18
 10
227.57796815474552
 20
210.009546870333
 11
230.67809791832286
 21
213.10967663391034
  0
LINE
  8
_1-2_
  6
CONTINUOUS
 62
   18
 10
226.8708613735609
 20
210.00954687033322
 11
230.67809791832263
 21
213.81678341509496
  0
LINE
  8
_1-2_
  6
CONTINUOUS
 62
   18
 10
226.16375459237435
 20
210.00954687033345
 11
230.67809791832263
 21
214.52389019628163
  0
LINE
  8
_1-2_
  6
CONTINUOUS
 62
   18
 10
225.45664781118768
 20
210.00954687033345
 11
230.67809791832263
 21
215.23099697746829
  0
LINE
  8
_1-2_
  6
CONTINUOUS
 62
   18
 10
224.74954103000101
 20
210.00954687033345
 11
230.54954103000074
 21
215.80954687033318
  0
LINE
  8
_1-2_
  6
CONTINUOUS
 62
   18
 10
224.04243424881446
 20
210.00954687033345
 11
229.84243424881362
 21
215.80954687033272
  0
LINE
  8
_1-2_
  6
CONTINUOUS
 62
   18
 10
223.33532746762791
 20
210.00954687033368
 11
229.13532746762695
 21
215.80954687033272
  0
LINE
  8
_1-2_
  6
CONTINUOUS
 62
   18
 10
222.62822068644067
 20
210.009546870333
 11
228.4282206864404
 21
215.80954687033272
  0
LINE
  8
_1-2_
  6
CONTINUOUS
 62
   18
 10
221.92111390525412
 20
210.00954687033322
 11
227.72111390525384
 21
215.80954687033295
  0
LINE
  8
_1-2_
  6
CONTINUOUS
 62
   18
 10
221.21400712406745
 20
210.00954687033322
 11
227.01400712406718
 21
215.80954687033295
  0
LINE
  8
_1-2_
  6
CONTINUOUS
 62
   18
 10
220.5069003428809
 20
210.00954687033322
 11
226.30690034288051
 21
215.80954687033295
  0
LINE
  8
_1-2_
  6
CONTINUOUS
 62
   18
 10
219.79979356169423
 20
210.00954687033322
 11
225.59979356169396
 21
215.80954687033295
  0
LINE
  8
_1-2_
  6
CONTINUOUS
 62
   18
 10
219.09268678050768
 20
210.00954687033345
 11
224.8926867805074
 21
215.80954687033318
  0
LINE
  8
_1-2_
  6
CONTINUOUS
 62
   18
 10
218.38557999932101
 20
210.00954687033345
 11
224.18557999932074
 21
215.80954687033318
  0
LINE
  8
_1-2_
  6
CONTINUOUS
 62
   18
 10
217.67847321813446
 20
210.00954687033345
 11
223.47847321813418
 21
215.80954687033318
  0
LINE
  8
_1-2_
  6
CONTINUOUS
 62
   18
 10
216.97136643694733
 20
210.009546870333
 11
222.77136643694706
 21
215.80954687033272
  0
LINE
  8
_1-2_
  6
CONTINUOUS
 62
   18
 10
216.26425965576271
 20
210.00954687033322
 11
222.06425965576244
 21
215.80954687033295
  0
LINE
  8
_1-2_
  6
CONTINUOUS
 62
   18
 10
215.55715287457616
 20
210.00954687033345
 11
221.35715287457577
 21
215.80954687033295
  0
LINE
  8
_1-2_
  6
CONTINUOUS
 62
   18
 10
214.85004609338949
 20
210.00954687033345
 11
220.65004609338911
 21
215.80954687033295
  0
LINE
  8
_1-2_
  6
CONTINUOUS
 62
   18
 10
214.14293931220283
 20
210.00954687033345
 11
219.94293931220255
 21
215.80954687033318
  0
LINE
  8
_1-2_
  6
CONTINUOUS
 62
   18
 10
213.43583253101627
 20
210.00954687033345
 11
219.23583253101589
 21
215.80954687033318
  0
LINE
  8
_1-2_
  6
CONTINUOUS
 62
   18
 10
212.72872574982961
 20
210.00954687033345
 11
218.52872574982877
 21
215.80954687033272
  0
LINE
  8
_1-2_
  6
CONTINUOUS
 62
   18
 10
212.02161896864249
 20
210.009546870333
 11
217.82161896864221
 21
215.80954687033272
  0
LINE
  8
_1-2_
  6
CONTINUOUS
 62
   18
 10
211.31451218745593
 20
210.00954687033322
 11
217.11451218745555
 21
215.80954687033272
  0
LINE
  8
_1-2_
  6
CONTINUOUS
 62
   18
 10
210.60740540626927
 20
210.00954687033322
 11
216.40740540626899
 21
215.80954687033295
  0
LINE
  8
_1-2_
  6
CONTINUOUS
 62
   18
 10
209.90029862508271
 20
210.00954687033322
 11
215.70029862508233
 21
215.80954687033295
  0
LINE
  8
_1-2_
  6
CONTINUOUS
 62
   18
 10
209.19319184389605
 20
210.00954687033322
 11
214.99319184389577
 21
215.80954687033295
  0
LINE
  8
_1-2_
  6
CONTINUOUS
 62
   18
 10
208.48608506270949
 20
210.00954687033345
 11
214.28608506270911
 21
215.80954687033295
  0
LINE
  8
_1-2_
  6
CONTINUOUS
 62
   18
 10
207.77897828152283
 20
210.00954687033345
 11
213.57897828152255
 21
215.80954687033318
  0
LINE
  8
_1-2_
  6
CONTINUOUS
 62
   18
 10
207.07187150033627
 20
210.00954687033345
 11
212.87187150033589
 21
215.80954687033318
  0
LINE
  8
_1-2_
  6
CONTINUOUS
 62
   18
 10
206.36476471914915
 20
210.009546870333
 11
212.16476471914888
 21
215.80954687033272
  0
LINE
  8
_1-2_
  6
CONTINUOUS
 62
   18
 10
205.65765793796453
 20
210.00954687033322
 11
211.45765793796426
 21
215.80954687033295
  0
LINE
  8
_1-2_
  6
CONTINUOUS
 62
   18
 10
204.95055115677798
 20
210.00954687033345
 11
210.75055115677759
 21
215.80954687033295
  0
LINE
  8
_1-2_
  6
CONTINUOUS
 62
   18
 10
204.2434443755912
 20
210.00954687033322
 11
210.04344437559092
 21
215.80954687033295
  0
LINE
  8
_1-2_
  6
CONTINUOUS
 62
   18
 10
203.53633759440464
 20
210.00954687033345
 11
209.33633759440437
 21
215.80954687033318
  0
LINE
  8
_1-2_
  6
CONTINUOUS
 62
   18
 10
202.82923081321798
 20
210.00954687033345
 11
208.6292308132177
 21
215.80954687033318
  0
LINE
  8
_1-2_
  6
CONTINUOUS
 62
   18
 10
202.12212403203142
 20
210.00954687033345
 11
207.92212403203058
 21
215.80954687033272
  0
LINE
  8
_1-2_
  6
CONTINUOUS
 62
   18
 10
201.41501725084476
 20
210.00954687033368
 11
207.21501725084403
 21
215.80954687033272
  0
LINE
  8
_1-2_
  6
CONTINUOUS
 62
   18
 10
200.70791046965763
 20
210.009546870333
 11
206.50791046965736
 21
215.80954687033272
  0
LINE
  8
_1-2_
  6
CONTINUOUS
 62
   18
 10
200.00080368847108
 20
210.00954687033322
 11
205.80080368847081
 21
215.80954687033295
  0
LINE
  8
_1-2_
  6
CONTINUOUS
 62
   18
 10
199.29369690728441
 20
210.00954687033322
 11
205.09369690728414
 21
215.80954687033295
  0
LINE
  8
_1-2_
  6
CONTINUOUS
 62
   18
 10
198.58659012609786
 20
210.00954687033322
 11
204.38659012609759
 21
215.80954687033295
  0
LINE
  8
_1-2_
  6
CONTINUOUS
 62
   18
 10
197.87948334491119
 20
210.00954687033345
 11
203.67948334491092
 21
215.80954687033295
  0
LINE
  8
_1-2_
  6
CONTINUOUS
 62
   18
 10
197.17237656372464
 20
210.00954687033345
 11
202.97237656372437
 21
215.80954687033318
  0
LINE
  8
_1-2_
  6
CONTINUOUS
 62
   18
 10
196.46526978253797
 20
210.00954687033345
 11
202.2652697825377
 21
215.80954687033318
  0
LINE
  8
_1-2_
  6
CONTINUOUS
 62
   18
 10
195.75816300135097
 20
210.009546870333
 11
201.55816300135069
 21
215.80954687033272
  0
LINE
  8
_1-2_
  6
CONTINUOUS
 62
   18
 10
195.05105622016544
 20
210.00954687033322
 11
200.85105622016505
 21
215.80954687033295
  0
LINE
  8
_1-2_
  6
CONTINUOUS
 62
   18
 10
194.34394943897979
 20
210.00954687033345
 11
200.1439494389794
 21
215.80954687033295
  0
LINE
  8
_1-2_
  6
CONTINUOUS
 62
   18
 10
193.63684265779312
 20
210.00954687033345
 11
199.43684265779285
 21
215.80954687033318
  0
LINE
  8
_1-2_
  6
CONTINUOUS
 62
   18
 10
192.92973587660646
 20
210.00954687033345
 11
198.72973587660607
 21
215.80954687033295
  0
LINE
  8
_1-2_
  6
CONTINUOUS
 62
   18
 10
192.22262909541979
 20
210.00954687033345
 11
198.02262909541952
 21
215.80954687033318
  0
LINE
  8
_1-2_
  6
CONTINUOUS
 62
   18
 10
191.51552231423324
 20
210.00954687033345
 11
197.3155223142324
 21
215.80954687033272
  0
LINE
  8
_1-2_
  6
CONTINUOUS
 62
   18
 10
190.80841553304657
 20
210.00954687033345
 11
196.60841553304573
 21
215.80954687033272
  0
LINE
  8
_1-2_
  6
CONTINUOUS
 62
   18
 10
190.10130875185945
 20
210.009546870333
 11
195.90130875185918
 21
215.80954687033272
  0
LINE
  8
_1-2_
  6
CONTINUOUS
 62
   18
 10
189.3942019706729
 20
210.00954687033322
 11
195.19420197067251
 21
215.80954687033272
  0
LINE
  8
_1-2_
  6
CONTINUOUS
 62
   18
 10
188.68709518948623
 20
210.00954687033322
 11
194.48709518948596
 21
215.80954687033295
  0
LINE
  8
_1-2_
  6
CONTINUOUS
 62
   18
 10
187.97998840829968
 20
210.00954687033322
 11
193.77998840829929
 21
215.80954687033295
  0
LINE
  8
_1-2_
  6
CONTINUOUS
 62
   18
 10
187.27288162711301
 20
210.00954687033322
 11
193.07288162711274
 21
215.80954687033295
  0
LINE
  8
_1-2_
  6
CONTINUOUS
 62
   18
 10
186.56577484592646
 20
210.00954687033345
 11
192.36577484592607
 21
215.80954687033295
  0
LINE
  8
_1-2_
  6
CONTINUOUS
 62
   18
 10
185.85866806473979
 20
210.00954687033345
 11
191.65866806473952
 21
215.80954687033318
  0
LINE
  8
_1-2_
  6
CONTINUOUS
 62
   18
 10
185.15156128355289
 20
210.00954687033322
 11
190.95156128355251
 21
215.80954687033272
  0
LINE
  8
_1-2_
  6
CONTINUOUS
 62
   18
 10
184.44445450236623
 20
210.00954687033322
 11
190.24445450236595
 21
215.80954687033295
  0
LINE
  8
_1-2_
  6
CONTINUOUS
 62
   18
 10
183.73734772118161
 20
210.00954687033345
 11
189.53734772118122
 21
215.80954687033295
  0
LINE
  8
_1-2_
  6
CONTINUOUS
 62
   18
 10
183.03024093999494
 20
210.00954687033345
 11
188.83024093999467
 21
215.80954687033318
  0
LINE
  8
_1-2_
  6
CONTINUOUS
 62
   18
 10
182.32313415880816
 20
210.00954687033345
 11
188.12313415880789
 21
215.80954687033295
  0
LINE
  8
_1-2_
  6
CONTINUOUS
 62
   18
 10
181.61602737762161
 20
210.00954687033345
 11
187.41602737762133
 21
215.80954687033318
  0
LINE
  8
_1-2_
  6
CONTINUOUS
 62
   18
 10
180.90892059643494
 20
210.00954687033345
 11
186.70892059643421
 21
215.80954687033272
  0
LINE
  8
_1-2_
  6
CONTINUOUS
 62
   18
 10
180.20181381524839
 20
210.00954687033345
 11
186.00181381524754
 21
215.80954687033272
  0
LINE
  8
_1-2_
  6
CONTINUOUS
 62
   18
 10
179.49470703406126
 20
210.009546870333
 11
185.29470703406099
 21
215.80954687033272
  0
LINE
  8
_1-2_
  6
CONTINUOUS
 62
   18
 10
178.7876002528746
 20
210.00954687033322
 11
184.58760025287432
 21
215.80954687033272
  0
LINE
  8
_1-2_
  6
CONTINUOUS
 62
   18
 10
178.08049347168804
 20
210.00954687033322
 11
183.88049347168777
 21
215.80954687033295
  0
LINE
  8
_1-2_
  6
CONTINUOUS
 62
   18
 10
177.37338669050138
 20
210.00954687033322
 11
183.1733866905011
 21
215.80954687033295
  0
LINE
  8
_1-2_
  6
CONTINUOUS
 62
   18
 10
176.66627990931482
 20
210.00954687033322
 11
182.46627990931455
 21
215.80954687033295
  0
LINE
  8
_1-2_
  6
CONTINUOUS
 62
   18
 10
175.95917312812827
 20
210.00954687033345
 11
181.75917312812788
 21
215.80954687033295
  0
LINE
  8
_1-2_
  6
CONTINUOUS
 62
   18
 10
175.2520663469416
 20
210.00954687033345
 11
181.05206634694133
 21
215.80954687033318
  0
LINE
  8
_1-2_
  6
CONTINUOUS
 62
   18
 10
174.54495956575505
 20
210.00954687033345
 11
180.34495956575466
 21
215.80954687033318
  0
LINE
  8
_1-2_
  6
CONTINUOUS
 62
   18
 10
173.83785278456804
 20
210.00954687033322
 11
179.63785278456777
 21
215.80954687033295
  0
LINE
  8
_1-2_
  6
CONTINUOUS
 62
   18
 10
173.13074600338342
 20
210.00954687033345
 11
178.93074600338315
 21
215.80954687033318
  0
LINE
  8
_1-2_
  6
CONTINUOUS
 62
   18
 10
172.42363922219687
 20
210.00954687033345
 11
178.22363922219648
 21
215.80954687033318
  0
LINE
  8
_1-2_
  6
CONTINUOUS
 62
   18
 10
171.71653244100997
 20
210.00954687033322
 11
177.5165324410097
 21
215.80954687033295
  0
LINE
  8
_1-2_
  6
CONTINUOUS
 62
   18
 10
171.00942565982342
 20
210.00954687033345
 11
176.80942565982303
 21
215.80954687033318
  0
LINE
  8
_1-2_
  6
CONTINUOUS
 62
   18
 10
170.30231887863675
 20
210.00954687033345
 11
176.10231887863591
 21
215.8095468703325
  0
LINE
  8
_1-2_
  6
CONTINUOUS
 62
   18
 10
169.5952120974502
 20
210.00954687033345
 11
175.39521209744936
 21
215.80954687033272
  0
LINE
  8
_1-2_
  6
CONTINUOUS
 62
   18
 10
168.88810531626308
 20
210.009546870333
 11
174.68810531626269
 21
215.80954687033272
  0
LINE
  8
_1-2_
  6
CONTINUOUS
 62
   18
 10
168.18099853507641
 20
210.009546870333
 11
173.98099853507614
 21
215.80954687033272
  0
LINE
  8
_1-2_
  6
CONTINUOUS
 62
   18
 10
167.47389175388986
 20
210.00954687033322
 11
173.27389175388947
 21
215.80954687033295
  0
LINE
  8
_1-2_
  6
CONTINUOUS
 62
   18
 10
166.76678497270319
 20
210.00954687033322
 11
172.56678497270292
 21
215.80954687033295
  0
LINE
  8
_1-2_
  6
CONTINUOUS
 62
   18
 10
166.05967819151664
 20
210.00954687033322
 11
171.85967819151625
 21
215.80954687033295
  0
LINE
  8
_1-2_
  6
CONTINUOUS
 62
   18
 10
165.35257141032997
 20
210.00954687033322
 11
171.1525714103297
 21
215.80954687033295
  0
LINE
  8
_1-2_
  6
CONTINUOUS
 62
   18
 10
164.64546462914342
 20
210.00954687033345
 11
170.44546462914315
 21
215.80954687033318
  0
LINE
  8
_1-2_
  6
CONTINUOUS
 62
   18
 10
163.93835784795675
 20
210.00954687033345
 11
169.73835784795648
 21
215.80954687033318
  0
LINE
  8
_1-2_
  6
CONTINUOUS
 62
   18
 10
163.23125106676986
 20
210.00954687033322
 11
169.03125106676958
 21
215.80954687033295
  0
LINE
  8
_1-2_
  6
CONTINUOUS
 62
   18
 10
162.52414428558524
 20
210.00954687033345
 11
168.32414428558496
 21
215.80954687033318
  0
LINE
  8
_1-2_
  6
CONTINUOUS
 62
   18
 10
161.81703750439868
 20
210.00954687033345
 11
167.6170375043983
 21
215.80954687033318
  0
LINE
  8
_1-2_
  6
CONTINUOUS
 62
   18
 10
161.10993072321179
 20
210.00954687033322
 11
166.90993072321152
 21
215.80954687033295
  0
LINE
  8
_1-2_
  6
CONTINUOUS
 62
   18
 10
160.40282394202524
 20
210.00954687033345
 11
166.20282394202485
 21
215.80954687033295
  0
LINE
  8
_1-2_
  6
CONTINUOUS
 62
   18
 10
159.69571716083857
 20
210.00954687033345
 11
165.4957171608383
 21
215.80954687033318
  0
LINE
  8
_1-2_
  6
CONTINUOUS
 62
   18
 10
158.98861037965202
 20
210.00954687033345
 11
164.78861037965117
 21
215.80954687033272
  0
LINE
  8
_1-2_
  6
CONTINUOUS
 62
   18
 10
158.28150359846478
 20
210.009546870333
 11
164.08150359846451
 21
215.80954687033272
  0
LINE
  8
_1-2_
  6
CONTINUOUS
 62
   18
 10
157.57439681727823
 20
210.009546870333
 11
163.37439681727795
 21
215.80954687033272
  0
LINE
  8
_1-2_
  6
CONTINUOUS
 62
   18
 10
156.86729003609156
 20
210.00954687033322
 11
162.66729003609129
 21
215.80954687033272
  0
LINE
  8
_1-2_
  6
CONTINUOUS
 62
   18
 10
147.67490188066716
 20
210.00954687033345
 11
153.47490188066632
 21
215.80954687033272
  0
LINE
  8
_1-2_
  6
CONTINUOUS
 62
   18
 10
146.96779509948004
 20
210.009546870333
 11
152.76779509947966
 21
215.80954687033272
  0
LINE
  8
_1-2_
  6
CONTINUOUS
 62
   18
 10
146.26068831829338
 20
210.009546870333
 11
152.0606883182931
 21
215.80954687033272
  0
LINE
  8
_1-2_
  6
CONTINUOUS
 62
   18
 10
145.55358153710682
 20
210.00954687033322
 11
151.35358153710655
 21
215.80954687033295
  0
LINE
  8
_1-2_
  6
CONTINUOUS
 62
   18
 10
144.84647475592016
 20
210.00954687033322
 11
150.64647475591988
 21
215.80954687033295
  0
LINE
  8
_1-2_
  6
CONTINUOUS
 62
   18
 10
144.1393679747336
 20
210.00954687033322
 11
149.93936797473333
 21
215.80954687033295
  0
LINE
  8
_1-2_
  6
CONTINUOUS
 62
   18
 10
143.43226119354694
 20
210.00954687033322
 11
149.23226119354666
 21
215.80954687033295
  0
LINE
  8
_1-2_
  6
CONTINUOUS
 62
   18
 10
142.72515441236038
 20
210.00954687033345
 11
148.52515441236011
 21
215.80954687033318
  0
LINE
  8
_1-2_
  6
CONTINUOUS
 62
   18
 10
142.01804763117349
 20
210.00954687033322
 11
147.81804763117321
 21
215.80954687033295
  0
LINE
  8
_1-2_
  6
CONTINUOUS
 62
   18
 10
141.31094084998693
 20
210.00954687033322
 11
147.11094084998666
 21
215.80954687033295
  0
LINE
  8
_1-2_
  6
CONTINUOUS
 62
   18
 10
140.60383406880231
 20
210.00954687033345
 11
146.40383406880193
 21
215.80954687033318
  0
LINE
  8
_1-2_
  6
CONTINUOUS
 62
   18
 10
139.89672728761565
 20
210.00954687033368
 11
145.69672728761537
 21
215.80954687033318
  0
LINE
  8
_1-2_
  6
CONTINUOUS
 62
   18
 10
139.18962050642875
 20
210.00954687033322
 11
144.98962050642848
 21
215.80954687033295
  0
LINE
  8
_1-2_
  6
CONTINUOUS
 62
   18
 10
138.4825137252422
 20
210.00954687033345
 11
144.28251372524181
 21
215.80954687033295
  0
LINE
  8
_1-2_
  6
CONTINUOUS
 62
   18
 10
137.77540694405553
 20
210.00954687033345
 11
143.57540694405469
 21
215.8095468703325
  0
LINE
  8
_1-2_
  6
CONTINUOUS
 62
   18
 10
137.06830016286898
 20
210.00954687033345
 11
142.86830016286814
 21
215.80954687033272
  0
LINE
  8
_1-2_
  6
CONTINUOUS
 62
   18
 10
136.36119338168186
 20
210.009546870333
 11
142.16119338168147
 21
215.80954687033272
  0
LINE
  8
_1-2_
  6
CONTINUOUS
 62
   18
 10
135.65408660049519
 20
210.009546870333
 11
141.45408660049492
 21
215.80954687033272
  0
LINE
  8
_1-2_
  6
CONTINUOUS
 62
   18
 10
134.94697981930864
 20
210.00954687033322
 11
140.74697981930825
 21
215.80954687033272
  0
LINE
  8
_1-2_
  6
CONTINUOUS
 62
   18
 10
134.23987303812197
 20
210.00954687033322
 11
140.0398730381217
 21
215.80954687033295
  0
LINE
  8
_1-2_
  6
CONTINUOUS
 62
   18
 10
133.53276625693542
 20
210.00954687033322
 11
139.33276625693503
 21
215.80954687033295
  0
LINE
  8
_1-2_
  6
CONTINUOUS
 62
   18
 10
132.82565947574875
 20
210.00954687033322
 11
138.62565947574848
 21
215.80954687033295
  0
LINE
  8
_1-2_
  6
CONTINUOUS
 62
   18
 10
132.1185526945622
 20
210.00954687033345
 11
137.91855269456181
 21
215.80954687033295
  0
LINE
  8
_1-2_
  6
CONTINUOUS
 62
   18
 10
131.41144591337553
 20
210.00954687033345
 11
137.21144591337526
 21
215.80954687033318
  0
LINE
  8
_1-2_
  6
CONTINUOUS
 62
   18
 10
130.70433913218875
 20
210.00954687033322
 11
136.50433913218848
 21
215.80954687033295
  0
LINE
  8
_1-2_
  6
CONTINUOUS
 62
   18
 10
129.99723235100413
 20
210.00954687033345
 11
135.79723235100374
 21
215.80954687033318
  0
LINE
  8
_1-2_
  6
CONTINUOUS
 62
   18
 10
129.29012556981746
 20
210.00954687033368
 11
135.09012556981719
 21
215.80954687033318
  0
LINE
  8
_1-2_
  6
CONTINUOUS
 62
   18
 10
128.58301878863057
 20
210.00954687033322
 11
134.3830187886303
 21
215.80954687033295
  0
LINE
  8
_1-2_
  6
CONTINUOUS
 62
   18
 10
127.8759120074439
 20
210.00954687033345
 11
133.67591200744363
 21
215.80954687033295
  0
LINE
  8
_1-2_
  6
CONTINUOUS
 62
   18
 10
127.16880522625735
 20
210.00954687033345
 11
132.96880522625651
 21
215.8095468703325
  0
LINE
  8
_1-2_
  6
CONTINUOUS
 62
   18
 10
126.46169844507068
 20
210.00954687033345
 11
132.26169844506995
 21
215.80954687033272
  0
LINE
  8
_1-2_
  6
CONTINUOUS
 62
   18
 10
125.75459166388356
 20
210.009546870333
 11
131.55459166388329
 21
215.80954687033272
  0
LINE
  8
_1-2_
  6
CONTINUOUS
 62
   18
 10
125.04748488269701
 20
210.009546870333
 11
130.84748488269673
 21
215.80954687033272
  0
LINE
  8
_1-2_
  6
CONTINUOUS
 62
   18
 10
124.34037810151034
 20
210.00954687033322
 11
130.14037810151007
 21
215.80954687033272
  0
LINE
  8
_1-2_
  6
CONTINUOUS
 62
   18
 10
123.63327132032379
 20
210.00954687033322
 11
129.43327132032351
 21
215.80954687033295
  0
LINE
  8
_1-2_
  6
CONTINUOUS
 62
   18
 10
122.92616453913712
 20
210.00954687033322
 11
128.72616453913685
 21
215.80954687033295
  0
LINE
  8
_1-2_
  6
CONTINUOUS
 62
   18
 10
122.21905775795057
 20
210.00954687033322
 11
128.01905775795029
 21
215.80954687033295
  0
LINE
  8
_1-2_
  6
CONTINUOUS
 62
   18
 10
121.5119509767639
 20
210.00954687033345
 11
127.31195097676363
 21
215.80954687033295
  0
LINE
  8
_1-2_
  6
CONTINUOUS
 62
   18
 10
120.80484419557735
 20
210.00954687033345
 11
126.60484419557707
 21
215.80954687033318
  0
LINE
  8
_1-2_
  6
CONTINUOUS
 62
   18
 10
120.09773741439056
 20
210.00954687033322
 11
125.89773741439029
 21
215.80954687033295
  0
LINE
  8
_1-2_
  6
CONTINUOUS
 62
   18
 10
119.39063063320594
 20
210.00954687033345
 11
125.19063063320567
 21
215.80954687033318
  0
LINE
  8
_1-2_
  6
CONTINUOUS
 62
   18
 10
118.68352385201939
 20
210.00954687033368
 11
124.483523852019
 21
215.80954687033318
  0
LINE
  8
_1-2_
  6
CONTINUOUS
 62
   18
 10
117.97641707083238
 20
210.00954687033322
 11
123.776417070832
 21
215.80954687033295
  0
LINE
  8
_1-2_
  6
CONTINUOUS
 62
   18
 10
117.26931028964572
 20
210.00954687033322
 11
123.06931028964544
 21
215.80954687033295
  0
LINE
  8
_1-2_
  6
CONTINUOUS
 62
   18
 10
116.56220350845916
 20
210.00954687033345
 11
122.36220350845878
 21
215.80954687033295
  0
LINE
  8
_1-2_
  6
CONTINUOUS
 62
   18
 10
115.8550967272725
 20
210.00954687033345
 11
121.65509672727165
 21
215.8095468703325
  0
LINE
  8
_1-2_
  6
CONTINUOUS
 62
   18
 10
115.14798994608537
 20
210.009546870333
 11
120.9479899460851
 21
215.80954687033272
  0
LINE
  8
_1-2_
  6
CONTINUOUS
 62
   18
 10
114.44088316489882
 20
210.009546870333
 11
120.24088316489843
 21
215.80954687033272
  0
LINE
  8
_1-2_
  6
CONTINUOUS
 62
   18
 10
113.73377638371215
 20
210.009546870333
 11
119.53377638371188
 21
215.80954687033272
  0
LINE
  8
_1-2_
  6
CONTINUOUS
 62
   18
 10
113.0266696025256
 20
210.00954687033322
 11
118.82666960252521
 21
215.80954687033272
  0
LINE
  8
_1-2_
  6
CONTINUOUS
 62
   18
 10
112.31956282133893
 20
210.00954687033322
 11
118.11956282133866
 21
215.80954687033295
  0
LINE
  8
_1-2_
  6
CONTINUOUS
 62
   18
 10
111.61245604015238
 20
210.00954687033322
 11
117.41245604015199
 21
215.80954687033295
  0
LINE
  8
_1-2_
  6
CONTINUOUS
 62
   18
 10
110.90534925896571
 20
210.00954687033322
 11
116.70534925896544
 21
215.80954687033295
  0
LINE
  8
_1-2_
  6
CONTINUOUS
 62
   18
 10
110.19824247777916
 20
210.00954687033345
 11
115.99824247777877
 21
215.80954687033318
  0
LINE
  8
_1-2_
  6
CONTINUOUS
 62
   18
 10
109.49113569659238
 20
210.00954687033322
 11
115.29113569659211
 21
215.80954687033295
  0
LINE
  8
_1-2_
  6
CONTINUOUS
 62
   18
 10
108.78402891540776
 20
210.00954687033345
 11
114.58402891540749
 21
215.80954687033318
  0
LINE
  8
_1-2_
  6
CONTINUOUS
 62
   18
 10
108.07692213422121
 20
210.00954687033368
 11
113.87692213422082
 21
215.80954687033318
  0
LINE
  8
_1-2_
  6
CONTINUOUS
 62
   18
 10
107.36981535303408
 20
210.00954687033322
 11
113.16981535303381
 21
215.80954687033295
  0
LINE
  8
_1-2_
  6
CONTINUOUS
 62
   18
 10
106.66270857184753
 20
210.00954687033322
 11
112.46270857184726
 21
215.80954687033295
  0
LINE
  8
_1-2_
  6
CONTINUOUS
 62
   18
 10
105.95560179066086
 20
210.00954687033345
 11
111.75560179066059
 21
215.80954687033295
  0
LINE
  8
_1-2_
  6
CONTINUOUS
 62
   18
 10
105.24849500947431
 20
210.00954687033345
 11
111.04849500947347
 21
215.8095468703325
  0
LINE
  8
_1-2_
  6
CONTINUOUS
 62
   18
 10
104.54138822828764
 20
210.00954687033345
 11
110.34138822828692
 21
215.80954687033272
  0
LINE
  8
_1-2_
  6
CONTINUOUS
 62
   18
 10
103.83428144710052
 20
210.009546870333
 11
109.63428144710025
 21
215.80954687033272
  0
LINE
  8
_1-2_
  6
CONTINUOUS
 62
   18
 10
103.12717466591397
 20
210.009546870333
 11
108.9271746659137
 21
215.80954687033272
  0
LINE
  8
_1-2_
  6
CONTINUOUS
 62
   18
 10
102.4200678847273
 20
210.00954687033322
 11
108.22006788472703
 21
215.80954687033272
  0
LINE
  8
_1-2_
  6
CONTINUOUS
 62
   18
 10
101.71296110354075
 20
210.00954687033322
 11
107.51296110354048
 21
215.80954687033295
  0
LINE
  8
_1-2_
  6
CONTINUOUS
 62
   18
 10
101.00585432235408
 20
210.00954687033322
 11
106.80585432235381
 21
215.80954687033295
  0
LINE
  8
_1-2_
  6
CONTINUOUS
 62
   18
 10
100.29874754116753
 20
210.00954687033322
 11
106.09874754116726
 21
215.80954687033295
  0
LINE
  8
_1-2_
  6
CONTINUOUS
 62
   18
 10
99.591640759980862
 20
210.00954687033345
 11
105.39164075998059
 21
215.80954687033295
  0
LINE
  8
_1-2_
  6
CONTINUOUS
 62
   18
 10
98.884533978794195
 20
210.00954687033345
 11
104.68453397879392
 21
215.80954687033295
  0
LINE
  8
_1-2_
  6
CONTINUOUS
 62
   18
 10
98.177427197607642
 20
210.00954687033345
 11
103.97742719760737
 21
215.80954687033318
  0
LINE
  8
_1-2_
  6
CONTINUOUS
 62
   18
 10
97.470320416423021
 20
210.00954687033368
 11
103.27032041642263
 21
215.80954687033318
  0
LINE
  8
_1-2_
  6
CONTINUOUS
 62
   18
 10
96.763213635236355
 20
210.00954687033368
 11
102.56321363523608
 21
215.80954687033341
  0
LINE
  8
_1-2_
  6
CONTINUOUS
 62
   18
 10
96.056106854049347
 20
210.00954687033322
 11
101.85610685404896
 21
215.80954687033295
  0
LINE
  8
_1-2_
  6
CONTINUOUS
 62
   18
 10
95.34900007286268
 20
210.00954687033322
 11
101.14900007286241
 21
215.80954687033295
  0
LINE
  8
_1-2_
  6
CONTINUOUS
 62
   18
 10
94.641893291676126
 20
210.00954687033345
 11
100.44189329167529
 21
215.8095468703325
  0
LINE
  8
_1-2_
  6
CONTINUOUS
 62
   18
 10
93.934786510489459
 20
210.00954687033345
 11
99.734786510488618
 21
215.80954687033272
  0
LINE
  8
_1-2_
  6
CONTINUOUS
 62
   18
 10
93.227679729302338
 20
210.009546870333
 11
99.027679729302065
 21
215.80954687033272
  0
LINE
  8
_1-2_
  6
CONTINUOUS
 62
   18
 10
92.520572948115785
 20
210.009546870333
 11
98.320572948115398
 21
215.80954687033272
  0
LINE
  8
_1-2_
  6
CONTINUOUS
 62
   18
 10
91.813466166929118
 20
210.009546870333
 11
97.613466166928845
 21
215.80954687033272
  0
LINE
  8
_1-2_
  6
CONTINUOUS
 62
   18
 10
91.106359385742564
 20
210.00954687033322
 11
96.906359385742178
 21
215.80954687033295
  0
LINE
  8
_1-2_
  6
CONTINUOUS
 62
   18
 10
90.399252604555898
 20
210.00954687033322
 11
96.199252604555625
 21
215.80954687033295
  0
LINE
  8
_1-2_
  6
CONTINUOUS
 62
   18
 10
89.692145823369344
 20
210.00954687033322
 11
95.492145823368958
 21
215.80954687033295
  0
LINE
  8
_1-2_
  6
CONTINUOUS
 62
   18
 10
88.985039042182677
 20
210.00954687033322
 11
94.785039042182405
 21
215.80954687033295
  0
LINE
  8
_1-2_
  6
CONTINUOUS
 62
   18
 10
88.277932260996124
 20
210.00954687033345
 11
94.077932260995851
 21
215.80954687033318
  0
LINE
  8
_1-2_
  6
CONTINUOUS
 62
   18
 10
87.570825479809457
 20
210.00954687033345
 11
93.370825479809184
 21
215.80954687033318
  0
LINE
  8
_1-2_
  6
CONTINUOUS
 62
   18
 10
86.863718698624837
 20
210.00954687033368
 11
92.66371869862445
 21
215.80954687033341
  0
LINE
  8
_1-2_
  6
CONTINUOUS
 62
   18
 10
86.15661191743817
 20
210.00954687033368
 11
91.956611917437897
 21
215.80954687033341
  0
LINE
  8
_1-2_
  6
CONTINUOUS
 62
   18
 10
85.449505136251048
 20
210.00954687033322
 11
91.249505136250775
 21
215.80954687033295
  0
LINE
  8
_1-2_
  6
CONTINUOUS
 62
   18
 10
84.742398355064495
 20
210.00954687033322
 11
90.542398355064222
 21
215.80954687033295
  0
LINE
  8
_1-2_
  6
CONTINUOUS
 62
   18
 10
84.035291573877942
 20
210.00954687033345
 11
89.8352915738771
 21
215.8095468703325
  0
LINE
  8
_1-2_
  6
CONTINUOUS
 62
   18
 10
83.328184792691275
 20
210.00954687033345
 11
89.128184792690433
 21
215.8095468703325
  0
LINE
  8
_1-2_
  6
CONTINUOUS
 62
   18
 10
82.621078011504153
 20
210.009546870333
 11
88.42107801150388
 21
215.80954687033272
  0
LINE
  8
_1-2_
  6
CONTINUOUS
 62
   18
 10
81.913971230317486
 20
210.009546870333
 11
87.713971230317213
 21
215.80954687033272
  0
LINE
  8
_1-2_
  6
CONTINUOUS
 62
   18
 10
81.206864449130933
 20
210.009546870333
 11
87.00686444913066
 21
215.80954687033272
  0
LINE
  8
_1-2_
  6
CONTINUOUS
 62
   18
 10
80.678097918322635
 20
210.18788712071137
 11
86.299757667943993
 21
215.80954687033272
  0
LINE
  8
_1-2_
  6
CONTINUOUS
 62
   18
 10
80.678097918322635
 20
210.89499390189803
 11
85.59265088675744
 21
215.80954687033295
  0
LINE
  8
_1-2_
  6
CONTINUOUS
 62
   18
 10
80.678097918322635
 20
211.6021006830847
 11
84.885544105570773
 21
215.80954687033295
  0
LINE
  8
_1-2_
  6
CONTINUOUS
 62
   18
 10
80.678097918322521
 20
212.30920746427137
 11
84.17843732438422
 21
215.80954687033295
  0
LINE
  8
_1-2_
  6
CONTINUOUS
 62
   18
 10
80.678097918322521
 20
213.01631424545803
 11
83.471330543197553
 21
215.80954687033295
  0
LINE
  8
_1-2_
  6
CONTINUOUS
 62
   18
 10
80.678097918322521
 20
213.7234210266447
 11
82.764223762011
 21
215.80954687033318
  0
LINE
  8
_1-2_
  6
CONTINUOUS
 62
   18
 10
80.678097918322408
 20
214.43052780782932
 11
82.057116980826379
 21
215.80954687033341
  0
LINE
  8
_1-2_
  6
CONTINUOUS
 62
   18
 10
80.678097918322294
 20
215.13763458901599
 11
81.350010199639712
 21
215.80954687033341
  0
LINE
  8
_1-2_
  6
CONTINUOUS
 62
   18
 10
156.21249259497307
 20
210.76896299158807
 11
161.25307647371807
 21
215.80954687033295
  0
LINE
  8
_1-2_
  6
CONTINUOUS
 62
   18
 10
156.53023304792583
 20
210.37959666335405
 11
161.96018325490473
 21
215.80954687033295
  0
LINE
  8
_1-2_
  6
CONTINUOUS
 62
   18
 10
154.74596969253179
 20
210.00954687033322
 11
154.91687920848761
 21
210.18045638628905
  0
LINE
  8
_1-2_
  6
CONTINUOUS
 62
   18
 10
155.93370672622785
 20
211.19728390402929
 11
160.54596969253151
 21
215.80954687033295
  0
LINE
  8
_1-2_
  6
CONTINUOUS
 62
   18
 10
154.03886291134523
 20
210.00954687033345
 11
154.59273809585937
 21
210.56342205484748
  0
LINE
  8
_1-2_
  6
CONTINUOUS
 62
   18
 10
155.69683653222438
 20
211.6675204912126
 11
159.83886291134485
 21
215.80954687033295
  0
LINE
  8
_1-2_
  6
CONTINUOUS
 62
   18
 10
153.33175613015857
 20
210.00954687033345
 11
154.29354661680333
 21
210.97133735697821
  0
LINE
  8
_1-2_
  6
CONTINUOUS
 62
   18
 10
155.506883760471
 20
212.18467450064577
 11
159.13175613015829
 21
215.80954687033318
  0
LINE
  8
_1-2_
  6
CONTINUOUS
 62
   18
 10
152.62464934897167
 20
210.00954687033322
 11
154.03458791753252
 21
211.41948543889407
  0
LINE
  8
_1-2_
  6
CONTINUOUS
 62
   18
 10
155.37232602818671
 20
212.75722354954837
 11
158.4246493489714
 21
215.80954687033295
  0
LINE
  8
_1-2_
  6
CONTINUOUS
 62
   18
 10
151.91754256778705
 20
210.00954687033345
 11
153.81963817462207
 21
211.91164247716847
  0
LINE
  8
_1-2_
  6
CONTINUOUS
 62
   18
 10
155.3081395232627
 20
213.40014382580898
 11
157.71754256778678
 21
215.80954687033318
  0
LINE
  8
_1-2_
  6
CONTINUOUS
 62
   18
 10
151.2104357866005
 20
210.00954687033345
 11
153.65515035399886
 21
212.45426143773193
  0
LINE
  8
_1-2_
  6
CONTINUOUS
 62
   18
 10
155.34415342378219
 20
214.14326450751537
 11
157.01043578660011
 21
215.80954687033318
  0
LINE
  8
_1-2_
  6
CONTINUOUS
 62
   18
 10
150.50332900541383
 20
210.00954687033345
 11
153.55218591329657
 21
213.05840377821619
  0
LINE
  8
_1-2_
  6
CONTINUOUS
 62
   18
 10
155.55821066152174
 20
215.06442852644136
 11
156.30332900541356
 21
215.80954687033318
  0
LINE
  8
_1-2_
  6
CONTINUOUS
 62
   18
 10
149.79622222422694
 20
210.00954687033322
 11
153.53121316053904
 21
213.74453780664544
  0
LINE
  8
_1-2_
  6
CONTINUOUS
 62
   18
 10
149.08911544304038
 20
210.00954687033345
 11
153.63737235340665
 21
214.55780378069971
  0
LINE
  8
_1-2_
  6
CONTINUOUS
 62
   18
 10
148.38200866185372
 20
210.00954687033345
 11
154.02652433297948
 21
215.65406254145933
  0
LINE
  8
_1-2_
  6
CONTINUOUS
 62
   18
 10
294.88331469509734
 20
251.82960912789872
 11
294.66526693677582
 21
252.04765688622024
  0
LINE
  8
_1-2_
  6
CONTINUOUS
 62
   18
 10
295.10576107717515
 20
251.96071613641425
 11
294.88605768334827
 21
252.18041953024112
  0
LINE
  8
_1-2_
  6
CONTINUOUS
 62
   18
 10
296.30997520887405
 20
252.52426895768122
 11
296.08066746340666
 21
252.75357670314861
  0
LINE
  8
_1-2_
  6
CONTINUOUS
 62
   18
 10
294.91346225745377
 20
236.95021916062501
 11
291.68693947053424
 21
240.17674194754454
  0
LINE
  8
_1-2_
  6
CONTINUOUS
 62
   18
 10
293.79169524190837
 20
237.71843278557708
 11
292.45515309548654
 21
239.05497493199891
  0
LINE
  8
_1-2_
  6
CONTINUOUS
 62
   18
 10
296.05525266645753
 20
252.42543810950428
 11
295.82633242705464
 21
252.65435834890718
  0
LINE
  8
_1-2_
  6
CONTINUOUS
 62
   18
 10
295.8085568383438
 20
252.31858054702548
 11
295.58237221872076
 21
252.54476516664863
  0
LINE
  8
_1-2_
  6
CONTINUOUS
 62
   18
 10
295.56821214399059
 20
252.20537185078547
 11
295.34445958221221
 21
252.42912441256385
  0
LINE
  8
_1-2_
  6
CONTINUOUS
 62
   18
 10
295.33400773185093
 20
252.0860228723318
 11
295.11240859808157
 21
252.30762200610116
  0
LINE
  8
_1-2_
  6
CONTINUOUS
 62
   18
 10
294.66653346746438
 20
251.69283696493835
 11
294.44991596343942
 21
251.9094544689633
  0
LINE
  8
_1-2_
  6
CONTINUOUS
 62
   18
 10
294.45530246762831
 20
251.55051457418108
 11
294.23990209271273
 21
251.76591494909667
  0
LINE
  8
_1-2_
  6
CONTINUOUS
 62
   18
 10
294.24952519507093
 20
251.40273845614502
 11
294.03513892357722
 21
251.61712472763884
  0
LINE
  8
_1-2_
  6
CONTINUOUS
 62
   18
 10
294.0491221525196
 20
251.24958810810313
 11
293.83555514626431
 21
251.46315511435841
  0
LINE
  8
_1-2_
  6
CONTINUOUS
 62
   18
 10
293.85402971410241
 20
251.09112715592687
 11
293.64109360094534
 21
251.30406326908405
  0
LINE
  8
_1-2_
  6
CONTINUOUS
 62
   18
 10
293.66419924548876
 20
250.9274042339473
 11
293.45171054342671
 21
251.13989293600935
  0
LINE
  8
_1-2_
  6
CONTINUOUS
 62
   18
 10
293.47959644682572
 20
250.758453642017
 11
293.26737509526373
 21
250.970674993579
  0
LINE
  8
_1-2_
  6
CONTINUOUS
 62
   18
 10
293.3002008973578
 20
250.5842958008916
 11
293.08806886186511
 21
250.79642783638428
  0
LINE
  8
_1-2_
  6
CONTINUOUS
 62
   18
 10
293.12600578744986
 20
250.4049375202062
 11
292.91378570745854
 21
250.61715760019752
  0
LINE
  8
_1-2_
  6
CONTINUOUS
 62
   18
 10
292.95701782974601
 20
250.22037208731672
 11
292.74453168042982
 21
250.43285823663291
  0
LINE
  8
_1-2_
  6
CONTINUOUS
 62
   18
 10
292.79325734674381
 20
250.03057917972637
 11
292.58032508691866
 21
250.24351143955164
  0
LINE
  8
_1-2_
  6
CONTINUOUS
 62
   18
 10
292.63475853746417
 20
249.8355245984128
 11
292.42119671475865
 21
250.04908642111832
  0
LINE
  8
_1-2_
  6
CONTINUOUS
 62
   18
 10
292.48156993144693
 20
249.63515981383671
 11
292.26719021421371
 21
249.84953953106992
  0
LINE
  8
_1-2_
  6
CONTINUOUS
 62
   18
 10
292.3337550443029
 20
249.4294213103874
 11
292.11836264661127
 21
249.64481370807903
  0
LINE
  8
_1-2_
  6
CONTINUOUS
 62
   18
 10
292.19139325588338
 20
249.21822970821358
 11
291.97478521725242
 21
249.43483774684455
  0
LINE
  8
_1-2_
  6
CONTINUOUS
 62
   18
 10
292.05458094019349
 20
249.00148863331015
 11
291.83654421513978
 21
249.21952535836385
  0
LINE
  8
_1-2_
  6
CONTINUOUS
 62
   18
 10
291.92343288602484
 20
248.77908329688535
 11
291.70374218951355
 21
248.99877399339675
  0
LINE
  8
_1-2_
  6
CONTINUOUS
 62
   18
 10
291.79808405965986
 20
248.55087873265711
 11
291.57649940239224
 21
248.77246338992472
  0
LINE
  8
_1-2_
  6
CONTINUOUS
 62
   18
 10
291.67869177685674
 20
248.3167176248669
 11
291.45495560802982
 21
248.54045379369381
  0
LINE
  8
_1-2_
  6
CONTINUOUS
 62
   18
 10
291.56543837207931
 20
248.07641763905099
 11
291.33927222524761
 21
248.30258378588269
  0
LINE
  8
_1-2_
  6
CONTINUOUS
 62
   18
 10
291.4585344805202
 20
247.82976814001677
 11
291.22963498836447
 21
248.0586676321725
  0
LINE
  8
_1-2_
  6
CONTINUOUS
 62
   18
 10
291.35822308575115
 20
247.57652614419248
 11
291.12625718872249
 21
247.80849204122114
  0
LINE
  8
_1-2_
  6
CONTINUOUS
 62
   18
 10
291.26478453701128
 20
247.31641130233902
 11
291.02938365430845
 21
247.55181218504185
  0
LINE
  8
_1-2_
  6
CONTINUOUS
 62
   18
 10
291.17854281155627
 20
247.0490996372007
 11
290.93929566360674
 21
247.28834678515022
  0
LINE
  8
_1-2_
  6
CONTINUOUS
 62
   18
 10
291.09987339882861
 20
246.77421565933491
 11
290.85631705753639
 21
247.01777200062725
  0
LINE
  8
_1-2_
  6
CONTINUOUS
 62
   18
 10
291.02921332968896
 20
246.49132233788214
 11
290.78082190914546
 21
246.73971375842575
  0
LINE
  8
_1-2_
  6
CONTINUOUS
 62
   18
 10
290.96707408993547
 20
246.19990818704241
 11
290.71324424875928
 21
246.45373802821859
  0
LINE
  8
_1-2_
  6
CONTINUOUS
 62
   18
 10
290.91405848294204
 20
245.89937040344239
 11
290.65409054502942
 21
246.15933834135512
  0
LINE
  8
_1-2_
  6
CONTINUOUS
 62
   18
 10
290.87088300928013
 20
245.58899248651096
 11
290.60395594660139
 21
245.85591954918982
  0
LINE
  8
_1-2_
  6
CONTINUOUS
 62
   18
 10
290.83840813022113
 20
245.26791397497664
 11
290.56354575685322
 21
245.54277634834466
  0
LINE
  8
_1-2_
  6
CONTINUOUS
 62
   18
 10
290.81768009175397
 20
244.93508862285057
 11
290.5337043528786
 21
245.21906436172594
  0
LINE
  8
_1-2_
  6
CONTINUOUS
 62
   18
 10
290.8099902116939
 20
244.58922511231731
 11
290.51545496283842
 21
244.88376036117279
  0
LINE
  8
_1-2_
  6
CONTINUOUS
 62
   18
 10
290.81696147783936
 20
244.22870045557852
 11
290.51005574477671
 21
244.53560618864117
  0
LINE
  8
_1-2_
  6
CONTINUOUS
 62
   18
 10
290.84067965301398
 20
243.85142888981045
 11
290.51908117449278
 21
244.17302736833176
  0
LINE
  8
_1-2_
  6
CONTINUOUS
 62
   18
 10
290.88390060342266
 20
243.45465454880855
 11
290.54454431894618
 21
243.79401083328503
  0
LINE
  8
_1-2_
  6
CONTINUOUS
 62
   18
 10
290.95039641909483
 20
243.03460534254305
 11
290.58908838864653
 21
243.39591337299134
  0
LINE
  8
_1-2_
  6
CONTINUOUS
 62
   18
 10
291.04557469332207
 20
242.58587367772247
 11
290.65630277052622
 21
242.97514560051832
  0
LINE
  8
_1-2_
  6
CONTINUOUS
 62
   18
 10
291.17769341194077
 20
242.10020156851033
 11
290.75127989515335
 21
242.52661508529786
  0
LINE
  8
_1-2_
  6
CONTINUOUS
 62
   18
 10
291.36057333635694
 20
241.56376825350094
 11
290.88168530919387
 21
242.042656280664
  0
LINE
  8
_1-2_
  6
CONTINUOUS
 62
   18
 10
291.6209816366374
 20
240.94980656262715
 11
291.0600764572718
 21
241.51071174199274
  0
LINE
  8
_1-2_
  6
CONTINUOUS
 62
   18
 10
292.02744714568865
 20
240.18978766298346
 11
291.30992001045632
 21
240.90731479821579
  0
LINE
  8
_1-2_
  6
CONTINUOUS
 62
   18
 10
295.64403510812525
 20
236.57319970054687
 11
294.92650797289292
 21
237.2907268357792
  0
LINE
  8
_1-2_
  6
CONTINUOUS
 62
   18
 10
296.1706032963246
 20
236.40018490294005
 11
295.68652687253672
 21
236.88426132672794
  0
ARC
  8
_1-6_
  6
CONTINUOUS
 62
  250
 10
299.30997520887394
 20
244.57325489896448
 40
8.5
 50
108.72704706627646
 51
251.27295293372359
  0
LINE
  8
_1-6_
  6
CONTINUOUS
 62
  250
 10
300.70997520887391
 20
236.52325489896452
 11
296.58096439907484
 21
236.52325489896452
  0
ARC
  8
_1-6_
  6
CONTINUOUS
 62
  250
 10
298.05997520887394
 20
238.32325489896448
 40
2.2000000000000002
 50
305.09680122758459
 51
234.90319877241549
  0
LINE
  8
_1-6_
  6
CONTINUOUS
 62
  250
 10
296.30997520887394
 20
242.12325489896443
 11
296.30997520887394
 21
247.02325489896452
  0
ARC
  8
_1-6_
  6
CONTINUOUS
 62
  250
 10
297.30997520887394
 20
247.02325489896452
 40
1
 50
90
 51
180
  0
ARC
  8
_1-6_
  6
CONTINUOUS
 62
  250
 10
297.30997520887394
 20
242.12325489896443
 40
1
 50
180
 51
270
  0
LINE
  8
_1-6_
  6
CONTINUOUS
 62
  250
 10
300.50997520887398
 20
241.12325489896443
 11
297.30997520887394
 21
241.12325489896443
  0
ARC
  8
_1-6_
  6
CONTINUOUS
 62
  250
 10
300.50997520887398
 20
240.62325489896443
 40
0.5
 50
0
 51
90
  0
LINE
  8
_1-6_
  6
CONTINUOUS
 62
  250
 10
301.00997520887398
 20
236.82325489896448
 11
301.00997520887398
 21
240.62325489896443
  0
ARC
  8
_1-6_
  6
CONTINUOUS
 62
  250
 10
300.70997520887391
 20
236.82325489896448
 40
0.3
 50
270
 51
0
  0
LINE
  8
_1-6_
  6
CONTINUOUS
 62
  250
 10
297.30997520887394
 20
248.02325489896452
 11
300.50997520887398
 21
248.02325489896452
  0
LINE
  8
_1-6_
  6
CONTINUOUS
 62
  250
 10
301.00997520887398
 20
248.52325489896452
 11
301.00997520887398
 21
252.32325489896448
  0
ARC
  8
_1-6_
  6
CONTINUOUS
 62
  250
 10
300.50997520887398
 20
248.52325489896452
 40
0.5
 50
270
 51
0
  0
LINE
  8
_1-6_
  6
CONTINUOUS
 62
  250
 10
300.70997520887391
 20
252.62325489896443
 11
296.58096439907484
 21
252.62325489896443
  0
ARC
  8
_1-6_
  6
CONTINUOUS
 62
  250
 10
300.70997520887391
 20
252.32325489896448
 40
0.3
 50
0
 51
90
  0
LINE
  8
_1-3_
  6
CONTINUOUS
 62
   18
 10
45.039326208206887
 20
225.43961610084932
 11
78.678097918323203
 21
225.43961610084932
  0
LINE
  8
_1-3_
  6
CONTINUOUS
 62
   18
 10
45.039326208206887
 20
225.43961610084932
 11
46.005252034495868
 21
225.69843514595181
  0
LINE
  8
_1-3_
  6
CONTINUOUS
 62
   18
 10
45.039326208206887
 20
225.43961610084932
 11
46.005252034495868
 21
225.18079705574678
  0
LINE
  8
_1-3_
  6
CONTINUOUS
 62
   18
 10
78.678097918323203
 20
225.43961610084932
 11
77.712172092034109
 21
225.18079705574678
  0
LINE
  8
_1-3_
  6
CONTINUOUS
 62
   18
 10
78.678097918323203
 20
225.43961610084932
 11
77.712172092034109
 21
225.69843514595181
  0
LINE
  8
_1-3_
  6
CONTINUOUS
 62
   18
 10
45.039326208206887
 20
224.93961610084932
 11
45.039326208206887
 21
240.82325489896431
  0
LINE
  8
_1-3_
  6
CONTINUOUS
 62
   18
 10
78.678097918323203
 20
224.93961610084932
 11
78.678097918323203
 21
235.52325489896452
  0
LINE
  8
_1-3_
  6
CONTINUOUS
 62
   18
 10
78.678097918323203
 20
225.43961610084932
 11
232.67809791832275
 21
225.43961610084932
  0
LINE
  8
_1-3_
  6
CONTINUOUS
 62
   18
 10
78.678097918323203
 20
225.43961610084932
 11
79.644023744612298
 21
225.69843514595181
  0
LINE
  8
_1-3_
  6
CONTINUOUS
 62
   18
 10
78.678097918323203
 20
225.43961610084932
 11
79.644023744612298
 21
225.18079705574678
  0
LINE
  8
_1-3_
  6
CONTINUOUS
 62
   18
 10
232.67809791832275
 20
225.43961610084932
 11
231.71217209203365
 21
225.18079705574678
  0
LINE
  8
_1-3_
  6
CONTINUOUS
 62
   18
 10
232.67809791832275
 20
225.43961610084932
 11
231.71217209203365
 21
225.69843514595181
  0
LINE
  8
_1-3_
  6
CONTINUOUS
 62
   18
 10
232.67809791832275
 20
224.93961610084932
 11
232.67809791832275
 21
235.52325489896452
  0
LINE
  8
_1-3_
  6
CONTINUOUS
 62
   18
 10
232.67809791832275
 20
225.43961610084932
 11
259.72583293334247
 21
225.43961610084932
  0
LINE
  8
_1-3_
  6
CONTINUOUS
 62
   18
 10
232.67809791832275
 20
225.43961610084932
 11
233.64402374461184
 21
225.69843514595181
  0
LINE
  8
_1-3_
  6
CONTINUOUS
 62
   18
 10
232.67809791832275
 20
225.43961610084932
 11
233.64402374461184
 21
225.18079705574678
  0
LINE
  8
_1-3_
  6
CONTINUOUS
 62
   18
 10
259.72583293334247
 20
225.43961610084932
 11
258.75990710705338
 21
225.18079705574678
  0
LINE
  8
_1-3_
  6
CONTINUOUS
 62
   18
 10
259.72583293334247
 20
225.43961610084932
 11
258.75990710705338
 21
225.69843514595181
  0
LINE
  8
_1-3_
  6
CONTINUOUS
 62
   18
 10
259.72583293334247
 20
224.93961610084932
 11
259.72583293334247
 21
240.57325489896436
  0
TEXT
  8
_1-3_
 62
    7
 10
152.42809791334247
 20
225.93961610084932
 40
3
 41
1
 50
0
  1
全長
  0
TEXT
  8
_1-3_
 62
    7
 10
58.001774269505802
 20
225.93961610084932
 40
3
 41
1
 50
0
  1
(50)
  0
TEXT
  8
_1-3_
 62
    7
 10
242.82696542334241
 20
225.93961610084932
 40
3
 41
1
 50
0
  1
(50)
  0
LINE
  8
_1-3_
  6
CONTINUOUS
 62
   18
 10
282.30997520887405
 20
236.22325489896434
 11
282.30997520887405
 21
252.92325489896444
  0
LINE
  8
_1-3_
  6
CONTINUOUS
 62
   18
 10
282.30997520887405
 20
236.22325489896434
 11
282.05115616377151
 21
237.18918072525344
  0
LINE
  8
_1-3_
  6
CONTINUOUS
 62
   18
 10
282.30997520887405
 20
236.22325489896434
 11
282.56879425397659
 21
237.18918072525344
  0
LINE
  8
_1-3_
  6
CONTINUOUS
 62
   18
 10
282.30997520887405
 20
252.92325489896444
 11
282.56879425397659
 21
251.95732907267535
  0
LINE
  8
_1-3_
  6
CONTINUOUS
 62
   18
 10
282.30997520887405
 20
252.92325489896444
 11
282.05115616377151
 21
251.95732907267535
  0
LINE
  8
_1-3_
  6
CONTINUOUS
 62
   18
 10
281.80997520887405
 20
236.22325489896434
 11
295.60997520887389
 21
236.22325489896434
  0
LINE
  8
_1-3_
  6
CONTINUOUS
 62
   18
 10
281.80997520887405
 20
252.92325489896444
 11
295.60997520887389
 21
252.92325489896444
  0
TEXT
  8
_1-3_
 62
    7
 10
281.80997520887405
 20
241.19825489896436
 40
3
 41
1
 50
90
  1
16.7
  0
LINE
  8
_1-3_
  6
CONTINUOUS
 62
   18
 10
290.50997520887375
 20
255.89927962428214
 11
301.30997520887382
 21
255.89927962428214
  0
LINE
  8
_1-3_
  6
CONTINUOUS
 62
   18
 10
290.50997520887375
 20
255.89927962428214
 11
291.47590103516285
 21
256.15809866938469
  0
LINE
  8
_1-3_
  6
CONTINUOUS
 62
   18
 10
290.50997520887375
 20
255.89927962428214
 11
291.47590103516285
 21
255.6404605791796
  0
LINE
  8
_1-3_
  6
CONTINUOUS
 62
   18
 10
301.30997520887382
 20
255.89927962428214
 11
300.34404938258484
 21
255.6404605791796
  0
LINE
  8
_1-3_
  6
CONTINUOUS
 62
   18
 10
301.30997520887382
 20
255.89927962428214
 11
300.34404938258484
 21
256.15809866938469
  0
LINE
  8
_1-3_
  6
CONTINUOUS
 62
   18
 10
290.50997520887375
 20
256.39927962428214
 11
290.50997520887375
 21
245.57325489896448
  0
LINE
  8
_1-3_
  6
CONTINUOUS
 62
   18
 10
301.30997520887382
 20
256.39927962428214
 11
301.30997520887382
 21
253.72325489896434
  0
TEXT
  8
_1-3_
 62
    7
 10
292.53497520887385
 20
256.39927962428214
 40
3
 41
1
 50
0
  1
10.8
  0
ARC
  8
_1-7_
  6
CONTINUOUS
 62
    7
 10
159.9493971157994
 20
249.24673901295523
 40
7.0102261709862415
 50
138.18998718261719
 51
221.80999755859375
  0
LINE
  8
_1-1_
  6
CONTINUOUS
 62
    7
 10
80.678097918322635
 20
252.92325489896439
 11
80.678097918322635
 21
236.22325489896457
  0
LINE
  8
_1-1_
  6
CONTINUOUS
 62
    7
 10
230.67809791832263
 20
252.92325489896439
 11
230.67809791832263
 21
236.22325489896457
  0
LINE
  8
_1-2_
  6
CONTINUOUS
 62
    7
 10
230.67809791832263
 20
252.75573571636437
 11
230.67809791832263
 21
236.39077408636444
  0
LINE
  8
_1-2_
  6
CONTINUOUS
 62
    7
 10
80.678097918322635
 20
252.75573571636437
 11
80.678097918322635
 21
236.39077408636444
  0
LINE
  8
_1-6_
  6
CONTINUOUS
 62
    7
 10
232.67809791832263
 20
252.62325489896443
 11
232.67809791832275
 21
236.52325489896452
  0
LINE
  8
_1-6_
  6
CONTINUOUS
 62
    7
 10
230.67809791832263
 20
252.62325489896443
 11
232.67809791832263
 21
252.62325489896443
  0
LINE
  8
_1-6_
  6
CONTINUOUS
 62
    7
 10
230.67809791832263
 20
252.62325489896443
 11
230.6780979183232
 21
236.52325489896452
  0
LINE
  8
_1-6_
  6
CONTINUOUS
 62
    7
 10
230.6780979183232
 20
236.52325489896452
 11
232.67809791832275
 21
236.52325489896452
  0
LINE
  8
_1-6_
  6
CONTINUOUS
 62
    7
 10
80.678097918322635
 20
252.62325489896443
 11
80.678097918322749
 21
236.52325489896452
  0
LINE
  8
_1-6_
  6
CONTINUOUS
 62
    7
 10
78.678097918322635
 20
252.62325489896443
 11
80.678097918322635
 21
252.62325489896443
  0
LINE
  8
_1-6_
  6
CONTINUOUS
 62
    7
 10
78.678097918322635
 20
252.62325489896443
 11
78.678097918323203
 21
236.52325489896452
  0
LINE
  8
_1-6_
  6
CONTINUOUS
 62
    7
 10
78.678097918323203
 20
236.52325489896452
 11
80.678097918322749
 21
236.52325489896452
  0
LINE
  8
_1-a_
  6
CONTINUOUS
 62
    7
 10
51.702310897255131
 20
275.48198049211419
 11
51.702310897255131
 21
242.48198049211419
  0
LINE
  8
_1-a_
  6
CONTINUOUS
 62
    7
 10
63.702310897255131
 20
275.48198049211419
 11
51.702310897255131
 21
275.48198049211419
  0
LINE
  8
_1-a_
  6
CONTINUOUS
 62
    7
 10
63.702310897255131
 20
242.48198049211419
 11
63.702310897255131
 21
275.48198049211419
  0
LINE
  8
_1-a_
  6
CONTINUOUS
 62
    7
 10
51.702310897255131
 20
242.48198049211419
 11
63.702310897255131
 21
242.48198049211419
  0
LINE
  8
_1-2_
  6
CONTINUOUS
 62
    7
 10
157.34734741894198
 20
236.39077408636444
 11
230.67809791832263
 21
236.39077408636444
  0
LINE
  8
_1-2_
  6
CONTINUOUS
 62
    7
 10
155.65967772372375
 20
252.75573571636437
 11
230.67809791832263
 21
252.75573571636437
  0
LINE
  8
_1-1_
  6
CONTINUOUS
 62
    7
 10
155.75967380152389
 20
252.92325489896439
 11
230.67809791832263
 21
252.92325489896439
  0
LINE
  8
_1-1_
  6
CONTINUOUS
 62
    7
 10
157.24735133836651
 20
236.22325489896457
 11
230.67809791832263
 21
236.22325489896457
  0
LINE
  8
_1-2_
  6
CONTINUOUS
 62
    7
 10
80.678097918322635
 20
236.39077408636444
 11
155.53239626061287
 21
236.39077408636444
  0
LINE
  8
_1-2_
  6
CONTINUOUS
 62
    7
 10
80.678097918322635
 20
252.75573571636437
 11
153.88060703013622
 21
252.75573571636437
  0
LINE
  8
_1-1_
  6
CONTINUOUS
 62
    7
 10
80.678097918322635
 20
252.92325489896439
 11
153.98060310793625
 21
252.92325489896439
  0
LINE
  8
_1-1_
  6
CONTINUOUS
 62
    7
 10
80.678097918322635
 20
236.22325489896457
 11
155.46828064477899
 21
236.22325489896457
  0
ARC
  8
_1-7_
  6
CONTINUOUS
 62
    7
 10
149.49948663691583
 20
239.89977078497373
 40
7.0102261709862415
 50
318.18998718261713
 51
41.809997558593693
  0
ARC
  8
_1-7_
  6
CONTINUOUS
 62
    7
 10
151.27855733050347
 20
239.89977078497373
 40
7.0102261709862415
 50
318.18998718261713
 51
41.809997558593693
  0
ARC
  8
_1-7_
  6
CONTINUOUS
 62
    7
 10
161.72846780938693
 20
249.24673901295523
 40
7.0102261709862415
 50
138.18998718261719
 51
221.80999755859375
  0
LINE
  8
_1-6_
  6
CONTINUOUS
 62
    7
 10
232.67809791832263
 20
205.30954687063308
 11
232.67809791832263
 21
215.50953187063305
  0
LINE
  8
_1-6_
  6
CONTINUOUS
 62
    7
 10
230.67809791832263
 20
215.50953187063305
 11
232.67809791832263
 21
215.50953187063305
  0
LINE
  8
_1-6_
  6
CONTINUOUS
 62
    7
 10
230.67809791832263
 20
205.30954687063308
 11
230.67809791832263
 21
215.50953187063305
  0
LINE
  8
_1-6_
  6
CONTINUOUS
 62
    7
 10
230.67809791832263
 20
205.30954687063308
 11
232.67809791832263
 21
205.30954687063308
  0
LINE
  8
_1-1_
  6
CONTINUOUS
 62
    7
 10
230.67809791832263
 20
205.0095468723332
 11
230.67809791832263
 21
210.00954687033322
  0
LINE
  8
_1-1_
  6
CONTINUOUS
 62
    7
 10
80.678097918322635
 20
205.0095468723332
 11
80.678097918322635
 21
210.00954687033322
  0
LINE
  8
_1-2_
  6
CONTINUOUS
 62
    7
 10
230.67809791832263
 20
215.80954687033318
 11
230.67809791832263
 21
210.00954687033322
  0
LINE
  8
_1-2_
  6
CONTINUOUS
 62
    7
 10
80.678097918322635
 20
215.80954687033318
 11
80.678097918322635
 21
210.00954687033322
  0
LINE
  8
_1-6_
  6
CONTINUOUS
 62
    7
 10
80.678097918322635
 20
205.30954687063308
 11
80.678097918322635
 21
215.50953187063305
  0
LINE
  8
_1-6_
  6
CONTINUOUS
 62
    7
 10
78.678097918322635
 20
215.50953187063305
 11
80.678097918322635
 21
215.50953187063305
  0
LINE
  8
_1-6_
  6
CONTINUOUS
 62
    7
 10
78.678097918322635
 20
205.30954687063308
 11
78.678097918322635
 21
215.50953187063305
  0
LINE
  8
_1-6_
  6
CONTINUOUS
 62
    7
 10
78.678097918322635
 20
205.30954687063308
 11
80.678097918322635
 21
205.30954687063308
  0
ARC
  8
_1-7_
  6
CONTINUOUS
 62
    7
 10
160.00876157495082
 20
213.54477032053796
 40
4.702846424857416
 50
138.18998718261719
 51
221.80999755859375
  0
ARC
  8
_1-7_
  6
CONTINUOUS
 62
    7
 10
158.22981480861353
 20
213.54477032053796
 40
4.702846424857416
 50
138.18998718261719
 51
221.80999755859375
  0
ARC
  8
_1-7_
  6
CONTINUOUS
 62
    7
 10
152.99838517096345
 20
207.27430842072818
 40
4.702846424857416
 50
318.18998718261713
 51
41.809997558593693
  0
ARC
  8
_1-7_
  6
CONTINUOUS
 62
    7
 10
151.21943840462615
 20
207.27430842072818
 40
4.702846424857416
 50
318.18998718261713
 51
41.809997558593693
  0
LINE
  8
_1-1_
  6
CONTINUOUS
 62
    7
 10
80.678097918322635
 20
205.0095468723332
 11
155.34104241577342
 21
205.0095468723332
  0
LINE
  8
_1-1_
  6
CONTINUOUS
 62
    7
 10
157.11998918211071
 20
205.0095468723332
 11
230.67809791832263
 21
205.0095468723332
  0
LINE
  8
_1-1_
  6
CONTINUOUS
 62
    7
 10
80.678097918322635
 20
207.50954687033322
 11
155.91639777933034
 21
207.50954687033322
  0
LINE
  8
_1-1_
  6
CONTINUOUS
 62
    7
 10
157.69534454566764
 20
207.50954687033322
 11
230.67809791832263
 21
207.50954687033322
  0
LINE
  8
_1-1_
  6
CONTINUOUS
 62
    7
 10
80.678097918322635
 20
208.60954687033313
 11
155.72875129890286
 21
208.60954687033313
  0
LINE
  8
_1-1_
  6
CONTINUOUS
 62
    7
 10
157.50769806524016
 20
208.60954687033313
 11
230.67809791832263
 21
208.60954687033313
  0
LINE
  8
_1-1_
  6
CONTINUOUS
 62
    7
 10
80.678097918322635
 20
210.00954687033322
 11
155.04504098717399
 21
210.00954687033322
  0
LINE
  8
_1-1_
  6
CONTINUOUS
 62
    7
 10
156.82398775351129
 20
210.00954687033322
 11
230.67809791832263
 21
210.00954687033322
  0
LINE
  8
_1-2_
  6
CONTINUOUS
 62
    7
 10
80.678097918322635
 20
210.00954687033322
 11
155.04504098717399
 21
210.00954687033322
  0
LINE
  8
_1-2_
  6
CONTINUOUS
 62
    7
 10
156.82398775351129
 20
210.00954687033322
 11
230.67809791832263
 21
210.00954687033322
  0
LINE
  8
_1-2_
  6
CONTINUOUS
 62
    7
 10
80.678097918322635
 20
215.80954687033318
 11
154.10821904055325
 21
215.80954687033318
  0
LINE
  8
_1-2_
  6
CONTINUOUS
 62
    7
 10
155.88716580689055
 20
215.80954687033318
 11
230.67809791832263
 21
215.80954687033318
  0
LINE
  8
_1-b_
  6
CONTINUOUS
 62
    7
 10
298.24747520887394
 20
239.68575489896443
 11
298.24747520887394
 21
238.69825489896448
  0
LINE
  8
_1-b_
  6
CONTINUOUS
 62
    7
 10
297.87247520887394
 20
239.68575489896443
 11
297.87247520887394
 21
238.69825489896448
  0
LINE
  8
_1-b_
  6
CONTINUOUS
 62
    7
 10
297.87247520887394
 20
239.68575489896443
 11
298.24747520887394
 21
239.68575489896443
  0
LINE
  8
_1-b_
  6
CONTINUOUS
 62
    7
 10
297.87247520887394
 20
236.96075489896452
 11
297.87247520887394
 21
237.94825489896448
  0
LINE
  8
_1-b_
  6
CONTINUOUS
 62
    7
 10
298.24747520887394
 20
236.96075489896452
 11
298.24747520887394
 21
237.94825489896448
  0
LINE
  8
_1-b_
  6
CONTINUOUS
 62
    7
 10
298.24747520887394
 20
236.96075489896452
 11
297.87247520887394
 21
236.96075489896452
  0
LINE
  8
_1-b_
  6
CONTINUOUS
 62
    7
 10
296.69747520887398
 20
238.13575489896448
 11
297.68497520887394
 21
238.13575489896448
  0
LINE
  8
_1-b_
  6
CONTINUOUS
 62
    7
 10
296.69747520887398
 20
238.51075489896448
 11
297.68497520887394
 21
238.51075489896448
  0
LINE
  8
_1-b_
  6
CONTINUOUS
 62
    7
 10
296.69747520887398
 20
238.13575489896448
 11
296.69747520887398
 21
238.51075489896448
  0
LINE
  8
_1-b_
  6
CONTINUOUS
 62
    7
 10
299.42247520887389
 20
238.13575489896448
 11
298.43497520887394
 21
238.13575489896448
  0
LINE
  8
_1-b_
  6
CONTINUOUS
 62
    7
 10
299.42247520887389
 20
238.51075489896448
 11
298.43497520887394
 21
238.51075489896448
  0
LINE
  8
_1-b_
  6
CONTINUOUS
 62
    7
 10
299.42247520887389
 20
238.51075489896448
 11
299.42247520887389
 21
238.13575489896448
  0
ARC
  8
_1-1_
  6
CONTINUOUS
 62
    7
 10
301.10997520887389
 20
251.92325489896439
 40
0.2
 50
240.00000000000736
 51
359.99999999999994
  0
LINE
  8
_1-4_
  6
CONTINUOUS
 62
    7
 10
300.35997520887389
 20
241.57325489896448
 11
300.35997520887389
 21
247.57325489896448
  0
LINE
  8
_1-4_
  6
CONTINUOUS
 62
    7
 10
300.35997520887389
 20
247.57325489896448
 11
299.55997520887394
 21
247.57325489896448
  0
LINE
  8
_1-4_
  6
CONTINUOUS
 62
    7
 10
299.55997520887394
 20
247.57325489896448
 11
299.55997520887394
 21
241.57325489896448
  0
LINE
  8
_1-4_
  6
CONTINUOUS
 62
    7
 10
299.55997520887394
 20
241.57325489896448
 11
300.35997520887389
 21
241.57325489896448
  0
ARC
  8
_1-2_
  6
CONTINUOUS
 62
    7
 10
296.10997520887389
 20
236.59077408157441
 40
0.2
 50
248.15524251423676
 51
0
  0
ARC
  8
_1-2_
  6
CONTINUOUS
 62
    7
 10
299.30997520887394
 20
244.57325489896448
 40
8.8000000000000007
 50
111.84475748576327
 51
248.15524251423676
  0
ARC
  8
_1-2_
  6
CONTINUOUS
 62
    7
 10
296.10997520887389
 20
252.55573571635455
 40
0.2
 50
0
 51
111.84475748576314
  0
LINE
  8
_1-1_
  6
CONTINUOUS
 62
    7
 10
301.30997520887394
 20
252.72325489896434
 11
301.30997520887394
 21
251.92325489896439
  0
ARC
  8
_1-1_
  6
CONTINUOUS
 62
    7
 10
301.10997520887389
 20
252.72325489896434
 40
0.2
 50
0
 51
90
  0
LINE
  8
_1-1_
  6
CONTINUOUS
 62
    7
 10
299.10997520887389
 20
252.92325489896439
 11
301.10997520887389
 21
252.92325489896439
  0
ARC
  8
_1-1_
  6
CONTINUOUS
 62
    7
 10
299.10997520887389
 20
252.62325489896443
 40
0.3
 50
90
 51
180
  0
ARC
  8
_1-1_
  6
CONTINUOUS
 62
    7
 10
297.40997520887396
 20
252.62325489896443
 40
0.3
 50
0
 51
90
  0
LINE
  8
_1-1_
  6
CONTINUOUS
 62
    7
 10
296.60997520887389
 20
252.92325489896439
 11
297.40997520887396
 21
252.92325489896439
  0
ARC
  8
_1-1_
  6
CONTINUOUS
 62
    7
 10
296.60997520887389
 20
252.62325489896443
 40
0.3
 50
90
 51
180
  0
LINE
  8
_1-1_
  6
CONTINUOUS
 62
    7
 10
301.30997520887394
 20
236.42325489896439
 11
301.30997520887394
 21
237.22325489896434
  0
ARC
  8
_1-1_
  6
CONTINUOUS
 62
    7
 10
301.10997520887389
 20
236.42325489896439
 40
0.2
 50
270
 51
0
  0
LINE
  8
_1-1_
  6
CONTINUOUS
 62
    7
 10
299.10997520887389
 20
236.22325489896434
 11
301.10997520887389
 21
236.22325489896434
  0
LINE
  8
_1-1_
  6
CONTINUOUS
 62
    7
 10
296.60997520887389
 20
236.22325489896434
 11
297.40997520887396
 21
236.22325489896434
  0
ARC
  8
_1-1_
  6
CONTINUOUS
 62
    7
 10
296.60997520887389
 20
236.52325489896452
 40
0.3
 50
180
 51
270
  0
LINE
  8
_1-1_
  6
CONTINUOUS
 62
    7
 10
301.30997520887394
 20
249.72325489896434
 11
301.30997520887394
 21
239.42325489896439
  0
LINE
  8
_1-1_
  6
CONTINUOUS
 62
    7
 10
296.30997520887394
 20
236.52325489896452
 11
296.30997520887394
 21
236.62026803867093
  0
ARC
  8
_1-1_
  6
CONTINUOUS
 62
    7
 10
301.10997520887389
 20
237.22325489896434
 40
0.2
 50
0
 51
119.99999999999261
  0
ARC
  8
_1-1_
  6
CONTINUOUS
 62
    7
 10
301.10997520887389
 20
239.42325489896439
 40
0.2
 50
240.00000000000736
 51
0
  0
LINE
  8
_1-1_
  6
CONTINUOUS
 62
    7
 10
300.35997520887389
 20
248.02325489896452
 11
300.35997520887389
 21
241.12325489896443
  0
ARC
  8
_1-1_
  6
CONTINUOUS
 62
    7
 10
301.10997520887389
 20
249.72325489896434
 40
0.2
 50
0
 51
119.99999999999261
  0
LINE
  8
_1-1_
  6
CONTINUOUS
 62
    7
 10
296.30997520887394
 20
252.62325489896443
 11
296.30997520887394
 21
252.5262417592578
  0
LINE
  8
_1-2_
  6
CONTINUOUS
 62
    7
 10
296.30997520887394
 20
236.59077408157441
 11
296.30997520887394
 21
236.62026803867093
  0
ARC
  8
_1-b_
  6
CONTINUOUS
 62
    7
 10
297.68497520887394
 20
237.94825489896448
 40
0.1875
 50
0
 51
90
  0
ARC
  8
_1-b_
  6
CONTINUOUS
 62
    7
 10
298.43497520887394
 20
237.94825489896448
 40
0.1875
 50
90
 51
180
  0
ARC
  8
_1-b_
  6
CONTINUOUS
 62
    7
 10
298.43497520887394
 20
238.69825489896448
 40
0.1875
 50
180
 51
270
  0
ARC
  8
_1-b_
  6
CONTINUOUS
 62
    7
 10
297.68497520887394
 20
238.69825489896448
 40
0.1875
 50
270
 51
0
  0
CIRCLE
  8
_1-b_
  6
CONTINUOUS
 62
    7
 10
298.05997520887394
 20
238.32325489896448
 40
2
  0
ARC
  8
_1-1_
  6
CONTINUOUS
 62
    7
 10
297.40997520887396
 20
236.52325489896452
 40
0.3
 50
270
 51
327.69736444582799
  0
ARC
  8
_1-1_
  6
CONTINUOUS
 62
    7
 10
299.10997520887389
 20
236.52325489896452
 40
0.3
 50
190.01899268711102
 51
270
  0
LINE
  8
_1-5_
  6
CONTINUOUS
 62
    7
 10
297.20996910535831
 20
245.67326112168939
 11
297.95996910535831
 21
245.67326112168939
  0
LINE
  8
_1-5_
  6
CONTINUOUS
 62
    7
 10
297.95996910535831
 20
245.67326112168939
 11
297.95996910535831
 21
243.47326417344721
  0
LINE
  8
_1-5_
  6
CONTINUOUS
 62
    7
 10
297.95996910535831
 20
243.47326417344721
 11
297.20996910535831
 21
243.47326417344721
  0
LINE
  8
_1-5_
  6
CONTINUOUS
 62
    7
 10
297.20996910535831
 20
243.47326417344721
 11
297.20996910535831
 21
245.67326112168939
  0
LINE
  8
_1-5_
  6
CONTINUOUS
 62
    7
 10
297.95996910535831
 20
241.12325489896443
 11
297.95996910535831
 21
248.0232548989643
  0
LINE
  8
_1-5_
  6
CONTINUOUS
 62
    7
 10
299.55997520887394
 20
248.0232548989643
 11
299.55997520887394
 21
241.12325489896443
  0
LINE
  8
_1-9_
  6
DASHED3
 62
    7
 10
51.702310897255131
 20
246.57325489896448
 11
63.702310897255131
 21
246.57325489896448
  0
LINE
  8
_1-9_
  6
DASHED3
 62
    7
 10
51.702310897255131
 20
242.57325489896448
 11
63.702310897255131
 21
242.57325489896448
  0
LINE
  8
_1-9_
  6
DASHED3
 62
    7
 10
51.702310897255131
 20
244.57325489896448
 11
63.702310897255131
 21
244.57325489896448
  0
LINE
  8
_1-9_
  6
DASHED3
 62
    7
 10
51.702310897255131
 20
209.17150472858225
 11
63.702310897255131
 21
209.17150472858225
  0
LINE
  8
_1-9_
  6
DASHED3
 62
    7
 10
51.702310897255131
 20
207.17150472858225
 11
63.702310897255131
 21
207.17150472858225
  0
ARC
  8
_1-9_
  6
CONTINUOUS
 62
    7
 10
33.839326208206728
 20
247.57325489896431
 40
1
 50
0.0000000000032568
 51
89.999999999999929
  0
LINE
  8
_1-9_
  6
CONTINUOUS
 62
    7
 10
34.839326208206728
 20
241.57325489896431
 11
34.839326208206728
 21
247.57325489896431
  0
ARC
  8
_1-9_
  6
CONTINUOUS
 62
    7
 10
33.839326208206728
 20
241.57325489896431
 40
1
 50
269.99999999999977
 51
359.99999999999636
  0
LINE
  8
_1-9_
  6
CONTINUOUS
 62
    7
 10
33.839326208206728
 20
248.57325489896408
 11
26.839326208206728
 21
248.57325489896408
  0
LINE
  8
_1-9_
  6
CONTINUOUS
 62
    7
 10
26.839326208206728
 20
240.57325489896431
 11
26.839326208206728
 21
248.57325489896408
  0
LINE
  8
_1-9_
  6
CONTINUOUS
 62
    7
 10
26.839326208206728
 20
240.57325489896431
 11
33.839326208206728
 21
240.57325489896431
  0
LINE
  8
_1-9_
  6
CONTINUOUS
 62
    7
 10
45.039326208206887
 20
247.32325489896431
 11
34.839326208206728
 21
247.32325489896431
  0
LINE
  8
_1-9_
  6
CONTINUOUS
 62
    7
 10
34.839326208206728
 20
241.82325489896431
 11
45.039326208206887
 21
241.82325489896431
  0
LINE
  8
_1-9_
  6
CONTINUOUS
 62
    7
 10
43.939326208206978
 20
241.82325489896431
 11
43.939326208206978
 21
247.32325489896431
  0
LINE
  8
_1-9_
  6
CONTINUOUS
 62
    7
 10
45.039326208206887
 20
241.82325489896431
 11
45.039326208206887
 21
247.32325489896431
  0
LINE
  8
_1-9_
  6
CONTINUOUS
 62
    7
 10
271.42583293334241
 20
241.57325489896436
 11
271.42583293334241
 21
247.57325489896442
  0
LINE
  8
_1-9_
  6
CONTINUOUS
 62
    7
 10
267.22583293334213
 20
245.17325489896433
 11
267.22583293334213
 21
246.37325489896415
  0
LINE
  8
_1-9_
  6
CONTINUOUS
 62
    7
 10
267.22583293334213
 20
242.77325489896447
 11
267.22583293334213
 21
243.97325489896429
  0
LINE
  8
_1-9_
  6
CONTINUOUS
 62
    7
 10
267.22583293334213
 20
242.77325489896447
 11
271.42583293334241
 21
242.77325489896447
  0
LINE
  8
_1-9_
  6
CONTINUOUS
 62
    7
 10
267.22583293334213
 20
243.97325489896429
 11
271.42583293334241
 21
243.97325489896429
  0
LINE
  8
_1-9_
  6
CONTINUOUS
 62
    7
 10
267.22583293334213
 20
245.17325489896433
 11
271.42583293334241
 21
245.17325489896433
  0
LINE
  8
_1-9_
  6
CONTINUOUS
 62
    7
 10
267.22583293334213
 20
246.37325489896415
 11
271.42583293334241
 21
246.37325489896415
  0
LINE
  8
_1-9_
  6
CONTINUOUS
 62
    7
 10
265.8426939333421
 20
248.76901889896425
 11
262.42175793334212
 21
248.59207389896432
  0
LINE
  8
_1-9_
  6
CONTINUOUS
 62
    7
 10
262.42175793334212
 20
248.59207389896432
 11
266.13760193334207
 21
249.91916089896444
  0
LINE
  8
_1-9_
  6
CONTINUOUS
 62
    7
 10
267.55611393334215
 20
247.57325489896442
 11
265.8426939333421
 21
248.76901889896425
  0
LINE
  8
_1-9_
  6
CONTINUOUS
 62
    7
 10
266.13760193334207
 20
249.91916089896444
 11
268.32435093334237
 21
247.57325489896442
  0
LINE
  8
_1-9_
  6
CONTINUOUS
 62
    7
 10
266.13760193334207
 20
239.22734889896435
 11
268.32435093334237
 21
241.57325489896436
  0
LINE
  8
_1-9_
  6
CONTINUOUS
 62
    7
 10
262.42175793334212
 20
240.55443689896435
 11
266.13760193334207
 21
239.22734889896435
  0
LINE
  8
_1-9_
  6
CONTINUOUS
 62
    7
 10
265.8426939333421
 20
240.37749189896419
 11
262.42175793334212
 21
240.55443689896435
  0
LINE
  8
_1-9_
  6
CONTINUOUS
 62
    7
 10
267.55611393334215
 20
241.57325489896436
 11
265.8426939333421
 21
240.37749189896419
  0
LINE
  8
_1-9_
  6
CONTINUOUS
 62
    7
 10
259.72583293334247
 20
243.37325489896415
 11
259.72583293334247
 21
244.57325489896442
  0
LINE
  8
_1-9_
  6
CONTINUOUS
 62
    7
 10
259.72583293334247
 20
241.57325489896436
 11
259.72583293334247
 21
247.57325489896442
  0
LINE
  8
_1-9_
  6
CONTINUOUS
 62
    7
 10
259.72583293334247
 20
247.57325489896442
 11
271.42583293334241
 21
247.57325489896442
  0
LINE
  8
_1-9_
  6
CONTINUOUS
 62
    7
 10
271.42583293334241
 20
241.57325489896436
 11
259.72583293334247
 21
241.57325489896436
  0
LINE
  8
_1-9_
  6
CONTINUOUS
 62
    7
 10
261.2258329333427
 20
241.57325489896436
 11
261.2258329333427
 21
247.57325489896442
  0
ARC
  8
_1-9_
  6
CONTINUOUS
 62
    7
 10
34.339326208206842
 20
211.63124874584895
 40
0.5
 50
0.0000000000065137
 51
90.000000000004917
  0
LINE
  8
_1-9_
  6
CONTINUOUS
 62
    7
 10
34.339326208206842
 20
212.13124874584872
 11
26.839326208206842
 21
212.13124874584872
  0
LINE
  8
_1-9_
  6
CONTINUOUS
 62
    7
 10
34.839326208206842
 20
205.13124874584878
 11
34.839326208206842
 21
211.63124874584895
  0
ARC
  8
_1-9_
  6
CONTINUOUS
 62
    7
 10
34.339326208206842
 20
205.13124874584878
 40
0.5
 50
269.99999999999801
 51
0.0000000000061448
  0
LINE
  8
_1-9_
  6
CONTINUOUS
 62
    7
 10
26.839326208206842
 20
204.63124874584878
 11
34.339326208206842
 21
204.63124874584878
  0
LINE
  8
_1-9_
  6
CONTINUOUS
 62
    7
 10
30.839326208206842
 20
203.38597471343996
 11
41.039326208206887
 21
203.38597471343996
  0
ARC
  8
_1-9_
  6
CONTINUOUS
 62
    7
 10
34.953168558370464
 20
204.70905357199081
 40
0.2999999999999993
 50
269.9999999999942
 51
0.0000000000104703
  0
LINE
  8
_1-9_
  6
CONTINUOUS
 62
    7
 10
35.253168558370419
 20
204.70905357199081
 11
35.253168558370419
 21
206.08124874584877
  0
LINE
  8
_1-9_
  6
CONTINUOUS
 62
    7
 10
30.839326208206842
 20
204.40905357199085
 11
34.953168558370464
 21
204.40905357199085
  0
ARC
  8
_1-9_
  6
CONTINUOUS
 62
    7
 10
37.053168558370373
 20
205.28124874584887
 40
0.8
 50
89.999999999999915
 51
179.99999999999983
  0
LINE
  8
_1-9_
  6
CONTINUOUS
 62
    7
 10
36.253168558370419
 20
205.20905357199081
 11
36.253168558370419
 21
205.28124874584887
  0
LINE
  8
_1-9_
  6
CONTINUOUS
 62
    7
 10
34.839326208206842
 20
206.08124874584877
 11
45.039326208206887
 21
206.08124874584877
  0
ARC
  8
_1-9_
  6
CONTINUOUS
 62
    7
 10
37.053168558370373
 20
205.20905357199081
 40
0.8
 50
179.99999999999983
 51
269.99999999999977
  0
LINE
  8
_1-9_
  6
CONTINUOUS
 62
    7
 10
37.053168558370373
 20
204.40905357199085
 11
37.932796635283751
 21
204.40905357199085
  0
LINE
  8
_1-9_
  6
CONTINUOUS
 62
    7
 10
41.039326208206887
 20
203.38597471343996
 11
37.932796635283751
 21
204.40905357199085
  0
LINE
  8
_1-9_
  6
CONTINUOUS
 62
    7
 10
45.039326208206887
 20
206.08124874584877
 11
45.039326208206887
 21
211.13124874584872
  0
ARC
  8
_1-9_
  6
CONTINUOUS
 62
    7
 10
27.220548280450259
 20
208.13124874584872
 40
0.2499999999999998
 50
89.999999999999915
 51
180.00000000001268
  0
LINE
  8
_1-9_
  6
CONTINUOUS
 62
    7
 10
30.139326208206796
 20
208.38124874584872
 11
27.220548280450259
 21
208.38124874584872
  0
ARC
  8
_1-9_
  6
CONTINUOUS
 62
    7
 10
27.220548280450259
 20
208.13124874584872
 40
0.2499999999999998
 50
179.99999999999983
 51
269.99999999999977
  0
LINE
  8
_1-9_
  6
CONTINUOUS
 62
    7
 10
27.220548280450259
 20
207.88124874584872
 11
30.139326208206796
 21
207.88124874584895
  0
LINE
  8
_1-9_
  6
CONTINUOUS
 62
    7
 10
43.939326208206978
 20
211.13124874584872
 11
45.039326208206887
 21
211.13124874584872
  0
LINE
  8
_1-9_
  6
CONTINUOUS
 62
    7
 10
43.939326208206978
 20
210.6812487458489
 11
43.939326208206978
 21
211.13124874584872
  0
LINE
  8
_1-9_
  6
CONTINUOUS
 62
    7
 10
34.839326208206842
 20
210.6812487458489
 11
43.939326208206978
 21
210.6812487458489
  0
LINE
  8
_1-9_
  6
CONTINUOUS
 62
    7
 10
26.839326208206842
 20
210.6812487458489
 11
26.839326208206842
 21
212.13124874584872
  0
LINE
  8
_1-9_
  6
CONTINUOUS
 62
    7
 10
26.839326208206842
 20
204.63124874584878
 11
26.839326208206842
 21
206.08124874584877
  0
LINE
  8
_1-9_
  6
CONTINUOUS
 62
    7
 10
30.139326208206796
 20
210.6812487458489
 11
26.839326208206842
 21
210.6812487458489
  0
LINE
  8
_1-9_
  6
CONTINUOUS
 62
    7
 10
30.139326208206796
 20
206.08124874584877
 11
30.139326208206796
 21
210.6812487458489
  0
LINE
  8
_1-9_
  6
CONTINUOUS
 62
    7
 10
26.839326208206842
 20
206.08124874584877
 11
30.139326208206796
 21
206.08124874584877
  0
LINE
  8
_1-9_
  6
CONTINUOUS
 62
    7
 10
30.839326208206842
 20
202.93124874584873
 11
30.839326208206842
 21
204.40905357199085
  0
LINE
  8
_1-9_
  6
CONTINUOUS
 62
    7
 10
30.839326208206842
 20
202.93124874584873
 11
41.039326208206887
 21
202.93124874584873
  0
LINE
  8
_1-9_
  6
CONTINUOUS
 62
    7
 10
261.22565493334247
 20
212.13124874585037
 11
261.22565493334247
 21
210.78124874585023
  0
LINE
  8
_1-9_
  6
CONTINUOUS
 62
    7
 10
259.72565493334247
 20
212.13124874585037
 11
261.2256549333427
 21
212.13124874585037
  0
LINE
  8
_1-9_
  6
CONTINUOUS
 62
    7
 10
259.72565493334247
 20
212.13124874585037
 11
259.72565493334247
 21
204.63124874585037
  0
LINE
  8
_1-9_
  6
CONTINUOUS
 62
    7
 10
270.43231196592131
 20
204.88124874585037
 11
271.4256549333424
 21
205.98124874585028
  0
LINE
  8
_1-9_
  6
CONTINUOUS
 62
    7
 10
269.9256549333424
 20
205.98124874585028
 11
269.9256549333424
 21
204.88124874585037
  0
LINE
  8
_1-9_
  6
CONTINUOUS
 62
    7
 10
261.2256549333427
 20
205.98124874585028
 11
271.4256549333424
 21
205.98124874585028
  0
LINE
  8
_1-9_
  6
CONTINUOUS
 62
    7
 10
261.22565493334247
 20
204.63124874585037
 11
261.2256549333427
 21
205.98124874585028
  0
LINE
  8
_1-9_
  6
CONTINUOUS
 62
    7
 10
261.22565493334247
 20
210.78124874585023
 11
271.4256549333424
 21
210.78124874585023
  0
LINE
  8
_1-9_
  6
CONTINUOUS
 62
    7
 10
271.4256549333424
 20
210.78124874585023
 11
271.4256549333424
 21
205.98124874585028
  0
LINE
  8
_1-9_
  6
CONTINUOUS
 62
    7
 10
269.9256549333424
 20
204.88124874585037
 11
270.43231196592131
 21
204.88124874585037
  0
LINE
  8
_1-9_
  6
CONTINUOUS
 62
    7
 10
259.72565493334247
 20
204.63124874585037
 11
261.22565493334247
 21
204.63124874585037
  0
LINE
  8
_1-9_
  6
CONTINUOUS
 62
    7
 10
268.32417293334237
 20
210.33124874585019
 11
268.32417293334237
 21
206.43124874585033
  0
LINE
  8
_1-9_
  6
CONTINUOUS
 62
    7
 10
262.83742393334256
 20
210.33124874585019
 11
262.83742393334256
 21
206.43124874585033
  0
LINE
  8
_1-9_
  6
CONTINUOUS
 62
    7
 10
263.13742393334252
 20
210.33124874585019
 11
263.13742393334252
 21
206.43124874585033
  0
LINE
  8
_1-9_
  6
CONTINUOUS
 62
    7
 10
263.43742393334247
 20
210.33124874585019
 11
263.43742393334247
 21
206.43124874585033
  0
LINE
  8
_1-9_
  6
CONTINUOUS
 62
    7
 10
263.73742393334243
 20
210.33124874585019
 11
263.73742393334243
 21
206.43124874585033
  0
LINE
  8
_1-9_
  6
CONTINUOUS
 62
    7
 10
264.03742393334238
 20
210.33124874585019
 11
264.03742393334238
 21
206.43124874585033
  0
LINE
  8
_1-9_
  6
CONTINUOUS
 62
    7
 10
264.33742393334234
 20
210.33124874585019
 11
264.33742393334234
 21
206.43124874585033
  0
LINE
  8
_1-9_
  6
CONTINUOUS
 62
    7
 10
264.63742393334229
 20
210.33124874585019
 11
264.63742393334229
 21
206.43124874585033
  0
LINE
  8
_1-9_
  6
CONTINUOUS
 62
    7
 10
264.93742393334225
 20
210.33124874585019
 11
264.93742393334225
 21
206.43124874585033
  0
LINE
  8
_1-9_
  6
CONTINUOUS
 62
    7
 10
265.2374239333422
 20
210.33124874585019
 11
265.2374239333422
 21
206.43124874585033
  0
LINE
  8
_1-9_
  6
CONTINUOUS
 62
    7
 10
265.53742393334215
 20
210.33124874585019
 11
265.53742393334215
 21
206.43124874585033
  0
LINE
  8
_1-9_
  6
CONTINUOUS
 62
    7
 10
265.83742393334211
 20
210.33124874585019
 11
265.83742393334211
 21
206.43124874585033
  0
LINE
  8
_1-9_
  6
CONTINUOUS
 62
    7
 10
266.13742393334206
 20
210.33124874585019
 11
266.13742393334206
 21
206.43124874585033
  0
LINE
  8
_1-9_
  6
CONTINUOUS
 62
    7
 10
262.63742393334184
 20
206.43124874585033
 11
262.63742393334206
 21
210.33124874585019
  0
LINE
  8
_1-9_
  6
CONTINUOUS
 62
    7
 10
268.32417293334237
 20
206.43124874585033
 11
262.42157993334212
 21
206.43124874585033
  0
LINE
  8
_1-9_
  6
CONTINUOUS
 62
    7
 10
262.42157993334212
 20
210.33124874585019
 11
268.32417293334237
 21
210.33124874585019
  0
LINE
  8
_1-9_
  6
CONTINUOUS
 62
    7
 10
45.039326208206774
 20
246.57325489896448
 11
51.702310897255131
 21
246.57325489896448
  0
LINE
  8
_1-9_
  6
CONTINUOUS
 62
    7
 10
45.039326208206774
 20
244.57325489896448
 11
51.702310897255131
 21
244.57325489896448
  0
LINE
  8
_1-9_
  6
CONTINUOUS
 62
    7
 10
45.039326208206774
 20
242.57325489896448
 11
51.702310897255131
 21
242.57325489896448
  0
ARC
  8
_1-9_
  6
CONTINUOUS
 62
    7
 10
248.9808676678918
 20
245.79923438081255
 40
1.8389692227722536
 50
138.18998718261719
 51
221.80999755859375
  0
ARC
  8
_1-9_
  6
CONTINUOUS
 62
    7
 10
246.23957754647932
 20
243.34727541711641
 40
1.8389692227722536
 50
318.18998718261713
 51
41.809997558593693
  0
ARC
  8
_1-9_
  6
CONTINUOUS
 62
    7
 10
247.75488818604362
 20
245.79923438081255
 40
1.8389692227722536
 50
138.18998718261719
 51
221.80999755859375
  0
ARC
  8
_1-9_
  6
CONTINUOUS
 62
    7
 10
245.01359806463114
 20
243.34727541711641
 40
1.8389692227722536
 50
318.18998718261713
 51
41.809997558593693
  0
LINE
  8
_1-9_
  6
CONTINUOUS
 62
    7
 10
247.31272497621836
 20
246.57325489896448
 11
259.72583293334225
 21
246.57325489896448
  0
LINE
  8
_1-9_
  6
CONTINUOUS
 62
    7
 10
247.61017414751274
 20
244.57325489896448
 11
259.72583293334225
 21
244.57325489896448
  0
LINE
  8
_1-9_
  6
CONTINUOUS
 62
    7
 10
247.90772023815276
 20
242.57325489896448
 11
259.72583293334225
 21
242.57325489896448
  0
LINE
  8
_1-9_
  6
CONTINUOUS
 62
    7
 10
45.039326208206774
 20
207.17150472858225
 11
51.702310897255131
 21
207.17150472858225
  0
LINE
  8
_1-9_
  6
CONTINUOUS
 62
    7
 10
45.039326208206774
 20
209.17150472858225
 11
51.702310897255131
 21
209.17150472858225
  0
LINE
  8
_1-9_
  6
CONTINUOUS
 62
    7
 10
51.702310897255131
 20
209.17150472858225
 11
51.702310897255131
 21
207.17150472858225
  0
LINE
  8
_1-9_
  6
CONTINUOUS
 62
    7
 10
63.702310897255131
 20
209.17150472858225
 11
63.702310897255131
 21
207.17150472858225
  0
ARC
  8
_1-9_
  6
CONTINUOUS
 62
    7
 10
248.9808676678918
 20
209.08953050334253
 40
1.8389692227722536
 50
138.18998718261719
 51
221.80999755859375
  0
ARC
  8
_1-9_
  6
CONTINUOUS
 62
    7
 10
246.23957754647932
 20
206.63757153964616
 40
1.8389692227722536
 50
318.18998718261713
 51
41.809997558593693
  0
ARC
  8
_1-9_
  6
CONTINUOUS
 62
    7
 10
247.75488818604362
 20
209.08953050334253
 40
1.8389692227722536
 50
138.18998718261719
 51
221.80999755859375
  0
ARC
  8
_1-9_
  6
CONTINUOUS
 62
    7
 10
245.01359806463114
 20
206.63757153964616
 40
1.8389692227722536
 50
318.18998718261713
 51
41.809997558593693
  0
LINE
  8
_1-9_
  6
CONTINUOUS
 62
    7
 10
232.67809791832275
 20
209.17150472858225
 11
245.91774692073494
 21
209.17150472858225
  0
LINE
  8
_1-9_
  6
CONTINUOUS
 62
    7
 10
247.14372640258313
 20
209.17150472858225
 11
259.72583293334225
 21
209.17150472858225
  0
LINE
  8
_1-9_
  6
CONTINUOUS
 62
    7
 10
232.67809791832275
 20
207.17150472858225
 11
246.77334894247036
 21
207.17150472858225
  0
LINE
  8
_1-9_
  6
CONTINUOUS
 62
    7
 10
247.99932842431855
 20
207.17150472858225
 11
259.72583293334225
 21
207.17150472858225
  0
ARC
  8
_1-9_
  6
CONTINUOUS
 62
    7
 10
69.548390703835992
 20
245.79923438081255
 40
1.8389692227722536
 50
138.18998718261719
 51
221.80999755859375
  0
ARC
  8
_1-9_
  6
CONTINUOUS
 62
    7
 10
66.807100582423516
 20
243.34727541711641
 40
1.8389692227722536
 50
318.18998718261713
 51
41.809997558593693
  0
ARC
  8
_1-9_
  6
CONTINUOUS
 62
    7
 10
68.322411221987807
 20
245.79923438081255
 40
1.8389692227722536
 50
138.18998718261719
 51
221.80999755859375
  0
ARC
  8
_1-9_
  6
CONTINUOUS
 62
    7
 10
65.581121100575331
 20
243.34727541711641
 40
1.8389692227722536
 50
318.18998718261713
 51
41.809997558593693
  0
LINE
  8
_1-9_
  6
CONTINUOUS
 62
    7
 10
63.702310897255131
 20
246.57325489896448
 11
66.654268530314368
 21
246.57325489896448
  0
LINE
  8
_1-9_
  6
CONTINUOUS
 62
    7
 10
66.951717701608743
 20
244.57325489896448
 11
63.702310897255131
 21
244.57325489896448
  0
LINE
  8
_1-9_
  6
CONTINUOUS
 62
    7
 10
63.702310897255131
 20
242.57325489896448
 11
67.249263792248769
 21
242.57325489896448
  0
ARC
  8
_1-9_
  6
CONTINUOUS
 62
    7
 10
69.548390703835992
 20
209.08953050334253
 40
1.8389692227722536
 50
138.18998718261719
 51
221.80999755859375
  0
ARC
  8
_1-9_
  6
CONTINUOUS
 62
    7
 10
66.807100582423516
 20
206.63757153964616
 40
1.8389692227722536
 50
318.18998718261713
 51
41.809997558593693
  0
ARC
  8
_1-9_
  6
CONTINUOUS
 62
    7
 10
68.322411221987807
 20
209.08953050334253
 40
1.8389692227722536
 50
138.18998718261719
 51
221.80999755859375
  0
ARC
  8
_1-9_
  6
CONTINUOUS
 62
    7
 10
65.581121100575331
 20
206.63757153964616
 40
1.8389692227722536
 50
318.18998718261713
 51
41.809997558593693
  0
LINE
  8
_1-9_
  6
CONTINUOUS
 62
    7
 10
63.702310897255131
 20
209.17150472858225
 11
66.485269956679133
 21
209.17150472858225
  0
LINE
  8
_1-9_
  6
CONTINUOUS
 62
    7
 10
67.711249438527318
 20
209.17150472858225
 11
78.678097918322635
 21
209.17150472858225
  0
LINE
  8
_1-9_
  6
CONTINUOUS
 62
    7
 10
63.702310897255131
 20
207.17150472858225
 11
67.340871978414555
 21
207.17150472858225
  0
LINE
  8
_1-9_
  6
CONTINUOUS
 62
    7
 10
68.56685146026274
 20
207.17150472858225
 11
78.678097918322635
 21
207.17150472858225
  0
LINE
  8
_1-9_
  6
CONTINUOUS
 62
    7
 10
68.177794102802579
 20
244.57324730728942
 11
73.794024070087005
 21
244.57324730728942
  0
LINE
  8
_1-9_
  6
CONTINUOUS
 62
    7
 10
68.177794102802693
 20
244.57326249063954
 11
73.794024070087119
 21
244.57326249063954
  0
LINE
  8
_1-9_
  6
CONTINUOUS
 62
    7
 10
68.47524327409684
 20
242.57325489896448
 11
71.896474325593829
 21
242.57325489896448
  0
LINE
  8
_1-9_
  6
CONTINUOUS
 62
    7
 10
67.880248012162554
 20
246.57325489896448
 11
71.896474325593715
 21
246.57325489896448
  0
LINE
  8
_1-9_
  6
CONTINUOUS
 62
    7
 10
76.019579951211369
 20
247.57325489896448
 11
78.678097918322862
 21
247.57325489896448
  0
ARC
  8
_1-9_
  6
CONTINUOUS
 62
    7
 10
71.896474325593715
 20
250.57325489896448
 40
4
 50
270
 51
297.26604445073281
  0
ARC
  8
_1-9_
  6
CONTINUOUS
 62
    7
 10
76.019579951211369
 20
242.57325489896448
 40
5
 50
90
 51
117.26604445073281
  0
LINE
  8
_1-9_
  6
CONTINUOUS
 62
    7
 10
76.019579951211483
 20
241.57325489896448
 11
78.678097918322976
 21
241.57325489896448
  0
ARC
  8
_1-9_
  6
CONTINUOUS
 62
    7
 10
71.896474325593829
 20
238.57325489896448
 40
4
 50
62.733955549267179
 51
90
  0
ARC
  8
_1-9_
  6
CONTINUOUS
 62
    7
 10
76.019579951211483
 20
246.57325489896448
 40
5
 50
242.73395554926719
 51
270
  0
LINE
  8
_1-9_
  6
CONTINUOUS
 62
    7
 10
74.365833988978409
 20
244.90338191788669
 11
73.794024070087005
 21
244.57324730728942
  0
LINE
  8
_1-9_
  6
CONTINUOUS
 62
    7
 10
76.865833988978409
 20
245.57325489896448
 11
78.678097918322862
 21
245.57325489896448
  0
ARC
  8
_1-9_
  6
CONTINUOUS
 62
    7
 10
76.865833988978409
 20
240.57325489896448
 40
5
 50
90
 51
120.0000000000001
  0
LINE
  8
_1-9_
  6
CONTINUOUS
 62
    7
 10
74.365833988978522
 20
244.24312788004227
 11
73.794024070087119
 21
244.57326249063954
  0
LINE
  8
_1-9_
  6
CONTINUOUS
 62
    7
 10
76.865833988978522
 20
243.57325489896448
 11
78.678097918322976
 21
243.57325489896448
  0
ARC
  8
_1-9_
  6
CONTINUOUS
 62
    7
 10
76.865833988978522
 20
248.57325489896448
 40
5
 50
239.99999999999994
 51
270
  0
LINE
  8
_1-9_
  6
CONTINUOUS
 62
    7
 10
235.3366158854339
 20
247.57325489896448
 11
232.67809791832241
 21
247.57325489896448
  0
ARC
  8
_1-9_
  6
CONTINUOUS
 62
    7
 10
239.45972151105155
 20
250.57325489896448
 40
4
 50
242.73395554926719
 51
270
  0
ARC
  8
_1-9_
  6
CONTINUOUS
 62
    7
 10
235.3366158854339
 20
242.57325489896448
 40
5
 50
62.733955549267193
 51
90
  0
LINE
  8
_1-9_
  6
CONTINUOUS
 62
    7
 10
235.33661588543379
 20
241.57325489896448
 11
232.67809791832229
 21
241.57325489896448
  0
ARC
  8
_1-9_
  6
CONTINUOUS
 62
    7
 10
239.45972151105144
 20
238.57325489896448
 40
4
 50
90
 51
117.26604445073281
  0
ARC
  8
_1-9_
  6
CONTINUOUS
 62
    7
 10
235.33661588543379
 20
246.57325489896448
 40
5
 50
270
 51
297.26604445073281
  0
LINE
  8
_1-9_
  6
CONTINUOUS
 62
    7
 10
236.99036184766686
 20
244.90338191788669
 11
237.56217176655827
 21
244.57324730728942
  0
LINE
  8
_1-9_
  6
CONTINUOUS
 62
    7
 10
234.49036184766686
 20
245.57325489896448
 11
232.67809791832241
 21
245.57325489896448
  0
ARC
  8
_1-9_
  6
CONTINUOUS
 62
    7
 10
234.49036184766686
 20
240.57325489896448
 40
5
 50
59.999999999999908
 51
90
  0
LINE
  8
_1-9_
  6
CONTINUOUS
 62
    7
 10
236.99036184766675
 20
244.24312788004227
 11
237.56217176655815
 21
244.57326249063954
  0
LINE
  8
_1-9_
  6
CONTINUOUS
 62
    7
 10
234.49036184766675
 20
243.57325489896448
 11
232.67809791832229
 21
243.57325489896448
  0
ARC
  8
_1-9_
  6
CONTINUOUS
 62
    7
 10
234.49036184766675
 20
248.57325489896448
 40
5
 50
270
 51
300.00000000000006
  0
LINE
  8
_1-9_
  6
CONTINUOUS
 62
    7
 10
246.53173932138253
 20
246.57325489896448
 11
239.45972151105155
 21
246.57325489896448
  0
LINE
  8
_1-9_
  6
CONTINUOUS
 62
    7
 10
246.38419466566455
 20
244.57324730728942
 11
237.56217176655827
 21
244.57324730728942
  0
LINE
  8
_1-9_
  6
CONTINUOUS
 62
    7
 10
246.38419466566444
 20
244.57326249063954
 11
237.56217176655815
 21
244.57326249063954
  0
LINE
  8
_1-9_
  6
CONTINUOUS
 62
    7
 10
246.68174075630458
 20
242.57325489896448
 11
239.45972151105144
 21
242.57325489896448
  0
LINE
  8
_1-9_
  6
CONTINUOUS
 62
    7
 10
41.039326208206887
 20
203.38597471343996
 11
41.039326208206887
 21
202.93124874584873
  0
LINE
  8
_1-9_
  6
CONTINUOUS
 62
    7
 10
262.42157993334212
 20
210.33124874585019
 11
262.42157993334212
 21
206.43124874585033
  0
TEXT
  8
_1-a_
 62
    7
 10
62.702310897255131
 20
250.48198049211419
 40
2.5
 41
1
 50
90
  1
DC24V　15.5W
  0
TEXT
  8
_1-a_
 62
    7
 10
60.202310897255131
 20
250.48198049211419
 40
2.5
 41
1
 50
90
  1
FKK(株)
  0
TEXT
  8
_1-a_
 62
    7
 10
57.702310897255131
 20
250.48198049211419
 40
2.5
 41
1
 50
90
  1
210517A1
  0
LINE
  8
_1-d_
  6
CONTINUOUS
 62
   18
 10
148.35079281389011
 20
250.09139005991256
 11
154.9798796233602
 21
261.77120967659812
  0
LINE
  8
_1-d_
  6
CONTINUOUS
 62
   18
 10
79.920378182799084
 20
251.81004219570127
 11
75.290539776184971
 21
260.22793020772679
  0
LINE
  8
_1-d_
  6
CONTINUOUS
 62
   18
 10
231.24945246565011
 20
250.77534346088964
 11
236.01958900579797
 21
257.64995200404405
  0
LINE
  8
_1-d_
  6
CONTINUOUS
 62
   18
 10
263.14974057788862
 20
246.54886218818524
 11
257.67811337007203
 21
257.77271287088593
  0
LINE
  8
_1-d_
  6
CONTINUOUS
 62
   18
 10
32.797742582147691
 20
246.75054075514004
 11
36.585792187559207
 21
256.64155916927007
  0
LINE
  8
_1-d_
  6
CONTINUOUS
 62
   18
 10
163.59067756899475
 20
207.08124349846958
 11
171.79811838071959
 21
201.39916909035242
  0
TEXT
  8
_1-d_
 62
    7
 10
153.59368395757048
 20
261.84428162114705
 40
4
 41
1
 50
0
  1
①
  0
TEXT
  8
_1-d_
 62
    7
 10
171.70968045011711
 20
198.28630425257211
 40
4
 41
1
 50
0
  1
②
  0
TEXT
  8
_1-d_
 62
    7
 10
73.641285110019396
 20
260.5786755415611
 40
4
 41
1
 50
0
  1
⑤
  0
TEXT
  8
_1-d_
 62
    7
 10
34.708553054401193
 20
256.36973153554845
 40
4
 41
1
 50
0
  1
③
  0
TEXT
  8
_1-d_
 62
    7
 10
255.7307251701472
 20
257.97439143784072
 40
4
 41
1
 50
0
  1
④
  0
TEXT
  8
_1-d_
 62
    7
 10
235.10689954068454
 20
257.76394423754004
 40
4
 41
1
 50
0
  1
⑤
  0
LINE
  8
_1-d_
  6
CONTINUOUS
 62
   18
 10
62.014828890553019
 20
268.55813188629372
 11
68.608841166639706
 21
274.31035536117793
  0
TEXT
  8
_1-d_
 62
    7
 10
68.2924187690449
 20
273.32826842644158
 40
4
 41
1
 50
0
  1
⑥
  0
LINE
  8
_1-d_
  6
CENTER2
 62
   18
 10
197.79508178944985
 20
255.76665427162538
 11
197.79508178944985
 21
233.37985552630357
  0
TEXT
  8
_1-d_
 62
    7
 10
199.01424133655956
 20
254.42737700885959
 40
4
 41
1
 50
0
  1
A
  0
TEXT
  8
_1-d_
 62
    7
 10
199.01424133655956
 20
230.6702263971431
 40
4
 41
1
 50
0
  1
A
  0
LINE
  8
_1-d_
  6
CONTINUOUS
 62
    7
 10
198.96664024138823
 20
232.21626653353019
 11
197.79508178944985
 21
232.21626653353019
  0
LINE
  8
_1-d_
  6
CONTINUOUS
 62
    7
 10
197.79508178944985
 20
233.37985552630357
 11
197.79508178944985
 21
232.21626653353019
  0
LINE
  8
_1-d_
  6
CONTINUOUS
 62
    7
 10
198.96664024138823
 20
256.93024326439877
 11
197.79508178944985
 21
256.93024326439877
  0
LINE
  8
_1-d_
  6
CONTINUOUS
 62
    7
 10
197.79508178944985
 20
255.76665427162538
 11
197.79508178944985
 21
256.93024326439877
  0
TEXT
  8
_1-d_
 62
    7
 10
305.88800705467355
 20
250.20634920634922
 40
4
 41
1
 50
0
  1
⑦
  0
LINE
  8
_1-d_
  6
CONTINUOUS
 62
   18
 10
299.98677248677228
 20
245.62081128747792
 11
305.701058201058
 21
251.3350970017637
  0
LINE
  8
_1-f_
  6
CONTINUOUS
 62
    7
 10
19.46788649768996
 20
104.9562218706206
 11
34.431216931216881
 21
104.9562218706206
  0
LINE
  8
_1-f_
  6
CONTINUOUS
 62
    7
 10
39.651675485008781
 20
104.9562218706206
 11
58.910934744268047
 21
104.9562218706206
  0
LINE
  8
_1-f_
  6
CONTINUOUS
 62
    7
 10
64.272486772486729
 20
104.9562218706206
 11
68.999118165784779
 21
104.9562218706206
  0
LINE
  8
_1-f_
  6
CONTINUOUS
 62
    7
 10
69.775132275132222
 20
104.9562218706206
 11
74.14902998236326
 21
104.9562218706206
  0
TEXT
  8
_1-f_
 62
    7
 10
47.451499118165742
 20
99.233016802245615
 40
5
 41
1.0000000000000004
 50
0
  1
②
  0
TEXT
  8
_1-f_
 62
    7
 10
64.100529100529059
 20
99.233016802245615
 40
5
 41
1.0000000000000004
 50
0
  1
③
  0
TEXT
  8
_1-f_
 62
    7
 10
69.53262786596116
 20
99.233016802245615
 40
5
 41
1.0000000000000004
 50
0
  1
④
  0
TEXT
  8
_1-f_
 62
    7
 10
116.49778966887411
 20
118.29614266091731
 40
4.5
 41
1
 50
0
  1
①本体フレーム
  0
TEXT
  8
_1-f_
 62
    7
 10
116.49778966887411
 20
112.79614266091731
 40
4.5
 41
1
 50
0
  1
②全長
  0
TEXT
  8
_1-f_
 62
    7
 10
116.49778966887411
 20
107.29614266091731
 40
4.5
 41
1
 50
0
  1
③LED発光色
  0
TEXT
  8
_1-f_
 62
    7
 10
116.49778966887411
 20
101.79614266091731
 40
4.5
 41
1
 50
0
  1
④演色性
  0
TEXT
  8
_1-f_
 62
    7
 10
116.49778966887411
 20
96.296142660917312
 40
4.5
 41
1
 50
0
  1
　記載なし：Ra80以上
  0
TEXT
  8
_1-f_
 62
    7
 10
116.49778966887411
 20
90.796142660917312
 40
4.5
 41
1
 50
0
  1
　　　　 Z：Ra95以上
  0
TEXT
  8
_0-0_
 62
    7
 10
364.04748670887403
 20
90.191548198938307
 40
2.5
 41
0.8800000000000001
 50
0
  1
3M Y-4630F 6mm
  0
TEXT
  8
_1-f_
 62
    7
 10
34.788403953694626
 20
74.231547667917411
 40
4.5
 41
1
 50
0
  1
FGO-505-N
  0
TEXT
  8
_1-f_
 62
    7
 10
34.788403953694626
 20
68.029547667917413
 40
4.5
 41
1
 50
0
  1
FGO-1000-N
  0
TEXT
  8
_1-f_
 62
    7
 10
34.788403953694626
 20
61.827547667917415
 40
4.5
 41
1
 50
0
  1
FGO-1495-N
  0
TEXT
  8
_1-f_
 62
    7
 10
34.788403953694626
 20
55.625547667917402
 40
4.5
 41
1
 50
0
  1
FGO-505-NZ
  0
TEXT
  8
_1-f_
 62
    7
 10
34.788403953694626
 20
49.423547667917404
 40
4.5
 41
1
 50
0
  1
FGO-1000-NZ
  0
TEXT
  8
_1-f_
 62
    7
 10
34.788403953694626
 20
43.221547667917406
 40
4.5
 41
1
 50
0
  1
FGO-1495-NZ
  0
TEXT
  8
_0-0_
 62
    7
 10
313.25242920887405
 20
74.890314412939247
 40
3.5000000000000142
 41
0.9999999999999954
 50
0
  1
接続コネクター（出力側）
  0
TEXT
  8
_0-0_
 62
    7
 10
313.25242920887399
 20
69.89553312439206
 40
3.4999999999999289
 41
1.0000000000000202
 50
0
  1
接続コネクター（入力側）
  0
TEXT
  8
_1-a_
 62
    7
 10
55.202310897255131
 20
250.48198049211419
 40
2.5
 41
1
 50
90
  1
FGO-1000-N-MG
  0
TEXT
  8
_1-f_
 62
    7
 10
19.344470180158254
 20
104.10332242148317
 40
10
 41
1
 50
0
  1
FGO-1000-NZ-□MG
  0
LINE
  8
_1-f_
  6
CONTINUOUS
 62
    7
 10
89.487066431510911
 20
104.9562218706206
 11
99.598765432098801
 21
104.9562218706206
  0
LINE
  8
_1-f_
  6
CONTINUOUS
 62
    7
 10
80.174897119341608
 20
104.9562218706206
 11
88.264256319811906
 21
104.9562218706206
  0
TEXT
  8
_1-f_
 62
    7
 10
81.790123456790184
 20
99.233016802245615
 40
5
 41
1.0000000000000004
 50
0
  1
⑤
  0
TEXT
  8
_1-f_
 62
    7
 10
92.583774250440953
 20
99.233016802245615
 40
5
 41
1.0000000000000004
 50
0
  1
⑥
  0
TEXT
  8
_0-0_
 62
    7
 10
322.28584070887405
 20
47.501616696061134
 40
4
 41
1.0000000000000009
 50
0
  1
難波
  0
TEXT
  8
_0-0_
 62
    7
 10
353.65928081994718
 20
47.408528353794125
 40
3
 41
1
 50
0
  1
2021年5月17日
  0
LINE
  8
_1-0_
  6
CENTER2
 62
   18
 10
290.02094356261023
 20
244.57325489896442
 11
301.87279541446208
 21
244.57325489896442
  0
TEXT
  8
_0-0_
 62
    7
 10
366.24748670887402
 20
60.232813036877275
 40
2.5
 41
0.8800000000000001
 50
0
  1
PC　乳半色
  0
TEXT
  8
_0-0_
 62
    7
 10
366.24748670887402
 20
80.344732922450831
 40
2.5
 41
0.8800000000000001
 50
0
  1
PC　乳半色
  0
TEXT
  8
_1-f_
 62
    7
 10
353.53582420887415
 20
39.521550390733182
 40
4
 41
0.75
 50
0
  1
LEDラインモジュールシリーズ
  0
TEXT
  8
_1-f_
 62
    7
 10
364.78582420887415
 20
34.976310231454178
 40
4
 41
1
 50
0
  1
FGO仕様図
  0
TEXT
  8
_0-0_
 62
    7
 10
362.24748670887402
 20
64.430961955907208
 40
2
 41
1
 50
0
  1
アルミ : A6063S-T5
  0
TEXT
  8
_0-0_
 62
    7
 10
362.74748670887402
 20
66.696923155201745
 40
2
 41
1
 50
0
  1
普通アルマイト加工
  0
TEXT
  8
_1-f_
 62
    7
 10
192.67579555047894
 20
43.221547667917406
 40
4.5
 41
1
 50
0
  1
23.8
  0
LINE
  8
_1-9_
  6
CONTINUOUS
 62
    7
 10
53.477723418876792
 20
127.99439483919502
 11
73.477723418876792
 21
127.99439483919502
  0
ARC
  8
_1-9_
  6
CONTINUOUS
 62
    7
 10
66.977723418876792
 20
135.56439483919505
 40
0.5
 50
90
 51
180
  0
ARC
  8
_1-9_
  6
CONTINUOUS
 62
    7
 10
66.977723418876792
 20
135.56439483919505
 40
0.5
 50
0
 51
90
  0
LINE
  8
_1-9_
  6
CONTINUOUS
 62
    7
 10
67.477723418876792
 20
134.29439483919504
 11
67.477723418876792
 21
135.56439483919505
  0
ARC
  8
_1-9_
  6
CONTINUOUS
 62
    7
 10
67.977723418876792
 20
134.29439483919504
 40
0.5
 50
180
 51
270
  0
LINE
  8
_1-9_
  6
CONTINUOUS
 62
    7
 10
68.977723418876792
 20
133.79439483919504
 11
67.977723418876792
 21
133.79439483919504
  0
ARC
  8
_1-9_
  6
CONTINUOUS
 62
    7
 10
68.977723418876792
 20
134.29439483919504
 40
0.5
 50
270
 51
0
  0
LINE
  8
_1-9_
  6
CONTINUOUS
 62
    7
 10
69.477723418876792
 20
135.56439483919505
 11
69.477723418876792
 21
134.29439483919504
  0
ARC
  8
_1-9_
  6
CONTINUOUS
 62
    7
 10
69.977723418876792
 20
135.56439483919505
 40
0.5
 50
90
 51
180
  0
ARC
  8
_1-9_
  6
CONTINUOUS
 62
    7
 10
69.977723418876792
 20
135.56439483919505
 40
0.5
 50
0
 51
90
  0
LINE
  8
_1-9_
  6
CONTINUOUS
 62
    7
 10
66.477723418876792
 20
133.74439483919505
 11
66.477723418876792
 21
135.56439483919505
  0
ARC
  8
_1-9_
  6
CONTINUOUS
 62
    7
 10
67.477723418876792
 20
133.74439483919505
 40
1
 50
180
 51
270
  0
LINE
  8
_1-9_
  6
CONTINUOUS
 62
    7
 10
69.477723418876792
 20
132.74439483919505
 11
67.477723418876792
 21
132.74439483919505
  0
LINE
  8
_1-9_
  6
CONTINUOUS
 62
    7
 10
70.477723418876792
 20
133.74439483919505
 11
70.477723418876792
 21
135.56439483919505
  0
ARC
  8
_1-9_
  6
CONTINUOUS
 62
    7
 10
69.477723418876792
 20
133.74439483919505
 40
1
 50
270
 51
0
  0
ARC
  8
_1-9_
  6
CONTINUOUS
 62
    7
 10
59.977723418876792
 20
135.56439483919505
 40
0.5
 50
0
 51
90
  0
ARC
  8
_1-9_
  6
CONTINUOUS
 62
    7
 10
59.977723418876792
 20
135.56439483919505
 40
0.5
 50
90
 51
180
  0
LINE
  8
_1-9_
  6
CONTINUOUS
 62
    7
 10
59.477723418876792
 20
134.29439483919504
 11
59.477723418876792
 21
135.56439483919505
  0
ARC
  8
_1-9_
  6
CONTINUOUS
 62
    7
 10
58.977723418876792
 20
134.29439483919504
 40
0.5
 50
270
 51
0
  0
LINE
  8
_1-9_
  6
CONTINUOUS
 62
    7
 10
57.977723418876792
 20
133.79439483919504
 11
58.977723418876792
 21
133.79439483919504
  0
ARC
  8
_1-9_
  6
CONTINUOUS
 62
    7
 10
57.977723418876792
 20
134.29439483919504
 40
0.5
 50
180
 51
270
  0
LINE
  8
_1-9_
  6
CONTINUOUS
 62
    7
 10
57.477723418876792
 20
135.56439483919505
 11
57.477723418876792
 21
134.29439483919504
  0
ARC
  8
_1-9_
  6
CONTINUOUS
 62
    7
 10
56.977723418876792
 20
135.56439483919505
 40
0.5
 50
0
 51
90
  0
ARC
  8
_1-9_
  6
CONTINUOUS
 62
    7
 10
56.977723418876792
 20
135.56439483919505
 40
0.5
 50
90
 51
180
  0
LINE
  8
_1-9_
  6
CONTINUOUS
 62
    7
 10
60.477723418876792
 20
133.74439483919505
 11
60.477723418876792
 21
135.56439483919505
  0
ARC
  8
_1-9_
  6
CONTINUOUS
 62
    7
 10
59.477723418876792
 20
133.74439483919505
 40
1
 50
270
 51
0
  0
LINE
  8
_1-9_
  6
CONTINUOUS
 62
    7
 10
57.477723418876792
 20
132.74439483919505
 11
59.477723418876792
 21
132.74439483919505
  0
LINE
  8
_1-9_
  6
CONTINUOUS
 62
    7
 10
56.477723418876792
 20
133.74439483919505
 11
56.477723418876792
 21
135.56439483919505
  0
ARC
  8
_1-9_
  6
CONTINUOUS
 62
    7
 10
57.477723418876792
 20
133.74439483919505
 40
1
 50
180
 51
270
  0
LINE
  8
_1-9_
  6
DASHED3
 62
    3
 10
53.477723418876792
 20
128.29967705709504
 11
73.477723418876792
 21
128.29967705709504
  0
LINE
  8
_1-9_
  6
DASHED3
 62
    3
 10
55.227723418876792
 20
127.99439483919502
 11
55.227723418876792
 21
128.29967705709504
  0
LINE
  8
_1-9_
  6
DASHED3
 62
    3
 10
57.727723418876792
 20
127.99439483919502
 11
57.727723418876792
 21
128.29967705709504
  0
LINE
  8
_1-9_
  6
DASHED3
 62
    3
 10
61.877723418876769
 20
127.99439483919502
 11
61.877723418876769
 21
128.29967705709504
  0
LINE
  8
_1-9_
  6
DASHED3
 62
    3
 10
65.077723418876815
 20
127.99439483919502
 11
65.077723418876815
 21
128.29967705709504
  0
LINE
  8
_1-9_
  6
DASHED3
 62
    3
 10
69.227723418876792
 20
127.99439483919502
 11
69.227723418876792
 21
128.29967705709504
  0
LINE
  8
_1-9_
  6
DASHED3
 62
    3
 10
71.727723418876792
 20
127.99439483919502
 11
71.727723418876792
 21
128.29967705709504
  0
LINE
  8
_1-9_
  6
CONTINUOUS
 62
    7
 10
73.477723418876792
 20
136.29439483919504
 11
73.477723418876792
 21
127.99439483919502
  0
ARC
  8
_1-9_
  6
CONTINUOUS
 62
    7
 10
71.977723418876792
 20
136.29439483919504
 40
1.5
 50
0
 51
90
  0
LINE
  8
_1-9_
  6
CONTINUOUS
 62
    7
 10
53.477723418876792
 20
136.29439483919504
 11
53.477723418876792
 21
127.99439483919502
  0
LINE
  8
_1-9_
  6
CONTINUOUS
 62
    7
 10
54.977723418876792
 20
137.79439483919504
 11
71.977723418876792
 21
137.79439483919504
  0
ARC
  8
_1-9_
  6
CONTINUOUS
 62
    7
 10
54.977723418876792
 20
136.29439483919504
 40
1.5
 50
90
 51
180
  0
LINE
  8
_1-9_
  6
CONTINUOUS
 62
    7
 10
127.49774975860333
 20
157.08790263610126
 11
127.19774975869444
 21
157.08789524232714
  0
LINE
  8
_1-9_
  6
CONTINUOUS
 62
    7
 10
109.69774976400942
 20
157.087463938837
 11
109.39774976410052
 21
157.08745654506288
  0
LINE
  8
_1-9_
  6
CONTINUOUS
 62
    7
 10
109.69781261108943
 20
154.53746393961148
 11
110.94784341810197
 21
153.28749474738322
  0
LINE
  8
_1-9_
  6
CONTINUOUS
 62
    7
 10
110.94784341810197
 20
153.28749474738322
 11
110.73571661199816
 21
153.07535748490386
  0
LINE
  8
_1-9_
  6
CONTINUOUS
 62
    7
 10
109.69782306746509
 20
154.11319987102843
 11
110.73571661199816
 21
153.07535748490386
  0
LINE
  8
_1-9_
  6
CONTINUOUS
 62
    7
 10
127.19781260577446
 20
154.5378952431015
 11
125.94784341354631
 21
153.28786443608897
  0
LINE
  8
_1-9_
  6
CONTINUOUS
 62
    7
 10
125.94784341354631
 20
153.28786443608897
 11
126.15998067602567
 21
153.07573762998538
  0
LINE
  8
_1-9_
  6
CONTINUOUS
 62
    7
 10
127.19782306215012
 20
154.11363117451856
 11
126.15998067602567
 21
153.07573762998538
  0
LINE
  8
_1-9_
  6
DASHED3
 62
    3
 10
109.39781567378208
 20
154.41319247716319
 11
109.69782306746509
 21
154.11319987102843
  0
LINE
  8
_1-9_
  6
DASHED3
 62
    3
 10
127.49781566828489
 20
154.41363856820146
 11
127.19782306215012
 21
154.11363117451856
  0
LINE
  8
_1-9_
  6
DASHED3
 62
    3
 10
115.94798847428177
 20
147.40194865401918
 11
115.94798107938135
 21
147.70199435234122
  0
LINE
  8
_1-9_
  6
DASHED3
 62
    3
 10
117.19798793615706
 20
147.42379829256504
 11
117.19798054125664
 21
147.72384399088708
  0
LINE
  8
_1-9_
  6
DASHED3
 62
    3
 10
119.69798793539775
 20
147.42385990734931
 11
119.69798054049744
 21
147.72390560567135
  0
LINE
  8
_1-9_
  6
DASHED3
 62
    3
 10
120.94798847276314
 20
147.40207188358772
 11
120.94798107786283
 21
147.70211758190987
  0
LINE
  8
_1-9_
  6
CONTINUOUS
 62
    7
 10
127.49797874862583
 20
147.79670633540911
 11
127.49774975860333
 21
157.08790263610126
  0
LINE
  8
_1-9_
  6
CONTINUOUS
 62
    7
 10
126.98926486664169
 20
147.29676994996066
 11
118.44798739803247
 21
147.4456479311109
  0
ARC
  8
_1-9_
  6
CONTINUOUS
 62
    7
 10
126.99797874877771
 20
147.79669401245224
 40
0.5
 50
269.00141210683859
 51
0.0014121068385861
  0
LINE
  8
_1-9_
  6
CONTINUOUS
 62
    7
 10
127.19797874871693
 20
147.79669894163499
 11
127.19774975869444
 21
157.08789524232714
  0
LINE
  8
_1-9_
  6
CONTINUOUS
 62
    7
 10
126.99449319592333
 20
147.59672438745565
 11
118.44798000313205
 21
147.74569362943282
  0
ARC
  8
_1-9_
  6
CONTINUOUS
 62
    7
 10
126.99797874877771
 20
147.79669401245224
 40
0.2
 50
269.00141210683859
 51
0.0014121068385861
  0
LINE
  8
_1-9_
  6
CONTINUOUS
 62
    7
 10
109.90147416368956
 20
147.5963031143832
 11
118.44798000313205
 21
147.74569362943282
  0
LINE
  8
_1-9_
  6
CONTINUOUS
 62
    7
 10
109.69797875403191
 20
147.79626763814485
 11
109.69774976400942
 21
157.087463938837
  0
ARC
  8
_1-9_
  6
CONTINUOUS
 62
    7
 10
109.89797875397113
 20
147.79627256732761
 40
0.2
 50
180.00141210683856
 51
271.00141210683859
  0
LINE
  8
_1-9_
  6
CONTINUOUS
 62
    7
 10
109.39797875412302
 20
147.79626024437073
 11
109.39774976410052
 21
157.08745654506288
  0
ARC
  8
_1-9_
  6
CONTINUOUS
 62
    7
 10
109.89797875397113
 20
147.79627256732761
 40
0.5
 50
180.00141210684052
 51
271.00141210683915
  0
LINE
  8
_1-9_
  6
CONTINUOUS
 62
    7
 10
109.90671727826719
 20
147.29634893496655
 11
118.44798739803247
 21
147.4456479311109
  0
LINE
  8
_1-0_
  6
CENTER2
 62
   18
 10
58.477723418876792
 20
136.35787593483451
 11
58.477723418876792
 21
132.27694315019801
  0
LINE
  8
_1-0_
  6
CENTER2
 62
   18
 10
63.477723418876792
 20
139.53096282112207
 11
63.477723418876792
 21
127.24315417914674
  0
LINE
  8
_1-0_
  6
CENTER2
 62
   18
 10
68.477723418876792
 20
136.35787593483451
 11
68.477723418876792
 21
132.27694315019801
  0
INSERT
  2
-000-MG
  8
_1-2_
 10
243.06031301741842
 20
159.18196854706076
 41
0.5
 42
0.5
 50
0
  0
INSERT
  2
-000-MG
  8
_1-2_
 10
243.06031301741842
 20
153.80005512877059
 41
0.5
 42
0.5
 50
0
  0
INSERT
  2
-000-MG
  8
_1-2_
 10
253.06031301741842
 20
159.18196854706076
 41
0.5
 42
0.5
 50
0
  0
INSERT
  2
-000-MG
  8
_1-2_
 10
253.06031301741842
 20
153.80005512877059
 41
0.5
 42
0.5
 50
0
  0
ARC
  8
_1-1_
  6
CONTINUOUS
 62
    7
 10
261.15511768265952
 20
154.04347998687803
 40
3.6712977765564734
 50
318.18998718261719
 51
41.80999755859375
  0
ARC
  8
_1-1_
  6
CONTINUOUS
 62
    7
 10
266.62779890157969
 20
158.93854368895333
 40
3.6712977765564734
 50
138.18998718261719
 51
221.80999755859372
  0
ARC
  8
_1-1_
  6
CONTINUOUS
 62
    7
 10
267.3477827676403
 20
158.93854368895333
 40
3.6712977765564734
 50
138.18998718261719
 51
221.80999755859372
  0
ARC
  8
_1-1_
  6
CONTINUOUS
 62
    7
 10
261.87510154872007
 20
154.04347998687803
 40
3.6712977765564734
 50
318.18998718261719
 51
41.80999755859375
  0
LINE
  8
_1-1_
  6
CONTINUOUS
 62
    7
 10
297.16923071378784
 20
160.72351293047086
 11
297.16923071378784
 21
152.2585107453605
  0
INSERT
  2
-000-MG
  8
_1-2_
 10
274.66923071378784
 20
159.18196854706076
 41
0.5
 42
0.5
 50
0
  0
INSERT
  2
-000-MG
  8
_1-2_
 10
274.66923071378784
 20
153.80005512877059
 41
0.5
 42
0.5
 50
0
  0
INSERT
  2
-000-MG
  8
_1-2_
 10
284.66923071378784
 20
159.18196854706076
 41
0.5
 42
0.5
 50
0
  0
INSERT
  2
-000-MG
  8
_1-2_
 10
284.66923071378784
 20
153.80005512877059
 41
0.5
 42
0.5
 50
0
  0
LINE
  8
_1-1_
  6
CONTINUOUS
 62
    7
 10
263.74256580741348
 20
159.63196854706075
 11
297.16923071378784
 21
159.63196854706075
  0
LINE
  8
_1-1_
  6
CONTINUOUS
 62
    7
 10
263.68230134292941
 20
158.73196854706075
 11
297.16923071378784
 21
158.73196854706075
  0
LINE
  8
_1-1_
  6
CONTINUOUS
 62
    7
 10
265.54058297343096
 20
154.25005512877061
 11
297.16923071378784
 21
154.25005512877061
  0
LINE
  8
_1-1_
  6
CONTINUOUS
 62
    7
 10
265.48031850894688
 20
153.35005512877061
 11
297.16923071378784
 21
153.35005512877061
  0
LINE
  8
_1-1_
  6
CONTINUOUS
 62
    7
 10
297.16923071378784
 20
152.2585107453605
 11
265.08326491285618
 21
152.2585107453605
  0
LINE
  8
_1-1_
  6
CONTINUOUS
 62
    7
 10
264.13961940350424
 20
160.72351293047086
 11
297.16923071378784
 21
160.72351293047086
  0
LINE
  8
_1-1_
  6
CONTINUOUS
 62
    7
 10
197.32190456081338
 20
152.2585107453605
 11
197.32190456081338
 21
160.72351293047086
  0
INSERT
  2
-000-MG
  8
_1-2_
 10
209.82190456081344
 20
159.18196854706076
 41
0.5
 42
0.5
 50
0
  0
INSERT
  2
-000-MG
  8
_1-2_
 10
209.82190456081344
 20
153.80005512877059
 41
0.5
 42
0.5
 50
0
  0
INSERT
  2
-000-MG
  8
_1-2_
 10
219.82190456081344
 20
159.18196854706076
 41
0.5
 42
0.5
 50
0
  0
INSERT
  2
-000-MG
  8
_1-2_
 10
219.82190456081344
 20
153.80005512877059
 41
0.5
 42
0.5
 50
0
  0
ARC
  8
_1-1_
  6
CONTINUOUS
 62
    7
 10
228.01403180609555
 20
154.04347998687803
 40
3.6712977765564734
 50
318.18998718261719
 51
41.80999755859375
  0
ARC
  8
_1-1_
  6
CONTINUOUS
 62
    7
 10
233.48671302501572
 20
158.93854368895333
 40
3.6712977765564734
 50
138.18998718261719
 51
221.80999755859372
  0
ARC
  8
_1-1_
  6
CONTINUOUS
 62
    7
 10
234.20669689107632
 20
158.93854368895333
 40
3.6712977765564734
 50
138.18998718261719
 51
221.80999755859372
  0
ARC
  8
_1-1_
  6
CONTINUOUS
 62
    7
 10
228.73401567215609
 20
154.04347998687803
 40
3.6712977765564734
 50
318.18998718261719
 51
41.80999755859375
  0
LINE
  8
_1-1_
  6
CONTINUOUS
 62
    7
 10
230.60147993084945
 20
159.63196854706075
 11
263.02258194135288
 21
159.63196854706075
  0
LINE
  8
_1-1_
  6
CONTINUOUS
 62
    7
 10
230.54121546636537
 20
158.73196854706075
 11
262.9623174768688
 21
158.73196854706075
  0
LINE
  8
_1-1_
  6
CONTINUOUS
 62
    7
 10
232.40136293716603
 20
154.25005512877061
 11
264.82059910737041
 21
154.25005512877061
  0
LINE
  8
_1-1_
  6
CONTINUOUS
 62
    7
 10
232.3392326323829
 20
153.35005512877061
 11
264.76033464288639
 21
153.35005512877061
  0
LINE
  8
_1-1_
  6
CONTINUOUS
 62
    7
 10
264.36328104679558
 20
152.2585107453605
 11
231.9421790362922
 21
152.2585107453605
  0
LINE
  8
_1-1_
  6
CONTINUOUS
 62
    7
 10
230.99853352694021
 20
160.72351293047086
 11
263.41963553744364
 21
160.72351293047086
  0
LINE
  8
_1-1_
  6
CONTINUOUS
 62
    7
 10
197.32190456081338
 20
159.63196854706075
 11
229.88149606478891
 21
159.63196854706075
  0
LINE
  8
_1-1_
  6
CONTINUOUS
 62
    7
 10
197.32190456081338
 20
158.73196854706075
 11
229.82123160030483
 21
158.73196854706075
  0
LINE
  8
_1-1_
  6
CONTINUOUS
 62
    7
 10
197.32190456081338
 20
154.25005512877061
 11
231.67951323080644
 21
154.25005512877061
  0
LINE
  8
_1-1_
  6
CONTINUOUS
 62
    7
 10
197.32190456081338
 20
153.35005512877061
 11
231.61924876632241
 21
153.35005512877061
  0
LINE
  8
_1-1_
  6
CONTINUOUS
 62
    7
 10
231.2221951702316
 20
152.2585107453605
 11
197.32190456081338
 21
152.2585107453605
  0
LINE
  8
_1-1_
  6
CONTINUOUS
 62
    7
 10
197.32190456081338
 20
160.72351293047086
 11
230.27854966087966
 21
160.72351293047086
  0
LINE
  8
_1-3_
  6
CONTINUOUS
 62
   18
 10
197.32190456081338
 20
166.30947544592399
 11
204.82190456081344
 21
166.30947544592399
  0
LINE
  8
_1-3_
  6
CONTINUOUS
 62
   18
 10
197.32190456081338
 20
166.30947544592399
 11
198.28783038710245
 21
166.56829449102651
  0
LINE
  8
_1-3_
  6
CONTINUOUS
 62
   18
 10
197.32190456081338
 20
166.30947544592399
 11
198.28783038710245
 21
166.05065640082148
  0
LINE
  8
_1-3_
  6
CONTINUOUS
 62
   18
 10
204.82190456081344
 20
166.30947544592399
 11
203.85597873452437
 21
166.05065640082148
  0
LINE
  8
_1-3_
  6
CONTINUOUS
 62
   18
 10
204.82190456081344
 20
166.30947544592399
 11
203.85597873452437
 21
166.56829449102651
  0
LINE
  8
_1-3_
  6
CONTINUOUS
 62
   18
 10
197.32190456081338
 20
166.80947544592399
 11
197.32190456081338
 21
161.72351293047086
  0
LINE
  8
_1-3_
  6
CONTINUOUS
 62
   18
 10
204.82190456081344
 20
166.80947544592399
 11
204.82190456081344
 21
160.63196854706075
  0
LINE
  8
_1-3_
  6
CONTINUOUS
 62
   18
 10
204.82190456081344
 20
166.30947544592399
 11
224.82190456081344
 21
166.30947544592399
  0
LINE
  8
_1-3_
  6
CONTINUOUS
 62
   18
 10
204.82190456081344
 20
166.30947544592399
 11
205.7878303871025
 21
166.56829449102651
  0
LINE
  8
_1-3_
  6
CONTINUOUS
 62
   18
 10
204.82190456081344
 20
166.30947544592399
 11
205.7878303871025
 21
166.05065640082148
  0
LINE
  8
_1-3_
  6
CONTINUOUS
 62
   18
 10
224.82190456081344
 20
166.30947544592399
 11
223.85597873452434
 21
166.05065640082148
  0
LINE
  8
_1-3_
  6
CONTINUOUS
 62
   18
 10
224.82190456081344
 20
166.30947544592399
 11
223.85597873452434
 21
166.56829449102651
  0
LINE
  8
_1-3_
  6
CONTINUOUS
 62
   18
 10
224.82190456081344
 20
166.80947544592399
 11
224.82190456081344
 21
160.63196854706075
  0
LINE
  8
_1-3_
  6
CONTINUOUS
 62
   18
 10
224.82190456081344
 20
166.30947544592399
 11
238.06031301741842
 21
166.30947544592399
  0
LINE
  8
_1-3_
  6
CONTINUOUS
 62
   18
 10
224.82190456081344
 20
166.30947544592399
 11
225.78783038710247
 21
166.56829449102651
  0
LINE
  8
_1-3_
  6
CONTINUOUS
 62
   18
 10
224.82190456081344
 20
166.30947544592399
 11
225.78783038710247
 21
166.05065640082148
  0
LINE
  8
_1-3_
  6
CONTINUOUS
 62
   18
 10
238.06031301741842
 20
166.30947544592399
 11
237.09438719112936
 21
166.05065640082148
  0
LINE
  8
_1-3_
  6
CONTINUOUS
 62
   18
 10
238.06031301741842
 20
166.30947544592399
 11
237.09438719112936
 21
166.56829449102651
  0
LINE
  8
_1-3_
  6
CONTINUOUS
 62
   18
 10
238.06031301741842
 20
166.80947544592399
 11
238.06031301741842
 21
160.63196854706075
  0
LINE
  8
_1-3_
  6
CONTINUOUS
 62
   18
 10
238.06031301741842
 20
166.30947544592399
 11
258.06031301741842
 21
166.30947544592399
  0
LINE
  8
_1-3_
  6
CONTINUOUS
 62
   18
 10
238.06031301741842
 20
166.30947544592399
 11
239.02623884370749
 21
166.56829449102651
  0
LINE
  8
_1-3_
  6
CONTINUOUS
 62
   18
 10
238.06031301741842
 20
166.30947544592399
 11
239.02623884370749
 21
166.05065640082148
  0
LINE
  8
_1-3_
  6
CONTINUOUS
 62
   18
 10
258.06031301741842
 20
166.30947544592399
 11
257.09438719112939
 21
166.05065640082148
  0
LINE
  8
_1-3_
  6
CONTINUOUS
 62
   18
 10
258.06031301741842
 20
166.30947544592399
 11
257.09438719112939
 21
166.56829449102651
  0
LINE
  8
_1-3_
  6
CONTINUOUS
 62
   18
 10
258.06031301741842
 20
166.80947544592399
 11
258.06031301741842
 21
160.63196854706075
  0
LINE
  8
_1-3_
  6
CONTINUOUS
 62
   18
 10
258.06031301741842
 20
166.30947544592399
 11
269.6692307137879
 21
166.30947544592399
  0
LINE
  8
_1-3_
  6
CONTINUOUS
 62
   18
 10
258.06031301741842
 20
166.30947544592399
 11
259.02623884370746
 21
166.56829449102651
  0
LINE
  8
_1-3_
  6
CONTINUOUS
 62
   18
 10
258.06031301741842
 20
166.30947544592399
 11
259.02623884370746
 21
166.05065640082148
  0
LINE
  8
_1-3_
  6
CONTINUOUS
 62
   18
 10
269.6692307137879
 20
166.30947544592399
 11
268.7033048874988
 21
166.05065640082148
  0
LINE
  8
_1-3_
  6
CONTINUOUS
 62
   18
 10
269.6692307137879
 20
166.30947544592399
 11
268.7033048874988
 21
166.56829449102651
  0
LINE
  8
_1-3_
  6
CONTINUOUS
 62
   18
 10
269.6692307137879
 20
166.80947544592399
 11
269.6692307137879
 21
160.48526940595991
  0
LINE
  8
_1-3_
  6
CONTINUOUS
 62
   18
 10
269.6692307137879
 20
166.30947544592399
 11
289.66923071378784
 21
166.30947544592399
  0
LINE
  8
_1-3_
  6
CONTINUOUS
 62
   18
 10
269.6692307137879
 20
166.30947544592399
 11
270.63515654007693
 21
166.56829449102651
  0
LINE
  8
_1-3_
  6
CONTINUOUS
 62
   18
 10
269.6692307137879
 20
166.30947544592399
 11
270.63515654007693
 21
166.05065640082148
  0
LINE
  8
_1-3_
  6
CONTINUOUS
 62
   18
 10
289.66923071378784
 20
166.30947544592399
 11
288.70330488749875
 21
166.05065640082148
  0
LINE
  8
_1-3_
  6
CONTINUOUS
 62
   18
 10
289.66923071378784
 20
166.30947544592399
 11
288.70330488749875
 21
166.56829449102651
  0
LINE
  8
_1-3_
  6
CONTINUOUS
 62
   18
 10
289.66923071378784
 20
166.80947544592399
 11
289.66923071378784
 21
160.63196854706075
  0
LINE
  8
_1-3_
  6
CONTINUOUS
 62
   18
 10
197.32190456081338
 20
171.18307920841664
 11
297.16923071378784
 21
171.18307920841664
  0
LINE
  8
_1-3_
  6
CONTINUOUS
 62
   18
 10
197.32190456081338
 20
171.18307920841664
 11
198.28783038710245
 21
171.44189825351916
  0
LINE
  8
_1-3_
  6
CONTINUOUS
 62
   18
 10
197.32190456081338
 20
171.18307920841664
 11
198.28783038710245
 21
170.9242601633141
  0
LINE
  8
_1-3_
  6
CONTINUOUS
 62
   18
 10
297.16923071378784
 20
171.18307920841664
 11
296.20330488749875
 21
170.9242601633141
  0
LINE
  8
_1-3_
  6
CONTINUOUS
 62
   18
 10
297.16923071378784
 20
171.18307920841664
 11
296.20330488749875
 21
171.44189825351916
  0
LINE
  8
_1-3_
  6
CONTINUOUS
 62
   18
 10
197.32190456081338
 20
171.68307920841664
 11
197.32190456081338
 21
161.72351293047086
  0
LINE
  8
_1-3_
  6
CONTINUOUS
 62
   18
 10
297.16923071378784
 20
171.68307920841664
 11
297.16923071378784
 21
161.72351293047086
  0
TEXT
  8
_1-3_
 62
    7
 10
235.24556763730061
 20
171.68307920841664
 40
3
 41
1
 50
0
  1
アルミフレーム
  0
TEXT
  8
_1-3_
 62
    7
 10
225.19110878911593
 20
166.80947544592399
 40
3
 41
0.8333333333333333
 50
0
  1
スペーサー
  0
TEXT
  8
_1-3_
 62
    7
 10
199.44690456081341
 20
166.30947544592399
 40
3
 41
1
 50
0
  1
15
  0
TEXT
  8
_1-3_
 62
    7
 10
213.19690456081344
 20
166.80947544592399
 40
3
 41
1
 50
0
  1
40
  0
TEXT
  8
_1-3_
 62
    7
 10
246.43531301741842
 20
166.80947544592399
 40
3
 41
1
 50
0
  1
40
  0
TEXT
  8
_1-3_
 62
    7
 10
278.04423071378784
 20
166.80947544592399
 40
3
 41
1
 50
0
  1
40
  0
LINE
  8
_1-3_
  6
CONTINUOUS
 62
   18
 10
204.82190456081344
 20
162.37355539889282
 11
214.82190456081344
 21
162.37355539889282
  0
LINE
  8
_1-3_
  6
CONTINUOUS
 62
   18
 10
204.82190456081344
 20
162.37355539889282
 11
205.7878303871025
 21
162.63237444399533
  0
LINE
  8
_1-3_
  6
CONTINUOUS
 62
   18
 10
204.82190456081344
 20
162.37355539889282
 11
205.7878303871025
 21
162.11473635379031
  0
LINE
  8
_1-3_
  6
CONTINUOUS
 62
   18
 10
214.82190456081344
 20
162.37355539889282
 11
213.85597873452437
 21
162.11473635379031
  0
LINE
  8
_1-3_
  6
CONTINUOUS
 62
   18
 10
214.82190456081344
 20
162.37355539889282
 11
213.85597873452437
 21
162.63237444399533
  0
LINE
  8
_1-3_
  6
CONTINUOUS
 62
   18
 10
204.82190456081344
 20
162.87355539889282
 11
204.82190456081344
 21
160.63196854706075
  0
LINE
  8
_1-3_
  6
CONTINUOUS
 62
   18
 10
214.82190456081344
 20
162.87355539889282
 11
214.82190456081344
 21
160.63196854706075
  0
TEXT
  8
_1-3_
 62
    7
 10
261.36477186560313
 20
166.80947544592399
 40
3
 41
1
 50
0
  1
(A)
  0
LINE
  8
_1-0_
  6
CONTINUOUS
 62
   18
 10
138.00824060928409
 20
147.18157032079196
 11
174.48592456585817
 21
147.18157032079196
  0
LINE
  8
_1-0_
  6
CONTINUOUS
 62
   18
 10
138.00824060928409
 20
143.68157032079196
 11
174.48592456585817
 21
143.68157032079196
  0
LINE
  8
_1-0_
  6
CONTINUOUS
 62
   18
 10
138.00824060928409
 20
140.18157032079196
 11
174.48592456585817
 21
140.18157032079196
  0
LINE
  8
_1-0_
  6
CONTINUOUS
 62
   18
 10
138.00824060928409
 20
136.68157032079196
 11
174.48592456585817
 21
136.68157032079196
  0
LINE
  8
_1-0_
  6
CONTINUOUS
 62
   18
 10
138.00824060928409
 20
133.18157032079196
 11
174.48592456585817
 21
133.18157032079196
  0
LINE
  8
_1-0_
  6
CONTINUOUS
 62
   18
 10
138.00824060928409
 20
129.68157032079196
 11
138.00824060928409
 21
147.18157032079196
  0
LINE
  8
_1-0_
  6
CONTINUOUS
 62
   18
 10
138.00824060928409
 20
129.68157032079196
 11
174.48592456585817
 21
129.68157032079196
  0
LINE
  8
_1-0_
  6
CONTINUOUS
 62
   18
 10
174.48592456585817
 20
147.18157032079196
 11
174.48592456585817
 21
129.68157032079196
  0
LINE
  8
_1-0_
  6
CONTINUOUS
 62
   18
 10
163.07726620928412
 20
129.68157032079196
 11
163.07726620928412
 21
147.18157032079196
  0
TEXT
  8
_1-0_
 62
    7
 10
165.78159538757114
 20
143.68157032079196
 40
3
 41
1
 50
0
  1
個数
  0
TEXT
  8
_1-0_
 62
    7
 10
166.53159538757114
 20
140.18157032079196
 40
3
 41
1
 50
0
  1
2個
  0
TEXT
  8
_1-0_
 62
    7
 10
166.53159538757114
 20
136.68157032079196
 40
3
 41
1
 50
0
  1
3個
  0
TEXT
  8
_1-0_
 62
    7
 10
166.53159538757114
 20
133.18157032079196
 40
3
 41
1
 50
0
  1
4個
  0
TEXT
  8
_1-0_
 62
    7
 10
166.53159538757114
 20
129.68157032079196
 40
3
 41
1
 50
0
  1
5個
  0
TEXT
  8
_1-0_
 62
    7
 10
140.04275340928399
 20
143.68157032079196
 40
3
 41
1
 50
0
  1
器具全長［㎜］
  0
TEXT
  8
_1-0_
 62
    7
 10
140.04275340928399
 20
136.68157032079196
 40
3
 41
1
 50
0
  1
1001～1500以下
  0
TEXT
  8
_1-0_
 62
    7
 10
144.54275340928399
 20
133.18157032079196
 40
3
 41
1
 50
0
  1
1501以上
  0
TEXT
  8
_1-0_
 62
    7
 10
144.54275340928399
 20
129.68157032079196
 40
3
 41
1
 50
0
  1
2000以上
  0
TEXT
  8
_1-0_
 62
    7
 10
144.54275340928399
 20
140.18157032079196
 40
3
 41
1
 50
0
  1
1000以下
  0
TEXT
  8
_1-0_
 62
    7
 10
310.4926529159348
 20
133.97565125221115
 40
3
 41
1
 50
0
  1
※各アルミフレーム寸法によりマグネット配置は異なります。
  0
TEXT
  8
_1-0_
 62
    7
 10
310.4926529159348
 20
130.07365913545394
 40
3
 41
1
 50
0
  1
　詳細図必要な場合はお問い合わせ下さい。
  0
TEXT
  8
_1-3_
 62
    7
 10
208.19690456081344
 20
162.87355539889282
 40
3
 41
1
 50
0
  1
20
  0
LINE
  8
_1-0_
  6
CONTINUOUS
 62
   18
 10
195.28115918579886
 20
138.11872491315259
 11
301.35243096785752
 21
138.11872491315259
  0
LINE
  8
_1-0_
  6
CONTINUOUS
 62
   18
 10
195.28115918579886
 20
134.61872491315262
 11
301.35243096785752
 21
134.61872491315262
  0
TEXT
  8
_1-0_
 62
    7
 10
258.05956358303632
 20
138.11872491315259
 40
3
 41
1
 50
0
  1
12
  0
TEXT
  8
_1-0_
 62
    7
 10
258.05956358303632
 20
134.61872491315262
 40
3
 41
1
 50
0
  1
16
  0
TEXT
  8
_1-0_
 62
    7
 10
258.05956358303632
 20
131.11872491315262
 40
3
 41
1
 50
0
  1
20
  0
TEXT
  8
_1-0_
 62
    7
 10
277.34701945094969
 20
131.11872491315262
 40
3
 41
1
 50
0
  1
(300㎜)
  0
TEXT
  8
_1-0_
 62
    7
 10
277.34701945094969
 20
134.61872491315262
 40
3
 41
1
 50
0
  1
(300㎜)
  0
TEXT
  8
_1-0_
 62
    7
 10
277.34701945094969
 20
138.11872491315259
 40
3
 41
1
 50
0
  1
(200㎜)
  0
TEXT
  8
_1-0_
 62
    7
 10
274.12215172608194
 20
138.11872491315259
 40
3
 41
1
 50
0
  1
1
  0
TEXT
  8
_1-0_
 62
    7
 10
274.12215172608194
 20
134.61872491315262
 40
3
 41
1
 50
0
  1
2
  0
TEXT
  8
_1-0_
 62
    7
 10
274.12215172608194
 20
131.11872491315262
 40
3
 41
1
 50
0
  1
5
  0
TEXT
  8
_1-0_
 62
    7
 10
291.4777081608442
 20
138.11872491315259
 40
3
 41
1
 50
0
  1
178.5
  0
TEXT
  8
_1-0_
 62
    7
 10
292.9777081608442
 20
134.61872491315262
 40
3
 41
1
 50
0
  1
206
  0
TEXT
  8
_1-0_
 62
    7
 10
292.9777081608442
 20
131.11872491315262
 40
3
 41
1
 50
0
  1
361
  0
TEXT
  8
_1-0_
 62
    7
 10
233.21604196871277
 20
138.11872491315259
 40
3
 41
1
 50
0
  1
501
  0
TEXT
  8
_1-0_
 62
    7
 10
233.21604196871277
 20
134.61872491315262
 40
3
 41
1
 50
0
  1
996
  0
TEXT
  8
_1-0_
 62
    7
 10
232.46604196871277
 20
131.11872491315262
 40
3
 41
1
 50
0
  1
1491
  0
LINE
  8
_1-0_
  6
CONTINUOUS
 62
   18
 10
195.28115918579886
 20
141.61872491315259
 11
301.35243096785752
 21
141.61872491315259
  0
TEXT
  8
_1-0_
 62
    7
 10
205.29346133534742
 20
141.86883296206295
 40
3
 41
1
 50
0
  1
型式
  0
TEXT
  8
_1-0_
 62
    7
 10
221.96604196871277
 20
141.77617912495782
 40
3
 41
1
 50
0
  1
アルミフレーム寸法
  0
TEXT
  8
_1-0_
 62
    7
 10
250.55956358303632
 20
141.77617912495782
 40
3
 41
1
 50
0
  1
マグネット数
  0
TEXT
  8
_1-0_
 62
    7
 10
270.29789603368698
 20
141.86883296206295
 40
3
 41
1
 50
0
  1
スペーサー数
  0
TEXT
  8
_1-0_
 62
    7
 10
289.9777081608442
 20
141.86883296206295
 40
3
 41
1
 50
0
  1
(A)寸法
  0
LINE
  8
_1-0_
  6
CONTINUOUS
 62
   18
 10
195.28115918579886
 20
145.11872491315259
 11
301.35243096785752
 21
145.11872491315259
  0
LINE
  8
_1-0_
  6
CONTINUOUS
 62
   18
 10
221.305763484896
 20
145.11872491315259
 11
221.305763484896
 21
131.11872491315262
  0
LINE
  8
_1-0_
  6
CONTINUOUS
 62
   18
 10
249.62632045252951
 20
145.11872491315259
 11
249.62632045252951
 21
131.11872491315262
  0
LINE
  8
_1-0_
  6
CONTINUOUS
 62
   18
 10
269.49280671354313
 20
145.11872491315259
 11
269.49280671354313
 21
131.11872491315262
  0
LINE
  8
_1-0_
  6
CONTINUOUS
 62
   18
 10
289.10298535383083
 20
145.11872491315259
 11
289.10298535383083
 21
131.11872491315262
  0
LINE
  8
_1-0_
  6
CONTINUOUS
 62
   18
 10
195.28115918579886
 20
131.11872491315262
 11
301.35243096785752
 21
131.11872491315262
  0
LINE
  8
_1-0_
  6
CONTINUOUS
 62
   18
 10
195.28115918579886
 20
145.11872491315259
 11
195.28115918579886
 21
131.11872491315262
  0
LINE
  8
_1-0_
  6
CONTINUOUS
 62
   18
 10
301.35243096785752
 20
145.11872491315259
 11
301.35243096785752
 21
131.11872491315262
  0
LINE
  8
_1-2_
  6
CONTINUOUS
 62
   18
 10
125.70408822336759
 20
156.7884911821919
 11
125.92213598168911
 21
157.00653894051342
  0
LINE
  8
_1-2_
  6
CONTINUOUS
 62
   18
 10
125.83519523188312
 20
156.5660448001141
 11
126.05489862571
 21
156.78574819394098
  0
LINE
  8
_1-2_
  6
CONTINUOUS
 62
   18
 10
126.39874805315009
 20
155.36183066841519
 11
126.62805579861748
 21
155.59113841388259
  0
LINE
  8
_1-2_
  6
CONTINUOUS
 62
   18
 10
110.82469825609388
 20
156.75834361983547
 11
114.05122104301341
 21
159.984866406755
  0
LINE
  8
_1-2_
  6
CONTINUOUS
 62
   18
 10
111.59291188104595
 20
157.88011063538087
 11
112.92945402746778
 21
159.21665278180271
  0
LINE
  8
_1-2_
  6
CONTINUOUS
 62
   18
 10
126.29991720497316
 20
155.61655321083171
 11
126.52883744437605
 21
155.84547345023461
  0
LINE
  8
_1-2_
  6
CONTINUOUS
 62
   18
 10
126.19305964249435
 20
155.86324903894544
 11
126.4192442621175
 21
156.08943365856848
  0
LINE
  8
_1-2_
  6
CONTINUOUS
 62
   18
 10
126.07985094625434
 20
156.10359373329865
 11
126.30360350803272
 21
156.32734629507704
  0
LINE
  8
_1-2_
  6
CONTINUOUS
 62
   18
 10
125.96050196780067
 20
156.33779814543831
 11
126.18210110157003
 21
156.55939727920767
  0
LINE
  8
_1-2_
  6
CONTINUOUS
 62
   18
 10
125.56731606040722
 20
157.00527240982487
 11
125.78393356443217
 21
157.22188991384982
  0
LINE
  8
_1-2_
  6
CONTINUOUS
 62
   18
 10
125.42499366964995
 20
157.21650340966093
 11
125.64039404456554
 21
157.43190378457652
  0
LINE
  8
_1-2_
  6
CONTINUOUS
 62
   18
 10
125.27721755161389
 20
157.42228068221831
 11
125.49160382310771
 21
157.63666695371202
  0
LINE
  8
_1-2_
  6
CONTINUOUS
 62
   18
 10
125.124067203572
 20
157.62268372476964
 11
125.33763420982729
 21
157.83625073102493
  0
LINE
  8
_1-2_
  6
CONTINUOUS
 62
   18
 10
124.96560625139574
 20
157.81777616318683
 11
125.17854236455292
 21
158.03071227634391
  0
LINE
  8
_1-2_
  6
CONTINUOUS
 62
   18
 10
124.80188332941617
 20
158.00760663180048
 11
125.01437203147822
 21
158.22009533386253
  0
LINE
  8
_1-2_
  6
CONTINUOUS
 62
   18
 10
124.63293273748587
 20
158.19220943046352
 11
124.84515408904787
 21
158.40443078202551
  0
LINE
  8
_1-2_
  6
CONTINUOUS
 62
   18
 10
124.45877489636047
 20
158.37160497993145
 11
124.67090693185315
 21
158.58373701542413
  0
LINE
  8
_1-2_
  6
CONTINUOUS
 62
   18
 10
124.27941661567507
 20
158.54580008983939
 11
124.49163669566639
 21
158.7580201698307
  0
LINE
  8
_1-2_
  6
CONTINUOUS
 62
   18
 10
124.09485118278559
 20
158.71478804754324
 11
124.30733733210178
 21
158.92727419685943
  0
LINE
  8
_1-2_
  6
CONTINUOUS
 62
   18
 10
123.90505827519524
 20
158.87854853054543
 11
124.11799053502051
 21
159.09148079037058
  0
LINE
  8
_1-2_
  6
CONTINUOUS
 62
   18
 10
123.71000369388167
 20
159.03704733982508
 11
123.92356551658719
 21
159.25060916253059
  0
LINE
  8
_1-2_
  6
CONTINUOUS
 62
   18
 10
123.50963890930558
 20
159.19023594584232
 11
123.72401862653879
 21
159.40461566307553
  0
LINE
  8
_1-2_
  6
CONTINUOUS
 62
   18
 10
123.30390040585627
 20
159.33805083298634
 11
123.5192928035479
 21
159.55344323067797
  0
LINE
  8
_1-2_
  6
CONTINUOUS
 62
   18
 10
123.09270880368246
 20
159.48041262140586
 11
123.30931684231342
 21
159.69702066003683
  0
LINE
  8
_1-2_
  6
CONTINUOUS
 62
   18
 10
122.87596772877902
 20
159.61722493709576
 11
123.09400445383272
 21
159.83526166214946
  0
LINE
  8
_1-2_
  6
CONTINUOUS
 62
   18
 10
122.65356239235422
 20
159.7483729912644
 11
122.87325308886562
 21
159.9680636877757
  0
LINE
  8
_1-2_
  6
CONTINUOUS
 62
   18
 10
122.42535782812598
 20
159.87372181762939
 11
122.64694248539359
 21
160.095306474897
  0
LINE
  8
_1-2_
  6
CONTINUOUS
 62
   18
 10
122.19119672033577
 20
159.99311410043251
 11
122.41493288916269
 21
160.21685026925942
  0
LINE
  8
_1-2_
  6
CONTINUOUS
 62
   18
 10
121.95089673451986
 20
160.10636750520993
 11
122.17706288135156
 21
160.33253365204163
  0
LINE
  8
_1-2_
  6
CONTINUOUS
 62
   18
 10
121.70424723548564
 20
160.21327139676904
 11
121.93314672764137
 21
160.44217088892478
  0
LINE
  8
_1-2_
  6
CONTINUOUS
 62
   18
 10
121.45100523966136
 20
160.3135827915381
 11
121.68297113669001
 21
160.54554868856675
  0
LINE
  8
_1-2_
  6
CONTINUOUS
 62
   18
 10
121.19089039780789
 20
160.40702134027796
 11
121.42629128051072
 21
160.6424222229808
  0
LINE
  8
_1-2_
  6
CONTINUOUS
 62
   18
 10
120.92357873266957
 20
160.49326306573298
 11
121.1628258806191
 21
160.7325102136825
  0
LINE
  8
_1-2_
  6
CONTINUOUS
 62
   18
 10
120.64869475480378
 20
160.57193247846064
 11
120.89225109609612
 21
160.81548881975286
  0
LINE
  8
_1-2_
  6
CONTINUOUS
 62
   18
 10
120.36580143335101
 20
160.64259254760029
 11
120.61419285389462
 21
160.89098396814379
  0
LINE
  8
_1-2_
  6
CONTINUOUS
 62
   18
 10
120.07438728251128
 20
160.70473178735378
 11
120.32821712368747
 21
160.95856162852996
  0
LINE
  8
_1-2_
  6
CONTINUOUS
 62
   18
 10
119.77384949891126
 20
160.75774739434721
 11
120.03381743682399
 21
161.01771533225983
  0
LINE
  8
_1-2_
  6
CONTINUOUS
 62
   18
 10
119.46347158197983
 20
160.80092286800911
 11
119.73039864465869
 21
161.06784993068786
  0
LINE
  8
_1-2_
  6
CONTINUOUS
 62
   18
 10
119.14239307044551
 20
160.83339774706812
 11
119.41725544381353
 21
161.10826012043603
  0
LINE
  8
_1-2_
  6
CONTINUOUS
 62
   18
 10
118.80956771831944
 20
160.85412578553527
 11
119.09354345719481
 21
161.13810152441064
  0
LINE
  8
_1-2_
  6
CONTINUOUS
 62
   18
 10
118.46370420778618
 20
160.86181566559534
 11
118.75823945664166
 21
161.15635091445083
  0
LINE
  8
_1-2_
  6
CONTINUOUS
 62
   18
 10
118.10317955104739
 20
160.85484439944989
 11
118.41008528411004
 21
161.16175013251254
  0
LINE
  8
_1-2_
  6
CONTINUOUS
 62
   18
 10
117.72590798527932
 20
160.83112622427527
 11
118.04750646380063
 21
161.15272470279646
  0
LINE
  8
_1-2_
  6
CONTINUOUS
 62
   18
 10
117.32913364427742
 20
160.78790527386658
 11
117.6684899287539
 21
161.12726155834306
  0
LINE
  8
_1-2_
  6
CONTINUOUS
 62
   18
 10
116.90908443801192
 20
160.72140945819442
 11
117.27039246846022
 21
161.08271748864271
  0
LINE
  8
_1-2_
  6
CONTINUOUS
 62
   18
 10
116.46035277319135
 20
160.62623118396718
 11
116.84962469598719
 21
161.01550310676302
  0
LINE
  8
_1-2_
  6
CONTINUOUS
 62
   18
 10
115.9746806639792
 20
160.49411246534848
 11
116.40109418076673
 21
160.9205259821359
  0
LINE
  8
_1-2_
  6
CONTINUOUS
 62
   18
 10
115.43824734896981
 20
160.31123254093231
 11
115.91713537613288
 21
160.79012056809538
  0
LINE
  8
_1-2_
  6
CONTINUOUS
 62
   18
 10
114.82428565809602
 20
160.05082424065185
 11
115.38519083746161
 21
160.61172942001744
  0
LINE
  8
_1-2_
  6
CONTINUOUS
 62
   18
 10
114.06426675845233
 20
159.64435873160059
 11
114.78179389368466
 21
160.36188586683292
  0
LINE
  8
_1-2_
  6
CONTINUOUS
 62
   18
 10
110.44767879601574
 20
156.02777076916399
 11
111.16520593124807
 21
156.74529790439632
  0
LINE
  8
_1-2_
  6
CONTINUOUS
 62
   18
 10
110.27466399840893
 20
155.50120258096464
 11
110.75874042219681
 21
155.98527900475253
  0
ARC
  8
_1-6_
  6
CONTINUOUS
 62
  250
 10
118.44773399443335
 20
152.36183066841531
 40
8.5
 50
18.727047066276455
 51
161.27295293372359
  0
LINE
  8
_1-6_
  6
CONTINUOUS
 62
  250
 10
110.39773399443339
 20
150.96183066841533
 11
110.39773399443339
 21
155.0908414782144
  0
ARC
  8
_1-6_
  6
CONTINUOUS
 62
  250
 10
112.19773399443335
 20
153.61183066841531
 40
2.2000000000000002
 50
215.09680122758459
 51
144.90319877241546
  0
LINE
  8
_1-6_
  6
CONTINUOUS
 62
  250
 10
115.9977339944333
 20
155.36183066841531
 11
120.89773399443339
 21
155.36183066841531
  0
ARC
  8
_1-6_
  6
CONTINUOUS
 62
  250
 10
120.89773399443339
 20
154.36183066841531
 40
1
 50
0
 51
90
  0
ARC
  8
_1-6_
  6
CONTINUOUS
 62
  250
 10
115.9977339944333
 20
154.36183066841531
 40
1
 50
90
 51
180
  0
LINE
  8
_1-6_
  6
CONTINUOUS
 62
  250
 10
114.9977339944333
 20
151.16183066841526
 11
114.9977339944333
 21
154.36183066841531
  0
ARC
  8
_1-6_
  6
CONTINUOUS
 62
  250
 10
114.4977339944333
 20
151.16183066841526
 40
0.5
 50
270
 51
0
  0
LINE
  8
_1-6_
  6
CONTINUOUS
 62
  250
 10
110.69773399443335
 20
150.66183066841526
 11
114.4977339944333
 21
150.66183066841526
  0
ARC
  8
_1-6_
  6
CONTINUOUS
 62
  250
 10
110.69773399443335
 20
150.96183066841533
 40
0.3
 50
180
 51
270
  0
LINE
  8
_1-6_
  6
CONTINUOUS
 62
  250
 10
121.89773399443339
 20
154.36183066841531
 11
121.89773399443339
 21
151.16183066841526
  0
LINE
  8
_1-6_
  6
CONTINUOUS
 62
  250
 10
122.39773399443339
 20
150.66183066841526
 11
126.19773399443335
 21
150.66183066841526
  0
ARC
  8
_1-6_
  6
CONTINUOUS
 62
  250
 10
122.39773399443339
 20
151.16183066841526
 40
0.5
 50
180
 51
270
  0
LINE
  8
_1-6_
  6
CONTINUOUS
 62
  250
 10
126.4977339944333
 20
150.96183066841533
 11
126.4977339944333
 21
155.0908414782144
  0
ARC
  8
_1-6_
  6
CONTINUOUS
 62
  250
 10
126.19773399443335
 20
150.96183066841533
 40
0.3
 50
270
 51
0
  0
LINE
  8
_1-b_
  6
CONTINUOUS
 62
    7
 10
113.5602339944333
 20
153.42433066841531
 11
112.57273399443335
 21
153.42433066841531
  0
LINE
  8
_1-b_
  6
CONTINUOUS
 62
    7
 10
113.5602339944333
 20
153.79933066841531
 11
112.57273399443335
 21
153.79933066841531
  0
LINE
  8
_1-b_
  6
CONTINUOUS
 62
    7
 10
113.5602339944333
 20
153.79933066841531
 11
113.5602339944333
 21
153.42433066841531
  0
LINE
  8
_1-b_
  6
CONTINUOUS
 62
    7
 10
110.83523399443339
 20
153.79933066841531
 11
111.82273399443335
 21
153.79933066841531
  0
LINE
  8
_1-b_
  6
CONTINUOUS
 62
    7
 10
110.83523399443339
 20
153.42433066841531
 11
111.82273399443335
 21
153.42433066841531
  0
LINE
  8
_1-b_
  6
CONTINUOUS
 62
    7
 10
110.83523399443339
 20
153.42433066841531
 11
110.83523399443339
 21
153.79933066841531
  0
LINE
  8
_1-b_
  6
CONTINUOUS
 62
    7
 10
112.01023399443335
 20
154.97433066841526
 11
112.01023399443335
 21
153.98683066841531
  0
LINE
  8
_1-b_
  6
CONTINUOUS
 62
    7
 10
112.38523399443335
 20
154.97433066841526
 11
112.38523399443335
 21
153.98683066841531
  0
LINE
  8
_1-b_
  6
CONTINUOUS
 62
    7
 10
112.01023399443335
 20
154.97433066841526
 11
112.38523399443335
 21
154.97433066841526
  0
LINE
  8
_1-b_
  6
CONTINUOUS
 62
    7
 10
112.01023399443335
 20
152.24933066841535
 11
112.01023399443335
 21
153.23683066841531
  0
LINE
  8
_1-b_
  6
CONTINUOUS
 62
    7
 10
112.38523399443335
 20
152.24933066841535
 11
112.38523399443335
 21
153.23683066841531
  0
LINE
  8
_1-b_
  6
CONTINUOUS
 62
    7
 10
112.38523399443335
 20
152.24933066841535
 11
112.01023399443335
 21
152.24933066841535
  0
ARC
  8
_1-1_
  6
CONTINUOUS
 62
    7
 10
125.79773399443326
 20
150.56183066841535
 40
0.2
 50
150.00000000000739
 51
270
  0
LINE
  8
_1-4_
  6
CONTINUOUS
 62
    7
 10
115.44773399443335
 20
151.31183066841535
 11
121.44773399443335
 21
151.31183066841535
  0
LINE
  8
_1-4_
  6
CONTINUOUS
 62
    7
 10
121.44773399443335
 20
151.31183066841535
 11
121.44773399443335
 21
152.11183066841531
  0
LINE
  8
_1-4_
  6
CONTINUOUS
 62
    7
 10
121.44773399443335
 20
152.11183066841531
 11
115.44773399443335
 21
152.11183066841531
  0
LINE
  8
_1-4_
  6
CONTINUOUS
 62
    7
 10
115.44773399443335
 20
152.11183066841531
 11
115.44773399443335
 21
151.31183066841535
  0
ARC
  8
_1-2_
  6
CONTINUOUS
 62
    7
 10
110.46525317704328
 20
155.56183066841535
 40
0.2
 50
158.15524251423676
 51
270
  0
ARC
  8
_1-2_
  6
CONTINUOUS
 62
    7
 10
118.44773399443335
 20
152.36183066841531
 40
8.8000000000000007
 50
21.844757485763267
 51
158.15524251423673
  0
ARC
  8
_1-2_
  6
CONTINUOUS
 62
    7
 10
126.43021481182342
 20
155.56183066841535
 40
0.2
 50
270
 51
21.844757485763136
  0
LINE
  8
_1-1_
  6
CONTINUOUS
 62
    7
 10
126.59773399443321
 20
150.36183066841531
 11
125.79773399443326
 21
150.36183066841531
  0
ARC
  8
_1-1_
  6
CONTINUOUS
 62
    7
 10
126.59773399443321
 20
150.56183066841535
 40
0.2
 50
270
 51
0
  0
LINE
  8
_1-1_
  6
CONTINUOUS
 62
    7
 10
126.79773399443326
 20
152.56183066841535
 11
126.79773399443326
 21
150.56183066841535
  0
ARC
  8
_1-1_
  6
CONTINUOUS
 62
    7
 10
126.4977339944333
 20
152.56183066841535
 40
0.3
 50
0
 51
90
  0
ARC
  8
_1-1_
  6
CONTINUOUS
 62
    7
 10
126.4977339944333
 20
154.26183066841529
 40
0.3
 50
270
 51
0
  0
LINE
  8
_1-1_
  6
CONTINUOUS
 62
    7
 10
126.79773399443326
 20
155.06183066841535
 11
126.79773399443326
 21
154.26183066841529
  0
ARC
  8
_1-1_
  6
CONTINUOUS
 62
    7
 10
126.4977339944333
 20
155.06183066841535
 40
0.3
 50
0
 51
90
  0
LINE
  8
_1-1_
  6
CONTINUOUS
 62
    7
 10
110.29773399443326
 20
150.36183066841531
 11
111.09773399443321
 21
150.36183066841531
  0
ARC
  8
_1-1_
  6
CONTINUOUS
 62
    7
 10
110.29773399443326
 20
150.56183066841535
 40
0.2
 50
180
 51
270
  0
LINE
  8
_1-1_
  6
CONTINUOUS
 62
    7
 10
110.09773399443321
 20
152.56183066841535
 11
110.09773399443321
 21
150.56183066841535
  0
LINE
  8
_1-1_
  6
CONTINUOUS
 62
    7
 10
110.09773399443321
 20
155.06183066841535
 11
110.09773399443321
 21
154.26183066841529
  0
ARC
  8
_1-1_
  6
CONTINUOUS
 62
    7
 10
110.39773399443339
 20
155.06183066841535
 40
0.3
 50
90
 51
180
  0
LINE
  8
_1-1_
  6
CONTINUOUS
 62
    7
 10
123.59773399443321
 20
150.36183066841531
 11
113.29773399443326
 21
150.36183066841531
  0
LINE
  8
_1-1_
  6
CONTINUOUS
 62
    7
 10
110.39773399443339
 20
155.36183066841531
 11
110.4947471341398
 21
155.36183066841531
  0
ARC
  8
_1-1_
  6
CONTINUOUS
 62
    7
 10
111.09773399443321
 20
150.56183066841535
 40
0.2
 50
270
 51
29.99999999999261
  0
ARC
  8
_1-1_
  6
CONTINUOUS
 62
    7
 10
113.29773399443326
 20
150.56183066841535
 40
0.2
 50
150.00000000000739
 51
270
  0
LINE
  8
_1-1_
  6
CONTINUOUS
 62
    7
 10
121.89773399443339
 20
151.31183066841535
 11
114.9977339944333
 21
151.31183066841535
  0
ARC
  8
_1-1_
  6
CONTINUOUS
 62
    7
 10
123.59773399443321
 20
150.56183066841535
 40
0.2
 50
270
 51
29.999999999992617
  0
LINE
  8
_1-1_
  6
CONTINUOUS
 62
    7
 10
126.4977339944333
 20
155.36183066841531
 11
126.40072085472667
 21
155.36183066841531
  0
LINE
  8
_1-2_
  6
CONTINUOUS
 62
    7
 10
110.46525317704328
 20
155.36183066841531
 11
110.4947471341398
 21
155.36183066841531
  0
ARC
  8
_1-b_
  6
CONTINUOUS
 62
    7
 10
111.82273399443335
 20
153.98683066841531
 40
0.1875
 50
270
 51
0
  0
ARC
  8
_1-b_
  6
CONTINUOUS
 62
    7
 10
111.82273399443335
 20
153.23683066841531
 40
0.1875
 50
0
 51
90
  0
ARC
  8
_1-b_
  6
CONTINUOUS
 62
    7
 10
112.57273399443335
 20
153.23683066841531
 40
0.1875
 50
90
 51
180
  0
ARC
  8
_1-b_
  6
CONTINUOUS
 62
    7
 10
112.57273399443335
 20
153.98683066841531
 40
0.1875
 50
180
 51
270
  0
CIRCLE
  8
_1-b_
  6
CONTINUOUS
 62
    7
 10
112.19773399443335
 20
153.61183066841531
 40
2
  0
ARC
  8
_1-1_
  6
CONTINUOUS
 62
    7
 10
110.39773399443339
 20
154.26183066841529
 40
0.3
 50
180
 51
237.69736444582799
  0
ARC
  8
_1-1_
  6
CONTINUOUS
 62
    7
 10
110.39773399443339
 20
152.56183066841535
 40
0.3
 50
100.01899268711101
 51
180
  0
LINE
  8
_1-5_
  6
CONTINUOUS
 62
    7
 10
119.54774021715826
 20
154.46183677193093
 11
119.54774021715826
 21
153.71183677193093
  0
LINE
  8
_1-5_
  6
CONTINUOUS
 62
    7
 10
119.54774021715826
 20
153.71183677193093
 11
117.34774326891608
 21
153.71183677193093
  0
LINE
  8
_1-5_
  6
CONTINUOUS
 62
    7
 10
117.34774326891608
 20
153.71183677193093
 11
117.34774326891608
 21
154.46183677193093
  0
LINE
  8
_1-5_
  6
CONTINUOUS
 62
    7
 10
117.34774326891608
 20
154.46183677193093
 11
119.54774021715826
 21
154.46183677193093
  0
LINE
  8
_1-5_
  6
CONTINUOUS
 62
    7
 10
114.9977339944333
 20
153.71183677193093
 11
121.89773399443317
 21
153.71183677193093
  0
LINE
  8
_1-5_
  6
CONTINUOUS
 62
    7
 10
121.89773399443317
 20
152.11183066841531
 11
114.9977339944333
 21
152.11183066841531
  0
LINE
  8
_1-3_
  6
CONTINUOUS
 62
   18
 10
109.39774976410052
 20
166.68085309185764
 11
127.49774975860333
 21
166.68085309185764
  0
LINE
  8
_1-3_
  6
CONTINUOUS
 62
   18
 10
109.39774976410052
 20
166.68085309185764
 11
110.36367559038962
 21
166.93967213696018
  0
LINE
  8
_1-3_
  6
CONTINUOUS
 62
   18
 10
109.39774976410052
 20
166.68085309185764
 11
110.36367559038962
 21
166.42203404675513
  0
LINE
  8
_1-3_
  6
CONTINUOUS
 62
   18
 10
127.49774975860333
 20
166.68085309185764
 11
126.53182393231424
 21
166.42203404675513
  0
LINE
  8
_1-3_
  6
CONTINUOUS
 62
   18
 10
127.49774975860333
 20
166.68085309185764
 11
126.53182393231424
 21
166.93967213696018
  0
LINE
  8
_1-3_
  6
CONTINUOUS
 62
   18
 10
109.39774976410052
 20
167.18085309185764
 11
109.39774976410052
 21
158.03894795300195
  0
LINE
  8
_1-3_
  6
CONTINUOUS
 62
   18
 10
127.49774975860333
 20
167.18085309185764
 11
127.49774975860333
 21
158.03939404404031
  0
TEXT
  8
_1-3_
 62
    7
 10
123.67342254816418
 20
167.31744887051764
 40
3
 41
0.8333333333333333
 50
0
  1
(器具取付時最大20)
  0
TEXT
  8
_1-3_
 62
    7
 10
113.32273399443335
 20
167.18085309185764
 40
3
 41
1
 50
0
  1
(18.5)
  0
LINE
  8
_1-0_
  6
CENTER2
 62
   18
 10
118.44763872254026
 20
161.54453497073348
 11
118.44800905566973
 21
146.51838768876186
  0
LINE
  8
_1-3_
  6
CONTINUOUS
 62
   18
 10
103.0769097568871
 20
147.28745654803924
 11
103.0769097568871
 21
161.16183066799664
  0
LINE
  8
_1-3_
  6
CONTINUOUS
 62
   18
 10
103.0769097568871
 20
147.28745654803924
 11
102.81809071178458
 21
148.25338237432834
  0
LINE
  8
_1-3_
  6
CONTINUOUS
 62
   18
 10
103.0769097568871
 20
147.28745654803924
 11
103.33572880198963
 21
148.25338237432834
  0
LINE
  8
_1-3_
  6
CONTINUOUS
 62
   18
 10
103.0769097568871
 20
161.16183066799664
 11
103.33572880198963
 21
160.19590484170757
  0
LINE
  8
_1-3_
  6
CONTINUOUS
 62
   18
 10
103.0769097568871
 20
161.16183066799664
 11
102.81809071178458
 21
160.19590484170757
  0
LINE
  8
_1-3_
  6
CONTINUOUS
 62
   18
 10
102.5769097568871
 20
147.28745654803924
 11
107.44798739803247
 21
147.28745654803924
  0
LINE
  8
_1-3_
  6
CONTINUOUS
 62
   18
 10
102.5769097568871
 20
161.16183066799664
 11
117.44764815463749
 21
161.16183066799664
  0
TEXT
  8
_1-3_
 62
    7
 10
102.5769097568871
 20
150.84964360801797
 40
3
 41
1
 50
90
  1
(14)
  0
LINE
  8
_1-3_
  6
CONTINUOUS
 62
   18
 10
117.62896458786284
 20
145.76750063797323
 11
106.05929968486461
 21
143.41594273085974
  0
TEXT
  8
_1-3_
 62
    7
 10
286.56645751377386
 20
149.39018078510551
 40
2
 41
1
 50
0
  1
(Ｓ=１：２)
  0
LINE
  8
_1-2_
  6
CONTINUOUS
 62
    7
 10
389.1942027691212
 20
152.28879026010048
 11
389.1942027691212
 21
154.38879026010048
  0
LINE
  8
_1-2_
  6
CONTINUOUS
 62
    7
 10
358.15061223162803
 20
152.28879026010048
 11
389.1942027691212
 21
152.28879026010048
  0
LINE
  8
_1-2_
  6
CONTINUOUS
 62
    7
 10
389.1942027691212
 20
154.38879026010048
 11
357.76064216767264
 21
154.38879026010048
  0
LINE
  8
_1-3_
  6
CONTINUOUS
 62
   18
 10
389.1942027691212
 20
158.51581031366374
 11
388.22827694283211
 21
158.25699126856122
  0
LINE
  8
_1-3_
  6
CONTINUOUS
 62
   18
 10
389.1942027691212
 20
158.51581031366374
 11
388.22827694283211
 21
158.77462935876628
  0
LINE
  8
_1-3_
  6
CONTINUOUS
 62
   18
 10
389.1942027691212
 20
159.01581031366374
 11
389.1942027691212
 21
155.38879026010048
  0
LINE
  8
_1-2_
  6
CONTINUOUS
 62
    7
 10
339.86311647307895
 20
169.79909401024906
 11
359.86311647307895
 21
169.79909401024906
  0
LINE
  8
_1-2_
  6
CONTINUOUS
 62
    7
 10
359.86311647307895
 20
169.79909401024906
 11
359.86311647307895
 21
172.09909401024908
  0
LINE
  8
_1-2_
  6
CONTINUOUS
 62
    7
 10
359.86311647307895
 20
172.09909401024908
 11
339.86311647307895
 21
172.09909401024908
  0
LINE
  8
_1-2_
  6
CONTINUOUS
 62
    7
 10
339.86311647307895
 20
172.09909401024908
 11
339.86311647307895
 21
169.79909401024906
  0
LINE
  8
_1-2_
  6
CONTINUOUS
 62
   18
 10
359.55514996259268
 20
169.79909401024887
 11
359.86311647307917
 21
170.1070605207353
  0
LINE
  8
_1-2_
  6
CONTINUOUS
 62
   18
 10
358.84804318140601
 20
169.79909401024892
 11
359.86311647307917
 21
170.81416730192191
  0
LINE
  8
_1-2_
  6
CONTINUOUS
 62
   18
 10
358.14093640021957
 20
169.79909401024898
 11
359.86311647307895
 21
171.52127408310841
  0
LINE
  8
_1-2_
  6
CONTINUOUS
 62
   18
 10
357.43382961903291
 20
169.79909401024904
 11
359.73382961903309
 21
172.09909401024916
  0
LINE
  8
_1-2_
  6
CONTINUOUS
 62
   18
 10
356.72672283784624
 20
169.79909401024909
 11
359.02672283784642
 21
172.09909401024922
  0
LINE
  8
_1-2_
  6
CONTINUOUS
 62
   18
 10
356.01961605665957
 20
169.79909401024915
 11
358.31961605665975
 21
172.09909401024927
  0
LINE
  8
_1-2_
  6
CONTINUOUS
 62
   18
 10
355.31250927547404
 20
169.79909401024926
 11
357.61250927547422
 21
172.09909401024939
  0
LINE
  8
_1-2_
  6
CONTINUOUS
 62
   18
 10
354.60540249428828
 20
169.79909401024932
 11
356.90540249428847
 21
172.09909401024944
  0
LINE
  8
_1-2_
  6
CONTINUOUS
 62
   18
 10
353.89829571310185
 20
169.79909401024949
 11
356.1982957131018
 21
172.0990940102495
  0
LINE
  8
_1-2_
  6
CONTINUOUS
 62
   18
 10
353.19118893191518
 20
169.79909401024955
 11
355.49118893191468
 21
172.0990940102491
  0
LINE
  8
_1-2_
  6
CONTINUOUS
 62
   18
 10
352.48408215072806
 20
169.79909401024904
 11
354.78408215072824
 21
172.09909401024916
  0
LINE
  8
_1-2_
  6
CONTINUOUS
 62
   18
 10
351.77697536954139
 20
169.79909401024909
 11
354.07697536954157
 21
172.09909401024922
  0
LINE
  8
_1-2_
  6
CONTINUOUS
 62
   18
 10
351.0698685883545
 20
169.79909401024881
 11
353.36986858835468
 21
172.09909401024893
  0
LINE
  8
_1-2_
  6
CONTINUOUS
 62
   18
 10
350.36276180716783
 20
169.79909401024887
 11
352.66276180716801
 21
172.09909401024899
  0
LINE
  8
_1-2_
  6
CONTINUOUS
 62
   18
 10
349.65565502598139
 20
169.79909401024892
 11
351.95565502598134
 21
172.09909401024905
  0
LINE
  8
_1-2_
  6
CONTINUOUS
 62
   18
 10
348.94854824479472
 20
169.79909401024898
 11
351.2485482447949
 21
172.0990940102491
  0
LINE
  8
_1-2_
  6
CONTINUOUS
 62
   18
 10
348.24144146360806
 20
169.79909401024904
 11
350.54144146360824
 21
172.09909401024916
  0
LINE
  8
_1-2_
  6
CONTINUOUS
 62
   18
 10
347.53433468242116
 20
169.79909401024887
 11
349.83433468242134
 21
172.09909401024899
  0
LINE
  8
_1-2_
  6
CONTINUOUS
 62
   18
 10
346.82722790123449
 20
169.79909401024892
 11
349.12722790123468
 21
172.09909401024899
  0
LINE
  8
_1-2_
  6
CONTINUOUS
 62
   18
 10
346.12012112004783
 20
169.79909401024892
 11
348.42012112004801
 21
172.09909401024905
  0
LINE
  8
_1-2_
  6
CONTINUOUS
 62
   18
 10
345.41301433886139
 20
169.79909401024898
 11
347.71301433886134
 21
172.0990940102491
  0
LINE
  8
_1-2_
  6
CONTINUOUS
 62
   18
 10
344.70590755767563
 20
169.79909401024909
 11
347.00590755767581
 21
172.09909401024922
  0
LINE
  8
_1-2_
  6
CONTINUOUS
 62
   18
 10
343.9988007764901
 20
169.79909401024932
 11
346.29880077649028
 21
172.09909401024944
  0
LINE
  8
_1-2_
  6
CONTINUOUS
 62
   18
 10
343.29169399530343
 20
169.79909401024938
 11
345.59169399530361
 21
172.0990940102495
  0
LINE
  8
_1-2_
  6
CONTINUOUS
 62
   18
 10
342.58458721411699
 20
169.79909401024943
 11
344.88458721411649
 21
172.09909401024899
  0
LINE
  8
_1-2_
  6
CONTINUOUS
 62
   18
 10
341.87748043292964
 20
169.79909401024887
 11
344.17748043292983
 21
172.09909401024899
  0
LINE
  8
_1-2_
  6
CONTINUOUS
 62
   18
 10
341.17037365174298
 20
169.79909401024892
 11
343.47037365174316
 21
172.09909401024905
  0
LINE
  8
_1-2_
  6
CONTINUOUS
 62
   18
 10
340.46326687055654
 20
169.79909401024898
 11
342.76326687055649
 21
172.0990940102491
  0
LINE
  8
_1-2_
  6
CONTINUOUS
 62
   18
 10
339.86311647307895
 20
169.90605039395817
 11
342.05616008937005
 21
172.09909401024916
  0
LINE
  8
_1-2_
  6
CONTINUOUS
 62
   18
 10
339.86311647307872
 20
170.61315717514461
 11
341.34905330818339
 21
172.09909401024922
  0
LINE
  8
_1-2_
  6
CONTINUOUS
 62
   18
 10
339.86311647307872
 20
171.32026395633122
 11
340.64194652699672
 21
172.09909401024927
  0
LINE
  8
_1-2_
  6
CONTINUOUS
 62
   18
 10
339.86311647307872
 20
172.02737073751783
 11
339.93483974581005
 21
172.09909401024933
  0
LINE
  8
_1-2_
  6
CONTINUOUS
 62
    7
 10
339.86311647307895
 20
154.38879026010048
 11
339.86311647307895
 21
152.28879026010048
  0
LINE
  8
_1-2_
  6
CONTINUOUS
 62
    7
 10
339.86311647307895
 20
152.28879026010048
 11
357.46523108328398
 21
152.28879026010048
  0
LINE
  8
_1-2_
  6
CONTINUOUS
 62
    7
 10
357.07526101932859
 20
154.38879026010048
 11
339.86311647307895
 21
154.38879026010048
  0
LINE
  8
_1-3_
  6
CONTINUOUS
 62
   18
 10
334.84881353145585
 20
169.79909401024906
 11
334.84881353145585
 21
166.79909401024906
  0
LINE
  8
_1-3_
  6
CONTINUOUS
 62
   18
 10
334.84881353145585
 20
172.09909401024908
 11
334.84881353145585
 21
175.09909401024908
  0
LINE
  8
_1-3_
  6
CONTINUOUS
 62
   18
 10
334.84881353145585
 20
169.79909401024906
 11
334.84881353145585
 21
172.09909401024908
  0
LINE
  8
_1-3_
  6
CONTINUOUS
 62
   18
 10
334.84881353145585
 20
169.79909401024906
 11
335.10763257655827
 21
168.83316818396
  0
LINE
  8
_1-3_
  6
CONTINUOUS
 62
   18
 10
334.84881353145585
 20
169.79909401024906
 11
334.58999448635319
 21
168.83316818396
  0
LINE
  8
_1-3_
  6
CONTINUOUS
 62
   18
 10
334.84881353145585
 20
172.09909401024908
 11
334.58999448635319
 21
173.06501983653811
  0
LINE
  8
_1-3_
  6
CONTINUOUS
 62
   18
 10
334.84881353145585
 20
172.09909401024908
 11
335.10763257655827
 21
173.06501983653811
  0
LINE
  8
_1-3_
  6
CONTINUOUS
 62
   18
 10
334.34881353145585
 20
169.79909401024906
 11
338.86311647307895
 21
169.79909401024906
  0
LINE
  8
_1-3_
  6
CONTINUOUS
 62
   18
 10
334.34881353145585
 20
172.09909401024908
 11
338.86311647307895
 21
172.09909401024908
  0
LINE
  8
_1-3_
  6
CONTINUOUS
 62
   18
 10
339.86311647307895
 20
176.54095718441675
 11
359.86311647307895
 21
176.54095718441675
  0
LINE
  8
_1-3_
  6
CONTINUOUS
 62
   18
 10
339.86311647307895
 20
176.54095718441675
 11
340.82904229936804
 21
176.7997762295193
  0
LINE
  8
_1-3_
  6
CONTINUOUS
 62
   18
 10
339.86311647307895
 20
176.54095718441675
 11
340.82904229936804
 21
176.28213813931424
  0
LINE
  8
_1-3_
  6
CONTINUOUS
 62
   18
 10
359.86311647307895
 20
176.54095718441675
 11
358.89719064678985
 21
176.28213813931424
  0
LINE
  8
_1-3_
  6
CONTINUOUS
 62
   18
 10
359.86311647307895
 20
176.54095718441675
 11
358.89719064678985
 21
176.7997762295193
  0
LINE
  8
_1-3_
  6
CONTINUOUS
 62
   18
 10
339.86311647307895
 20
177.04095718441675
 11
339.86311647307895
 21
173.09909401024908
  0
LINE
  8
_1-3_
  6
CONTINUOUS
 62
   18
 10
359.86311647307895
 20
177.04095718441675
 11
359.86311647307895
 21
173.09909401024908
  0
TEXT
  8
_1-3_
 62
    7
 10
348.23811647307895
 20
177.04095718441675
 40
3
 41
1
 50
0
  1
20
  0
TEXT
  8
_1-3_
 62
    7
 10
334.34881353145585
 20
166.69909401024907
 40
3
 41
1
 50
90
  1
φ2.3
  0
LINE
  8
_1-3_
  6
CONTINUOUS
 62
   18
 10
334.84881353145585
 20
152.28879026010048
 11
334.84881353145585
 21
149.28879026010048
  0
LINE
  8
_1-3_
  6
CONTINUOUS
 62
   18
 10
334.84881353145585
 20
154.38879026010048
 11
334.84881353145585
 21
157.38879026010048
  0
LINE
  8
_1-3_
  6
CONTINUOUS
 62
   18
 10
334.84881353145585
 20
152.28879026010048
 11
334.84881353145585
 21
154.38879026010048
  0
LINE
  8
_1-3_
  6
CONTINUOUS
 62
   18
 10
334.84881353145585
 20
152.28879026010048
 11
335.10763257655827
 21
151.32286443381139
  0
LINE
  8
_1-3_
  6
CONTINUOUS
 62
   18
 10
334.84881353145585
 20
152.28879026010048
 11
334.58999448635319
 21
151.32286443381139
  0
LINE
  8
_1-3_
  6
CONTINUOUS
 62
   18
 10
334.84881353145585
 20
154.38879026010048
 11
334.58999448635319
 21
155.35471608638954
  0
LINE
  8
_1-3_
  6
CONTINUOUS
 62
   18
 10
334.84881353145585
 20
154.38879026010048
 11
335.10763257655827
 21
155.35471608638954
  0
LINE
  8
_1-3_
  6
CONTINUOUS
 62
   18
 10
334.34881353145585
 20
152.28879026010048
 11
338.86311647307895
 21
152.28879026010048
  0
LINE
  8
_1-3_
  6
CONTINUOUS
 62
   18
 10
334.34881353145585
 20
154.38879026010048
 11
338.86311647307895
 21
154.38879026010048
  0
LINE
  8
_1-3_
  6
CONTINUOUS
 62
   18
 10
339.86311647307895
 20
158.51581031366374
 11
389.1942027691212
 21
158.51581031366374
  0
LINE
  8
_1-3_
  6
CONTINUOUS
 62
   18
 10
339.86311647307895
 20
158.51581031366374
 11
340.82904229936804
 21
158.77462935876628
  0
LINE
  8
_1-3_
  6
CONTINUOUS
 62
   18
 10
339.86311647307895
 20
158.51581031366374
 11
340.82904229936804
 21
158.25699126856122
  0
LINE
  8
_1-3_
  6
CONTINUOUS
 62
   18
 10
339.86311647307895
 20
159.01581031366374
 11
339.86311647307895
 21
155.38879026010048
  0
TEXT
  8
_1-3_
 62
    7
 10
334.34881353145585
 20
149.08879026010047
 40
3
 41
1
 50
90
  1
φ2.1
  0
TEXT
  8
_1-0_
 62
    7
 10
322.12164108815733
 20
160.49594209888812
 40
3
 41
1
 50
0
  1
スペーサー
  0
TEXT
  8
_1-0_
 62
    7
 10
322.12164108815733
 20
178.43245003539604
 40
3
 41
1
 50
0
  1
マグネット
  0
ARC
  8
_1-2_
  6
CONTINUOUS
 62
    7
 10
363.41971834133409
 20
152.65340911175636
 40
1.0280717225161649
 50
318.18998718261719
 51
41.80999755859375
  0
ARC
  8
_1-2_
  6
CONTINUOUS
 62
    7
 10
364.95223058903156
 20
154.0241714084446
 40
1.0280717225161649
 50
138.18998718261719
 51
221.80999755859372
  0
ARC
  8
_1-2_
  6
CONTINUOUS
 62
    7
 10
364.10509948967814
 20
152.65340911175636
 40
1.0280717225161649
 50
318.18998718261719
 51
41.80999755859375
  0
ARC
  8
_1-2_
  6
CONTINUOUS
 62
    7
 10
365.63761173737561
 20
154.0241714084446
 40
1.0280717225161649
 50
138.18998718261719
 51
221.80999755859372
  0
TEXT
  8
_1-3_
 62
    7
 10
358.52863794808076
 20
159.01581031366374
 40
3
 41
1
 50
0
  1
200/300
  0
LINE
  8
_1-b_
  6
CONTINUOUS
 62
    7
 10
119.53260871767257
 20
143.42412191137544
 11
117.38095944382904
 21
142.77961867266674
  0
LINE
  8
_1-b_
  6
CONTINUOUS
 62
    7
 10
117.41465544234266
 20
142.25277619376504
 11
119.51963712142002
 21
142.88330065984781
  0
LINE
  8
_1-b_
  6
CONTINUOUS
 62
    7
 10
119.4687706966423
 20
142.10499992314487
 11
117.49161252688747
 21
141.51276360501572
  0
LINE
  8
_1-b_
  6
CONTINUOUS
 62
    7
 10
117.565789003468
 20
140.99804661493579
 11
119.40913624965434
 21
141.55020132001448
  0
LINE
  8
_1-b_
  6
CONTINUOUS
 62
    7
 10
119.28853396256009
 20
140.75101196095818
 11
117.69913748172972
 21
140.27492545748385
  0
LINE
  8
_1-b_
  6
CONTINUOUS
 62
    7
 10
117.81238808125578
 20
139.77191269777938
 11
119.17694959364222
 21
140.18065232130527
  0
LINE
  8
_1-b_
  6
CONTINUOUS
 62
    7
 10
118.97749314595386
 20
139.35784305239383
 11
118.00069335970134
 21
139.06525325466862
  0
LINE
  8
_1-b_
  6
CONTINUOUS
 62
    7
 10
118.152382680846
 20
138.57375439775308
 11
118.80614947193099
 21
138.7695831600596
  0
LINE
  8
_1-b_
  6
CONTINUOUS
 62
    7
 10
117.38095944382904
 20
142.77961867266674
 11
116.92993472354884
 21
142.51246804476625
  0
LINE
  8
_1-b_
  6
CONTINUOUS
 62
    7
 10
116.92993472354884
 20
142.51246804476625
 11
117.41465544234266
 21
142.25277619376504
  0
LINE
  8
_1-b_
  6
CONTINUOUS
 62
    7
 10
117.49161252688747
 20
141.51276360501572
 11
117.05912691279114
 21
141.23955672924274
  0
LINE
  8
_1-b_
  6
CONTINUOUS
 62
    7
 10
117.05912691279114
 20
141.23955672924274
 11
117.565789003468
 21
140.99804661493579
  0
LINE
  8
_1-b_
  6
CONTINUOUS
 62
    7
 10
117.69913748172972
 20
140.27492545748385
 11
117.28533917172432
 21
139.98698833155788
  0
LINE
  8
_1-b_
  6
CONTINUOUS
 62
    7
 10
117.28533917172432
 20
139.98698833155788
 11
117.81238808125578
 21
139.77191269777938
  0
LINE
  8
_1-b_
  6
CONTINUOUS
 62
    7
 10
118.00069335970134
 20
139.06525325466862
 11
117.60793887237706
 21
138.75463020391078
  0
LINE
  8
_1-b_
  6
CONTINUOUS
 62
    7
 10
117.60793887237706
 20
138.75463020391078
 11
118.152382680846
 21
138.57375439775308
  0
LINE
  8
_1-b_
  6
CONTINUOUS
 62
    7
 10
118.80614947193099
 20
138.7695831600596
 11
119.39711773706959
 21
139.12978061102365
  0
LINE
  8
_1-b_
  6
CONTINUOUS
 62
    7
 10
119.39711773706959
 20
139.12978061102365
 11
118.97749314595386
 21
139.35784305239383
  0
LINE
  8
_1-b_
  6
CONTINUOUS
 62
    7
 10
119.17694959364222
 20
140.18065232130527
 11
119.71475833819623
 21
140.49638267291482
  0
LINE
  8
_1-b_
  6
CONTINUOUS
 62
    7
 10
119.71475833819623
 20
140.49638267291482
 11
119.28853396255987
 21
140.75101196095818
  0
LINE
  8
_1-b_
  6
CONTINUOUS
 62
    7
 10
119.53260871767257
 20
143.42412191137544
 11
119.99356635331684
 21
143.15484241874981
  0
LINE
  8
_1-b_
  6
CONTINUOUS
 62
    7
 10
119.99356635331684
 20
143.15484241874981
 11
119.51963712142002
 21
142.88330065984781
  0
LINE
  8
_1-b_
  6
CONTINUOUS
 62
    7
 10
119.4687706966423
 20
142.10499992314487
 11
119.91001377738449
 21
141.83732332988336
  0
LINE
  8
_1-b_
  6
CONTINUOUS
 62
    7
 10
119.91001377738449
 20
141.83732332988336
 11
119.40913624965434
 21
141.55020132001448
  0
LINE
  8
_1-b_
  6
CONTINUOUS
 62
    7
 10
117.60793887237683
 20
138.75463020391078
 11
119.39711773706959
 21
139.12978061102365
  0
LINE
  8
_1-b_
  6
CONTINUOUS
 62
    7
 10
117.28533917172409
 20
139.98698833155765
 11
119.71475833819646
 21
140.49638267291482
  0
LINE
  8
_1-b_
  6
CONTINUOUS
 62
    7
 10
117.05912691279114
 20
141.23955672924274
 11
119.91001377738472
 21
141.83732332988336
  0
LINE
  8
_1-b_
  6
CONTINUOUS
 62
    7
 10
116.92993472354907
 20
142.51246804476625
 11
119.99356635331706
 21
143.15484241874981
  0
LINE
  8
_1-b_
  6
CONTINUOUS
 62
    7
 10
116.89800905566982
 20
143.80577395056423
 11
117.36300905566974
 21
143.53730607539126
  0
LINE
  8
_1-b_
  6
CONTINUOUS
 62
    7
 10
116.89800905566982
 20
143.80577395056423
 11
117.36300905566974
 21
144.0742418257372
  0
LINE
  8
_1-b_
  6
CONTINUOUS
 62
    7
 10
119.99800905566973
 20
144.45577395056409
 11
119.53300905566981
 21
144.18730607539112
  0
LINE
  8
_1-b_
  6
CONTINUOUS
 62
    7
 10
117.36300905566974
 20
143.53730607539126
 11
119.53300905566981
 21
144.18730607539112
  0
LINE
  8
_1-b_
  6
CONTINUOUS
 62
    7
 10
116.89800905566982
 20
145.10577395056441
 11
118.25927873124748
 21
145.10577395056441
  0
LINE
  8
_1-b_
  6
CONTINUOUS
 62
    7
 10
117.36300905566974
 20
144.83730607539144
 11
118.25927873124748
 21
145.10577395056441
  0
LINE
  8
_1-b_
  6
CONTINUOUS
 62
    7
 10
116.89800905566982
 20
145.10577395056441
 11
117.36300905566974
 21
144.83730607539144
  0
LINE
  8
_1-b_
  6
CONTINUOUS
 62
    7
 10
119.99800905566973
 20
144.45577395056409
 11
116.89800905566982
 21
143.80577395056423
  0
LINE
  8
_1-b_
  6
CONTINUOUS
 62
    7
 10
119.53300905566981
 20
144.18730607539112
 11
119.53300905566981
 21
143.53730607830573
  0
LINE
  8
_1-b_
  6
CONTINUOUS
 62
    7
 10
118.44800905566977
 20
144.39924182573702
 11
117.36300905566974
 21
144.0742418257372
  0
LINE
  8
_1-b_
  6
CONTINUOUS
 62
    7
 10
116.89800905566982
 20
147.74569360853513
 11
116.89800905566982
 21
145.10577395056441
  0
LINE
  8
_1-b_
  6
CONTINUOUS
 62
    7
 10
119.99800905566973
 20
147.74569360853513
 11
119.99800905566973
 21
144.45577395056409
  0
ARC
  8
_1-b_
  6
CONTINUOUS
 62
    7
 10
119.39895797039195
 20
147.80573505675545
 40
1.8999999999999999
 50
358.1891082147331
 51
50.656667470942445
  0
ARC
  8
_1-b_
  6
CONTINUOUS
 62
    7
 10
117.49706014094782
 20
147.80573505675545
 40
1.8999999999999999
 50
129.34333252905759
 51
181.8108917852669
  0
ARC
  8
_1-b_
  6
CONTINUOUS
 62
    7
 10
118.44800905566977
 20
146.64569360853523
 40
3.3999999999999999
 50
50.656667470941962
 51
129.34333252905805
  0
LINE
  8
_1-b_
  6
CONTINUOUS
 62
    7
 10
121.29800905566991
 20
147.74569360853513
 11
115.59800905566986
 21
147.74569360853513
  0
LINE
  8
_1-b_
  6
CONTINUOUS
 62
    7
 10
117.36300905566974
 20
144.83730607539144
 11
117.36300905566974
 21
144.0742418257372
  0
ARC
  8
_1-b_
  6
CONTINUOUS
 62
    7
 10
103.53300905566981
 20
143.53730607830573
 40
16
 50
359.5946856774703
 51
0
  0
ARC
  8
_1-b_
  6
CONTINUOUS
 62
    7
 10
103.53300905566981
 20
143.53730607830573
 40
16
 50
354.86405612536186
 51
357.65736295618342
  0
ARC
  8
_1-b_
  6
CONTINUOUS
 62
    7
 10
103.53300905566981
 20
143.53730607830573
 40
16
 50
349.97118788260622
 51
352.86578457174619
  0
ARC
  8
_1-b_
  6
CONTINUOUS
 62
    7
 10
103.53300905566981
 20
143.53730607830573
 40
16
 50
344.85774642102973
 51
347.88990361887807
  0
ARC
  8
_1-b_
  6
CONTINUOUS
 62
    7
 10
103.53300905566981
 20
143.53730607830573
 40
16
 50
338.77841492391411
 51
342.66352143209139
  0
ARC
  8
_1-b_
  6
CONTINUOUS
 62
    7
 10
133.36300905566975
 20
143.53730607830573
 40
16
 50
198.07260854310479
 51
201.22158507608589
  0
ARC
  8
_1-b_
  6
CONTINUOUS
 62
    7
 10
133.36300905566975
 20
143.53730607830573
 40
16
 50
193.61149368287136
 51
196.23056243401274
  0
ARC
  8
_1-b_
  6
CONTINUOUS
 62
    7
 10
133.36300905566975
 20
143.53730607830573
 40
16
 50
189.13166330236956
 51
191.76504279002293
  0
ARC
  8
_1-b_
  6
CONTINUOUS
 62
    7
 10
133.36300905566975
 20
143.53730607830573
 40
16
 50
184.60483953475742
 51
187.26934546790616
  0
ARC
  8
_1-b_
  6
CONTINUOUS
 62
    7
 10
133.36300905566975
 20
143.53730607830573
 40
16
 50
180
 51
182.7142832850754
  0
LINE
  8
_1-7_
  6
CONTINUOUS
 62
    7
 10
108.44799009822786
 20
147.28745654803924
 11
128.44799010430211
 21
147.28745654803924
  0
LINE
  8
_1-7_
  6
CONTINUOUS
 62
   18
 10
127.06742037383384
 20
136.50132040803905
 11
128.4482219073675
 21
137.88212194157271
  0
LINE
  8
_1-7_
  6
CONTINUOUS
 62
   18
 10
125.65320681146062
 20
136.50132040803916
 11
128.44818705364099
 21
139.29630065021951
  0
LINE
  8
_1-7_
  6
CONTINUOUS
 62
   18
 10
124.23899324908729
 20
136.50132040803916
 11
128.44815219991443
 21
140.71047935886634
  0
LINE
  8
_1-7_
  6
CONTINUOUS
 62
   18
 10
122.824779686716
 20
136.50132040803939
 11
128.44811734618779
 21
142.12465806751118
  0
LINE
  8
_1-7_
  6
CONTINUOUS
 62
   18
 10
121.41056612434241
 20
136.50132040803913
 11
128.44808249246179
 21
143.53883677615852
  0
LINE
  8
_1-7_
  6
CONTINUOUS
 62
   18
 10
119.99635256196868
 20
136.50132040803874
 11
128.44804763873577
 21
144.95301548480586
  0
LINE
  8
_1-7_
  6
CONTINUOUS
 62
   18
 10
118.58213899959546
 20
136.50132040803885
 11
128.44801278500927
 21
146.36719419345266
  0
LINE
  8
_1-7_
  6
CONTINUOUS
 62
   18
 10
117.16792543722224
 20
136.50132040803896
 11
127.95406157722206
 21
147.28745654803879
  0
LINE
  8
_1-7_
  6
CONTINUOUS
 62
   18
 10
115.75371187484903
 20
136.50132040803908
 11
126.53984801484884
 21
147.2874565480389
  0
LINE
  8
_1-7_
  6
CONTINUOUS
 62
   18
 10
114.33949831247544
 20
136.50132040803885
 11
125.12563445247561
 21
147.28745654803902
  0
LINE
  8
_1-7_
  6
CONTINUOUS
 62
   18
 10
112.92528475010415
 20
136.50132040803908
 11
123.71142089010435
 21
147.28745654803924
  0
LINE
  8
_1-7_
  6
CONTINUOUS
 62
   18
 10
111.51107118773092
 20
136.50132040803916
 11
122.29720732773112
 21
147.28745654803936
  0
LINE
  8
_1-7_
  6
CONTINUOUS
 62
   18
 10
110.09685762535761
 20
136.50132040803919
 11
120.88299376535706
 21
147.28745654803862
  0
LINE
  8
_1-7_
  6
CONTINUOUS
 62
   18
 10
108.68264406298387
 20
136.50132040803879
 11
119.46878020298388
 21
147.28745654803879
  0
LINE
  8
_1-7_
  6
CONTINUOUS
 62
   18
 10
108.4482268552498
 20
137.68111676267804
 11
118.05456664061069
 21
147.28745654803893
  0
LINE
  8
_1-7_
  6
CONTINUOUS
 62
   18
 10
108.44819200152318
 20
139.09529547132476
 11
116.64035307823751
 21
147.2874565480391
  0
LINE
  8
_1-7_
  6
CONTINUOUS
 62
   18
 10
108.44815714779679
 20
140.5094741799717
 11
115.22613951586399
 21
147.2874565480389
  0
LINE
  8
_1-7_
  6
CONTINUOUS
 62
   18
 10
108.44812229407052
 20
141.92365288861876
 11
113.81192595349077
 21
147.28745654803902
  0
LINE
  8
_1-7_
  6
CONTINUOUS
 62
   18
 10
108.44808744034376
 20
143.33783159726352
 11
112.39771239111951
 21
147.28745654803927
  0
LINE
  8
_1-7_
  6
CONTINUOUS
 62
   18
 10
108.44805258661756
 20
144.75201030591066
 11
110.98349882874575
 21
147.28745654803885
  0
LINE
  8
_1-7_
  6
CONTINUOUS
 62
   18
 10
108.44801773289103
 20
146.16618901455746
 11
109.5692852663725
 21
147.28745654803893
  0
TEXT
  8
_1-0_
 62
    7
 10
197.85644565410564
 20
138.11872491315259
 40
3
 41
1
 50
0
  1
FGO-505-MG
  0
TEXT
  8
_1-0_
 62
    7
 10
197.85644565410564
 20
134.61872491315262
 40
3
 41
1
 50
0
  1
FGO-1000-MG
  0
TEXT
  8
_1-0_
 62
    7
 10
197.85644565410564
 20
131.11872491315262
 40
3
 41
1
 50
0
  1
FGO-1495-MG
  0
TEXT
  8
_1-8_
 62
    7
 10
108.44792212199239
 20
131.95522007385142
 40
3
 41
0.8333333333333333
 50
0
  1
クリップ取付寸法
  0
LINE
  8
_1-9_
  6
CONTINUOUS
 62
    7
 10
39.366837963620753
 20
141.42140680075704
 11
39.366830569846627
 21
141.72140680066593
  0
LINE
  8
_1-9_
  6
CONTINUOUS
 62
    7
 10
39.366399266356495
 20
159.22140679535102
 11
39.366391872582369
 21
159.52140679525991
  0
LINE
  8
_1-9_
  6
CONTINUOUS
 62
    7
 10
36.816399267130976
 20
159.22134394827103
 11
35.566430074902712
 21
157.97131314125852
  0
LINE
  8
_1-9_
  6
CONTINUOUS
 62
    7
 10
35.566430074902712
 20
157.97131314125852
 11
35.354292812423353
 21
158.18343994736222
  0
LINE
  8
_1-9_
  6
CONTINUOUS
 62
    7
 10
36.392135198547919
 20
159.22133349189539
 11
35.354292812423353
 21
158.18343994736222
  0
LINE
  8
_1-9_
  6
CONTINUOUS
 62
    7
 10
36.816830570620994
 20
141.72134395358597
 11
35.566799763608458
 21
142.97131314581418
  0
LINE
  8
_1-9_
  6
CONTINUOUS
 62
    7
 10
35.566799763608458
 20
142.97131314581418
 11
35.354672957504874
 21
142.75917588333482
  0
LINE
  8
_1-9_
  6
CONTINUOUS
 62
    7
 10
36.392566502038051
 20
141.72133349721031
 11
35.354672957504874
 21
142.75917588333482
  0
LINE
  8
_1-9_
  6
DASHED3
 62
    3
 10
36.692127804682684
 20
159.52134088557838
 11
36.392135198547919
 21
159.22133349189539
  0
LINE
  8
_1-9_
  6
DASHED3
 62
    3
 10
36.692573895720955
 20
141.42134089107554
 11
36.392566502038051
 21
141.72133349721031
  0
LINE
  8
_1-9_
  6
DASHED3
 62
    3
 10
29.68088398153867
 20
152.97116808507869
 11
29.980929679860708
 21
152.97117547997908
  0
LINE
  8
_1-9_
  6
DASHED3
 62
    3
 10
29.70273362008453
 20
151.72116862320337
 11
30.002779318406567
 21
151.72117601810376
  0
LINE
  8
_1-9_
  6
DASHED3
 62
    3
 10
29.702795234868802
 20
149.22116862396263
 11
30.002840933190839
 21
149.22117601886305
  0
LINE
  8
_1-9_
  6
DASHED3
 62
    3
 10
29.681007211107215
 20
147.97116808659723
 11
29.981052909429366
 21
147.97117548149765
  0
LINE
  8
_1-9_
  6
CONTINUOUS
 62
    7
 10
30.075641662928604
 20
141.4211778107346
 11
39.366837963620753
 21
141.42140680075704
  0
LINE
  8
_1-9_
  6
CONTINUOUS
 62
    7
 10
29.575705277480154
 20
141.92989169271874
 11
29.724583258630389
 21
150.47116916132802
  0
ARC
  8
_1-9_
  6
CONTINUOUS
 62
    7
 10
30.075629339971726
 20
141.92117781058275
 40
0.5
 50
179.00141210683856
 51
270.00141210683859
  0
LINE
  8
_1-9_
  6
CONTINUOUS
 62
    7
 10
30.075634269154477
 20
141.7211778106435
 11
39.366830569846627
 21
141.72140680066593
  0
LINE
  8
_1-9_
  6
CONTINUOUS
 62
    7
 10
29.875659714975143
 20
141.92466336343713
 11
30.024628956952313
 21
150.47117655622841
  0
ARC
  8
_1-9_
  6
CONTINUOUS
 62
    7
 10
30.075629339971726
 20
141.92117781058275
 40
0.2
 50
179.00141210683856
 51
270.00141210683859
  0
LINE
  8
_1-9_
  6
CONTINUOUS
 62
    7
 10
29.875238441902695
 20
159.0176823956709
 11
30.024628956952313
 21
150.47117655622841
  0
LINE
  8
_1-9_
  6
CONTINUOUS
 62
    7
 10
30.075202965664346
 20
159.22117780532855
 11
39.366399266356495
 21
159.22140679535102
  0
ARC
  8
_1-9_
  6
CONTINUOUS
 62
    7
 10
30.075207894847097
 20
159.0211778053893
 40
0.2
 50
90.001412106838558
 51
181.00141210683856
  0
LINE
  8
_1-9_
  6
CONTINUOUS
 62
    7
 10
53.477723418876792
 20
141.42123771568444
 11
53.477723418876792
 21
159.52123771568444
  0
LINE
  8
_1-9_
  6
CONTINUOUS
 62
    7
 10
53.477723418876792
 20
159.52123771568444
 11
73.477723418876792
 21
159.52123771568444
  0
LINE
  8
_1-9_
  6
CONTINUOUS
 62
    7
 10
73.477723418876792
 20
141.42123771568444
 11
73.477723418876792
 21
159.52123771568444
  0
LINE
  8
_1-9_
  6
CONTINUOUS
 62
    7
 10
53.477723418876792
 20
141.42123771568444
 11
73.477723418876792
 21
141.42123771568444
  0
ARC
  8
_1-9_
  6
CONTINUOUS
 62
    7
 10
63.477723418876792
 20
149.57123771568445
 40
1.6000000000000001
 50
180
 51
270
  0
ARC
  8
_1-9_
  6
CONTINUOUS
 62
    7
 10
63.477723418876792
 20
149.57123771568445
 40
1.6000000000000001
 50
270
 51
0
  0
LINE
  8
_1-9_
  6
CONTINUOUS
 62
    7
 10
65.077723418876815
 20
151.37123771568443
 11
65.077723418876815
 21
149.57123771568445
  0
ARC
  8
_1-9_
  6
CONTINUOUS
 62
    7
 10
63.477723418876792
 20
151.37123771568443
 40
1.6000000000000001
 50
0
 51
90
  0
LINE
  8
_1-9_
  6
CONTINUOUS
 62
    7
 10
61.877723418876769
 20
151.37123771568443
 11
61.877723418876769
 21
149.57123771568445
  0
ARC
  8
_1-9_
  6
CONTINUOUS
 62
    7
 10
63.477723418876792
 20
151.37123771568443
 40
1.6000000000000001
 50
90
 51
180
  0
CIRCLE
  8
_1-9_
  6
CONTINUOUS
 62
    7
 10
70.477723418876792
 20
150.47123771568442
 40
1.25
  0
CIRCLE
  8
_1-9_
  6
CONTINUOUS
 62
    7
 10
56.477723418876792
 20
150.47123771568442
 40
1.25
  0
LINE
  8
_1-9_
  6
CONTINUOUS
 62
    7
 10
53.477723418876792
 20
159.22123771568442
 11
73.477723418876792
 21
159.22123771568442
  0
LINE
  8
_1-9_
  6
CONTINUOUS
 62
    7
 10
53.477723418876792
 20
141.72123771568445
 11
73.477723418876792
 21
141.72123771568445
  0
LINE
  8
_1-9_
  6
CONTINUOUS
 62
    7
 10
57.477723418876792
 20
142.97123771568445
 11
59.477723418876792
 21
142.97123771568445
  0
LINE
  8
_1-9_
  6
CONTINUOUS
 62
    7
 10
57.477723418876792
 20
157.97123771568442
 11
59.477723418876792
 21
157.97123771568442
  0
LINE
  8
_1-9_
  6
CONTINUOUS
 62
    7
 10
69.477723418876792
 20
142.97123771568445
 11
67.477723418876792
 21
142.97123771568445
  0
LINE
  8
_1-9_
  6
CONTINUOUS
 62
    7
 10
69.477723418876792
 20
157.97123771568442
 11
67.477723418876792
 21
157.97123771568442
  0
LINE
  8
_1-9_
  6
CONTINUOUS
 62
    7
 10
57.477723418876792
 20
159.22123771568442
 11
57.477723418876792
 21
157.97123771568442
  0
LINE
  8
_1-9_
  6
CONTINUOUS
 62
    7
 10
59.477723418876792
 20
159.22123771568442
 11
59.477723418876792
 21
157.97123771568442
  0
LINE
  8
_1-9_
  6
CONTINUOUS
 62
    7
 10
67.477723418876792
 20
159.22123771568442
 11
67.477723418876792
 21
157.97123771568442
  0
LINE
  8
_1-9_
  6
CONTINUOUS
 62
    7
 10
69.477723418876792
 20
159.22123771568442
 11
69.477723418876792
 21
157.97123771568442
  0
LINE
  8
_1-9_
  6
CONTINUOUS
 62
    7
 10
57.477723418876792
 20
141.72123771568445
 11
57.477723418876792
 21
142.97123771568445
  0
LINE
  8
_1-9_
  6
CONTINUOUS
 62
    7
 10
59.477723418876792
 20
141.72123771568445
 11
59.477723418876792
 21
142.97123771568445
  0
LINE
  8
_1-9_
  6
CONTINUOUS
 62
    7
 10
67.477723418876792
 20
141.72123771568445
 11
67.477723418876792
 21
142.97123771568445
  0
LINE
  8
_1-9_
  6
CONTINUOUS
 62
    7
 10
69.477723418876792
 20
141.72123771568445
 11
69.477723418876792
 21
142.97123771568445
  0
LINE
  8
_1-9_
  6
DASHED3
 62
    3
 10
57.477723418876792
 20
142.75910568128444
 11
59.477723418876792
 21
142.75910568128444
  0
LINE
  8
_1-9_
  6
DASHED3
 62
    3
 10
69.477723418876792
 20
142.75910568128444
 11
67.477723418876792
 21
142.75910568128444
  0
LINE
  8
_1-9_
  6
DASHED3
 62
    3
 10
69.477723418876792
 20
158.18336975008444
 11
67.477723418876792
 21
158.18336975008444
  0
LINE
  8
_1-9_
  6
DASHED3
 62
    3
 10
57.477723418876792
 20
158.18336975008444
 11
59.477723418876792
 21
158.18336975008444
  0
LINE
  8
_1-9_
  6
CONTINUOUS
 62
    7
 10
30.07519557189022
 20
159.52117780523744
 11
39.366391872582369
 21
159.52140679525991
  0
ARC
  8
_1-9_
  6
CONTINUOUS
 62
    7
 10
30.075207894847097
 20
159.0211778053893
 40
0.5
 50
90.001412106840519
 51
181.00141210683921
  0
LINE
  8
_1-9_
  6
CONTINUOUS
 62
    7
 10
29.575284262486036
 20
159.01243928109329
 11
29.724583258630389
 21
150.47116916132802
  0
LINE
  8
_1-3_
  6
CONTINUOUS
 62
   18
 10
29.566391875558736
 20
166.4478974602963
 11
39.366391872582369
 21
166.4478974602963
  0
LINE
  8
_1-3_
  6
CONTINUOUS
 62
   18
 10
29.566391875558736
 20
166.4478974602963
 11
30.53231770184783
 21
166.70671650539882
  0
LINE
  8
_1-3_
  6
CONTINUOUS
 62
   18
 10
29.566391875558736
 20
166.4478974602963
 11
30.53231770184783
 21
166.18907841519379
  0
LINE
  8
_1-3_
  6
CONTINUOUS
 62
   18
 10
39.366391872582369
 20
166.4478974602963
 11
38.400466046293275
 21
166.18907841519379
  0
LINE
  8
_1-3_
  6
CONTINUOUS
 62
   18
 10
39.366391872582369
 20
166.4478974602963
 11
38.400466046293275
 21
166.70671650539882
  0
TEXT
  8
_1-3_
 62
    7
 10
31.966391874070553
 20
166.9478974602963
 40
3
 41
1
 50
0
  1
9.8
  0
LINE
  8
_1-3_
  6
CONTINUOUS
 62
   18
 10
53.477723418876792
 20
166.4478974602963
 11
63.477723418876792
 21
166.4478974602963
  0
LINE
  8
_1-3_
  6
CONTINUOUS
 62
   18
 10
53.477723418876792
 20
166.4478974602963
 11
54.443649245165886
 21
166.70671650539882
  0
LINE
  8
_1-3_
  6
CONTINUOUS
 62
   18
 10
53.477723418876792
 20
166.4478974602963
 11
54.443649245165886
 21
166.18907841519379
  0
LINE
  8
_1-3_
  6
CONTINUOUS
 62
   18
 10
63.477723418876792
 20
166.4478974602963
 11
62.511797592587698
 21
166.18907841519379
  0
LINE
  8
_1-3_
  6
CONTINUOUS
 62
   18
 10
63.477723418876792
 20
166.4478974602963
 11
62.511797592587698
 21
166.70671650539882
  0
TEXT
  8
_1-3_
 62
    7
 10
56.852723418876792
 20
166.9478974602963
 40
3
 41
1
 50
0
  1
10
  0
LINE
  8
_1-3_
  6
CONTINUOUS
 62
   18
 10
53.477723418876792
 20
172.96105535503312
 11
73.477723418876792
 21
172.96105535503312
  0
LINE
  8
_1-3_
  6
CONTINUOUS
 62
   18
 10
53.477723418876792
 20
172.96105535503312
 11
54.443649245165886
 21
173.21987440013564
  0
LINE
  8
_1-3_
  6
CONTINUOUS
 62
   18
 10
53.477723418876792
 20
172.96105535503312
 11
54.443649245165886
 21
172.70223630993061
  0
LINE
  8
_1-3_
  6
CONTINUOUS
 62
   18
 10
73.477723418876792
 20
172.96105535503312
 11
72.511797592587698
 21
172.70223630993061
  0
LINE
  8
_1-3_
  6
CONTINUOUS
 62
   18
 10
73.477723418876792
 20
172.96105535503312
 11
72.511797592587698
 21
173.21987440013564
  0
TEXT
  8
_1-3_
 62
    7
 10
61.852723418876792
 20
173.46105535503312
 40
3
 41
1
 50
0
  1
20
  0
LINE
  8
_1-3_
  6
CONTINUOUS
 62
   18
 10
29.566391875558736
 20
166.9478974602963
 11
29.566391875558736
 21
160.52116526530543
  0
LINE
  8
_1-3_
  6
CONTINUOUS
 62
   18
 10
39.366391872582369
 20
166.9478974602963
 11
39.366391872582369
 21
160.52140679525991
  0
LINE
  8
_1-3_
  6
CONTINUOUS
 62
   18
 10
53.477723418876792
 20
166.9478974602963
 11
53.477723418876792
 21
160.52123771568444
  0
LINE
  8
_1-3_
  6
CONTINUOUS
 62
   18
 10
53.477723418876792
 20
173.46105535503312
 11
53.477723418876792
 21
160.52123771568444
  0
LINE
  8
_1-3_
  6
CONTINUOUS
 62
   18
 10
73.477723418876792
 20
173.46105535503312
 11
73.477723418876792
 21
160.52123771568444
  0
LINE
  8
_1-3_
  6
CONTINUOUS
 62
   18
 10
46.908759381923176
 20
141.42123771568444
 11
46.908759381923176
 21
159.52123771568444
  0
LINE
  8
_1-3_
  6
CONTINUOUS
 62
   18
 10
46.908759381923176
 20
141.42123771568444
 11
46.649940336820634
 21
142.38716354197351
  0
LINE
  8
_1-3_
  6
CONTINUOUS
 62
   18
 10
46.908759381923176
 20
141.42123771568444
 11
47.167578427025717
 21
142.38716354197351
  0
LINE
  8
_1-3_
  6
CONTINUOUS
 62
   18
 10
46.908759381923176
 20
159.52123771568444
 11
47.167578427025717
 21
158.55531188939537
  0
LINE
  8
_1-3_
  6
CONTINUOUS
 62
   18
 10
46.908759381923176
 20
159.52123771568444
 11
46.649940336820634
 21
158.55531188939537
  0
LINE
  8
_1-3_
  6
CONTINUOUS
 62
   18
 10
46.408759381923176
 20
141.42123771568444
 11
52.477723418876792
 21
141.42123771568444
  0
LINE
  8
_1-3_
  6
CONTINUOUS
 62
   18
 10
46.408759381923176
 20
159.52123771568444
 11
52.477723418876792
 21
159.52123771568444
  0
TEXT
  8
_1-3_
 62
    7
 10
46.408759381923176
 20
147.09623771568445
 40
3
 41
1
 50
90
  1
18.1
  0
LINE
  8
_1-3_
  6
CONTINUOUS
 62
   18
 10
63.477723418876792
 20
166.9478974602963
 11
63.477723418876792
 21
160.52123771568444
  0
LINE
  8
_1-3_
  6
CONTINUOUS
 62
   18
 10
65.073424419299783
 20
151.48844828367669
 11
65.739392985785969
 21
152.23442808799601
  0
LINE
  8
_1-3_
  6
CONTINUOUS
 62
   18
 10
65.073424419299783
 20
151.48844828367669
 11
66.023160018158421
 21
151.80150146168427
  0
LINE
  8
_1-3_
  6
CONTINUOUS
 62
   18
 10
65.022692368961714
 20
151.45519534311899
 11
75.631023484019067
 21
158.40855523366073
  0
LINE
  8
_1-0_
  6
CENTER2
 62
   18
 10
40.006352556082504
 20
150.47142256492711
 11
28.84583160834228
 21
150.47114750369067
  0
LINE
  8
_1-0_
  6
CENTER2
 62
   18
 10
63.477723418876792
 20
140.89439544721421
 11
63.477723418876792
 21
159.83482240805856
  0
LINE
  8
_1-0_
  6
CENTER2
 62
   18
 10
52.773276688195494
 20
150.47123771568442
 11
74.472236450426806
 21
150.47123771568442
  0
LINE
  8
_1-0_
  6
CENTER2
 62
   18
 10
56.477723418876792
 20
147.97077729298462
 11
56.477723418876792
 21
153.04793778681179
  0
LINE
  8
_1-0_
  6
CENTER2
 62
   18
 10
70.477723418876792
 20
147.97077729298462
 11
70.477723418876792
 21
153.04793778681179
  0
LINE
  8
_1-0_
  6
CENTER2
 62
   18
 10
68.477723418876792
 20
159.94605666453873
 11
68.477723418876792
 21
156.92136530651405
  0
LINE
  8
_1-0_
  6
CENTER2
 62
   18
 10
58.477723418876792
 20
159.94605666453873
 11
58.477723418876792
 21
156.92136530651405
  0
LINE
  8
_1-0_
  6
CENTER2
 62
   18
 10
58.477723418876792
 20
140.99641876683015
 11
58.477723418876792
 21
144.02111012485483
  0
LINE
  8
_1-0_
  6
CENTER2
 62
   18
 10
68.477723418876792
 20
140.99641876683015
 11
68.477723418876792
 21
144.02111012485483
  0
LINE
  8
_1-9_
  6
DASHED3
 62
    3
 10
60.477723418876792
 20
141.42123771568444
 11
60.477723418876792
 21
141.72123771568445
  0
LINE
  8
_1-9_
  6
DASHED3
 62
    3
 10
56.477723418876792
 20
141.42123771568444
 11
56.477723418876792
 21
141.72123771568445
  0
LINE
  8
_1-9_
  6
DASHED3
 62
    3
 10
70.477723418876792
 20
141.42123771568444
 11
70.477723418876792
 21
141.72123771568445
  0
LINE
  8
_1-9_
  6
DASHED3
 62
    3
 10
66.477723418876792
 20
141.42123771568444
 11
66.477723418876792
 21
141.72123771568445
  0
LINE
  8
_1-9_
  6
DASHED3
 62
    3
 10
60.477723418876792
 20
159.52123771568444
 11
60.477723418876792
 21
159.22123771568442
  0
LINE
  8
_1-9_
  6
DASHED3
 62
    3
 10
56.477723418876792
 20
159.52123771568444
 11
56.477723418876792
 21
159.22123771568442
  0
LINE
  8
_1-9_
  6
DASHED3
 62
    3
 10
70.477723418876792
 20
159.52123771568444
 11
70.477723418876792
 21
159.22123771568442
  0
LINE
  8
_1-9_
  6
DASHED3
 62
    3
 10
66.477723418876792
 20
159.52123771568444
 11
66.477723418876792
 21
159.22123771568442
  0
TEXT
  8
_1-3_
 62
    7
 10
76.077593226276065
 20
157.57589028618403
 40
3
 41
0.8333333333333333
 50
0
  1
3.2×5
  0
TEXT
  8
_1-f_
 62
    7
 10
167.21207537887409
 20
118.29614266091731
 40
4.5
 41
1
 50
0
  1
⑤接続コネクター仕様
  0
TEXT
  8
_1-f_
 62
    7
 10
167.21207537887409
 20
112.79614266091731
 40
4.5
 41
1
 50
0
  1
　記載なし：両側仕様
  0
TEXT
  8
_1-f_
 62
    7
 10
167.21207537887409
 20
107.29614266091731
 40
4.5
 41
1
 50
0
  1
　　　　 K：片側仕様
  0
TEXT
  8
_1-f_
 62
    7
 10
167.21207537887409
 20
101.79614266091731
 40
4.5
 41
1
 50
0
  1
⑥固定仕様
  0
TEXT
  8
_1-3_
 62
    7
 10
75.439359150548455
 20
154.80702603581835
 40
3
 41
0.7666666666666666
 50
0
  1
固定用ネジ穴
  0
TEXT
  8
_1-3_
 62
    7
 10
91.254607008251014
 20
140.23288217893119
 40
3
 41
0.8333333333333333
 50
0
  1
3.1×10木ビス
  0
TEXT
  8
_1-f_
 62
    7
 10
167.21207537887409
 20
96.296142660917312
 40
4.5
 41
1
 50
0
  1
　CR：固定クリップ
  0
TEXT
  8
_1-f_
 62
    7
 10
167.21207537887409
 20
90.796142660917312
 40
4.5
 41
1
 50
0
  1
　MG：マグネット
  0
LINE
  8
_1-f_
  6
CONTINUOUS
 62
    7
 10
93.199574535994287
 20
30.42065500595001
 11
90.949582535994267
 21
25.920653005950015
  0
LINE
  8
_1-f_
  6
CONTINUOUS
 62
    7
 10
93.199574535994287
 20
30.42065500595001
 11
95.449574535994287
 21
25.920653005950015
  0
TEXT
  8
_1-f_
 62
    7
 10
92.223137880553253
 20
25.941448741115153
 40
4
 41
1
 50
0
  1
1
  0
LINE
  8
_1-f_
  6
CONTINUOUS
 62
    7
 10
90.949582535994267
 20
25.920653005950015
 11
95.449574535994287
 21
25.920653005950015
  0
LINE
  8
_1-f_
  6
CONTINUOUS
 62
    7
 10
139.45471856891609
 20
30.308956005362148
 11
137.20472656891607
 21
25.808954005362153
  0
LINE
  8
_1-f_
  6
CONTINUOUS
 62
    7
 10
139.45471856891609
 20
30.308956005362148
 11
141.70471856891609
 21
25.808954005362153
  0
TEXT
  8
_1-f_
 62
    7
 10
138.47828191347506
 20
25.829749740527291
 40
4
 41
1
 50
0
  1
1
  0
LINE
  8
_1-f_
  6
CONTINUOUS
 62
    7
 10
137.20472656891607
 20
25.808954005362153
 11
141.70471856891609
 21
25.808954005362153
  0
TEXT
  8
_1-f_
 62
    7
 10
97.92104764649207
 20
26.08918495708113
 40
3.5
 41
1
 50
0
  1
100％
  0
TEXT
  8
_1-f_
 62
    7
 10
144.03629108999348
 20
26.08918495708113
 40
3.5
 41
1
 50
0
  1
100％
  0
TEXT
  8
_1-f_
 62
    7
 10
337.28585320887407
 20
47.50161669606112
 40
4
 41
1.0000000000000009
 50
0
  1
原田
  0
LINE
  8
_1-f_
  6
CONTINUOUS
 62
    7
 10
210.23220240195545
 20
101.11583431224042
 11
207.98221040195543
 21
96.615832312240428
  0
LINE
  8
_1-f_
  6
CONTINUOUS
 62
    7
 10
210.23220240195545
 20
101.11583431224042
 11
212.48220240195545
 21
96.615832312240428
  0
TEXT
  8
_1-f_
 62
    7
 10
209.25576574651441
 20
96.636628047405566
 40
4
 41
1
 50
0
  1
1
  0
LINE
  8
_1-f_
  6
CONTINUOUS
 62
    7
 10
207.98221040195543
 20
96.615832312240428
 11
212.48220240195545
 21
96.615832312240428
  0
TEXT
  8
_1-f_
 62
    7
 10
293.80997520887411
 20
271.76325769036225
 40
3
 41
1
 50
0
  1
2021.10.18
  0
TEXT
  8
_1-f_
 62
    7
 10
319.80997520887411
 20
271.76325769036225
 40
3
 41
0.6666666666666666
 50
0
  1
Ra95 DN/NWの全光束比率追記,固定仕様表記修正
  0
TEXT
  8
_1-f_
 62
    7
 10
353.94879887889709
 20
26.452941624752242
 40
5
 41
0.8
 50
0
  1
Ｆ９２１５０７０－１
  0
TEXT
  8
_0-0_
 62
    7
 10
17.689707841301413
 20
183.29587914837674
 40
5.0000000000000107
 41
0.9999999999999973
 50
0
  1
◆固定仕様
  0
LINE
  8
_0-0_
  6
CONTINUOUS
 62
    7
 10
18.041492503388156
 20
183.19696960098938
 11
42.380952380952351
 21
183.19696960098938
  0
TEXT
  8
_1-f_
 62
    7
 10
75.599206349206383
 20
177.82936507936509
 40
5
 41
1
 50
0
  1
【固定クリップ】
  0
TEXT
  8
_1-f_
 62
    7
 10
191.88492063492066
 20
177.82936507936509
 40
5
 41
1
 50
0
  1
【マグネット】
  0
TEXT
  8
_1-0_
 62
    7
 10
139.74708258757113
 20
148.3282739202499
 40
3
 41
1
 50
0
  1
固定クリップ(CR)付属数
  0
TEXT
  8
_1-f_
 62
    7
 10
377.30997520887405
 20
271.29247501469723
 40
4
 41
1.0000000000000009
 50
0
  1
難波
  0
TEXT
  8
_1-f_
 62
    7
 10
55.761904761904646
 20
183.5891062834275
 40
4
 41
1
 50
0
  1
Ｓ=１：１
  0
LINE
  8
_1-7_
  6
CONTINUOUS
 62
   18
 10
350.67828800329494
 20
217.23433449162258
 11
376.20084822474678
 21
228.6766150310682
  0
TEXT
  8
_1-7_
 62
    7
 10
370.0738640968741
 20
242.94524377886387
 40
4
 41
1
 50
0
  1
樹脂カバー
  0
TEXT
  8
_1-7_
 62
    7
 10
378.8238640968741
 20
238.97698981060989
 40
4
 41
1
 50
0
  1
(乳半)
  0
TEXT
  8
_1-7_
 62
    7
 10
376.8238640968741
 20
226.80457234622145
 40
4
 41
1
 50
0
  1
LED基板
  0
LINE
  8
_1-7_
  6
CONTINUOUS
 62
   18
 10
351.93434062177062
 20
230.11530816888535
 11
369.53418155808026
 21
244.23217058662385
  0
TEXT
  8
_1-7_
 62
    7
 10
357.85047788006045
 20
196.69812569918463
 40
4
 41
1
 50
0
  1
マグネット
  0
LINE
  8
_1-7_
  6
CONTINUOUS
 62
   18
 10
336.41080414573048
 20
213.0096546052348
 11
357.41661544708677
 21
198.3613017720827
  0
TEXT
  8
_1-7_
 62
    7
 10
360.64711989530429
 20
203.95985775707504
 40
4
 41
1
 50
0
  1
アルミフレーム
  0
LINE
  8
_1-7_
  6
CONTINUOUS
 62
   18
 10
352.49901512464044
 20
212.30550240737944
 11
361.17092942000249
 21
205.86548559700623
  0
LINE
  8
_1-2_
  6
CONTINUOUS
 62
   18
 10
365.12236607519355
 20
221.44086852481814
 11
365.58098156612846
 21
221.89948401575293
  0
LINE
  8
_1-2_
  6
CONTINUOUS
 62
   18
 10
364.41525929400655
 20
221.44086852481769
 11
365.38254485764571
 21
222.40815408845674
  0
LINE
  8
_1-2_
  6
CONTINUOUS
 62
   18
 10
363.70815251282204
 20
221.44086852481792
 11
365.16335849312861
 21
222.89607450512449
  0
LINE
  8
_1-2_
  6
CONTINUOUS
 62
   18
 10
363.00104573163571
 20
221.44086852481837
 11
364.93207698495905
 21
223.3718997781416
  0
LINE
  8
_1-2_
  6
CONTINUOUS
 62
   18
 10
362.29393895044848
 20
221.44086852481792
 11
364.68907217203366
 21
223.83600174640287
  0
LINE
  8
_1-2_
  6
CONTINUOUS
 62
   18
 10
361.74211665917915
 20
221.59615301473514
 11
364.4346672203136
 21
224.28870357586948
  0
LINE
  8
_1-2_
  6
CONTINUOUS
 62
   18
 10
361.33286070166969
 20
221.89400383841235
 11
364.16914193227183
 21
224.73028506901437
  0
LINE
  8
_1-2_
  6
CONTINUOUS
 62
   18
 10
361.35809370818197
 20
222.62634362611129
 11
363.89273709775796
 21
225.16098701568717
  0
LINE
  8
_1-2_
  6
CONTINUOUS
 62
   18
 10
362.41093342874569
 20
224.38629012786168
 11
363.60565805802469
 21
225.58101475714057
  0
LINE
  8
_1-2_
  6
CONTINUOUS
 62
   18
 10
361.95726747508775
 20
224.63973095539041
 11
363.30807761510903
 21
225.99054109541157
  0
LINE
  8
_1-2_
  6
CONTINUOUS
 62
   18
 10
361.2512982633292
 20
224.64086852481864
 11
363.00013838854818
 21
226.38970865003739
  0
LINE
  8
_1-2_
  6
CONTINUOUS
 62
   18
 10
360.54419148214254
 20
224.64086852481864
 11
362.68195469799946
 21
226.77863174067534
  0
LINE
  8
_1-2_
  6
CONTINUOUS
 62
   18
 10
359.83708470095587
 20
224.64086852481842
 11
362.35361403185004
 21
227.15739785571259
  0
LINE
  8
_1-2_
  6
CONTINUOUS
 62
   18
 10
359.19378841774551
 20
224.70467902279483
 11
362.01517814698934
 21
227.52606875203855
  0
LINE
  8
_1-2_
  6
CONTINUOUS
 62
   18
 10
358.83825668889756
 20
225.05625407513344
 11
361.66668383259992
 21
227.88468121883579
  0
LINE
  8
_1-2_
  6
CONTINUOUS
 62
   18
 10
358.47824855463512
 20
225.40335272205766
 11
361.30814336022638
 21
228.23324752764893
  0
LINE
  8
_1-2_
  6
CONTINUOUS
 62
   18
 10
358.10521148521718
 20
225.7374224338264
 11
360.93954463309717
 21
228.57175558170638
  0
LINE
  8
_1-2_
  6
CONTINUOUS
 62
   18
 10
357.71906580477696
 20
226.05838353457102
 11
360.56085103893463
 21
228.90016876872869
  0
LINE
  8
_1-2_
  6
CONTINUOUS
 62
   18
 10
357.31967677074124
 20
226.36610128172197
 11
360.17200100206799
 21
229.21842551304871
  0
LINE
  8
_1-2_
  6
CONTINUOUS
 62
   18
 10
356.90685174250746
 20
226.66038303467485
 11
359.7729072219712
 21
229.52643851413859
  0
LINE
  8
_1-2_
  6
CONTINUOUS
 62
   18
 10
356.4803360213017
 20
226.94097409465576
 11
359.36345557598941
 21
229.82409364934347
  0
LINE
  8
_1-2_
  6
CONTINUOUS
 62
   18
 10
356.03980714526722
 20
227.20755199980795
 11
358.94350365352045
 21
230.11124850806118
  0
LINE
  8
_1-2_
  6
CONTINUOUS
 62
   18
 10
355.58486732861081
 20
227.45971896433821
 11
358.51287887655906
 21
230.38773051228645
  0
LINE
  8
_1-2_
  6
CONTINUOUS
 62
   18
 10
355.11503360638642
 20
227.69699202330048
 11
358.07137614662486
 21
230.65333456353892
  0
LINE
  8
_1-2_
  6
CONTINUOUS
 62
   18
 10
354.62972507107395
 20
227.91879026917468
 11
357.6187549396808
 21
230.90782013778153
  0
LINE
  8
_1-2_
  6
CONTINUOUS
 62
   18
 10
354.12824633780372
 20
228.12441831709111
 11
357.15473574721898
 21
231.15090772650638
  0
LINE
  8
_1-2_
  6
CONTINUOUS
 62
   18
 10
353.60976601217033
 20
228.31304477264439
 11
356.67899573159673
 21
231.38227449207079
  0
LINE
  8
_1-2_
  6
CONTINUOUS
 62
   18
 10
353.07328839254285
 20
228.48367393420358
 11
356.19116342417635
 21
231.60154896583708
  0
LINE
  8
_1-2_
  6
CONTINUOUS
 62
   18
 10
352.51761580790787
 20
228.63510813075527
 11
355.69081224227364
 21
231.80830456512103
  0
LINE
  8
_1-2_
  6
CONTINUOUS
 62
   18
 10
351.94129768252503
 20
228.7658967865591
 11
355.17745252991506
 21
232.00205163394912
  0
LINE
  8
_1-2_
  6
CONTINUOUS
 62
   18
 10
351.34256028802918
 20
228.87426617324991
 11
354.6505217301318
 21
232.18222761535253
  0
LINE
  8
_1-2_
  6
CONTINUOUS
 62
   18
 10
350.71920755306417
 20
228.95802021947156
 11
354.10937216108584
 21
232.34818482749324
  0
LINE
  8
_1-2_
  6
CONTINUOUS
 62
   18
 10
350.06847699634989
 20
229.01439644394213
 11
353.55325567668285
 21
232.4991751242751
  0
LINE
  8
_1-2_
  6
CONTINUOUS
 62
   18
 10
349.3868232376966
 20
229.03984946647552
 11
352.98130421626854
 21
232.63433044504745
  0
LINE
  8
_1-2_
  6
CONTINUOUS
 62
   18
 10
348.66957889671073
 20
229.02971190667631
 11
352.3925048425416
 21
232.75263785250718
  0
LINE
  8
_1-2_
  6
CONTINUOUS
 62
   18
 10
347.91039534751769
 20
228.97763513866994
 11
351.78566725821099
 21
232.85290704936324
  0
LINE
  8
_1-2_
  6
CONTINUOUS
 62
   18
 10
347.10025785761525
 20
228.87460442995416
 11
351.15938085652067
 21
232.93372742885958
  0
LINE
  8
_1-2_
  6
CONTINUOUS
 62
   18
 10
346.22559438515498
 20
228.70704773868056
 11
350.51195688328323
 21
232.99341023680881
  0
LINE
  8
_1-2_
  6
CONTINUOUS
 62
   18
 10
345.26418063058907
 20
228.45274076530131
 11
349.84134888217693
 21
233.02990901688918
  0
LINE
  8
_1-2_
  6
CONTINUOUS
 62
   18
 10
344.17452251294424
 20
228.07018942884315
 11
349.14504053711369
 21
233.0407074530126
  0
LINE
  8
_1-2_
  6
CONTINUOUS
 62
   18
 10
342.85822405924944
 20
227.46099775633502
 11
348.41988289649487
 21
233.02265659358045
  0
LINE
  8
_1-2_
  6
CONTINUOUS
 62
   18
 10
336.13098804654589
 20
221.44086852481814
 11
337.17136161415783
 21
222.48124209243019
  0
LINE
  8
_1-2_
  6
CONTINUOUS
 62
   18
 10
340.85004794407257
 20
226.15992842234482
 11
347.66184982640141
 21
232.97173030467366
  0
LINE
  8
_1-2_
  6
CONTINUOUS
 62
   18
 10
335.42388126535968
 20
221.44086852481882
 11
336.84784554284784
 21
222.86483280230686
  0
LINE
  8
_1-2_
  6
CONTINUOUS
 62
   18
 10
338.62388126535905
 20
224.64086852481819
 11
346.86565490581404
 21
232.88264216527296
  0
LINE
  8
_1-2_
  6
CONTINUOUS
 62
   18
 10
334.71677448417256
 20
221.44086852481814
 11
336.4942921522545
 21
223.2183861929002
  0
LINE
  8
_1-2_
  6
CONTINUOUS
 62
   18
 10
337.91677448417283
 20
224.64086852481842
 11
346.02411936086799
 21
232.74821340151357
  0
LINE
  8
_1-2_
  6
CONTINUOUS
 62
   18
 10
334.00966770298623
 20
221.4408685248186
 11
336.14073876166117
 21
223.57193958349353
  0
LINE
  8
_1-2_
  6
CONTINUOUS
 62
   18
 10
337.20966770298537
 20
224.64086852481773
 11
345.12705833042708
 21
232.55825915225932
  0
LINE
  8
_1-2_
  6
CONTINUOUS
 62
   18
 10
333.30256092179923
 20
221.44086852481837
 11
335.92060947784285
 21
224.05891708086187
  0
LINE
  8
_1-2_
  6
CONTINUOUS
 62
   18
 10
336.50228940171746
 20
224.64059700473649
 11
344.15914072115936
 21
232.29744832417828
  0
LINE
  8
_1-2_
  6
CONTINUOUS
 62
   18
 10
332.87419796571135
 20
221.71961234991704
 11
343.09525164381682
 21
231.94066602802241
  0
LINE
  8
_1-2_
  6
CONTINUOUS
 62
   18
 10
333.22022756092508
 20
222.77274872631551
 11
341.88845775626294
 21
231.44097892165337
  0
LINE
  8
_1-2_
  6
CONTINUOUS
 62
   18
 10
333.97426648108137
 20
224.23389442765847
 11
340.42731205492044
 21
230.68694000149753
  0
LINE
  8
_1-2_
  6
CONTINUOUS
 62
   18
 10
335.51069373098551
 20
226.47742845874927
 11
338.18377802382918
 21
229.15051275159294
  0
LINE
  8
_1-1_
  6
CONTINUOUS
 62
   18
 10
361.69634746864722
 20
224.44086852481814
 11
362.88602338270948
 21
224.44086852481814
  0
LINE
  8
_1-1_
  6
CONTINUOUS
 62
   18
 10
362.88602338270948
 20
224.44086852481814
 11
362.01677685200821
 21
223.57162199411687
  0
LINE
  8
_1-1_
  6
CONTINUOUS
 62
   18
 10
336.74432844687317
 20
224.44086852481814
 11
335.55465253281113
 21
224.44086852481814
  0
LINE
  8
_1-1_
  6
CONTINUOUS
 62
   18
 10
335.55465253281113
 20
224.44086852481814
 11
336.42389906351241
 21
223.57162199411687
  0
LINE
  8
_1-3_
  6
CONTINUOUS
 62
   18
 10
332.52033795776015
 20
243.45935312347751
 11
365.92033795776035
 21
243.45935312347751
  0
LINE
  8
_1-3_
  6
CONTINUOUS
 62
   18
 10
332.52033795776015
 20
243.45935312347751
 11
333.48626378404924
 21
243.71817216857994
  0
LINE
  8
_1-3_
  6
CONTINUOUS
 62
   18
 10
332.52033795776015
 20
243.45935312347751
 11
333.48626378404924
 21
243.20053407837509
  0
LINE
  8
_1-3_
  6
CONTINUOUS
 62
   18
 10
365.92033795776035
 20
243.45935312347751
 11
364.95441213147126
 21
243.20053407837509
  0
LINE
  8
_1-3_
  6
CONTINUOUS
 62
   18
 10
365.92033795776035
 20
243.45935312347751
 11
364.95441213147126
 21
243.71817216857994
  0
LINE
  8
_1-3_
  6
CONTINUOUS
 62
   18
 10
332.52033795776015
 20
243.95935312347751
 11
332.52033795776015
 21
221.84086852481823
  0
LINE
  8
_1-3_
  6
CONTINUOUS
 62
   18
 10
365.92033795776035
 20
243.95935312347751
 11
365.92033795776035
 21
221.84086852481823
  0
TEXT
  8
_1-3_
 62
    7
 10
345.84533795776019
 20
243.95935312347751
 40
3
 41
1
 50
0
  1
16.7
  0
LINE
  8
_1-3_
  6
CONTINUOUS
 62
   18
 10
328.79440040159398
 20
221.44086852481814
 11
328.79440040159398
 21
233.04086852481828
  0
LINE
  8
_1-3_
  6
CONTINUOUS
 62
   18
 10
328.79440040159398
 20
221.44086852481814
 11
328.53558135649132
 21
222.40679435110724
  0
LINE
  8
_1-3_
  6
CONTINUOUS
 62
   18
 10
328.79440040159398
 20
221.44086852481814
 11
329.0532194466964
 21
222.40679435110724
  0
LINE
  8
_1-3_
  6
CONTINUOUS
 62
   18
 10
328.79440040159398
 20
233.04086852481828
 11
329.0532194466964
 21
232.07494269852918
  0
LINE
  8
_1-3_
  6
CONTINUOUS
 62
   18
 10
328.79440040159398
 20
233.04086852481828
 11
328.53558135649132
 21
232.07494269852918
  0
LINE
  8
_1-3_
  6
CONTINUOUS
 62
   18
 10
328.29440040159398
 20
221.44086852481814
 11
332.12033795776028
 21
221.44086852481814
  0
LINE
  8
_1-3_
  6
CONTINUOUS
 62
   18
 10
328.29440040159398
 20
233.04086852481828
 11
348.22033795776019
 21
233.04086852481828
  0
TEXT
  8
_1-3_
 62
    7
 10
328.29440040159398
 20
224.7408685248181
 40
3
 41
1
 50
90
  1
5.8
  0
LINE
  8
_1-3_
  6
CONTINUOUS
 62
   18
 10
323.0801146873082
 20
211.44086852481814
 11
323.0801146873082
 21
233.04086852481828
  0
LINE
  8
_1-3_
  6
CONTINUOUS
 62
   18
 10
323.0801146873082
 20
211.44086852481814
 11
322.82129564220565
 21
212.40679435110724
  0
LINE
  8
_1-3_
  6
CONTINUOUS
 62
   18
 10
323.0801146873082
 20
211.44086852481814
 11
323.33893373241062
 21
212.40679435110724
  0
LINE
  8
_1-3_
  6
CONTINUOUS
 62
   18
 10
323.0801146873082
 20
233.04086852481828
 11
323.33893373241062
 21
232.07494269852918
  0
LINE
  8
_1-3_
  6
CONTINUOUS
 62
   18
 10
323.0801146873082
 20
233.04086852481828
 11
322.82129564220565
 21
232.07494269852918
  0
LINE
  8
_1-3_
  6
CONTINUOUS
 62
   18
 10
322.5801146873082
 20
211.44086852481814
 11
331.92033795776024
 21
211.44086852481814
  0
LINE
  8
_1-3_
  6
CONTINUOUS
 62
   18
 10
322.5801146873082
 20
233.04086852481828
 11
348.22033795776019
 21
233.04086852481828
  0
TEXT
  8
_1-3_
 62
    7
 10
322.5801146873082
 20
218.8658685248181
 40
3
 41
1
 50
90
  1
10.8
  0
CIRCLE
  8
_1-4_
  6
CONTINUOUS
 62
    7
 10
361.72033795776019
 20
213.84086852481823
 40
2.3000000000000003
  0
CIRCLE
  8
_1-4_
  6
CONTINUOUS
 62
    7
 10
336.72033795776019
 20
213.84086852481823
 40
2.3000000000000003
  0
ARC
  8
_1-1_
  6
CONTINUOUS
 62
    7
 10
363.37033795776028
 20
216.64086852481819
 40
0.4
 50
180
 51
270
  0
LINE
  8
_1-1_
  6
CONTINUOUS
 62
    7
 10
365.12033795776028
 20
218.64086852481819
 11
365.12033795776028
 21
216.44086852481814
  0
LINE
  8
_1-1_
  6
CONTINUOUS
 62
    7
 10
359.92033795776024
 20
216.2408685248181
 11
359.12033795776028
 21
214.64086852481819
  0
LINE
  8
_1-1_
  6
CONTINUOUS
 62
    7
 10
363.52033795776015
 20
216.2408685248181
 11
364.32033795776033
 21
214.64086852481819
  0
LINE
  8
_1-1_
  6
CONTINUOUS
 62
    7
 10
360.07033795776033
 20
216.2408685248181
 11
359.92033795776024
 21
216.2408685248181
  0
ARC
  8
_1-1_
  6
CONTINUOUS
 62
    7
 10
360.07033795776033
 20
216.64086852481819
 40
0.4
 50
270
 51
0
  0
LINE
  8
_1-1_
  6
CONTINUOUS
 62
    7
 10
363.37033795776028
 20
216.2408685248181
 11
363.52033795776015
 21
216.2408685248181
  0
LINE
  8
_1-1_
  6
CONTINUOUS
 62
    7
 10
360.47033795776019
 20
216.64086852481819
 11
360.47033795776019
 21
216.64183041914157
  0
ARC
  8
_1-1_
  6
CONTINUOUS
 62
    7
 10
360.07033795776033
 20
216.64183041914157
 40
0.4
 50
0
 51
38.213210701738056
  0
LINE
  8
_1-1_
  6
CONTINUOUS
 62
    7
 10
362.97033795776019
 20
216.64086852481819
 11
362.97033795776019
 21
216.64183041914157
  0
ARC
  8
_1-1_
  6
CONTINUOUS
 62
    7
 10
361.72033795776019
 20
217.94086852481814
 40
1.7000000000000002
 50
321.78678929826174
 51
218.21321070173818
  0
ARC
  8
_1-1_
  6
CONTINUOUS
 62
    7
 10
363.37033795776028
 20
216.64183041914157
 40
0.4
 50
141.78678929826194
 51
180
  0
LINE
  8
_1-1_
  6
CONTINUOUS
 62
    7
 10
357.75213601637915
 20
218.01578005644433
 11
360.37597654622004
 21
224.19716097621381
  0
LINE
  8
_1-1_
  6
CONTINUOUS
 62
    7
 10
357.72033795776019
 20
217.85948760504857
 11
357.72033795776019
 21
213.34086852481823
  0
ARC
  8
_1-1_
  6
CONTINUOUS
 62
    7
 10
358.12033795776028
 20
217.85948760504857
 40
0.4
 50
157.00000000000006
 51
180
  0
LINE
  8
_1-1_
  6
CONTINUOUS
 62
    7
 10
365.52033795776015
 20
211.44086852481814
 11
363.92033795776024
 21
211.44086852481814
  0
ARC
  8
_1-1_
  6
CONTINUOUS
 62
    7
 10
365.52033795776015
 20
211.84086852481823
 40
0.4
 50
270
 51
0
  0
LINE
  8
_1-1_
  6
CONTINUOUS
 62
    7
 10
365.32033795776033
 20
216.44086852481814
 11
365.12033795776028
 21
216.44086852481814
  0
LINE
  8
_1-1_
  6
CONTINUOUS
 62
    7
 10
365.92033795776024
 20
215.84086852481823
 11
365.92033795776024
 21
211.84086852481823
  0
ARC
  8
_1-1_
  6
CONTINUOUS
 62
    7
 10
365.32033795776033
 20
215.84086852481823
 40
0.6
 50
0
 51
90
  0
LINE
  8
_1-1_
  6
CONTINUOUS
 62
    7
 10
365.32033795776033
 20
218.64086852481819
 11
365.12033795776028
 21
218.64086852481819
  0
ARC
  8
_1-1_
  6
CONTINUOUS
 62
    7
 10
365.32033795776033
 20
219.2408685248181
 40
0.6
 50
270
 51
0
  0
LINE
  8
_1-1_
  6
CONTINUOUS
 62
    7
 10
365.92033795776024
 20
220.84086852481823
 11
365.92033795776024
 21
219.2408685248181
  0
ARC
  8
_1-1_
  6
CONTINUOUS
 62
    7
 10
365.32033795776033
 20
220.84086852481823
 40
0.6
 50
0
 51
90
  0
LINE
  8
_1-1_
  6
CONTINUOUS
 62
    7
 10
359.12033795776028
 20
214.64086852481819
 11
359.36754931662722
 21
212.66317765388317
  0
ARC
  8
_1-1_
  6
CONTINUOUS
 62
    7
 10
359.52033795776015
 20
211.84086852481823
 40
0.4
 50
270
 51
63.731510851534367
  0
ARC
  8
_1-1_
  6
CONTINUOUS
 62
    7
 10
359.96291604265525
 20
212.73759849463659
 40
0.6
 50
187.12501634890177
 51
243.73151085153441
  0
LINE
  8
_1-1_
  6
CONTINUOUS
 62
    7
 10
364.32033795776033
 20
214.64086852481819
 11
364.0731265988934
 21
212.66317765388317
  0
ARC
  8
_1-1_
  6
CONTINUOUS
 62
    7
 10
363.92033795776024
 20
211.84086852481823
 40
0.4
 50
116.26848914846555
 51
270
  0
ARC
  8
_1-1_
  6
CONTINUOUS
 62
    7
 10
363.47775987286514
 20
212.73759849463659
 40
0.6
 50
296.26848914846562
 51
352.87498365109826
  0
ARC
  8
_1-1_
  6
CONTINUOUS
 62
    7
 10
361.81739423260797
 20
222.2408685248181
 40
0.8
 50
135.00000000000006
 51
270
  0
LINE
  8
_1-1_
  6
CONTINUOUS
 62
    7
 10
365.32033795776033
 20
221.44086852481814
 11
361.81739423260797
 21
221.44086852481814
  0
ARC
  8
_1-1_
  6
CONTINUOUS
 62
    7
 10
360.74417848760095
 20
224.04086852481828
 40
0.4
 50
90
 51
157
  0
LINE
  8
_1-1_
  6
CONTINUOUS
 62
    7
 10
362.20318067023481
 20
223.75802581234348
 11
361.25170880765882
 21
222.80655394976748
  0
LINE
  8
_1-1_
  6
CONTINUOUS
 62
    7
 10
360.74417848760095
 20
224.44086852481814
 11
361.92033795776024
 21
224.44086852481814
  0
ARC
  8
_1-1_
  6
CONTINUOUS
 62
    7
 10
361.92033795776024
 20
224.04086852481828
 40
0.4
 50
315
 51
90
  0
ARC
  8
_1-1_
  6
CONTINUOUS
 62
    7
 10
335.07033795776033
 20
216.64086852481819
 40
0.4
 50
270
 51
0
  0
LINE
  8
_1-1_
  6
CONTINUOUS
 62
    7
 10
333.32033795776033
 20
218.64086852481819
 11
333.32033795776033
 21
216.44086852481814
  0
LINE
  8
_1-1_
  6
CONTINUOUS
 62
    7
 10
338.52033795776015
 20
216.2408685248181
 11
339.32033795776033
 21
214.64086852481819
  0
LINE
  8
_1-1_
  6
CONTINUOUS
 62
    7
 10
334.92033795776024
 20
216.2408685248181
 11
334.12033795776028
 21
214.64086852481819
  0
LINE
  8
_1-1_
  6
CONTINUOUS
 62
    7
 10
338.37033795776028
 20
216.2408685248181
 11
338.52033795776015
 21
216.2408685248181
  0
ARC
  8
_1-1_
  6
CONTINUOUS
 62
    7
 10
338.37033795776028
 20
216.64086852481819
 40
0.4
 50
180
 51
270
  0
LINE
  8
_1-1_
  6
CONTINUOUS
 62
    7
 10
335.07033795776033
 20
216.2408685248181
 11
334.92033795776024
 21
216.2408685248181
  0
LINE
  8
_1-1_
  6
CONTINUOUS
 62
    7
 10
337.97033795776019
 20
216.64086852481819
 11
337.97033795776019
 21
216.64183041914157
  0
ARC
  8
_1-1_
  6
CONTINUOUS
 62
    7
 10
338.37033795776028
 20
216.64183041914157
 40
0.4
 50
141.78678929826194
 51
180
  0
LINE
  8
_1-1_
  6
CONTINUOUS
 62
    7
 10
335.47033795776019
 20
216.64086852481819
 11
335.47033795776019
 21
216.64183041914157
  0
ARC
  8
_1-1_
  6
CONTINUOUS
 62
    7
 10
336.72033795776019
 20
217.94086852481814
 40
1.7000000000000002
 50
321.78678929826179
 51
218.21321070173829
  0
ARC
  8
_1-1_
  6
CONTINUOUS
 62
    7
 10
335.07033795776033
 20
216.64183041914157
 40
0.4
 50
0.0000000000000127
 51
38.21321070173807
  0
LINE
  8
_1-1_
  6
CONTINUOUS
 62
    7
 10
340.68853989914123
 20
218.01578005644433
 11
338.06469936930057
 21
224.19716097621381
  0
LINE
  8
_1-1_
  6
CONTINUOUS
 62
    7
 10
340.72033795776019
 20
217.85948760504857
 11
340.72033795776019
 21
213.34086852481823
  0
ARC
  8
_1-1_
  6
CONTINUOUS
 62
    7
 10
340.32033795776033
 20
217.85948760504857
 40
0.4
 50
0.0000000000000127
 51
22.999999999999957
  0
LINE
  8
_1-1_
  6
CONTINUOUS
 62
    7
 10
332.92033795776024
 20
211.44086852481814
 11
334.52033795776015
 21
211.44086852481814
  0
ARC
  8
_1-1_
  6
CONTINUOUS
 62
    7
 10
332.92033795776024
 20
211.84086852481823
 40
0.4
 50
180
 51
270
  0
LINE
  8
_1-1_
  6
CONTINUOUS
 62
    7
 10
333.12033795776028
 20
216.44086852481814
 11
333.32033795776033
 21
216.44086852481814
  0
LINE
  8
_1-1_
  6
CONTINUOUS
 62
    7
 10
332.52033795776015
 20
215.84086852481823
 11
332.52033795776015
 21
211.84086852481823
  0
ARC
  8
_1-1_
  6
CONTINUOUS
 62
    7
 10
333.12033795776028
 20
215.84086852481823
 40
0.6
 50
90
 51
180
  0
LINE
  8
_1-1_
  6
CONTINUOUS
 62
    7
 10
333.12033795776028
 20
218.64086852481819
 11
333.32033795776033
 21
218.64086852481819
  0
ARC
  8
_1-1_
  6
CONTINUOUS
 62
    7
 10
333.12033795776028
 20
219.2408685248181
 40
0.6
 50
180
 51
270
  0
LINE
  8
_1-1_
  6
CONTINUOUS
 62
    7
 10
332.52033795776015
 20
220.84086852481823
 11
332.52033795776015
 21
219.2408685248181
  0
ARC
  8
_1-1_
  6
CONTINUOUS
 62
    7
 10
333.12033795776028
 20
220.84086852481823
 40
0.6
 50
90
 51
180
  0
LINE
  8
_1-1_
  6
CONTINUOUS
 62
    7
 10
339.32033795776033
 20
214.64086852481819
 11
339.0731265988934
 21
212.66317765388317
  0
ARC
  8
_1-1_
  6
CONTINUOUS
 62
    7
 10
338.92033795776024
 20
211.84086852481823
 40
0.4
 50
116.26848914846565
 51
270
  0
ARC
  8
_1-1_
  6
CONTINUOUS
 62
    7
 10
338.47775987286514
 20
212.73759849463659
 40
0.6
 50
296.26848914846562
 51
352.87498365109826
  0
LINE
  8
_1-1_
  6
CONTINUOUS
 62
    7
 10
334.12033795776028
 20
214.64086852481819
 11
334.36754931662722
 21
212.66317765388317
  0
ARC
  8
_1-1_
  6
CONTINUOUS
 62
    7
 10
334.52033795776015
 20
211.84086852481823
 40
0.4
 50
270
 51
63.731510851534438
  0
ARC
  8
_1-1_
  6
CONTINUOUS
 62
    7
 10
334.96291604265525
 20
212.73759849463659
 40
0.6
 50
187.12501634890177
 51
243.73151085153441
  0
ARC
  8
_1-1_
  6
CONTINUOUS
 62
    7
 10
336.62328168291265
 20
222.2408685248181
 40
0.8
 50
270
 51
44.99999999999995
  0
LINE
  8
_1-1_
  6
CONTINUOUS
 62
    7
 10
333.12033795776028
 20
221.44086852481814
 11
336.62328168291265
 21
221.44086852481814
  0
ARC
  8
_1-1_
  6
CONTINUOUS
 62
    7
 10
337.69649742791944
 20
224.04086852481828
 40
0.4
 50
23
 51
90
  0
LINE
  8
_1-1_
  6
CONTINUOUS
 62
    7
 10
336.23749524528557
 20
223.75802581234348
 11
337.1889671078618
 21
222.80655394976748
  0
LINE
  8
_1-1_
  6
CONTINUOUS
 62
    7
 10
337.69649742791944
 20
224.44086852481814
 11
336.52033795776015
 21
224.44086852481814
  0
ARC
  8
_1-1_
  6
CONTINUOUS
 62
    7
 10
336.52033795776015
 20
224.04086852481828
 40
0.4
 50
90
 51
225
  0
LINE
  8
_1-1_
  6
CONTINUOUS
 62
    7
 10
357.72033795776019
 20
213.34086852481823
 11
340.72033795776019
 21
213.34086852481823
  0
LINE
  8
_1-1_
  6
CONTINUOUS
 62
    7
 10
359.52033795776015
 20
211.44086852481814
 11
338.92033795776024
 21
211.44086852481814
  0
ARC
  8
_1-2_
  6
CONTINUOUS
 62
    7
 10
336.52033795776015
 20
224.04086852481828
 40
0.6
 50
90
 51
224.99999999999986
  0
LINE
  8
_1-2_
  6
CONTINUOUS
 62
    7
 10
336.42959863017791
 20
221.44086852481837
 11
336.92033795776024
 21
221.72419700770001
  0
ARC
  8
_1-2_
  6
CONTINUOUS
 62
    7
 10
336.62033795776028
 20
222.24381224997046
 40
0.6
 50
300
 51
44.999999999999901
  0
LINE
  8
_1-2_
  6
CONTINUOUS
 62
    7
 10
336.09607388904828
 20
223.61660445610642
 11
337.04460202647215
 21
222.66807631868255
  0
ARC
  8
_1-2_
  6
CONTINUOUS
 62
    7
 10
361.92033795776024
 20
224.04086852481828
 40
0.6
 50
315.00000000000017
 51
90
  0
LINE
  8
_1-2_
  6
CONTINUOUS
 62
    7
 10
362.01107728534271
 20
221.44086852481837
 11
361.52033795776015
 21
221.72419700770001
  0
ARC
  8
_1-2_
  6
CONTINUOUS
 62
    7
 10
361.82033795776033
 20
222.24381224997046
 40
0.6
 50
135.00000000000011
 51
240.00000000000003
  0
LINE
  8
_1-2_
  6
CONTINUOUS
 62
    7
 10
362.3446020264721
 20
223.61660445610642
 11
361.39607388904824
 21
222.66807631868255
  0
LINE
  8
_1-2_
  6
CONTINUOUS
 62
    7
 10
333.25537632298006
 20
221.44086852481837
 11
336.42959863017791
 21
221.44086852481837
  0
LINE
  8
_1-2_
  6
CONTINUOUS
 62
    7
 10
365.18529959254033
 20
221.44086852481837
 11
362.01107728534271
 21
221.44086852481837
  0
LINE
  8
_1-2_
  6
CONTINUOUS
 62
    7
 10
359.41052932004595
 20
224.64086852481819
 11
361.92033795776024
 21
224.64086852481819
  0
LINE
  8
_1-2_
  6
CONTINUOUS
 62
    7
 10
339.03014659547466
 20
224.64086852481819
 11
336.52033795776015
 21
224.64086852481819
  0
ARC
  8
_1-2_
  6
CONTINUOUS
 62
    7
 10
339.03014659547466
 20
225.04086852481828
 40
0.4
 50
270
 51
316.70819240672859
  0
ARC
  8
_1-2_
  6
CONTINUOUS
 62
    7
 10
349.22033795776019
 20
215.44086852481837
 40
13.600000000000001
 50
43.291807593271372
 51
136.70819240672856
  0
ARC
  8
_1-2_
  6
CONTINUOUS
 62
    7
 10
359.41052932004595
 20
225.04086852481828
 40
0.4
 50
223.29180759327119
 51
270
  0
ARC
  8
_1-2_
  6
CONTINUOUS
 62
    7
 10
333.25537632298006
 20
221.84086852481823
 40
0.4
 50
158.15524251423676
 51
270
  0
ARC
  8
_1-2_
  6
CONTINUOUS
 62
    7
 10
349.22033795776019
 20
215.44086852481837
 40
17.600000000000001
 50
21.844757485763267
 51
158.15524251423673
  0
ARC
  8
_1-2_
  6
CONTINUOUS
 62
    7
 10
365.18529959254033
 20
221.84086852481823
 40
0.4
 50
270
 51
21.844757485763136
  0
LINE
  8
_1-4_
  6
CONTINUOUS
 62
    7
 10
343.22033795776019
 20
213.34086852481823
 11
355.22033795776019
 21
213.34086852481823
  0
LINE
  8
_1-4_
  6
CONTINUOUS
 62
    7
 10
355.22033795776019
 20
213.34086852481823
 11
355.22033795776019
 21
214.94086852481814
  0
LINE
  8
_1-4_
  6
CONTINUOUS
 62
    7
 10
355.22033795776019
 20
214.94086852481814
 11
343.22033795776019
 21
214.94086852481814
  0
LINE
  8
_1-4_
  6
CONTINUOUS
 62
    7
 10
343.22033795776019
 20
214.94086852481814
 11
343.22033795776019
 21
213.34086852481823
  0
LINE
  8
_1-5_
  6
CONTINUOUS
 62
    7
 10
356.22033819617866
 20
218.14088073184939
 11
356.22033819617866
 21
214.94086852481814
  0
LINE
  8
_1-5_
  6
CONTINUOUS
 62
    7
 10
356.22033819617866
 20
214.94086852481814
 11
342.2203377193415
 21
214.94086852481814
  0
LINE
  8
_1-5_
  6
CONTINUOUS
 62
    7
 10
342.2203377193415
 20
214.94086852481814
 11
342.2203377193415
 21
218.14088073184939
  0
LINE
  8
_1-5_
  6
CONTINUOUS
 62
    7
 10
342.2203377193415
 20
218.14088073184939
 11
356.22033819617866
 21
218.14088073184939
  0
LINE
  8
_1-5_
  6
CONTINUOUS
 62
    7
 10
351.42035040320991
 20
219.64088073184939
 11
351.42035040320991
 21
218.14088073184939
  0
LINE
  8
_1-5_
  6
CONTINUOUS
 62
    7
 10
351.42035040320991
 20
218.14088073184939
 11
347.02035650672553
 21
218.14088073184939
  0
LINE
  8
_1-5_
  6
CONTINUOUS
 62
    7
 10
347.02035650672553
 20
218.14088073184939
 11
347.02035650672553
 21
219.64088073184939
  0
LINE
  8
_1-5_
  6
CONTINUOUS
 62
    7
 10
347.02035650672553
 20
219.64088073184939
 11
351.42035040320991
 21
219.64088073184939
  0
TEXT
  8
_1-7_
 62
    7
 10
369.95536793121676
 20
217.399470899471
 40
4
 41
1
 50
0
  1
両面テープ
  0
LINE
  8
_1-7_
  6
CONTINUOUS
 62
   18
 10
354.00563248148126
 20
214.04232804232811
 11
369.77282824867706
 21
219.43915343915342
  0
LINE
  8
_1-0_
  6
CENTER2
 62
   18
 10
349.22033795776008
 20
234.08458259847148
 11
349.22033795776008
 21
210.80415931804822
  0
TEXT
  8
_1-f_
 62
    7
 10
387.29789970887407
 20
271.29247501469723
 40
4
 41
1.0000000000000009
 50
0
  1
原田
  0
ENDSEC
  0
EOF
