  0
SECTION
  2
HEADER
  9
$ACADVER
  1
AC1009
  9
$INSBASE
 10
0
 20
0
 30
0
  9
$EXTMIN
 10
0
 20
0
  9
$EXTMAX
 10
840
 20
594
  9
$LIMMIN
 10
0
 20
0
  9
$LIMMAX
 10
840
 20
594
  9
$LTSCALE
 40
2
  0
ENDSEC
  0
SECTION
  2
TABLES
  0
TABLE
  2
LTYPE
 70
     9
  0
LTYPE
  2
CONTINUOUS
 70
    64
  3
実線
 72
    65
 73
     0
 40
0.0
  0
LTYPE
  2
DASHED1
 70
    64
  3
--  --  --  --  --  --  --  --  
 72
    65
 73
     2
 40
2.5
 49
1.25
 49
-1.25
  0
LTYPE
  2
DASHED2
 70
    64
  3
----    ----    ----    ----    
 72
    65
 73
     2
 40
5.0
 49
2.5
 49
-2.5
  0
LTYPE
  2
DASHED3
 70
    64
  3
------  ------  ------  ------  
 72
    65
 73
     2
 40
5.0
 49
3.75
 49
-1.25
  0
LTYPE
  2
CENTER1
 70
    64
  3
----- - ----- - ----- - ----- - 
 72
    65
 73
     4
 40
10.0
 49
6.25
 49
-1.25
 49
1.25
 49
-1.25
  0
LTYPE
  2
CENTER2
 70
    64
  3
----------  --  ----------  --  
 72
    65
 73
     4
 40
20.0
 49
12.5
 49
-2.5
 49
2.5
 49
-2.5
  0
LTYPE
  2
PHANTOM1
 70
    64
  3
--- - - --- - - --- - - --- - - 
 72
    65
 73
     6
 40
10.0
 49
3.25
 49
-1.25
 49
1.25
 49
-1.25
 49
1.25
 49
-1.25
  0
LTYPE
  2
PHANTOM2
 70
    64
  3
--------  -  -  --------  -  -  
 72
    65
 73
     6
 40
20.0
 49
10.0
 49
-2.5
 49
1.25
 49
-2.5
 49
1.25
 49
-2.5
  0
LTYPE
  2
DOT
 70
    64
  3
-   -   -   -   -   -   -   -   
 72
    65
 73
     2
 40
2.5
 49
0.625
 49
-1.875
  0
LTYPE
  2
DUMMY
 70
    64
  3
ダミー
 72
    65
 73
     0
 40
0.0
  0
LTYPE
  2
RAND1
 70
    64
  3
ランダム線1
 72
    65
 73
     4
 40
10.0
 49
1.0
 49
-2.0
 49
3.0
 49
-4.0
  0
LTYPE
  2
RAND2
 70
    64
  3
ランダム線2
 72
    65
 73
     4
 40
14.0
 49
2.0
 49
-3.0
 49
4.0
 49
-5.0
  0
LTYPE
  2
RAND3
 70
    64
  3
ランダム線3
 72
    65
 73
     4
 40
18.0
 49
3.0
 49
-4.0
 49
5.0
 49
-6.0
  0
LTYPE
  2
RAND4
 70
    64
  3
ランダム線4
 72
    65
 73
     4
 40
22.0
 49
4.0
 49
-5.0
 49
6.0
 49
-7.0
  0
LTYPE
  2
RAND5
 70
    64
  3
ランダム線5
 72
    65
 73
     4
 40
26.0
 49
5.0
 49
-6.0
 49
7.0
 49
-8.0
  0
LTYPE
  2
LONG1
 70
    64
  3
----------  --  ----------  --  
 72
    65
 73
     4
 40
40.0
 49
32.5
 49
-2.5
 49
2.5
 49
-2.5
  0
LTYPE
  2
LONG2
 70
    64
  3
--------  -  -  --------  -  -  
 72
    65
 73
     6
 40
40.0
 49
30.0
 49
-2.5
 49
1.25
 49
-2.5
 49
1.25
 49
-2.5
  0
LTYPE
  2
LONG3
 70
    64
  3
+++++++++++++++..+++++++++++++++
 72
    65
 73
     2
 40
40.0
 49
37.5
 49
-2.5
  0
LTYPE
  2
LONG4
 70
    64
  3
+++++++++++++++..+++++++++++++++
 72
    65
 73
     2
 40
80.0
 49
75.0
 49
-5.0
  0
LTYPE
  2
LONG5
 70
    64
  3
----------  --  ----------  --  
 72
    65
 73
     4
 40
60.0
 49
37.5
 49
-7.5
 49
7.5
 49
-7.5
  0
LTYPE
  2
dashed
 70
   64
  3
-------   -------------   ------
 72
   65
 73
    2
 40
7.5
 49
6
 49
-1.5
  0
LTYPE
  2
dashed_spaced
 70
   64
  3
----        --------        ----
 72
   65
 73
    2
 40
12
 49
6
 49
-6
  0
LTYPE
  2
long_dashed_dotted
 70
   64
  3
------------- --- --------------
 72
   65
 73
    4
 40
15.25
 49
12
 49
-1.5
 49
0.25
 49
-1.5
  0
LTYPE
  2
long_dashed_double-dotted
 70
   64
  3
----------- --- --- ------------
 72
   65
 73
    6
 40
17
 49
12
 49
-1.5
 49
0.25
 49
-1.5
 49
0.25
 49
-1.5
  0
LTYPE
  2
long_dashed_triplicate-dotted
 70
   64
  3
--------- --- --- --- ----------
 72
   65
 73
    8
 40
18.75
 49
12
 49
-1.5
 49
0.25
 49
-1.5
 49
0.25
 49
-1.5
 49
0.25
 49
-1.5
  0
LTYPE
  2
dotted
 70
   64
  3
   -       -       -       -    
 72
   65
 73
    2
 40
1.75
 49
0.25
 49
-1.5
  0
LTYPE
  2
chain
 70
   64
  3
-------------- -- --------------
 72
   65
 73
    4
 40
18.5
 49
12
 49
-1.5
 49
3.5
 49
-1.5
  0
LTYPE
  2
chain_double_dash
 70
   64
  3
------------ -- -- -------------
 72
   65
 73
    6
 40
23.5
 49
12
 49
-1.5
 49
3.5
 49
-1.5
 49
3.5
 49
-1.5
  0
LTYPE
  2
dashed_dotted
 70
   64
  3
-----------     -     ----------
 72
   65
 73
    4
 40
9.25
 49
6
 49
-1.5
 49
0.25
 49
-1.5
  0
LTYPE
  2
double-dashed_dotted
 70
   64
  3
------   -----------   -   -----
 72
   65
 73
    6
 40
16.75
 49
6
 49
-1.5
 49
6
 49
-1.5
 49
0.25
 49
-1.5
  0
LTYPE
  2
dashed_double-dotted
 70
   64
  3
---------    -    -    ---------
 72
   65
 73
    6
 40
11
 49
6
 49
-1.5
 49
0.25
 49
-1.5
 49
0.25
 49
-1.5
  0
LTYPE
  2
double-dashed_double-dotted
 70
   64
  3
-----   ---------   -   -   ----
 72
   65
 73
    8
 40
18.5
 49
6
 49
-1.5
 49
6
 49
-1.5
 49
0.25
 49
-1.5
 49
0.25
 49
-1.5
  0
LTYPE
  2
dashed_triplicate-dotted
 70
   64
  3
-------    -    -    -    ------
 72
   65
 73
    8
 40
12.75
 49
6
 49
-1.5
 49
0.25
 49
-1.5
 49
0.25
 49
-1.5
 49
0.25
 49
-1.5
  0
LTYPE
  2
double-dashed_triplicate-dotted
 70
   64
  3
-----  ---------  -  -  -  -----
 72
   65
 73
   10
 40
20.25
 49
6
 49
-1.5
 49
6
 49
-1.5
 49
0.25
 49
-1.5
 49
0.25
 49
-1.5
 49
0.25
 49
-1.5
  0
LTYPE
  2
undefined
 70
   64
  3
--------------------------------
 72
   65
 73
    0
 40
0
  0
LTYPE
  2
_
 70
   64
  3
                                
 72
   65
 73
    0
 40
0
  0
LTYPE
  2
__18
 70
   64
  3
                                
 72
   65
 73
    0
 40
0
  0
LTYPE
  2
__19
 70
   64
  3
                                
 72
   65
 73
    0
 40
0
  0
LTYPE
  2
__20
 70
   64
  3
                                
 72
   65
 73
    0
 40
0
  0
LTYPE
  2
__21
 70
   64
  3
                                
 72
   65
 73
    0
 40
0
  0
LTYPE
  2
__22
 70
   64
  3
                                
 72
   65
 73
    0
 40
0
  0
LTYPE
  2
__23
 70
   64
  3
                                
 72
   65
 73
    0
 40
0
  0
LTYPE
  2
__24
 70
   64
  3
                                
 72
   65
 73
    0
 40
0
  0
LTYPE
  2
__25
 70
   64
  3
                                
 72
   65
 73
    0
 40
0
  0
LTYPE
  2
__26
 70
   64
  3
                                
 72
   65
 73
    0
 40
0
  0
LTYPE
  2
__27
 70
   64
  3
                                
 72
   65
 73
    0
 40
0
  0
LTYPE
  2
__28
 70
   64
  3
                                
 72
   65
 73
    0
 40
0
  0
LTYPE
  2
__29
 70
   64
  3
                                
 72
   65
 73
    0
 40
0
  0
LTYPE
  2
__30
 70
   64
  3
                                
 72
   65
 73
    0
 40
0
  0
LTYPE
  2
__31
 70
   64
  3
                                
 72
   65
 73
    0
 40
0
  0
LTYPE
  2
__32
 70
   64
  3
                                
 72
   65
 73
    0
 40
0
  0
ENDTAB
  0
TABLE
  2
STYLE
  5
3
100
AcDbSymbolTable
 70
     1
  0
STYLE
  5
10
100
AcDbSymbolTableRecord
100
AcDbTextStyleTableRecord
  2
STANDARD
 70
     0
 40
0.0
 41
1.0
 50
0.0
 71
     0
 42
0.2
  3
txt
  4
bigfont.shx
  0
STYLE
  5
26
100
AcDbSymbolTableRecord
100
AcDbTextStyleTableRecord
  2
TATEGAKI
 70
    68
 40
0.0
 41
1.0
 50
0.0
 71
     0
 42
1.0
  3
txt
  4
bigfont.shx
  0
ENDTAB
  0
TABLE
  2
LAYER
 70
    5
  0
LAYER
  2
_0-0_1
 70
   64
 62
    7
  6
CONTINUOUS
  0
LAYER
  2
_1-0_
 70
   64
 62
    7
  6
CONTINUOUS
  0
LAYER
  2
_1-6_23
 70
   64
 62
    7
  6
CONTINUOUS
  0
LAYER
  2
_2-0_
 70
   64
 62
    7
  6
CONTINUOUS
  0
LAYER
  2
ADD_LINE
 70
   64
 62
    7
  6
CONTINUOUS
  0
ENDTAB
  0
ENDSEC
  0
SECTION
  2
BLOCKS
  0
ENDSEC
  0
SECTION
  2
ENTITIES
  0
TEXT
  8
_2-0_
 62
    7
 10
177.74852260590956
 20
337.66628693485228
 40
8
 41
1
 50
0
  1
S = 1 : 1
  0
LINE
  8
_0-0_1
  6
CONTINUOUS
 62
    7
 10
58.248172549031608
 20
351.13943188292455
 11
818.24613889818363
 21
351.13943188292455
  0
LINE
  8
_2-0_
  6
CONTINUOUS
 62
    7
 10
743.1078571010529
 20
411.46736179327695
 11
743.1078571010529
 21
418.19164979327695
  0
TEXT
  8
_1-0_
 62
    7
 10
537.86620017493442
 20
90.060481686600355
 40
9.9999999999999716
 41
1.0000000000000029
 50
0
  1
[lm]
  0
LINE
  8
_1-6_23
  6
CONTINUOUS
 62
    7
 10
818.24613889818374
 20
96.813026878876087
 11
628.2461548981837
 21
96.813026878876087
  0
LINE
  8
_1-6_23
  6
CONTINUOUS
 62
    7
 10
818.24613889818374
 20
106.81302687887609
 11
628.2461548981837
 21
106.81302687887609
  0
LINE
  8
_1-6_23
  6
CONTINUOUS
 62
    7
 10
818.24613889818374
 20
116.81302687887609
 11
628.2461548981837
 21
116.81302687887609
  0
LINE
  8
_0-0_1
  6
CONTINUOUS
 62
    7
 10
103.07751563907476
 20
514.41951494752732
 11
63.510081428548517
 21
514.41951494752732
  0
TEXT
  8
_0-0_1
 62
    7
 10
63.953847392080775
 20
515.04673914601426
 40
9.9999999999999716
 41
1.0000000000000013
 50
0
  1
◆外形図
  0
TEXT
  8
_0-0_1
 62
    7
 10
64.00822186560606
 20
184.74056006602689
 40
10
 41
1.0000000000000013
 50
0
  1
◆型式内容
  0
LINE
  8
_0-0_1
  6
CONTINUOUS
 62
    7
 10
64.5684695864432
 20
183.92324281811977
 11
115.37110116539054
 21
183.92324281811977
  0
LINE
  8
_0-0_1
  6
CONTINUOUS
 62
    7
 10
58.250197536428061
 20
196.81301095214616
 11
818.24613889818363
 21
196.81301095214616
  0
LINE
  8
_0-0_1
  6
CONTINUOUS
 62
    7
 10
658.29444089818355
 20
510.01928487887608
 11
658.29444089818344
 21
351.13943188292455
  0
LINE
  8
_1-6_23
  6
CONTINUOUS
 62
    7
 10
818.24613889818374
 20
126.81302687887609
 11
628.2461548981837
 21
126.81302687887609
  0
LINE
  8
_0-0_1
  6
CONTINUOUS
 62
    7
 10
588.14017489818366
 20
519.70761887887602
 11
583.64019089818362
 21
510.70761487887603
  0
LINE
  8
_0-0_1
  6
CONTINUOUS
 62
    7
 10
588.14017489818366
 20
519.70761887887602
 11
592.64017489818366
 21
510.70761487887603
  0
LINE
  8
_0-0_1
  6
CONTINUOUS
 62
    7
 10
578.29442489818371
 20
520.01924487887607
 11
578.29442489818371
 21
510.01928487887614
  0
LINE
  8
_0-0_1
  6
CONTINUOUS
 62
    7
 10
598.29444089818367
 20
520.01924487887607
 11
598.29444089818367
 21
510.01928487887614
  0
LINE
  8
_0-0_1
  6
CONTINUOUS
 62
    7
 10
658.29444089818367
 20
520.01924487887607
 11
658.29444089818367
 21
510.01928487887614
  0
LINE
  8
_0-0_1
  6
CONTINUOUS
 62
    7
 10
578.29442489818371
 20
530.81302887887614
 11
578.29442489818371
 21
520.01924487887607
  0
LINE
  8
_0-0_1
  6
CONTINUOUS
 62
    7
 10
598.29444089818367
 20
530.81302887887614
 11
598.29444089818367
 21
520.01924487887607
  0
LINE
  8
_0-0_1
  6
CONTINUOUS
 62
    7
 10
658.29444089818367
 20
530.81302887887614
 11
658.29444089818367
 21
520.01924487887607
  0
LINE
  8
_0-0_1
  6
CONTINUOUS
 62
    7
 10
778.29444089818367
 20
530.81302887887614
 11
778.29444089818367
 21
510.01928487887614
  0
LINE
  8
_0-0_1
  6
CONTINUOUS
 62
    7
 10
798.29444089818355
 20
530.81302887887614
 11
798.29444089818355
 21
510.01928487887614
  0
LINE
  8
_0-0_1
  6
CONTINUOUS
 62
    7
 10
818.24613889818374
 20
520.01924487887607
 11
578.29445689818363
 21
520.01924487887607
  0
LINE
  8
_0-0_1
  6
CONTINUOUS
 62
    7
 10
578.29442489818371
 20
510.01928487887614
 11
818.24613889818374
 21
510.01928487887614
  0
TEXT
  8
_0-0_1
 62
    7
 10
581.92572491889473
 20
522.33613221977896
 40
6
 41
1
 50
0
  1
Ｎｏ
  0
TEXT
  8
_0-0_1
 62
    7
 10
612.62840636708427
 20
522.43485466816537
 40
6
 41
1.0000000000000007
 50
0
  1
年　月　日
  0
TEXT
  8
_0-0_1
 62
    7
 10
694.07442628591548
 20
522.2867709955857
 40
6
 41
1.0000000000000011
 50
0
  1
訂　正　記　事
  0
TEXT
  8
_0-0_1
 62
    7
 10
780.90081964180854
 20
521.01571947261004
 40
8.0000000000000284
 41
0.9999999999999973
 50
0
  1
担当
  0
TEXT
  8
_0-0_1
 62
    7
 10
800.250419525555
 20
521.11444192099657
 40
8
 41
1.0000000000000009
 50
0
  1
検印
  0
TEXT
  8
_0-0_1
 62
    7
 10
586.18730158730159
 20
510.7492063492063
 40
8
 41
1
 50
0
  1
1
  0
LINE
  8
_0-0_1
  6
CONTINUOUS
 62
    7
 10
583.64019089818362
 20
510.70761487887603
 11
592.64017489818366
 21
510.70761487887603
  0
LINE
  8
_0-0_1
  6
CONTINUOUS
 62
    7
 10
58.246204898183635
 20
530.81302887887614
 11
818.24613889818374
 21
530.81302887887614
  0
LINE
  8
_0-0_1
  6
CONTINUOUS
 62
    7
 10
58.252538898183673
 20
16.813014878876174
 11
58.246204898183635
 21
530.81302887887614
  0
LINE
  8
_0-0_1
  6
CONTINUOUS
 62
    7
 10
818.24613889818374
 20
16.813014878876174
 11
58.246204898183635
 21
16.813014878876174
  0
LINE
  8
_0-0_1
  6
CONTINUOUS
 62
    7
 10
818.24613889818374
 20
530.81302887887614
 11
818.24613889818374
 21
16.813014878876174
  0
LINE
  8
_0-0_1
  6
CONTINUOUS
 62
    7
 10
728.24613889818374
 20
56.813022878876097
 11
728.24613889818374
 21
16.813014878876174
  0
LINE
  8
_0-0_1
  6
CONTINUOUS
 62
    7
 10
728.24613889818374
 20
76.813026878876087
 11
728.24613889818374
 21
56.813022878876097
  0
LINE
  8
_0-0_1
  6
CONTINUOUS
 62
    7
 10
718.2461548981837
 20
56.813022878876097
 11
718.2461548981837
 21
16.813014878876174
  0
LINE
  8
_0-0_1
  6
CONTINUOUS
 62
    7
 10
648.29209689818367
 20
49.37143087887614
 11
648.29209689818367
 21
43.371436878876125
  0
LINE
  8
_0-0_1
  6
CONTINUOUS
 62
    7
 10
648.29209689818367
 20
49.37143087887614
 11
662.29209289818368
 21
52.371428878876088
  0
LINE
  8
_0-0_1
  6
CONTINUOUS
 62
    7
 10
662.29209289818368
 20
52.371428878876088
 11
662.29209289818368
 21
40.371426878876093
  0
LINE
  8
_0-0_1
  6
CONTINUOUS
 62
    7
 10
648.29209689818367
 20
43.371436878876125
 11
662.29209289818368
 21
40.371426878876093
  0
LINE
  8
_0-0_1
  6
CENTER1
 62
    7
 10
666.29205689818377
 20
46.371432878876135
 11
630.2920868981837
 21
46.371432878876135
  0
LINE
  8
_0-0_1
  6
CENTER1
 62
    7
 10
638.29206489818375
 20
54.37143487887613
 11
638.29206489818375
 21
38.371428878876088
  0
LINE
  8
_0-0_1
  6
CONTINUOUS
 62
    7
 10
718.2461548981837
 20
76.813026878876087
 11
718.2461548981837
 21
16.813014878876174
  0
LINE
  8
_0-0_1
  6
CONTINUOUS
 62
    7
 10
778.2461548981837
 20
76.813026878876087
 11
778.2461548981837
 21
56.813022878876097
  0
LINE
  8
_0-0_1
  6
CONTINUOUS
 62
    7
 10
788.24623889818372
 20
76.813026878876087
 11
788.24623889818372
 21
56.813022878876097
  0
LINE
  8
_0-0_1
  6
CONTINUOUS
 62
    7
 10
668.24618889818362
 20
56.813022878876097
 11
668.24618889818362
 21
36.813016878876169
  0
LINE
  8
_0-0_1
  6
CONTINUOUS
 62
    7
 10
678.24617289818366
 20
56.813022878876097
 11
678.24617289818366
 21
36.813016878876169
  0
LINE
  8
_0-0_1
  6
CONTINUOUS
 62
    7
 10
698.24623889818372
 20
76.813026878876087
 11
698.24623889818372
 21
56.813022878876097
  0
LINE
  8
_0-0_1
  6
CONTINUOUS
 62
    7
 10
688.2461548981837
 20
76.813026878876087
 11
688.2461548981837
 21
56.813022878876097
  0
LINE
  8
_0-0_1
  6
CONTINUOUS
 62
    7
 10
668.24618889818362
 20
76.813026878876087
 11
668.24618889818362
 21
56.813022878876097
  0
LINE
  8
_0-0_1
  6
CONTINUOUS
 62
    7
 10
658.2461548981837
 20
76.813026878876087
 11
658.2461548981837
 21
56.813022878876097
  0
LINE
  8
_0-0_1
  6
CONTINUOUS
 62
    7
 10
638.24613889818374
 20
76.813026878876087
 11
638.24613889818374
 21
56.813022878876097
  0
LINE
  8
_0-0_1
  6
CONTINUOUS
 62
    7
 10
818.24613889818374
 20
76.813026878876087
 11
628.2461548981837
 21
76.813026878876087
  0
LINE
  8
_0-0_1
  6
CONTINUOUS
 62
    7
 10
818.24613889818374
 20
56.813022878876097
 11
628.2461548981837
 21
56.813022878876097
  0
LINE
  8
_0-0_1
  6
CONTINUOUS
 62
    7
 10
818.24613889818374
 20
36.813016878876169
 11
628.2461548981837
 21
36.813016878876169
  0
CIRCLE
  8
_0-0_1
  6
CONTINUOUS
 62
    7
 10
638.29206489818375
 20
46.371432878876135
 40
6
  0
CIRCLE
  8
_0-0_1
  6
CONTINUOUS
 62
    7
 10
638.29206489818375
 20
46.371432878876135
 40
3
  0
LINE
  8
_0-0_1
  6
CONTINUOUS
 62
    7
 10
818.24613889818374
 20
86.813026878876087
 11
628.2461548981837
 21
86.813026878876087
  0
LINE
  8
_0-0_1
  6
CONTINUOUS
 62
    7
 10
668.24618889818362
 20
76.813026878876087
 11
668.24618889818362
 21
86.813026878876087
  0
TEXT
  8
_0-0_1
 62
    7
 10
639.72501689818364
 20
77.604776878876123
 40
8
 41
1.0000000000000009
 50
0
  1
出図
  0
LINE
  8
_0-0_1
  6
CONTINUOUS
 62
    7
 10
728.2461548981837
 20
76.813026878876087
 11
728.2461548981837
 21
86.813026878876087
  0
TEXT
  8
_0-0_1
 62
    7
 10
691.57108889818369
 20
78.605196878876143
 40
6
 41
2
 50
0
  1
.   .
  0
LINE
  8
_0-0_1
  6
CONTINUOUS
 62
    7
 10
798.24613889818363
 20
86.813026878876087
 11
798.24613889818363
 21
76.813026878876087
  0
TEXT
  8
_0-0_1
 62
    7
 10
632.96866889818375
 20
72.802968878876129
 40
6
 41
1
 50
0
  1
設計
  7
TATEGAKI
  0
TEXT
  8
_0-0_1
 62
    7
 10
662.87419089818377
 20
72.802968878876129
 40
6
 41
1
 50
0
  1
製図
  7
TATEGAKI
  0
TEXT
  8
_0-0_1
 62
    7
 10
692.60065489818362
 20
72.802968878876129
 40
6
 41
1
 50
0
  1
検図
  7
TATEGAKI
  0
TEXT
  8
_0-0_1
 62
    7
 10
723.30341689818374
 20
72.965028878876126
 40
5.9999999999999822
 41
1.0000000000000029
 50
0
  1
作図
  7
TATEGAKI
  0
TEXT
  8
_0-0_1
 62
    7
 10
783.29835889818378
 20
72.840602878876098
 40
6
 41
1
 50
0
  1
尺度
  7
TATEGAKI
  0
TEXT
  8
_0-0_1
 62
    7
 10
673.51938089818373
 20
53.368536878876171
 40
6
 41
1
 50
0
  1
材質
  7
TATEGAKI
  0
TEXT
  8
_0-0_1
 62
    7
 10
723.27120889818366
 20
53.368536878876171
 40
6
 41
1
 50
0
  1
品名
  7
TATEGAKI
  0
TEXT
  8
_0-0_1
 62
    7
 10
723.69572689818369
 20
33.065162878876151
 40
6
 41
1
 50
0
  1
図番
  7
TATEGAKI
  0
TEXT
  8
_0-0_1
 62
    7
 10
695.22081778077472
 20
42.37764287887606
 40
8.0000000000000568
 41
0.9999999999999964
 50
0
  1
-
  0
TEXT
  8
_0-0_1
 62
    7
 10
796.43533678380822
 20
63.037782337899785
 40
6
 41
1
 50
0
  1
1：2
  0
TEXT
  8
_0-0_1
 62
    7
 10
641.53094567047697
 20
21.576153643551322
 40
8
 41
0.9999999999999994
 50
0
  1
ＦＫＫ株式会社
  0
LINE
  8
_1-6_23
  6
CONTINUOUS
 62
    7
 10
628.2461548981837
 20
136.81302687887609
 11
628.2461548981837
 21
87.311010257945725
  0
LINE
  8
_0-0_1
  6
CONTINUOUS
 62
    7
 10
628.2461548981837
 20
86.425776182987988
 11
628.2461548981837
 21
16.813014878876174
  0
LINE
  8
_1-0_
  6
CONTINUOUS
 62
    7
 10
648.26590889818351
 20
136.81302687887609
 11
648.26590889818351
 21
86.813026878876087
  0
LINE
  8
_1-0_
  6
CONTINUOUS
 62
    7
 10
628.2461548981837
 20
136.81302687887609
 11
628.2461548981837
 21
146.71302687887609
  0
LINE
  8
_1-0_
  6
CONTINUOUS
 62
    7
 10
628.2461548981837
 20
146.71302687887609
 11
818.24613889818374
 21
146.71302687887609
  0
LINE
  8
_1-0_
  6
CONTINUOUS
 62
    7
 10
648.26590889818351
 20
136.81302687887609
 11
648.26590889818351
 21
146.64181645146996
  0
LINE
  8
_1-0_
  6
CONTINUOUS
 62
    7
 10
798.24613889818363
 20
136.81302687887609
 11
798.24613889818363
 21
146.73493814459161
  0
LINE
  8
_1-0_
  6
CONTINUOUS
 62
    7
 10
818.24613889818374
 20
136.81302687887609
 11
628.2461548981837
 21
136.81302687887609
  0
LINE
  8
_1-0_
  6
CONTINUOUS
 62
    7
 10
740.09278889818358
 20
87.073472447832046
 11
740.09278889818358
 21
146.67285701584382
  0
TEXT
  8
_0-0_1
 62
    7
 10
617.42990388038447
 20
511.74724101103595
 40
6
 41
1
 50
0
  1
.　　.
  0
TEXT
  8
_1-0_
 62
    7
 10
634.63506185180563
 20
138.03396226415094
 40
7
 41
1
 50
0
  1
⑥
  0
TEXT
  8
_1-0_
 62
    7
 10
485.1835859803731
 20
90.642917622879509
 40
10
 41
1
 50
0
  1
[A]
  0
TEXT
  8
_1-0_
 62
    7
 10
429.20376083731958
 20
90.355816219926822
 40
9.9999999999999716
 41
1.0000000000000029
 50
0
  1
[W]
  0
LINE
  8
_1-0_
  6
CONTINUOUS
 62
    7
 10
504.01174031704562
 20
120.74284121895695
 11
504.01174031704562
 21
40.742841218956983
  0
LINE
  8
_1-0_
  6
CONTINUOUS
 62
    7
 10
447.79615534399693
 20
120.74284121895695
 11
447.79615534399693
 21
40.742841218956983
  0
TEXT
  8
_1-0_
 62
    7
 10
453.15057401006936
 20
106.67824631890275
 40
11.199999999999989
 41
1.0000000000000004
 50
0
  1
入力電流
  0
LINE
  8
_1-0_
  6
CONTINUOUS
 62
    7
 10
392.31873320809285
 20
120.74284121895695
 11
392.31873320809285
 21
40.742841218956983
  0
TEXT
  8
_1-0_
 62
    7
 10
397.71153174739413
 20
106.67824631890275
 40
11.199999999999989
 41
1.0000000000000009
 50
0
  1
入力電力
  0
TEXT
  8
_1-0_
 62
    7
 10
369.16020923789614
 20
106.40058943281585
 40
11.200000000000017
 41
0.9999999999999976
 50
0
  1
Ra
  0
TEXT
  8
_1-0_
 62
    7
 10
358.09023124323136
 20
66.637797118094255
 40
10.000000000000057
 41
0.9999999999999943
 50
0
  1
80以上
  0
LINE
  8
_1-0_
  6
CONTINUOUS
 62
    7
 10
353.47160391403065
 20
120.74284121895695
 11
353.47160391403065
 21
40.742841218956983
  0
LINE
  8
_1-0_
  6
CONTINUOUS
 62
    7
 10
244.50583838848092
 20
120.74284121895695
 11
244.50583838848092
 21
40.742841218956983
  0
LINE
  8
_1-0_
  6
CONTINUOUS
 62
    7
 10
74.72867713211275
 20
88.742841218956983
 11
353.46282380971599
 21
88.742841218956983
  0
LINE
  8
_1-0_
  6
CONTINUOUS
 62
    7
 10
392.38697932278154
 20
88.742841218956983
 11
559.90037099802862
 21
88.742841218956983
  0
LINE
  8
_1-0_
  6
CONTINUOUS
 62
    7
 10
74.72867713211275
 20
72.742841218956983
 11
353.46282380971599
 21
72.742841218956983
  0
LINE
  8
_1-0_
  6
CONTINUOUS
 62
    7
 10
392.27480596395429
 20
72.742841218956983
 11
559.90037099802862
 21
72.742841218956983
  0
LINE
  8
_1-0_
  6
CONTINUOUS
 62
    7
 10
74.72867713211275
 20
56.742841218957039
 11
353.68717052737048
 21
56.742841218957039
  0
LINE
  8
_1-0_
  6
CONTINUOUS
 62
    7
 10
392.49915268160885
 20
56.742841218957039
 11
559.90037099802862
 21
56.742841218957039
  0
LINE
  8
_1-0_
  6
CONTINUOUS
 62
    7
 10
74.72867713211275
 20
120.74284121895695
 11
74.72867713211275
 21
40.742841218956983
  0
TEXT
  8
_1-0_
 62
    7
 10
224.89084885522848
 20
91.297271765993742
 40
8
 41
0.9999999999999994
 50
0
  1
[mm]
  0
LINE
  8
_1-0_
  6
CONTINUOUS
 62
    7
 10
74.72867713211275
 20
40.742841218956983
 11
559.90037099802862
 21
40.742841218956983
  0
LINE
  8
_1-0_
  6
CONTINUOUS
 62
    7
 10
74.72867713211275
 20
120.74284121895695
 11
559.90037099802862
 21
120.74284121895695
  0
LINE
  8
_1-0_
  6
CONTINUOUS
 62
    7
 10
559.90037099802862
 20
120.74284121895695
 11
559.90037099802862
 21
40.742841218956983
  0
TEXT
  8
_1-0_
 62
    7
 10
75.401409424706173
 20
122.12406751117976
 40
12
 41
0.9999999999999994
 50
0
  1
◆ 代表特性　定格入力DC24V　LXSW使用
  0
TEXT
  8
_1-0_
 62
    7
 10
107.79151985306396
 20
106.55826265958285
 40
11.199999999999989
 41
0.9999999999999995
 50
0
  1
型式
  0
TEXT
  8
_1-0_
 62
    7
 10
515.29900074665636
 20
110.29331556963569
 40
9.9999999999999716
 41
1.0000000000000031
 50
0
  1
全光束
  0
TEXT
  8
_1-0_
 62
    7
 10
520.32757217522783
 20
104.42664890296905
 40
6
 41
1.0000000000000007
 50
0
  1
N:5000K
  0
LINE
  8
_1-0_
  6
CONTINUOUS
 62
    7
 10
559.90037099802862
 20
120.74284121895695
 11
614.1942388418945
 21
120.74284121895695
  0
LINE
  8
_1-0_
  6
CONTINUOUS
 62
    7
 10
614.1942388418945
 20
120.74284121895695
 11
614.1942388418945
 21
40.742841218956983
  0
LINE
  8
_1-0_
  6
CONTINUOUS
 62
    7
 10
559.90037099802862
 20
40.742841218956983
 11
614.1942388418945
 21
40.742841218956983
  0
TEXT
  8
_1-0_
 62
    7
 10
560.27677852443412
 20
108.61712509344522
 40
8
 41
1
 50
0
  1
最大連結長さ
  0
LINE
  8
_1-0_
  6
CONTINUOUS
 62
    7
 10
559.90037099802862
 20
104.74284121895693
 11
613.63550868316429
 21
104.74284121895693
  0
LINE
  8
_1-0_
  6
CONTINUOUS
 62
    7
 10
299.55931820697384
 20
120.97902985534995
 11
299.55931820697384
 21
40.742841218956983
  0
TEXT
  8
_1-0_
 62
    7
 10
301.23550868316431
 20
105.70707218339226
 40
11.200000000000017
 41
0.9999999999999965
 50
0
  1
LED PKG数
  0
TEXT
  8
_1-0_
 62
    7
 10
201.19081194543148
 20
106.52501931124348
 40
11.200000000000017
 41
0.9999999999999965
 50
0
  1
全長
  0
TEXT
  8
_1-0_
 62
    7
 10
262.17950234085856
 20
106.15650758679982
 40
11.200000000000017
 41
0.9999999999999965
 50
0
  1
重量
  0
TEXT
  8
_1-0_
 62
    7
 10
336.7934601253815
 20
91.666066892386851
 40
9.9999999999999716
 41
1.0000000000000029
 50
0
  1
個
  0
TEXT
  8
_1-0_
 62
    7
 10
337.1193860513074
 20
76.021622447942377
 40
9.9999999999999716
 41
1.0000000000000029
 50
0
  1
個
  0
TEXT
  8
_1-0_
 62
    7
 10
337.1193860513074
 20
60.377178003497932
 40
9.9999999999999716
 41
1.0000000000000029
 50
0
  1
個
  0
TEXT
  8
_1-0_
 62
    7
 10
337.55395395254197
 20
43.832557192210515
 40
9.9999999999999716
 41
1.0000000000000029
 50
0
  1
個
  0
TEXT
  8
_1-0_
 62
    7
 10
429.35405972715728
 20
73.822938337774758
 40
10
 41
1.0000000000000002
 50
0
  1
[W]
  0
TEXT
  8
_1-0_
 62
    7
 10
429.26638537475196
 20
58.104179442243947
 40
10
 41
1
 50
0
  1
[W]
  0
TEXT
  8
_1-0_
 62
    7
 10
429.59203296940041
 20
42.322796009280694
 40
10
 41
1.0000000000000002
 50
0
  1
[W]
  0
TEXT
  8
_1-0_
 62
    7
 10
485.1835859803731
 20
75.380507263770767
 40
10
 41
1
 50
0
  1
[A]
  0
TEXT
  8
_1-0_
 62
    7
 10
485.1835859803731
 20
59.736062819326321
 40
10
 41
1
 50
0
  1
[A]
  0
TEXT
  8
_1-0_
 62
    7
 10
485.1835859803731
 20
44.091618374881875
 40
10
 41
1
 50
0
  1
[A]
  0
TEXT
  8
_1-0_
 62
    7
 10
599.89540607346999
 20
68.388553664873797
 40
10
 41
1
 50
0
  1
㎜
  0
LINE
  8
_1-0_
  6
CONTINUOUS
 62
    7
 10
178.538048231913
 20
120.74284121895695
 11
178.538048231913
 21
40.742841218956983
  0
TEXT
  8
_1-0_
 62
    7
 10
653.34078509162612
 20
118.00135445619003
 40
7.0000000000000284
 41
0.9999999999999954
 50
0
  1
接続コネクタ（出力側）
  0
TEXT
  8
_1-0_
 62
    7
 10
653.34078509162612
 20
108.01179187909565
 40
6.9999999999998579
 41
1.0000000000000202
 50
0
  1
接続コネクタ（入力側）
  0
TEXT
  8
_1-0_
 62
    7
 10
669.97882144036555
 20
87.83692227157573
 40
8
 41
1
 50
0
  1
樹脂カバー
  0
TEXT
  8
_1-0_
 62
    7
 10
660.75977382131794
 20
97.614700049353502
 40
8
 41
1
 50
0
  1
アルミフレーム
  0
TEXT
  8
_1-0_
 62
    7
 10
805.75413008234091
 20
87.88736318868331
 40
8
 41
1
 50
0
  1
1
  0
TEXT
  8
_1-0_
 62
    7
 10
742.02472094891823
 20
116.9032110523251
 40
3.9999999999999432
 41
1.0000000000000142
 50
0
  1
リード線：AWG22
  0
TEXT
  8
_1-0_
 62
    7
 10
742.30811279507691
 20
111.94385374454765
 40
3.9999999999999716
 41
0.8000000000000047
 50
0
  1
日本圧着端子SMR-02V-N相当（PA66)
  0
TEXT
  8
_1-0_
 62
    7
 10
742.16641687199751
 20
122.14596020626118
 40
4.0000000000000284
 41
0.7999999999999938
 50
0
  1
日本圧着端子SMP-02V-NC相当（PA66）
  0
TEXT
  8
_1-0_
 62
    7
 10
742.13067329221735
 20
107.32069652201662
 40
3.9999999999999432
 41
1.0000000000000142
 50
0
  1
リード線：AWG22
  0
TEXT
  8
_1-0_
 62
    7
 10
806.06453572607984
 20
127.58824502289849
 40
8
 41
1
 50
0
  1
1
  0
TEXT
  8
_1-0_
 62
    7
 10
805.87829233983643
 20
118.0898323244858
 40
8
 41
1
 50
0
  1
1
  0
TEXT
  8
_1-0_
 62
    7
 10
806.06453572607984
 20
107.47395930861279
 40
8
 41
1
 50
0
  1
1
  0
TEXT
  8
_1-0_
 62
    7
 10
805.78517064671473
 20
97.69618153083502
 40
8
 41
1
 50
0
  1
1
  0
TEXT
  8
_1-0_
 62
    7
 10
742.6056585949807
 20
97.343095111081908
 40
4
 41
1
 50
0
  1
アルミ : A6063SS-T5
  0
LINE
  8
_1-0_
  6
CONTINUOUS
 62
    7
 10
798.24613889818363
 20
136.81302687887609
 11
798.24613889818363
 21
86.813026878876087
  0
TEXT
  8
_1-0_
 62
    7
 10
805.87829233983643
 20
137.45914449379796
 40
8
 41
1
 50
0
  1
1
  0
TEXT
  8
_1-0_
 62
    7
 10
633.85386131502855
 20
107.90919184722145
 40
7
 41
1
 50
0
  1
③
  0
TEXT
  8
_1-0_
 62
    7
 10
633.85386131502855
 20
97.98758578438202
 40
7
 41
1
 50
0
  1
②
  0
TEXT
  8
_1-0_
 62
    7
 10
633.85386131502855
 20
87.917896048962916
 40
7
 41
1
 50
0
  1
①
  0
TEXT
  8
_1-0_
 62
    7
 10
633.85386131502855
 20
117.97888158264055
 40
7
 41
1
 50
0
  1
④
  0
TEXT
  8
_1-0_
 62
    7
 10
634.11101310164054
 20
127.69053724418453
 40
7
 41
1
 50
0
  1
⑤
  0
TEXT
  8
_1-0_
 62
    7
 10
294.25623178722026
 20
133.14240434094671
 40
10
 41
0.9999999999999996
 50
0
  1
④　LED発光色
  0
TEXT
  8
_1-0_
 62
    7
 10
412.70702543801389
 20
171.69478529332767
 40
10
 41
0.9999999999999996
 50
0
  1
⑤　電源コネクター仕様
  0
TEXT
  8
_1-0_
 62
    7
 10
412.98639051737894
 20
147.66938846793084
 40
10
 41
0.9999999999999996
 50
0
  1
⑥　固定仕様
  0
TEXT
  8
_1-0_
 62
    7
 10
294.12481910043596
 20
171.10387500935258
 40
10
 41
1.0000000000000004
 50
0
  1
①　LED基板
  0
TEXT
  8
_1-0_
 62
    7
 10
294.14611656961574
 20
158.7262297292009
 40
10
 41
0.9999999999999996
 50
0
  1
②　アルミフレーム
  0
TEXT
  8
_1-0_
 62
    7
 10
74.497021761917438
 20
28.309060472902274
 40
7
 41
1
 50
0
  1
発光色  D:6500K / DN:5700K / N:5000K / NW:4500K / W:4000K 
  0
TEXT
  8
_1-0_
 62
    7
 10
310.4706480766996
 20
28.872036057221408
 40
7
 41
1
 50
0
  1
全光束比率  D:6500K(97%) / DN:5700K(99%) / N:5000K(100%) / NW:4500K(99%) / W:4000K(97%)
  0
TEXT
  8
_1-0_
 62
    7
 10
310.82875115332115
 20
20.350970017636655
 40
7
 41
1
 50
0
  1
N色基準
  0
TEXT
  8
_1-0_
 62
    7
 10
352.51622910746579
 20
20.009523809523785
 40
7
 41
1
 50
0
  1
WW:3500K(93%) / L30:3000K(93%) / L27:2700K(90%) / L25:2500K(77%)
  0
TEXT
  8
_1-0_
 62
    7
 10
284.94679495189303
 20
90.793650793650784
 40
11.200000000000017
 41
0.9999999999999965
 50
0
  1
ｇ
  0
TEXT
  8
_1-0_
 62
    7
 10
284.94679495189303
 20
74.590476190476181
 40
11.200000000000017
 41
0.9999999999999965
 50
0
  1
ｇ
  0
TEXT
  8
_1-0_
 62
    7
 10
284.94679495189303
 20
58.946031746031736
 40
11.200000000000017
 41
0.9999999999999965
 50
0
  1
ｇ
  0
TEXT
  8
_1-0_
 62
    7
 10
284.94679495189303
 20
43.022222222222211
 40
11.200000000000017
 41
0.9999999999999965
 50
0
  1
ｇ
  0
LINE
  8
_1-0_
  6
CONTINUOUS
 62
    7
 10
74.72867713211275
 20
104.74284121895693
 11
559.90037099802862
 21
104.74284121895693
  0
TEXT
  8
_1-0_
 62
    7
 10
537.86620017493442
 20
73.956382293558761
 40
10
 41
1.0000000000000007
 50
0
  1
[lm]
  0
TEXT
  8
_1-0_
 62
    7
 10
537.86620017493442
 20
57.519094637212902
 40
10
 41
1.0000000000000007
 50
0
  1
[lm]
  0
TEXT
  8
_1-0_
 62
    7
 10
537.86620017493442
 20
41.970309016345141
 40
10
 41
1
 50
0
  1
[lm]
  0
TEXT
  8
_0-0_1
 62
    7
 10
732.44894137980702
 20
38.007057467953359
 40
8
 41
1
 50
0
  1
仕様図
  0
TEXT
  8
_0-0_1
 62
    7
 10
746.61456258148473
 20
20.531469095315629
 40
12
 41
1
 50
0
  1
F5207020
  0
LINE
  8
_2-0_
  6
CONTINUOUS
 62
    2
 10
352.15807859040626
 20
484.42439167983434
 11
352.89145859040627
 21
485.15777167983435
  0
LINE
  8
_2-0_
  6
CONTINUOUS
 62
    2
 10
159.55334599559848
 20
455.86843308502648
 11
188.80268825743337
 21
485.11777534686144
  0
LINE
  8
_2-0_
  6
CONTINUOUS
 62
    2
 10
162.39830198334283
 20
455.88496107277081
 11
191.6235836465483
 21
485.11024273597639
  0
LINE
  8
_2-0_
  6
CONTINUOUS
 62
    2
 10
165.16879568574205
 20
455.86119462967008
 11
194.43566351115248
 21
485.12806245508057
  0
LINE
  8
_2-0_
  6
CONTINUOUS
 62
    2
 10
168.00446014109843
 20
455.86843308502648
 11
197.25380240293333
 21
485.11777534686144
  0
LINE
  8
_2-0_
  6
CONTINUOUS
 62
    2
 10
170.84941612884279
 20
455.88496107277081
 11
200.07469779204825
 21
485.11024273597639
  0
LINE
  8
_2-0_
  6
CONTINUOUS
 62
    2
 10
173.39780331932982
 20
455.86119462967008
 11
202.66467114474025
 21
485.12806245508057
  0
LINE
  8
_2-0_
  6
CONTINUOUS
 62
    2
 10
176.2334677746862
 20
455.86843308502648
 11
205.4828100365211
 21
485.11777534686144
  0
LINE
  8
_2-0_
  6
CONTINUOUS
 62
    2
 10
179.07842376243056
 20
455.88496107277081
 11
208.30370542563602
 21
485.11024273597639
  0
LINE
  8
_2-0_
  6
CONTINUOUS
 62
    2
 10
181.41307049490234
 20
455.86119462967008
 11
210.67993832031277
 21
485.12806245508057
  0
LINE
  8
_2-0_
  6
CONTINUOUS
 62
    2
 10
184.24873495025872
 20
455.86843308502648
 11
213.49807721209362
 21
485.11777534686144
  0
LINE
  8
_2-0_
  6
CONTINUOUS
 62
    2
 10
187.09369093800308
 20
455.88496107277081
 11
216.31897260120854
 21
485.11024273597639
  0
LINE
  8
_2-0_
  6
CONTINUOUS
 62
    2
 10
189.64207812849014
 20
455.86119462967008
 11
218.90894595390057
 21
485.12806245508057
  0
LINE
  8
_2-0_
  6
CONTINUOUS
 62
    2
 10
192.47774258384652
 20
455.86843308502648
 11
221.72708484568142
 21
485.11777534686144
  0
LINE
  8
_2-0_
  6
CONTINUOUS
 62
    2
 10
195.32269857159088
 20
455.88496107277081
 11
224.54798023479634
 21
485.11024273597639
  0
LINE
  8
_2-0_
  6
CONTINUOUS
 62
    2
 10
197.8410257874385
 20
455.86843308502648
 11
227.09036804927339
 21
485.11777534686144
  0
LINE
  8
_2-0_
  6
CONTINUOUS
 62
    2
 10
200.68598177518285
 20
455.88496107277081
 11
229.91126343838832
 21
485.11024273597639
  0
LINE
  8
_2-0_
  6
CONTINUOUS
 62
    2
 10
203.45647547758207
 20
455.86119462967008
 11
232.7233433029925
 21
485.12806245508057
  0
LINE
  8
_2-0_
  6
CONTINUOUS
 62
    2
 10
206.29213993293845
 20
455.86843308502648
 11
235.54148219477335
 21
485.11777534686144
  0
LINE
  8
_2-0_
  6
CONTINUOUS
 62
    2
 10
209.13709592068281
 20
455.88496107277081
 11
238.36237758388828
 21
485.11024273597639
  0
LINE
  8
_2-0_
  6
CONTINUOUS
 62
    2
 10
211.68548311116984
 20
455.86119462967008
 11
240.95235093658027
 21
485.12806245508057
  0
LINE
  8
_2-0_
  6
CONTINUOUS
 62
    2
 10
214.52114756652622
 20
455.86843308502648
 11
243.77048982836112
 21
485.11777534686144
  0
LINE
  8
_2-0_
  6
CONTINUOUS
 62
    2
 10
217.36610355427058
 20
455.88496107277081
 11
246.59138521747604
 21
485.11024273597639
  0
LINE
  8
_2-0_
  6
CONTINUOUS
 62
    2
 10
219.70075028674236
 20
455.86119462967008
 11
248.96761811215279
 21
485.12806245508057
  0
LINE
  8
_2-0_
  6
CONTINUOUS
 62
    2
 10
222.53641474209874
 20
455.86843308502648
 11
251.78575700393364
 21
485.11777534686144
  0
LINE
  8
_2-0_
  6
CONTINUOUS
 62
    2
 10
225.3813707298431
 20
455.88496107277081
 11
254.60665239304856
 21
485.11024273597639
  0
LINE
  8
_2-0_
  6
CONTINUOUS
 62
    2
 10
227.92975792033016
 20
455.86119462967008
 11
257.19662574574056
 21
485.12806245508057
  0
LINE
  8
_2-0_
  6
CONTINUOUS
 62
    2
 10
230.76542237568654
 20
455.86843308502648
 11
260.01476463752147
 21
485.11777534686144
  0
LINE
  8
_2-0_
  6
CONTINUOUS
 62
    2
 10
233.6103783634309
 20
455.88496107277081
 11
262.83566002663633
 21
485.11024273597639
  0
LINE
  8
_2-0_
  6
CONTINUOUS
 62
    2
 10
236.52804868820186
 20
455.86843308502648
 11
265.77739095003676
 21
485.11777534686144
  0
LINE
  8
_2-0_
  6
CONTINUOUS
 62
    2
 10
239.37300467594622
 20
455.88496107277081
 11
268.59828633915168
 21
485.11024273597639
  0
LINE
  8
_2-0_
  6
CONTINUOUS
 62
    2
 10
242.14349837834544
 20
455.86119462967008
 11
271.41036620375587
 21
485.12806245508057
  0
LINE
  8
_2-0_
  6
CONTINUOUS
 62
    2
 10
244.97916283370182
 20
455.86843308502648
 11
274.22850509553672
 21
485.11777534686144
  0
LINE
  8
_2-0_
  6
CONTINUOUS
 62
    2
 10
247.82411882144618
 20
455.88496107277081
 11
277.04940048465164
 21
485.11024273597639
  0
LINE
  8
_2-0_
  6
CONTINUOUS
 62
    2
 10
250.37250601193321
 20
455.86119462967008
 11
279.63937383734367
 21
485.12806245508057
  0
LINE
  8
_2-0_
  6
CONTINUOUS
 62
    2
 10
253.20817046728959
 20
455.86843308502648
 11
282.45751272912446
 21
485.11777534686144
  0
LINE
  8
_2-0_
  6
CONTINUOUS
 62
    2
 10
256.05312645503398
 20
455.88496107277081
 11
285.27840811823944
 21
485.11024273597639
  0
LINE
  8
_2-0_
  6
CONTINUOUS
 62
    2
 10
258.38777318750573
 20
455.86119462967008
 11
287.65464101291616
 21
485.12806245508057
  0
LINE
  8
_2-0_
  6
CONTINUOUS
 62
    2
 10
261.22343764286211
 20
455.86843308502648
 11
290.47277990469701
 21
485.11777534686144
  0
LINE
  8
_2-0_
  6
CONTINUOUS
 62
    2
 10
264.06839363060647
 20
455.88496107277081
 11
293.29367529381193
 21
485.11024273597639
  0
LINE
  8
_2-0_
  6
CONTINUOUS
 62
    2
 10
266.61678082109353
 20
455.86119462967008
 11
295.88364864650396
 21
485.12806245508057
  0
LINE
  8
_2-0_
  6
CONTINUOUS
 62
    2
 10
269.45244527644991
 20
455.86843308502648
 11
298.7017875382848
 21
485.11777534686144
  0
LINE
  8
_2-0_
  6
CONTINUOUS
 62
    2
 10
272.29740126419426
 20
455.88496107277081
 11
301.52268292739973
 21
485.11024273597639
  0
LINE
  8
_2-0_
  6
CONTINUOUS
 62
    2
 10
275.10820135995755
 20
455.86843308502648
 11
304.3575436217925
 21
485.11777534686144
  0
LINE
  8
_2-0_
  6
CONTINUOUS
 62
    2
 10
277.9531573477019
 20
455.88496107277081
 11
307.17843901090737
 21
485.11024273597639
  0
LINE
  8
_2-0_
  6
CONTINUOUS
 62
    2
 10
343.77708616460495
 20
455.86119462967008
 11
373.04395399001538
 21
485.12806245508057
  0
LINE
  8
_2-0_
  6
CONTINUOUS
 62
    2
 10
346.61275061996133
 20
455.86843308502648
 11
375.86209288179623
 21
485.11777534686144
  0
LINE
  8
_2-0_
  6
CONTINUOUS
 62
    2
 10
349.45770660770569
 20
455.88496107277081
 11
378.68298827091115
 21
485.11024273597639
  0
LINE
  8
_2-0_
  6
CONTINUOUS
 62
    2
 10
352.26850670346903
 20
455.86843308502648
 11
381.51784896530393
 21
485.11777534686144
  0
LINE
  8
_2-0_
  6
CONTINUOUS
 62
    2
 10
355.11346269121339
 20
455.88496107277081
 11
384.33874435441885
 21
485.11024273597639
  0
LINE
  8
_2-0_
  6
CONTINUOUS
 62
    2
 10
357.88395639361261
 20
455.86119462967008
 11
387.15082421902304
 21
485.12806245508057
  0
LINE
  8
_2-0_
  6
CONTINUOUS
 62
    2
 10
360.71962084896899
 20
455.86843308502648
 11
389.96896311080388
 21
485.11777534686144
  0
LINE
  8
_2-0_
  6
CONTINUOUS
 62
    2
 10
363.56457683671334
 20
455.88496107277081
 11
392.78985849991881
 21
485.11024273597639
  0
LINE
  8
_2-0_
  6
CONTINUOUS
 62
    2
 10
366.11296402720041
 20
455.86119462967008
 11
395.37983185261078
 21
485.12806245508057
  0
LINE
  8
_2-0_
  6
CONTINUOUS
 62
    2
 10
368.94862848255673
 20
455.86843308502648
 11
398.19797074439168
 21
485.11777534686144
  0
LINE
  8
_2-0_
  6
CONTINUOUS
 62
    2
 10
371.79358447030108
 20
455.88496107277081
 11
401.01886613350655
 21
485.11024273597639
  0
LINE
  8
_2-0_
  6
CONTINUOUS
 62
    2
 10
374.12823120277289
 20
455.86119462967008
 11
403.39509902818332
 21
485.12806245508057
  0
LINE
  8
_2-0_
  6
CONTINUOUS
 62
    2
 10
376.96389565812927
 20
455.86843308502648
 11
406.21323791996417
 21
485.11777534686144
  0
LINE
  8
_2-0_
  6
CONTINUOUS
 62
    2
 10
379.80885164587363
 20
455.88496107277081
 11
409.0341333090791
 21
485.11024273597639
  0
LINE
  8
_2-0_
  6
CONTINUOUS
 62
    2
 10
382.35723883636069
 20
455.86119462967008
 11
411.62410666177112
 21
485.12806245508057
  0
LINE
  8
_2-0_
  6
CONTINUOUS
 62
    2
 10
385.19290329171707
 20
455.86843308502648
 11
414.44224555355197
 21
485.11777534686144
  0
LINE
  8
_2-0_
  6
CONTINUOUS
 62
    2
 10
388.03785927946143
 20
455.88496107277081
 11
417.26314094266689
 21
485.11024273597639
  0
LINE
  8
_2-0_
  6
CONTINUOUS
 62
    2
 10
390.84865937522477
 20
455.86843308502648
 11
420.09800163705961
 21
485.11777534686144
  0
LINE
  8
_2-0_
  6
CONTINUOUS
 62
    2
 10
393.69361536296913
 20
455.88496107277081
 11
422.91889702617459
 21
485.11024273597639
  0
LINE
  8
_2-0_
  6
CONTINUOUS
 62
    2
 10
396.46410906536835
 20
455.86119462967008
 11
425.73097689077872
 21
485.12806245508057
  0
LINE
  8
_2-0_
  6
CONTINUOUS
 62
    2
 10
399.29977352072467
 20
455.86843308502648
 11
428.54911578255962
 21
485.11777534686144
  0
LINE
  8
_2-0_
  6
CONTINUOUS
 62
    2
 10
402.14472950846903
 20
455.88496107277081
 11
431.37001117167449
 21
485.11024273597639
  0
LINE
  8
_2-0_
  6
CONTINUOUS
 62
    2
 10
404.69311669895609
 20
455.86119462967008
 11
433.95998452436652
 21
485.12806245508057
  0
LINE
  8
_2-0_
  6
CONTINUOUS
 62
    2
 10
407.52878115431247
 20
455.86843308502648
 11
436.77812341614737
 21
485.11777534686144
  0
LINE
  8
_2-0_
  6
CONTINUOUS
 62
    2
 10
410.37373714205683
 20
455.88496107277081
 11
439.59901880526229
 21
485.11024273597639
  0
LINE
  8
_2-0_
  6
CONTINUOUS
 62
    2
 10
412.70838387452864
 20
455.86119462967008
 11
441.97525169993901
 21
485.12806245508057
  0
LINE
  8
_2-0_
  6
CONTINUOUS
 62
    2
 10
415.54404832988496
 20
455.86843308502648
 11
444.79339059171991
 21
485.11777534686144
  0
LINE
  8
_2-0_
  6
CONTINUOUS
 62
    2
 10
418.38900431762931
 20
455.88496107277081
 11
447.61428598083478
 21
485.11024273597639
  0
LINE
  8
_2-0_
  6
CONTINUOUS
 62
    2
 10
420.93739150811643
 20
455.86119462967008
 11
450.20425933352681
 21
485.12806245508057
  0
LINE
  8
_2-0_
  6
CONTINUOUS
 62
    2
 10
423.77305596347276
 20
455.86843308502648
 11
453.02239822530771
 21
485.11777534686144
  0
LINE
  8
_2-0_
  6
CONTINUOUS
 62
    2
 10
426.61801195121711
 20
455.88496107277081
 11
455.84329361442258
 21
485.11024273597639
  0
LINE
  8
_2-0_
  6
CONTINUOUS
 62
    2
 10
429.64255250499576
 20
455.86843308502648
 11
458.89189476683066
 21
485.11777534686144
  0
LINE
  8
_2-0_
  6
CONTINUOUS
 62
    2
 10
432.48750849274012
 20
455.88496107277081
 11
461.71279015594558
 21
485.11024273597639
  0
LINE
  8
_2-0_
  6
CONTINUOUS
 62
    2
 10
435.25800219513934
 20
455.86119462967008
 11
464.52487002054977
 21
485.12806245508057
  0
LINE
  8
_2-0_
  6
CONTINUOUS
 62
    2
 10
438.09366665049572
 20
455.86843308502648
 11
467.34300891233062
 21
485.11777534686144
  0
LINE
  8
_2-0_
  6
CONTINUOUS
 62
    2
 10
440.93862263824008
 20
455.88496107277081
 11
470.16390430144554
 21
485.11024273597639
  0
LINE
  8
_2-0_
  6
CONTINUOUS
 62
    2
 10
443.48700982872708
 20
455.86119462967008
 11
472.75387765413757
 21
485.12806245508057
  0
LINE
  8
_2-0_
  6
CONTINUOUS
 62
    2
 10
446.32267428408352
 20
455.86843308502648
 11
475.57201654591836
 21
485.11777534686144
  0
LINE
  8
_2-0_
  6
CONTINUOUS
 62
    2
 10
449.16763027182787
 20
455.88496107277081
 11
478.39291193503334
 21
485.11024273597639
  0
LINE
  8
_2-0_
  6
CONTINUOUS
 62
    2
 10
451.50227700429963
 20
455.86119462967008
 11
480.76914482971006
 21
485.12806245508057
  0
LINE
  8
_2-0_
  6
CONTINUOUS
 62
    2
 10
454.33794145965601
 20
455.86843308502648
 11
483.58728372149091
 21
485.11777534686144
  0
LINE
  8
_2-0_
  6
CONTINUOUS
 62
    2
 10
457.18289744740036
 20
455.88496107277081
 11
486.40817911060583
 21
485.11024273597639
  0
LINE
  8
_2-0_
  6
CONTINUOUS
 62
    2
 10
459.73128463788743
 20
455.86119462967008
 11
488.99815246329786
 21
485.12806245508057
  0
LINE
  8
_2-0_
  6
CONTINUOUS
 62
    2
 10
462.56694909324381
 20
455.86843308502648
 11
491.8162913550787
 21
485.11777534686144
  0
LINE
  8
_2-0_
  6
CONTINUOUS
 62
    2
 10
465.41190508098816
 20
455.88496107277081
 11
494.63718674419363
 21
485.11024273597639
  0
LINE
  8
_2-0_
  6
CONTINUOUS
 62
    2
 10
468.2227051767515
 20
455.86843308502648
 11
497.4720474385864
 21
485.11777534686144
  0
LINE
  8
_2-0_
  6
CONTINUOUS
 62
    7
 10
553.96928459040623
 20
465.35905367983435
 11
553.96928459040623
 21
467.75905367983432
  0
LINE
  8
_2-0_
  6
CONTINUOUS
 62
    7
 10
553.96928459040623
 20
461.75905367983432
 11
553.96928459040623
 21
473.75905367983432
  0
LINE
  8
_2-0_
  6
CONTINUOUS
 62
    7
 10
577.57964059040626
 20
461.75905367983432
 11
577.57964059040626
 21
473.75905367983432
  0
LINE
  8
_2-0_
  6
CONTINUOUS
 62
    7
 10
553.96928459040623
 20
473.75905367983432
 11
577.57964059040626
 21
473.75905367983432
  0
LINE
  8
_2-0_
  6
CONTINUOUS
 62
    7
 10
577.57964059040626
 20
461.75905367983432
 11
553.96928459040623
 21
461.75905367983432
  0
LINE
  8
_2-0_
  6
CONTINUOUS
 62
    7
 10
556.36928459040632
 20
461.75905367983432
 11
556.36928459040632
 21
473.75905367983432
  0
LINE
  8
_2-0_
  6
CONTINUOUS
 62
    7
 10
569.17964059040628
 20
468.95905367983426
 11
569.17964059040628
 21
471.35905367983435
  0
LINE
  8
_2-0_
  6
CONTINUOUS
 62
    7
 10
569.17964059040628
 20
464.1590536798343
 11
569.17964059040628
 21
466.55905367983428
  0
LINE
  8
_2-0_
  6
CONTINUOUS
 62
    7
 10
569.17964059040628
 20
464.1590536798343
 11
577.57964059040626
 21
464.1590536798343
  0
LINE
  8
_2-0_
  6
CONTINUOUS
 62
    7
 10
569.17964059040628
 20
466.55905367983428
 11
577.57964059040626
 21
466.55905367983428
  0
LINE
  8
_2-0_
  6
CONTINUOUS
 62
    7
 10
569.17964059040628
 20
468.95905367983426
 11
577.57964059040626
 21
468.95905367983426
  0
LINE
  8
_2-0_
  6
CONTINUOUS
 62
    7
 10
569.17964059040628
 20
471.35905367983435
 11
577.57964059040626
 21
471.35905367983435
  0
LINE
  8
_2-0_
  6
CONTINUOUS
 62
    7
 10
566.41336259040634
 20
476.15058167983432
 11
559.57149059040626
 21
475.79669167983434
  0
LINE
  8
_2-0_
  6
CONTINUOUS
 62
    7
 10
559.57149059040626
 20
475.79669167983434
 11
567.00317859040626
 21
478.45086567983435
  0
LINE
  8
_2-0_
  6
CONTINUOUS
 62
    7
 10
569.84020259040631
 20
473.75905367983432
 11
566.41336259040634
 21
476.15058167983432
  0
LINE
  8
_2-0_
  6
CONTINUOUS
 62
    7
 10
567.00317859040626
 20
478.45086567983435
 11
571.3766765904063
 21
473.75905367983432
  0
LINE
  8
_2-0_
  6
CONTINUOUS
 62
    7
 10
567.00317859040626
 20
457.0672416798343
 11
571.3766765904063
 21
461.75905367983432
  0
LINE
  8
_2-0_
  6
CONTINUOUS
 62
    7
 10
559.57149059040626
 20
459.7214176798343
 11
567.00317859040626
 21
457.0672416798343
  0
LINE
  8
_2-0_
  6
CONTINUOUS
 62
    7
 10
566.41336259040634
 20
459.36752767983432
 11
559.57149059040626
 21
459.7214176798343
  0
LINE
  8
_2-0_
  6
CONTINUOUS
 62
    7
 10
569.84020259040631
 20
461.75905367983432
 11
566.41336259040634
 21
459.36752767983432
  0
LINE
  8
_2-0_
  6
CONTINUOUS
 62
    2
 10
335.54807853101715
 20
455.86119462967008
 11
364.81494635642758
 21
485.12806245508057
  0
LINE
  8
_2-0_
  6
CONTINUOUS
 62
    2
 10
338.38374298637353
 20
455.86843308502648
 11
367.63308524820843
 21
485.11777534686144
  0
LINE
  8
_2-0_
  6
CONTINUOUS
 62
    2
 10
341.22869897411789
 20
455.88496107277081
 11
370.45398063732335
 21
485.11024273597639
  0
TEXT
  8
_2-0_
 62
    7
 10
618.36916229571875
 20
429.3388235619683
 40
8
 41
1
 50
0
  1
13.5
  0
TEXT
  8
_2-0_
 62
    7
 10
624.30348463476525
 20
443.40536540267124
 40
6
 41
1
 50
-15.000000000000069
  1
30ﾟ
  0
ARC
  8
_2-0_
  6
CONTINUOUS
 62
    7
 10
640.57649838099314
 20
459.74598673509007
 40
0.4
 50
0
 51
153.73151100000001
  0
LINE
  8
_2-0_
  6
CONTINUOUS
 62
    7
 10
625.95817238099312
 20
466.94616273509007
 11
628.95817238099312
 21
472.14231473509011
  0
LINE
  8
_2-0_
  6
CONTINUOUS
 62
    7
 10
630.17060838099314
 20
471.44231473509006
 11
628.95817238099312
 21
472.14231473509011
  0
LINE
  8
_2-0_
  6
CONTINUOUS
 62
    7
 10
625.95817238099312
 20
466.94616273509007
 11
627.17060638099315
 21
466.24616273509008
  0
LINE
  8
_2-0_
  6
CONTINUOUS
 62
    7
 10
628.73111838099305
 20
460.1490487350901
 11
624.92060838099314
 21
462.34904873509009
  0
LINE
  8
_2-0_
  6
CONTINUOUS
 62
    7
 10
627.93008838099308
 20
459.34598673509009
 11
625.41654238099306
 21
459.34598673509009
  0
ARC
  8
_2-0_
  6
CONTINUOUS
 62
    7
 10
627.93008838099308
 20
459.94598673509006
 40
0.5999999999999999
 50
270
 51
330
  0
ARC
  8
_2-0_
  6
CONTINUOUS
 62
    7
 10
625.41654238099306
 20
458.74598673509007
 40
0.5999999999999999
 50
90
 51
135
  0
ARC
  8
_2-0_
  6
CONTINUOUS
 62
    7
 10
627.93988838099312
 20
484.55327873509009
 40
0.5999999999999999
 50
0
 51
120.08549100000002
  0
LINE
  8
_2-0_
  6
CONTINUOUS
 62
    7
 10
627.63911238099308
 20
485.07244473509007
 11
622.41711038099311
 21
482.04712273509011
  0
ARC
  8
_2-0_
  6
CONTINUOUS
 62
    7
 10
617.17649838099305
 20
456.24598673509007
 40
0.4
 50
270
 51
0
  0
ARC
  8
_2-0_
  6
CONTINUOUS
 62
    7
 10
632.48121238099304
 20
466.64342673509009
 40
18.399999999999999
 50
123.15885100000001
 51
194.99999999999997
  0
ARC
  8
_2-0_
  6
CONTINUOUS
 62
    7
 10
616.6049283809931
 20
456.44598673509006
 40
0.5999999999999999
 50
193.25515899999999
 51
270
  0
LINE
  8
_2-0_
  6
CONTINUOUS
 62
    7
 10
616.02091438099308
 20
456.30841473509008
 11
614.7081783809931
 21
461.88115673509009
  0
LINE
  8
_2-0_
  6
CONTINUOUS
 62
    7
 10
616.6049283809931
 20
455.84598673509009
 11
617.17649838099305
 21
455.84598673509009
  0
LINE
  8
_2-0_
  6
CONTINUOUS
 62
    7
 10
634.32794238099314
 20
483.74598673509007
 11
630.97649838099312
 21
483.74598673509007
  0
ARC
  8
_2-0_
  6
CONTINUOUS
 62
    7
 10
629.13649838099309
 20
484.6459867350901
 40
0.5999999999999999
 50
90
 51
180
  0
LINE
  8
_2-0_
  6
CONTINUOUS
 62
    7
 10
629.47649838099312
 20
485.24598673509007
 11
629.13649838099309
 21
485.24598673509007
  0
LINE
  8
_2-0_
  6
CONTINUOUS
 62
    7
 10
630.97649838099312
 20
483.74598673509007
 11
629.47649838099312
 21
485.24598673509007
  0
LINE
  8
_2-0_
  6
CONTINUOUS
 62
    7
 10
640.97649838099312
 20
481.34598673509009
 11
640.97649838099312
 21
483.1459867350901
  0
ARC
  8
_2-0_
  6
CONTINUOUS
 62
    7
 10
634.32794238099314
 20
483.34598673509009
 40
0.4
 50
39.52263099999999
 51
90
  0
ARC
  8
_2-0_
  6
CONTINUOUS
 62
    7
 10
640.3764983809931
 20
483.1459867350901
 40
0.5999999999999999
 50
0
 51
90
  0
LINE
  8
_2-0_
  6
CONTINUOUS
 62
    7
 10
640.3764983809931
 20
483.74598673509007
 11
637.28367838099314
 21
483.74598673509007
  0
LINE
  8
_2-0_
  6
CONTINUOUS
 62
    7
 10
640.97649838099312
 20
475.54598673509008
 11
640.97649838099312
 21
476.94598673509006
  0
ARC
  8
_2-0_
  6
CONTINUOUS
 62
    7
 10
617.97649838099312
 20
456.24598673509007
 40
0.4
 50
180
 51
270
  0
ARC
  8
_2-0_
  6
CONTINUOUS
 62
    7
 10
626.2449683809931
 20
456.74598673509007
 40
0.5999999999999999
 50
90
 51
135
  0
ARC
  8
_2-0_
  6
CONTINUOUS
 62
    7
 10
638.97649838099312
 20
473.94598673509006
 40
0.5999999999999999
 50
90
 51
180
  0
ARC
  8
_2-0_
  6
CONTINUOUS
 62
    7
 10
638.97649838099312
 20
467.1459867350901
 40
0.5999999999999999
 50
180
 51
270
  0
LINE
  8
_2-0_
  6
CONTINUOUS
 62
    7
 10
638.3764983809931
 20
467.1459867350901
 11
638.3764983809931
 21
473.94598673509006
  0
ARC
  8
_2-0_
  6
CONTINUOUS
 62
    7
 10
639.97649838099312
 20
475.54598673509008
 40
1
 50
270
 51
0
  0
ARC
  8
_2-0_
  6
CONTINUOUS
 62
    7
 10
639.97649838099312
 20
465.54598673509008
 40
1
 50
0
 51
90
  0
LINE
  8
_2-0_
  6
CONTINUOUS
 62
    7
 10
639.97649838099312
 20
466.54598673509008
 11
638.97649838099312
 21
466.54598673509008
  0
LINE
  8
_2-0_
  6
CONTINUOUS
 62
    7
 10
639.97649838099312
 20
474.54598673509008
 11
638.97649838099312
 21
474.54598673509008
  0
LINE
  8
_2-0_
  6
CONTINUOUS
 62
    7
 10
634.32794238099314
 20
457.34598673509009
 11
626.2449683809931
 21
457.34598673509009
  0
ARC
  8
_2-0_
  6
CONTINUOUS
 62
    7
 10
637.28367838099314
 20
457.74598673509007
 40
0.4
 50
240
 51
270
  0
LINE
  8
_2-0_
  6
CONTINUOUS
 62
    7
 10
635.79085838099309
 20
458.1459867350901
 11
637.08367838099309
 21
457.39957673509008
  0
LINE
  8
_2-0_
  6
CONTINUOUS
 62
    7
 10
635.18777838099311
 20
458.1459867350901
 11
634.63769638099313
 21
457.49042273509008
  0
ARC
  8
_2-0_
  6
CONTINUOUS
 62
    7
 10
634.32794238099314
 20
457.74598673509007
 40
0.4
 50
270
 51
320.47736900000001
  0
LINE
  8
_2-0_
  6
CONTINUOUS
 62
    7
 10
635.18777838099311
 20
458.1459867350901
 11
635.79085838099309
 21
458.1459867350901
  0
ARC
  8
_2-0_
  6
CONTINUOUS
 62
    7
 10
640.3764983809931
 20
457.94598673509006
 40
0.5999999999999999
 50
270
 51
0
  0
LINE
  8
_2-0_
  6
CONTINUOUS
 62
    7
 10
640.3764983809931
 20
457.34598673509009
 11
637.28367838099314
 21
457.34598673509009
  0
LINE
  8
_2-0_
  6
CONTINUOUS
 62
    7
 10
640.97649838099312
 20
457.94598673509006
 11
640.97649838099312
 21
459.74598673509007
  0
LINE
  8
_2-0_
  6
CONTINUOUS
 62
    7
 10
640.97649838099312
 20
464.1459867350901
 11
640.97649838099312
 21
465.54598673509008
  0
ARC
  8
_2-0_
  6
CONTINUOUS
 62
    7
 10
637.28367838099314
 20
483.34598673509009
 40
0.4
 50
90
 51
119.99999999999999
  0
LINE
  8
_2-0_
  6
CONTINUOUS
 62
    7
 10
634.51649838099308
 20
483.74598673509007
 11
634.32794238099314
 21
483.74598673509007
  0
LINE
  8
_2-0_
  6
CONTINUOUS
 62
    7
 10
634.63769638099313
 20
483.60154873509009
 11
634.51649838099308
 21
483.74598673509007
  0
LINE
  8
_2-0_
  6
CONTINUOUS
 62
    7
 10
637.08367838099309
 20
483.69239673509009
 11
637.17649838099305
 21
483.74598673509007
  0
LINE
  8
_2-0_
  6
CONTINUOUS
 62
    7
 10
637.28367838099314
 20
483.74598673509007
 11
637.17649838099305
 21
483.74598673509007
  0
LINE
  8
_2-0_
  6
CONTINUOUS
 62
    7
 10
625.82070438099311
 20
457.17025073509006
 11
624.67217638099305
 21
456.02172273509007
  0
LINE
  8
_2-0_
  6
CONTINUOUS
 62
    7
 10
624.24791238099306
 20
455.84598673509009
 11
617.97649838099312
 21
455.84598673509009
  0
ARC
  8
_2-0_
  6
CONTINUOUS
 62
    7
 10
624.24791238099306
 20
456.44598673509006
 40
0.5999999999999999
 50
270
 51
315
  0
LINE
  8
_2-0_
  6
CONTINUOUS
 62
    7
 10
629.35057722046986
 20
484.5334791281216
 11
630.61091414276109
 21
483.27307805122848
  0
LINE
  8
_2-0_
  6
CONTINUOUS
 62
    7
 10
630.89375525392404
 20
483.15591507709371
 11
639.77659725122373
 21
483.15569605016265
  0
LINE
  8
_2-0_
  6
CONTINUOUS
 62
    7
 10
631.4244292537627
 20
483.15590199210385
 11
633.92993525300108
 21
483.155840213082
  0
ARC
  8
_2-0_
  6
CONTINUOUS
 62
    7
 10
639.7759906815578
 20
458.55569605764083
 40
0.5999999999999999
 50
269.99858724057549
 51
359.99858724057412
  0
ARC
  8
_2-0_
  6
CONTINUOUS
 62
    7
 10
628.92630275939257
 20
484.10922558945674
 40
0.5999999999999999
 50
44.998587240575056
 51
116.54411324057597
  0
ARC
  8
_2-0_
  6
CONTINUOUS
 62
    7
 10
617.07125970250456
 20
457.0562558946275
 40
0.5999999999999999
 50
193.2985872405753
 51
269.99858724057407
  0
ARC
  8
_2-0_
  6
CONTINUOUS
 62
    7
 10
630.89376511684543
 20
483.55591507697216
 40
0.4
 50
224.99858724057461
 51
269.99858724057481
  0
ARC
  8
_2-0_
  6
CONTINUOUS
 62
    7
 10
639.77658245684165
 20
482.55569605034503
 40
0.5999999999999999
 50
359.99858724057418
 51
89.998587240575489
  0
LINE
  8
_2-0_
  6
CONTINUOUS
 62
    7
 10
617.07124490812248
 20
456.45625589480989
 11
624.36172490590627
 21
456.45607613123195
  0
ARC
  8
_2-0_
  6
CONTINUOUS
 62
    7
 10
624.36173476882766
 20
456.85607613111029
 40
0.4
 50
269.99858724057486
 51
314.99858724057464
  0
LINE
  8
_2-0_
  6
__19
 62
    4
 10
629.54256738249296
 20
479.14610839252418
 11
639.41042937949317
 21
479.14586507765603
  0
LINE
  8
_2-0_
  6
__19
 62
    4
 10
634.47661535928466
 20
483.89015073364794
 11
634.47638140270146
 21
474.40182273653227
  0
ARC
  8
_2-0_
  6
CONTINUOUS
 62
    7
 10
629.67630319568161
 20
471.2301230925533
 40
4.7999999999999998
 50
359.99858724057572
 51
179.99858724057549
  0
LINE
  8
_2-0_
  6
CONTINUOUS
 62
    7
 10
624.70020716638817
 20
456.62885978522456
 11
624.64457179457133
 21
456.57322515702595
  0
LINE
  8
_2-0_
  6
CONTINUOUS
 62
    7
 10
624.87595362754098
 20
457.05311945191977
 11
624.87630319714071
 21
471.23024144761007
  0
ARC
  8
_2-0_
  6
CONTINUOUS
 62
    7
 10
624.27595362772331
 20
457.05313424630185
 40
0.5999999999999999
 50
314.99858724057412
 51
359.99858724057549
  0
LINE
  8
_2-0_
  6
CONTINUOUS
 62
    7
 10
639.77597588717572
 20
457.95569605782316
 11
635.07597588860449
 21
457.95581194714964
  0
LINE
  8
_2-0_
  6
CONTINUOUS
 62
    7
 10
634.47599068316902
 20
458.55582674134939
 11
634.47630319422251
 21
471.23000473749653
  0
ARC
  8
_2-0_
  6
CONTINUOUS
 62
    7
 10
635.07599068298657
 20
458.55581194696725
 40
0.5999999999999999
 50
179.99858724057549
 51
269.99858724057549
  0
LINE
  8
_2-0_
  6
CONTINUOUS
 62
    7
 10
640.37599068137547
 20
458.55568126325875
 11
640.37628656901734
 21
470.55568125961088
  0
LINE
  8
_2-0_
  6
CONTINUOUS
 62
    7
 10
640.37658245665921
 20
482.5556812559629
 11
640.37628656901734
 21
470.55568125961088
  0
LINE
  8
_2-0_
  6
CONTINUOUS
 62
    7
 10
630.89375525392404
 20
483.15591507709371
 11
630.72806706806716
 21
483.15591916251765
  0
LINE
  8
_2-0_
  6
CONTINUOUS
 62
    7
 10
630.61091414276109
 20
483.27307805122848
 11
630.72806706806716
 21
483.15591916251765
  0
LINE
  8
_2-0_
  6
CONTINUOUS
 62
    7
 10
616.48734829923455
 20
456.9182402922662
 11
615.15350544435432
 21
462.56141718294975
  0
ARC
  8
_2-0_
  6
CONTINUOUS
 62
    7
 10
632.47619040793529
 20
466.65587605349401
 40
17.800000000000001
 50
116.54411324057556
 51
193.2985872405755
  0
LINE
  8
_2-0_
  6
CONTINUOUS
 62
    7
 10
628.65816999423248
 20
484.64598020105086
 11
624.52160704127084
 21
482.5795861969109
  0
LINE
  8
_2-0_
  6
CONTINUOUS
 62
    7
 10
624.99227838099307
 20
459.17025073509006
 11
624.87600296325127
 21
459.05397531734832
  0
LINE
  8
_2-0_
  6
CONTINUOUS
 62
    7
 10
617.57649838099314
 20
456.24598673509007
 11
617.57649838099314
 21
456.45624343662166
  0
LINE
  8
_2-0_
  6
CONTINUOUS
 62
    7
 10
617.57649838099314
 20
456.24598673509007
 11
617.57649838099314
 21
456.45624343662166
  0
LINE
  8
_2-0_
  6
CONTINUOUS
 62
    7
 10
617.57649838099314
 20
456.24598673509007
 11
617.57649838099314
 21
456.45624343662166
  0
ARC
  8
_2-0_
  6
CONTINUOUS
 62
    7
 10
640.57649838099314
 20
481.34598673509009
 40
0.4
 50
240.00755936910019
 51
0
  0
LINE
  8
_2-0_
  6
CONTINUOUS
 62
    7
 10
634.35704639562982
 20
472.29344011778045
 11
627.69188838099308
 21
460.74904873509007
  0
LINE
  8
_2-0_
  6
CONTINUOUS
 62
    7
 10
634.47627494459891
 20
470.08431483826598
 11
628.44970438099313
 21
459.6459867350901
  0
LINE
  8
_2-0_
  6
CONTINUOUS
 62
    7
 10
624.92060838099314
 20
462.34904873509009
 11
632.34974413824602
 21
475.21668972646523
  0
ARC
  8
_2-0_
  6
CONTINUOUS
 62
    7
 10
634.47649838099312
 20
461.94598673509006
 40
1.7
 50
90.012881041958281
 51
269.98429343919179
  0
ARC
  8
_2-0_
  6
CONTINUOUS
 62
    7
 10
640.57649838099314
 20
464.1459867350901
 40
0.4
 50
239.93739439174141
 51
0
  0
ARC
  8
_2-0_
  6
CONTINUOUS
 62
    7
 10
634.47649862362096
 20
479.15582673508709
 40
4.4000000000000004
 50
114.61856424057567
 51
294.61856424057538
  0
ARC
  8
_2-0_
  6
CONTINUOUS
 62
    7
 10
634.47649862362096
 20
479.15582673508709
 40
4.4000000000000004
 50
294.61856424057544
 51
65.378610240575838
  0
ARC
  8
_2-0_
  6
CONTINUOUS
 62
    7
 10
640.57649838099314
 20
476.94598673509006
 40
0.4
 50
0
 51
120.00755956688536
  0
LINE
  8
_2-0_
  6
CONTINUOUS
 62
    7
 10
159.11037642394501
 20
484.75777167983432
 11
155.13375859040622
 21
484.75777167983432
  0
LINE
  8
_2-0_
  6
CONTINUOUS
 62
    7
 10
155.13375859040622
 20
484.75777167983432
 11
155.13375859040622
 21
456.25047967983426
  0
LINE
  8
_2-0_
  6
CONTINUOUS
 62
    7
 10
155.13375859040622
 20
456.25047967983426
 11
159.14007267744512
 21
456.25047967983426
  0
LINE
  8
_2-0_
  6
CONTINUOUS
 62
    7
 10
159.13375859040622
 20
485.25047967983426
 11
159.13375859040622
 21
455.85047967983428
  0
LINE
  8
_2-0_
  6
CONTINUOUS
 62
    7
 10
503.96928459040623
 20
484.75777167983432
 11
499.97994964667004
 21
484.75777167983432
  0
LINE
  8
_2-0_
  6
CONTINUOUS
 62
    7
 10
499.96928459040623
 20
485.25047967983426
 11
499.96928459040623
 21
455.85047967983428
  0
LINE
  8
_2-0_
  6
CONTINUOUS
 62
    7
 10
503.96928459040623
 20
484.75777167983432
 11
503.96928459040623
 21
456.25047967983426
  0
LINE
  8
_2-0_
  6
CONTINUOUS
 62
    7
 10
499.94185844090686
 20
456.25047967983426
 11
503.96928459040623
 21
456.25047967983426
  0
TEXT
  8
_2-0_
 62
    7
 10
126.13375859040622
 20
438.1612673549306
 40
8
 41
1
 50
0
  1
50
  0
TEXT
  8
_2-0_
 62
    7
 10
524.96928459040623
 20
438.1612673549306
 40
8
 41
1
 50
0
  1
50
  0
LINE
  8
_2-0_
  6
CONTINUOUS
 62
    7
 10
155.13375859040622
 20
434.64052296462569
 11
155.13375859040622
 21
451.85047967983428
  0
LINE
  8
_2-0_
  6
CONTINUOUS
 62
    2
 10
471.06766116449586
 20
455.88496107277081
 11
499.93592069606478
 21
484.75322060433979
  0
LINE
  8
_2-0_
  6
CONTINUOUS
 62
    2
 10
473.83815486689508
 20
455.86119462967008
 11
499.96986034706185
 21
481.99290010983691
  0
LINE
  8
_2-0_
  6
CONTINUOUS
 62
    2
 10
476.67381932225146
 20
455.86843308502648
 11
499.92686979277431
 21
479.12148355554939
  0
LINE
  8
_2-0_
  6
CONTINUOUS
 62
    2
 10
479.51877530999582
 20
455.88496107277081
 11
499.94028811800757
 21
476.30647388078262
  0
LINE
  8
_2-0_
  6
CONTINUOUS
 62
    2
 10
482.06716250048282
 20
455.86119462967008
 11
499.8189903914668
 21
473.61302252065411
  0
LINE
  8
_2-0_
  6
CONTINUOUS
 62
    2
 10
484.90282695583926
 20
455.86843308502648
 11
499.79136089280723
 21
470.75696702199451
  0
LINE
  8
_2-0_
  6
CONTINUOUS
 62
    2
 10
487.74778294358362
 20
455.88496107277081
 11
499.85200846549418
 21
467.98918659468143
  0
LINE
  8
_2-0_
  6
CONTINUOUS
 62
    2
 10
490.08242967605537
 20
455.86119462967008
 11
499.91305148289132
 21
465.69181643650609
  0
LINE
  8
_2-0_
  6
CONTINUOUS
 62
    2
 10
492.91809413141175
 20
455.86843308502648
 11
499.82657127000078
 21
462.77691022361557
  0
LINE
  8
_2-0_
  6
CONTINUOUS
 62
    2
 10
495.76305011915611
 20
455.88496107277081
 11
499.79894277134127
 21
459.92085372495592
  0
LINE
  8
_2-0_
  6
CONTINUOUS
 62
    2
 10
498.31143730964317
 20
455.86119462967008
 11
499.6726024465911
 21
457.22235976661801
  0
LINE
  8
_2-0_
  6
CONTINUOUS
 62
    2
 10
159.14988458273706
 20
483.74924167216517
 11
160.52898517892925
 21
485.1283422683573
  0
LINE
  8
_2-0_
  6
CONTINUOUS
 62
    2
 10
159.42813048984061
 20
481.1990606199397
 11
163.35539056657615
 21
485.12632164838283
  0
LINE
  8
_2-0_
  6
CONTINUOUS
 62
    2
 10
159.21412380725229
 20
478.15662689668034
 11
166.19006343849867
 21
485.13256652792677
  0
LINE
  8
_2-0_
  6
CONTINUOUS
 62
    2
 10
159.26517640756617
 20
475.37925209101832
 11
169.0192243211032
 21
485.13330140701294
  0
LINE
  8
_2-0_
  6
CONTINUOUS
 62
    2
 10
159.31622861773309
 20
472.60187770716112
 11
171.83736421139713
 21
485.12301330082516
  0
LINE
  8
_2-0_
  6
CONTINUOUS
 62
    2
 10
159.29155035104236
 20
469.74877144047036
 11
174.66928158984902
 21
485.126502679277
  0
LINE
  8
_2-0_
  6
CONTINUOUS
 62
    2
 10
159.26687108435164
 20
466.89566617377972
 11
177.49844247096667
 21
485.12723756039475
  0
LINE
  8
_2-0_
  6
CONTINUOUS
 62
    2
 10
159.3936551615231
 20
464.19402225095121
 11
180.32622660341724
 21
485.12659369284529
  0
LINE
  8
_2-0_
  6
CONTINUOUS
 62
    2
 10
159.36897674633082
 20
461.3409161377129
 11
183.14712099379358
 21
485.11906208046173
  0
LINE
  8
_2-0_
  6
CONTINUOUS
 62
    2
 10
159.3442976281417
 20
458.48781071756969
 11
185.98454936565253
 21
485.12806245508057
  0
LINE
  8
_2-0_
  6
CONTINUOUS
 62
    7
 10
503.96928459040623
 20
435.51591531038457
 11
503.96928459040623
 21
451.85047967983428
  0
CIRCLE
  8
_2-0_
  6
CONTINUOUS
 62
    7
 10
634.43704825525253
 20
479.14209014366315
 40
4
  0
LINE
  8
_2-0_
  6
CONTINUOUS
 62
    7
 10
632.51704825525258
 20
479.52609014366317
 11
634.05304825525252
 21
479.52609014366317
  0
LINE
  8
_2-0_
  6
CONTINUOUS
 62
    7
 10
634.05304825525252
 20
481.06209014366317
 11
634.05304825525252
 21
479.52609014366317
  0
LINE
  8
_2-0_
  6
CONTINUOUS
 62
    7
 10
634.05304825525252
 20
481.06209014366317
 11
634.82104825525255
 21
481.06209014366317
  0
LINE
  8
_2-0_
  6
CONTINUOUS
 62
    7
 10
634.82104825525255
 20
481.06209014366317
 11
634.82104825525255
 21
479.52609014366317
  0
LINE
  8
_2-0_
  6
CONTINUOUS
 62
    7
 10
634.82104825525255
 20
479.52609014366317
 11
636.35704825525249
 21
479.52609014366317
  0
LINE
  8
_2-0_
  6
CONTINUOUS
 62
    7
 10
636.35704825525249
 20
479.52609014366317
 11
636.35704825525249
 21
478.75809014366314
  0
LINE
  8
_2-0_
  6
CONTINUOUS
 62
    7
 10
634.82104825525255
 20
478.75809014366314
 11
636.35704825525249
 21
478.75809014366314
  0
LINE
  8
_2-0_
  6
CONTINUOUS
 62
    7
 10
634.82104825525255
 20
478.75809014366314
 11
634.82104825525255
 21
477.22209014366319
  0
LINE
  8
_2-0_
  6
CONTINUOUS
 62
    7
 10
634.05304825525252
 20
477.22209014366319
 11
634.82104825525255
 21
477.22209014366319
  0
LINE
  8
_2-0_
  6
CONTINUOUS
 62
    7
 10
634.05304825525252
 20
478.75809014366314
 11
634.05304825525252
 21
477.22209014366319
  0
LINE
  8
_2-0_
  6
CONTINUOUS
 62
    7
 10
632.51704825525258
 20
478.75809014366314
 11
634.05304825525252
 21
478.75809014366314
  0
LINE
  8
_2-0_
  6
CONTINUOUS
 62
    7
 10
632.51704825525258
 20
479.52609014366317
 11
632.51704825525258
 21
478.75809014366314
  0
LINE
  8
_2-0_
  6
CONTINUOUS
 62
    7
 10
635.01253249879574
 20
483.15483658115863
 11
634.63769638099313
 21
483.60154873509009
  0
LINE
  8
_2-0_
  6
CONTINUOUS
 62
    7
 10
636.19959532059261
 20
483.18197112509523
 11
637.08367838099309
 21
483.69239673509009
  0
LINE
  8
_2-0_
  6
CONTINUOUS
 62
    7
 10
503.96928459040623
 20
399.4944806876033
 11
530.81570659040631
 21
399.4944806876033
  0
LINE
  8
_2-0_
  6
CONTINUOUS
 62
    7
 10
503.96928459040623
 20
396.4944806876033
 11
530.32188459040628
 21
396.4944806876033
  0
LINE
  8
_2-0_
  6
CONTINUOUS
 62
    2
 10
161.12768859040631
 20
407.58858868760331
 11
164.62297459040627
 21
411.08387468760327
  0
LINE
  8
_2-0_
  6
CONTINUOUS
 62
    2
 10
163.95611459040634
 20
407.58858868760331
 11
167.45140059040619
 21
411.08387468760327
  0
LINE
  8
_2-0_
  6
CONTINUOUS
 62
    2
 10
166.78454259040626
 20
407.58858868760331
 11
170.27982859040623
 21
411.08387468760327
  0
LINE
  8
_2-0_
  6
CONTINUOUS
 62
    2
 10
169.65710627999286
 20
407.58858868760331
 11
173.15239027999294
 21
411.08387468760327
  0
LINE
  8
_2-0_
  6
CONTINUOUS
 62
    2
 10
172.4855322799929
 20
407.58858868760331
 11
175.98081827999286
 21
411.08387468760327
  0
LINE
  8
_2-0_
  6
CONTINUOUS
 62
    2
 10
175.31396027999293
 20
407.58858868760331
 11
178.80924627999289
 21
411.08387468760327
  0
LINE
  8
_2-0_
  6
CONTINUOUS
 62
    2
 10
178.14238627999296
 20
407.58858868760331
 11
181.63767227999281
 21
411.08387468760327
  0
LINE
  8
_2-0_
  6
CONTINUOUS
 62
    2
 10
180.97081427999288
 20
407.58858868760331
 11
184.46610027999284
 21
411.08387468760327
  0
LINE
  8
_2-0_
  6
CONTINUOUS
 62
    2
 10
184.09170948654506
 20
407.58858868760331
 11
187.58699348654514
 21
411.08387468760327
  0
LINE
  8
_2-0_
  6
CONTINUOUS
 62
    2
 10
186.92013548654509
 20
407.58858868760331
 11
190.41542148654506
 21
411.08387468760327
  0
LINE
  8
_2-0_
  6
CONTINUOUS
 62
    2
 10
189.74856348654512
 20
407.58858868760331
 11
193.24384948654509
 21
411.08387468760327
  0
LINE
  8
_2-0_
  6
CONTINUOUS
 62
    2
 10
192.57698948654516
 20
407.58858868760331
 11
196.07227548654501
 21
411.08387468760327
  0
LINE
  8
_2-0_
  6
CONTINUOUS
 62
    2
 10
195.40541748654508
 20
407.58858868760331
 11
198.90070348654504
 21
411.08387468760327
  0
LINE
  8
_2-0_
  6
CONTINUOUS
 62
    2
 10
198.27798117613168
 20
407.58858868760331
 11
201.77326517613176
 21
411.08387468760327
  0
LINE
  8
_2-0_
  6
CONTINUOUS
 62
    2
 10
201.10640717613171
 20
407.58858868760331
 11
204.60169317613168
 21
411.08387468760327
  0
LINE
  8
_2-0_
  6
CONTINUOUS
 62
    2
 10
203.93483517613174
 20
407.58858868760331
 11
207.43012117613171
 21
411.08387468760327
  0
LINE
  8
_2-0_
  6
CONTINUOUS
 62
    2
 10
206.76326117613178
 20
407.58858868760331
 11
210.25854717613163
 21
411.08387468760327
  0
LINE
  8
_2-0_
  6
CONTINUOUS
 62
    2
 10
209.59168917613169
 20
407.58858868760331
 11
213.08697517613166
 21
411.08387468760327
  0
LINE
  8
_2-0_
  6
CONTINUOUS
 62
    2
 10
212.53104732919368
 20
407.58858868760331
 11
216.02633132919377
 21
411.08387468760327
  0
LINE
  8
_2-0_
  6
CONTINUOUS
 62
    2
 10
215.35947332919372
 20
407.58858868760331
 11
218.85475932919368
 21
411.08387468760327
  0
LINE
  8
_2-0_
  6
CONTINUOUS
 62
    2
 10
218.18790132919375
 20
407.58858868760331
 11
221.68318732919371
 21
411.08387468760327
  0
LINE
  8
_2-0_
  6
CONTINUOUS
 62
    2
 10
221.01632732919379
 20
407.58858868760331
 11
224.51161332919364
 21
411.08387468760327
  0
LINE
  8
_2-0_
  6
CONTINUOUS
 62
    2
 10
223.8447553291937
 20
407.58858868760331
 11
227.34004132919367
 21
411.08387468760327
  0
LINE
  8
_2-0_
  6
CONTINUOUS
 62
    2
 10
226.7173190187803
 20
407.58858868760331
 11
230.21260301878038
 21
411.08387468760327
  0
LINE
  8
_2-0_
  6
CONTINUOUS
 62
    2
 10
229.54574501878034
 20
407.58858868760331
 11
233.0410310187803
 21
411.08387468760327
  0
LINE
  8
_2-0_
  6
CONTINUOUS
 62
    2
 10
232.37417301878037
 20
407.58858868760331
 11
235.86945901878033
 21
411.08387468760327
  0
LINE
  8
_2-0_
  6
CONTINUOUS
 62
    2
 10
235.2025990187804
 20
407.58858868760331
 11
238.69788501878025
 21
411.08387468760327
  0
LINE
  8
_2-0_
  6
CONTINUOUS
 62
    2
 10
238.03102701878032
 20
407.58858868760331
 11
241.52631301878029
 21
411.08387468760327
  0
LINE
  8
_2-0_
  6
CONTINUOUS
 62
    2
 10
241.05187324589002
 20
407.58858868760331
 11
244.54715724589011
 21
411.08387468760327
  0
LINE
  8
_2-0_
  6
CONTINUOUS
 62
    2
 10
243.88029924589006
 20
407.58858868760331
 11
247.37558524589002
 21
411.08387468760327
  0
LINE
  8
_2-0_
  6
CONTINUOUS
 62
    2
 10
246.70872724589009
 20
407.58858868760331
 11
250.20401324589005
 21
411.08387468760327
  0
LINE
  8
_2-0_
  6
CONTINUOUS
 62
    2
 10
249.53715324589012
 20
407.58858868760331
 11
253.03243924588998
 21
411.08387468760327
  0
LINE
  8
_2-0_
  6
CONTINUOUS
 62
    2
 10
252.36558124589004
 20
407.58858868760331
 11
255.86086724589001
 21
411.08387468760327
  0
LINE
  8
_2-0_
  6
CONTINUOUS
 62
    2
 10
255.23814493547664
 20
407.58858868760331
 11
258.7334289354767
 21
411.08387468760327
  0
LINE
  8
_2-0_
  6
CONTINUOUS
 62
    2
 10
258.06657093547665
 20
407.58858868760331
 11
261.56185693547661
 21
411.08387468760327
  0
LINE
  8
_2-0_
  6
CONTINUOUS
 62
    2
 10
260.89499893547668
 20
407.58858868760331
 11
264.39028493547664
 21
411.08387468760327
  0
LINE
  8
_2-0_
  6
CONTINUOUS
 62
    2
 10
263.72342493547671
 20
407.58858868760331
 11
267.21871093547657
 21
411.08387468760327
  0
LINE
  8
_2-0_
  6
CONTINUOUS
 62
    2
 10
266.55185293547663
 20
407.58858868760331
 11
270.0471389354766
 21
411.08387468760327
  0
LINE
  8
_2-0_
  6
CONTINUOUS
 62
    2
 10
269.57269916258633
 20
407.58858868760331
 11
273.06798316258642
 21
411.08387468760327
  0
LINE
  8
_2-0_
  6
CONTINUOUS
 62
    2
 10
272.40112516258637
 20
407.58858868760331
 11
275.89641116258633
 21
411.08387468760327
  0
LINE
  8
_2-0_
  6
CONTINUOUS
 62
    2
 10
275.2295531625864
 20
407.58858868760331
 11
278.72483916258636
 21
411.08387468760327
  0
LINE
  8
_2-0_
  6
CONTINUOUS
 62
    2
 10
278.05797916258643
 20
407.58858868760331
 11
281.55326516258629
 21
411.08387468760327
  0
LINE
  8
_2-0_
  6
CONTINUOUS
 62
    2
 10
280.88640716258635
 20
407.58858868760331
 11
284.38169316258632
 21
411.08387468760327
  0
LINE
  8
_2-0_
  6
CONTINUOUS
 62
    2
 10
283.75897085217298
 20
407.58858868760331
 11
287.25425485217306
 21
411.08387468760327
  0
LINE
  8
_2-0_
  6
CONTINUOUS
 62
    2
 10
286.58739685217301
 20
407.58858868760331
 11
290.08268285217298
 21
411.08387468760327
  0
LINE
  8
_2-0_
  6
CONTINUOUS
 62
    2
 10
289.41582485217305
 20
407.58858868760331
 11
292.91111085217301
 21
411.08387468760327
  0
LINE
  8
_2-0_
  6
CONTINUOUS
 62
    2
 10
292.24425085217308
 20
407.58858868760331
 11
295.73953685217293
 21
411.08387468760327
  0
LINE
  8
_2-0_
  6
CONTINUOUS
 62
    2
 10
295.072678852173
 20
407.58858868760331
 11
298.56796485217296
 21
411.08387468760327
  0
LINE
  8
_2-0_
  6
CONTINUOUS
 62
    2
 10
297.93054893118727
 20
407.58858868760331
 11
301.42583293118736
 21
411.08387468760327
  0
LINE
  8
_2-0_
  6
CONTINUOUS
 62
    2
 10
300.75897493118731
 20
407.58858868760331
 11
304.25426093118728
 21
411.08387468760327
  0
LINE
  8
_2-0_
  6
CONTINUOUS
 62
    2
 10
303.58740293118734
 20
407.58858868760331
 11
307.08268893118731
 21
411.08387468760327
  0
LINE
  8
_2-0_
  6
CONTINUOUS
 62
    2
 10
314.9452466207739
 20
407.58858868760331
 11
318.44053262077387
 21
411.08387468760327
  0
LINE
  8
_2-0_
  6
CONTINUOUS
 62
    2
 10
317.77367462077393
 20
407.58858868760331
 11
321.2689606207739
 21
411.08387468760327
  0
LINE
  8
_2-0_
  6
CONTINUOUS
 62
    2
 10
320.60210062077397
 20
407.58858868760331
 11
324.09738662077382
 21
411.08387468760327
  0
LINE
  8
_2-0_
  6
CONTINUOUS
 62
    2
 10
323.43052862077388
 20
407.58858868760331
 11
326.92581462077385
 21
411.08387468760327
  0
LINE
  8
_2-0_
  6
CONTINUOUS
 62
    2
 10
334.69219062574064
 20
407.58858868760331
 11
338.18747662574049
 21
411.08387468760327
  0
LINE
  8
_2-0_
  6
CONTINUOUS
 62
    2
 10
337.52061862574055
 20
407.58858868760331
 11
341.01590462574052
 21
411.08387468760327
  0
LINE
  8
_2-0_
  6
CONTINUOUS
 62
    2
 10
340.39318231532712
 20
407.58858868760331
 11
343.88846631532721
 21
411.08387468760327
  0
LINE
  8
_2-0_
  6
CONTINUOUS
 62
    2
 10
343.22160831532716
 20
407.58858868760331
 11
346.71689431532712
 21
411.08387468760327
  0
LINE
  8
_2-0_
  6
CONTINUOUS
 62
    2
 10
346.05003631532719
 20
407.58858868760331
 11
349.54532231532716
 21
411.08387468760327
  0
LINE
  8
_2-0_
  6
CONTINUOUS
 62
    2
 10
348.87846231532723
 20
407.58858868760331
 11
352.37374831532708
 21
411.08387468760327
  0
LINE
  8
_2-0_
  6
CONTINUOUS
 62
    2
 10
351.70689031532714
 20
407.58858868760331
 11
355.20217631532711
 21
411.08387468760327
  0
LINE
  8
_2-0_
  6
CONTINUOUS
 62
    2
 10
354.64624846838916
 20
407.58858868760331
 11
358.14153246838924
 21
411.08387468760327
  0
LINE
  8
_2-0_
  6
CONTINUOUS
 62
    2
 10
357.4746744683892
 20
407.58858868760331
 11
360.96996046838916
 21
411.08387468760327
  0
LINE
  8
_2-0_
  6
CONTINUOUS
 62
    2
 10
360.30310246838923
 20
407.58858868760331
 11
363.79838846838919
 21
411.08387468760327
  0
LINE
  8
_2-0_
  6
CONTINUOUS
 62
    2
 10
363.13152846838926
 20
407.58858868760331
 11
366.62681446838911
 21
411.08387468760327
  0
LINE
  8
_2-0_
  6
CONTINUOUS
 62
    2
 10
365.95995646838918
 20
407.58858868760331
 11
369.45524246838914
 21
411.08387468760327
  0
LINE
  8
_2-0_
  6
CONTINUOUS
 62
    2
 10
368.83252015797575
 20
407.58858868760331
 11
372.32780415797583
 21
411.08387468760327
  0
LINE
  8
_2-0_
  6
CONTINUOUS
 62
    2
 10
371.66094615797579
 20
407.58858868760331
 11
375.15623215797575
 21
411.08387468760327
  0
LINE
  8
_2-0_
  6
CONTINUOUS
 62
    2
 10
374.48937415797582
 20
407.58858868760331
 11
377.98466015797578
 21
411.08387468760327
  0
LINE
  8
_2-0_
  6
CONTINUOUS
 62
    2
 10
377.31780015797585
 20
407.58858868760331
 11
380.8130861579757
 21
411.08387468760327
  0
LINE
  8
_2-0_
  6
CONTINUOUS
 62
    2
 10
380.14622815797577
 20
407.58858868760331
 11
383.64151415797573
 21
411.08387468760327
  0
LINE
  8
_2-0_
  6
CONTINUOUS
 62
    2
 10
383.08558631103779
 20
407.58858868760331
 11
386.58087031103787
 21
411.08387468760327
  0
LINE
  8
_2-0_
  6
CONTINUOUS
 62
    2
 10
385.91401231103782
 20
407.58858868760331
 11
389.40929831103779
 21
411.08387468760327
  0
LINE
  8
_2-0_
  6
CONTINUOUS
 62
    2
 10
388.74244031103785
 20
407.58858868760331
 11
392.23772631103782
 21
411.08387468760327
  0
LINE
  8
_2-0_
  6
CONTINUOUS
 62
    2
 10
391.57086631103789
 20
407.58858868760331
 11
395.06615231103774
 21
411.08387468760327
  0
LINE
  8
_2-0_
  6
CONTINUOUS
 62
    2
 10
394.39929431103781
 20
407.58858868760331
 11
397.89458031103777
 21
411.08387468760327
  0
LINE
  8
_2-0_
  6
CONTINUOUS
 62
    2
 10
397.27185800062443
 20
407.58858868760331
 11
400.76714200062452
 21
411.08387468760327
  0
LINE
  8
_2-0_
  6
CONTINUOUS
 62
    2
 10
400.10028400062447
 20
407.58858868760331
 11
403.59557000062443
 21
411.08387468760327
  0
LINE
  8
_2-0_
  6
CONTINUOUS
 62
    2
 10
402.9287120006245
 20
407.58858868760331
 11
406.42399800062447
 21
411.08387468760327
  0
LINE
  8
_2-0_
  6
CONTINUOUS
 62
    2
 10
405.75713800062454
 20
407.58858868760331
 11
409.25242400062439
 21
411.08387468760327
  0
LINE
  8
_2-0_
  6
CONTINUOUS
 62
    2
 10
408.58556600062445
 20
407.58858868760331
 11
412.08085200062442
 21
411.08387468760327
  0
LINE
  8
_2-0_
  6
CONTINUOUS
 62
    2
 10
411.44343607963867
 20
407.58858868760331
 11
414.93872007963876
 21
411.08387468760327
  0
LINE
  8
_2-0_
  6
CONTINUOUS
 62
    2
 10
414.27186207963871
 20
407.58858868760331
 11
417.76714807963867
 21
411.08387468760327
  0
LINE
  8
_2-0_
  6
CONTINUOUS
 62
    2
 10
417.10029007963874
 20
407.58858868760331
 11
420.5955760796387
 21
411.08387468760327
  0
LINE
  8
_2-0_
  6
CONTINUOUS
 62
    2
 10
419.92871607963878
 20
407.58858868760331
 11
423.42400207963863
 21
411.08387468760327
  0
LINE
  8
_2-0_
  6
CONTINUOUS
 62
    2
 10
422.75714407963869
 20
407.58858868760331
 11
426.25243007963866
 21
411.08387468760327
  0
LINE
  8
_2-0_
  6
CONTINUOUS
 62
    2
 10
425.62970776922532
 20
407.58858868760331
 11
429.1249917692254
 21
411.08387468760327
  0
LINE
  8
_2-0_
  6
CONTINUOUS
 62
    2
 10
428.45813376922536
 20
407.58858868760331
 11
431.95341976922532
 21
411.08387468760327
  0
LINE
  8
_2-0_
  6
CONTINUOUS
 62
    2
 10
431.28656176922539
 20
407.58858868760331
 11
434.78184776922535
 21
411.08387468760327
  0
LINE
  8
_2-0_
  6
CONTINUOUS
 62
    2
 10
434.11498776922542
 20
407.58858868760331
 11
437.61027376922527
 21
411.08387468760327
  0
LINE
  8
_2-0_
  6
CONTINUOUS
 62
    2
 10
436.94341576922534
 20
407.58858868760331
 11
440.4387017692253
 21
411.08387468760327
  0
LINE
  8
_2-0_
  6
CONTINUOUS
 62
    2
 10
440.12723814443046
 20
407.58858868760331
 11
443.62252214443055
 21
411.08387468760327
  0
LINE
  8
_2-0_
  6
CONTINUOUS
 62
    2
 10
442.9556641444305
 20
407.58858868760331
 11
446.45095014443046
 21
411.08387468760327
  0
LINE
  8
_2-0_
  6
CONTINUOUS
 62
    2
 10
445.78409214443053
 20
407.58858868760331
 11
449.2793781444305
 21
411.08387468760327
  0
LINE
  8
_2-0_
  6
CONTINUOUS
 62
    2
 10
448.61251814443057
 20
407.58858868760331
 11
452.10780414443042
 21
411.08387468760327
  0
LINE
  8
_2-0_
  6
CONTINUOUS
 62
    2
 10
451.44094614443048
 20
407.58858868760331
 11
454.93623214443045
 21
411.08387468760327
  0
LINE
  8
_2-0_
  6
CONTINUOUS
 62
    2
 10
454.31350983401705
 20
407.58858868760331
 11
457.80879383401714
 21
411.08387468760327
  0
LINE
  8
_2-0_
  6
CONTINUOUS
 62
    2
 10
457.14193583401709
 20
407.58858868760331
 11
460.63722183401705
 21
411.08387468760327
  0
LINE
  8
_2-0_
  6
CONTINUOUS
 62
    2
 10
459.97036383401712
 20
407.58858868760331
 11
463.46564983401709
 21
411.08387468760327
  0
LINE
  8
_2-0_
  6
CONTINUOUS
 62
    2
 10
462.79878983401716
 20
407.58858868760331
 11
466.29407583401701
 21
411.08387468760327
  0
LINE
  8
_2-0_
  6
CONTINUOUS
 62
    2
 10
465.62721783401707
 20
407.58858868760331
 11
469.12250383401704
 21
411.08387468760327
  0
LINE
  8
_2-0_
  6
CONTINUOUS
 62
    2
 10
468.8110402092222
 20
407.58858868760331
 11
472.30632420922228
 21
411.08387468760327
  0
LINE
  8
_2-0_
  6
CONTINUOUS
 62
    2
 10
471.63946620922223
 20
407.58858868760331
 11
475.1347522092222
 21
411.08387468760327
  0
LINE
  8
_2-0_
  6
CONTINUOUS
 62
    2
 10
474.46789420922227
 20
407.58858868760331
 11
477.96318020922223
 21
411.08387468760327
  0
LINE
  8
_2-0_
  6
CONTINUOUS
 62
    2
 10
477.2963202092223
 20
407.58858868760331
 11
480.79160620922215
 21
411.08387468760327
  0
LINE
  8
_2-0_
  6
CONTINUOUS
 62
    2
 10
480.12474820922222
 20
407.58858868760331
 11
483.62003420922218
 21
411.08387468760327
  0
LINE
  8
_2-0_
  6
CONTINUOUS
 62
    2
 10
482.99731189880879
 20
407.58858868760331
 11
486.49259589880887
 21
411.08387468760327
  0
LINE
  8
_2-0_
  6
CONTINUOUS
 62
    2
 10
485.82573789880882
 20
407.58858868760331
 11
489.32102389880879
 21
411.08387468760327
  0
LINE
  8
_2-0_
  6
CONTINUOUS
 62
    2
 10
488.65416589880886
 20
407.58858868760331
 11
492.14945189880882
 21
411.08387468760327
  0
LINE
  8
_2-0_
  6
CONTINUOUS
 62
    2
 10
491.48259189880889
 20
407.58858868760331
 11
494.97787789880874
 21
411.08387468760327
  0
LINE
  8
_2-0_
  6
CONTINUOUS
 62
    2
 10
494.31101989880881
 20
407.58858868760331
 11
497.80630589880877
 21
411.08387468760327
  0
LINE
  8
_2-0_
  6
CONTINUOUS
 62
    2
 10
497.16888997782314
 20
407.58858868760331
 11
500.66417397782322
 21
411.08387468760327
  0
LINE
  8
_2-0_
  6
CONTINUOUS
 62
    2
 10
499.99731597782318
 20
407.58858868760331
 11
503.49260197782314
 21
411.08387468760327
  0
LINE
  8
_2-0_
  6
CONTINUOUS
 62
    2
 10
502.82574397782321
 20
407.58858868760331
 11
504.08895061210728
 21
408.85179532188738
  0
LINE
  8
_2-0_
  6
CONTINUOUS
 62
    2
 10
326.20691062574053
 20
407.58858868760331
 11
328.60117770777742
 21
409.98285713963878
  0
LINE
  8
_2-0_
  6
CONTINUOUS
 62
    2
 10
331.68852919504059
 20
410.24178125690344
 11
332.53062262574053
 21
411.08387468760327
  0
LINE
  8
_2-0_
  6
CONTINUOUS
 62
    2
 10
329.03533662574057
 20
407.58858868760331
 11
329.73480306101629
 21
408.28805512287909
  0
LINE
  8
_2-0_
  6
CONTINUOUS
 62
    2
 10
332.86372350843124
 20
408.58854757029405
 11
335.35905062574057
 21
411.08387468760327
  0
LINE
  8
_2-0_
  6
CONTINUOUS
 62
    7
 10
499.98884391418926
 20
410.68387468760329
 11
503.96928459040623
 21
410.68387468760329
  0
LINE
  8
_2-0_
  6
CONTINUOUS
 62
    7
 10
499.96928459040623
 20
411.08387468760327
 11
499.96928459040623
 21
384.18858868760333
  0
LINE
  8
_2-0_
  6
CONTINUOUS
 62
    7
 10
499.97164295669683
 20
384.58858868760336
 11
503.96928459040623
 21
384.58858868760336
  0
LINE
  8
_2-0_
  6
CONTINUOUS
 62
    7
 10
503.96928459040623
 20
410.68387468760329
 11
503.96928459040623
 21
384.58858868760336
  0
LINE
  8
_2-0_
  6
CONTINUOUS
 62
    7
 10
155.13375859040622
 20
410.68387468760329
 11
155.13375859040622
 21
384.58858868760336
  0
LINE
  8
_2-0_
  6
CONTINUOUS
 62
    7
 10
159.13375859040622
 20
411.08387468760327
 11
159.13375859040622
 21
384.18858868760333
  0
LINE
  8
_2-0_
  6
CONTINUOUS
 62
    7
 10
155.13375859040622
 20
384.58858868760336
 11
159.14700547790272
 21
384.58858868760336
  0
LINE
  8
_2-0_
  6
CONTINUOUS
 62
    7
 10
155.13375859040622
 20
410.68387468760329
 11
159.12786589125136
 21
410.68387468760329
  0
LINE
  8
_2-0_
  6
CONTINUOUS
 62
    2
 10
159.13313597392954
 20
408.42246407112657
 11
161.79454659040624
 21
411.08387468760327
  0
TEXT
  8
_2-0_
 62
    7
 10
78.641221374045813
 20
495.56475614097542
 40
12
 41
1
 50
0
  1
③
  0
LINE
  8
_2-0_
  6
CONTINUOUS
 62
    7
 10
82.361205145937504
 20
494.83681185839328
 11
74.13125856895789
 21
470.49718262009185
  0
TEXT
  8
_2-0_
 62
    7
 10
409.82313121129192
 20
364.04493734696814
 40
12
 41
1
 50
0
  1
②
  0
LINE
  8
_2-0_
  6
CONTINUOUS
 62
    7
 10
398.27308080080655
 20
395.44663690047531
 11
411.44735705026648
 21
375.95592683278124
  0
TEXT
  8
_2-0_
 62
    7
 10
546.33962264150944
 20
495.56475614097542
 40
12
 41
1
 50
0
  1
④
  0
LINE
  8
_2-0_
  6
CONTINUOUS
 62
    7
 10
554.26543253826981
 20
495.40028479886081
 11
565.08465646137415
 21
470.04777500889998
  0
LINE
  8
_2-0_
  6
CONTINUOUS
 62
    7
 10
146.2287195736713
 20
495.74837966296991
 11
156.71813337174132
 21
482.688031110471
  0
LINE
  8
_2-0_
  6
CONTINUOUS
 62
    7
 10
403.96928459040623
 20
495.15777167983435
 11
403.96928459040623
 21
445.85047967983428
  0
LINE
  8
_2-0_
  6
CONTINUOUS
 62
    7
 10
411.32133083681407
 20
495.15777167983435
 11
403.96928459040623
 21
495.15777167983435
  0
LINE
  8
_2-0_
  6
CONTINUOUS
 62
    7
 10
403.96928459040623
 20
445.85047967983428
 11
411.32133083681407
 21
445.85047967983428
  0
TEXT
  8
_2-0_
 62
    7
 10
413.28532334725622
 20
491.56834221518079
 40
8
 41
1
 50
0
  1
A
  0
TEXT
  8
_2-0_
 62
    7
 10
413.28532334725622
 20
442.4060204522541
 40
8
 41
1
 50
0
  1
A
  0
LINE
  8
_2-0_
  6
CONTINUOUS
 62
    7
 10
307.31499393876271
 20
485.25047967983426
 11
307.36690193876274
 21
485.1648176798343
  0
LINE
  8
_2-0_
  6
CONTINUOUS
 62
    7
 10
307.36690193876274
 20
485.1648176798343
 11
307.52114593876274
 21
484.91018367983429
  0
LINE
  8
_2-0_
  6
CONTINUOUS
 62
    7
 10
307.52114593876274
 20
484.91018367983429
 11
307.77299593876273
 21
484.49368167983425
  0
LINE
  8
_2-0_
  6
CONTINUOUS
 62
    7
 10
307.77299593876273
 20
484.49368167983425
 11
308.11368193876274
 21
483.92723967983432
  0
LINE
  8
_2-0_
  6
CONTINUOUS
 62
    7
 10
308.11368193876274
 20
483.92723967983432
 11
308.52950193876273
 21
483.22762367983432
  0
LINE
  8
_2-0_
  6
CONTINUOUS
 62
    7
 10
308.52950193876273
 20
483.22762367983432
 11
309.00126393876275
 21
482.4162576798343
  0
LINE
  8
_2-0_
  6
CONTINUOUS
 62
    7
 10
309.00126393876275
 20
482.4162576798343
 11
309.50453793876272
 21
481.51872567983435
  0
LINE
  8
_2-0_
  6
CONTINUOUS
 62
    7
 10
309.50453793876272
 20
481.51872567983435
 11
310.01100393876271
 21
480.5638616798343
  0
LINE
  8
_2-0_
  6
CONTINUOUS
 62
    7
 10
310.01100393876271
 20
480.5638616798343
 11
310.49092393876276
 21
479.58246567983429
  0
LINE
  8
_2-0_
  6
CONTINUOUS
 62
    7
 10
310.49092393876276
 20
479.58246567983429
 11
310.91645193876275
 21
478.60570567983427
  0
LINE
  8
_2-0_
  6
CONTINUOUS
 62
    7
 10
310.91645193876275
 20
478.60570567983427
 11
311.26525593876272
 21
477.66342567983429
  0
LINE
  8
_2-0_
  6
CONTINUOUS
 62
    7
 10
311.26525593876272
 20
477.66342567983429
 11
311.52369793876272
 21
476.78256167983432
  0
LINE
  8
_2-0_
  6
CONTINUOUS
 62
    7
 10
311.52369793876272
 20
476.78256167983432
 11
311.68891593876276
 21
475.98588967983426
  0
LINE
  8
_2-0_
  6
CONTINUOUS
 62
    7
 10
311.68891593876276
 20
475.98588967983426
 11
311.76922593876276
 21
475.29131567983427
  0
LINE
  8
_2-0_
  6
CONTINUOUS
 62
    7
 10
311.76922593876276
 20
475.29131567983427
 11
311.78261793876271
 21
474.71176367983435
  0
LINE
  8
_2-0_
  6
CONTINUOUS
 62
    7
 10
311.78261793876271
 20
474.71176367983435
 11
311.75350593876271
 21
474.25565167983427
  0
LINE
  8
_2-0_
  6
CONTINUOUS
 62
    7
 10
311.75350593876271
 20
474.25565167983427
 11
311.70826393876274
 21
473.9277876798343
  0
LINE
  8
_2-0_
  6
CONTINUOUS
 62
    7
 10
311.70826393876274
 20
473.9277876798343
 11
311.67031793876276
 21
473.73049567983435
  0
LINE
  8
_2-0_
  6
CONTINUOUS
 62
    7
 10
311.67031793876276
 20
473.73049567983435
 11
311.65575993876274
 21
473.66466367983435
  0
LINE
  8
_2-0_
  6
CONTINUOUS
 62
    7
 10
311.65575993876274
 20
473.66466367983435
 11
311.64029193876274
 21
473.59910167983435
  0
LINE
  8
_2-0_
  6
CONTINUOUS
 62
    7
 10
311.64029193876274
 20
473.59910167983435
 11
311.58904593876275
 21
473.40578567983425
  0
LINE
  8
_2-0_
  6
CONTINUOUS
 62
    7
 10
311.58904593876275
 20
473.40578567983425
 11
311.48889393876271
 21
473.09438767983431
  0
LINE
  8
_2-0_
  6
CONTINUOUS
 62
    7
 10
311.48889393876271
 20
473.09438767983431
 11
311.32229793876274
 21
472.67969367983426
  0
LINE
  8
_2-0_
  6
CONTINUOUS
 62
    7
 10
311.32229793876274
 20
472.67969367983426
 11
311.07270393876274
 21
472.17987367983426
  0
LINE
  8
_2-0_
  6
CONTINUOUS
 62
    7
 10
311.07270393876274
 20
472.17987367983426
 11
310.73010193876274
 21
471.61458967983435
  0
LINE
  8
_2-0_
  6
CONTINUOUS
 62
    7
 10
310.73010193876274
 20
471.61458967983435
 11
310.29538593876276
 21
471.00325967983429
  0
LINE
  8
_2-0_
  6
CONTINUOUS
 62
    7
 10
310.29538593876276
 20
471.00325967983429
 11
309.78239993876275
 21
470.36383967983431
  0
LINE
  8
_2-0_
  6
CONTINUOUS
 62
    7
 10
309.78239993876275
 20
470.36383967983431
 11
309.21710993876275
 21
469.71223967983428
  0
LINE
  8
_2-0_
  6
CONTINUOUS
 62
    7
 10
309.21710993876275
 20
469.71223967983428
 11
308.63402193876271
 21
469.06242767983429
  0
LINE
  8
_2-0_
  6
CONTINUOUS
 62
    7
 10
308.63402193876271
 20
469.06242767983429
 11
308.07065593876274
 21
468.42705967983431
  0
LINE
  8
_2-0_
  6
CONTINUOUS
 62
    7
 10
308.07065593876274
 20
468.42705967983431
 11
307.56131393876274
 21
467.81834167983425
  0
LINE
  8
_2-0_
  6
CONTINUOUS
 62
    7
 10
307.56131393876274
 20
467.81834167983425
 11
307.13156193876273
 21
467.24885967983425
  0
LINE
  8
_2-0_
  6
CONTINUOUS
 62
    7
 10
307.13156193876273
 20
467.24885967983425
 11
306.79470993876276
 21
466.73203167983434
  0
LINE
  8
_2-0_
  6
CONTINUOUS
 62
    7
 10
306.79470993876276
 20
466.73203167983434
 11
306.55102593876273
 21
466.2820296798343
  0
LINE
  8
_2-0_
  6
CONTINUOUS
 62
    7
 10
306.55102593876273
 20
466.2820296798343
 11
306.38986193876275
 21
465.91311367983428
  0
LINE
  8
_2-0_
  6
CONTINUOUS
 62
    7
 10
306.38986193876275
 20
465.91311367983428
 11
306.29407193876273
 21
465.63849167983426
  0
LINE
  8
_2-0_
  6
CONTINUOUS
 62
    7
 10
306.29407193876273
 20
465.63849167983426
 11
306.24564793876272
 21
465.46896767983435
  0
LINE
  8
_2-0_
  6
CONTINUOUS
 62
    7
 10
306.24564793876272
 20
465.46896767983435
 11
306.23115793876275
 21
465.41163367983427
  0
LINE
  8
_2-0_
  6
CONTINUOUS
 62
    7
 10
306.23115793876275
 20
465.41163367983427
 11
306.21758993876273
 21
465.35414167983436
  0
LINE
  8
_2-0_
  6
CONTINUOUS
 62
    7
 10
306.21758993876273
 20
465.35414167983436
 11
306.18266193876275
 21
465.18230167983427
  0
LINE
  8
_2-0_
  6
CONTINUOUS
 62
    7
 10
306.18266193876275
 20
465.18230167983427
 11
306.14260993876275
 21
464.89817567983425
  0
LINE
  8
_2-0_
  6
CONTINUOUS
 62
    7
 10
306.14260993876275
 20
464.89817567983425
 11
306.12104193876274
 21
464.50563567983431
  0
LINE
  8
_2-0_
  6
CONTINUOUS
 62
    7
 10
306.12104193876274
 20
464.50563567983431
 11
306.14449793876275
 21
464.01092767983425
  0
LINE
  8
_2-0_
  6
CONTINUOUS
 62
    7
 10
306.14449793876275
 20
464.01092767983425
 11
306.23748793876274
 21
463.42321967983435
  0
LINE
  8
_2-0_
  6
CONTINUOUS
 62
    7
 10
306.23748793876274
 20
463.42321967983435
 11
306.41794793876272
 21
462.75501767983428
  0
LINE
  8
_2-0_
  6
CONTINUOUS
 62
    7
 10
306.41794793876272
 20
462.75501767983428
 11
306.69396993876273
 21
462.02231367983427
  0
LINE
  8
_2-0_
  6
CONTINUOUS
 62
    7
 10
306.69396993876273
 20
462.02231367983427
 11
307.06226793876272
 21
461.24435967983425
  0
LINE
  8
_2-0_
  6
CONTINUOUS
 62
    7
 10
307.06226793876272
 20
461.24435967983425
 11
307.50861993876276
 21
460.4430976798343
  0
LINE
  8
_2-0_
  6
CONTINUOUS
 62
    7
 10
307.50861993876276
 20
460.4430976798343
 11
308.00995993876273
 21
459.64225567983431
  0
LINE
  8
_2-0_
  6
CONTINUOUS
 62
    7
 10
308.00995993876273
 20
459.64225567983431
 11
308.53764793876275
 21
458.86625567983435
  0
LINE
  8
_2-0_
  6
CONTINUOUS
 62
    7
 10
308.53764793876275
 20
458.86625567983435
 11
309.06112993876275
 21
458.13904167983435
  0
LINE
  8
_2-0_
  6
CONTINUOUS
 62
    7
 10
309.06112993876275
 20
458.13904167983435
 11
309.55131993876273
 21
457.48299967983428
  0
LINE
  8
_2-0_
  6
CONTINUOUS
 62
    7
 10
309.55131993876273
 20
457.48299967983428
 11
309.98311793876275
 21
456.91804367983434
  0
LINE
  8
_2-0_
  6
CONTINUOUS
 62
    7
 10
309.98311793876275
 20
456.91804367983434
 11
310.33677793876274
 21
456.46095167983435
  0
LINE
  8
_2-0_
  6
CONTINUOUS
 62
    7
 10
310.33677793876274
 20
456.46095167983435
 11
310.59817993876271
 21
456.12496367983431
  0
LINE
  8
_2-0_
  6
CONTINUOUS
 62
    7
 10
310.59817993876271
 20
456.12496367983431
 11
310.75826593876275
 21
455.91957367983434
  0
LINE
  8
_2-0_
  6
CONTINUOUS
 62
    7
 10
310.75826593876275
 20
455.91957367983434
 11
310.81213993876275
 21
455.85047967983428
  0
LINE
  8
_2-0_
  6
CONTINUOUS
 62
    7
 10
310.60210393876275
 20
485.25047967983426
 11
310.65400993876273
 21
485.1648176798343
  0
LINE
  8
_2-0_
  6
CONTINUOUS
 62
    7
 10
310.65400993876273
 20
485.1648176798343
 11
310.80825593876273
 21
484.91018367983429
  0
LINE
  8
_2-0_
  6
CONTINUOUS
 62
    7
 10
310.80825593876273
 20
484.91018367983429
 11
311.06010393876272
 21
484.49368167983425
  0
LINE
  8
_2-0_
  6
CONTINUOUS
 62
    7
 10
311.06010393876272
 20
484.49368167983425
 11
311.40079193876272
 21
483.92723967983432
  0
LINE
  8
_2-0_
  6
CONTINUOUS
 62
    7
 10
311.40079193876272
 20
483.92723967983432
 11
311.81661193876272
 21
483.22762367983432
  0
LINE
  8
_2-0_
  6
CONTINUOUS
 62
    7
 10
311.81661193876272
 20
483.22762367983432
 11
312.28837393876273
 21
482.4162576798343
  0
LINE
  8
_2-0_
  6
CONTINUOUS
 62
    7
 10
312.28837393876273
 20
482.4162576798343
 11
312.79164793876276
 21
481.51872567983435
  0
LINE
  8
_2-0_
  6
CONTINUOUS
 62
    7
 10
312.79164793876276
 20
481.51872567983435
 11
313.29811393876275
 21
480.5638616798343
  0
LINE
  8
_2-0_
  6
CONTINUOUS
 62
    7
 10
313.29811393876275
 20
480.5638616798343
 11
313.77803393876275
 21
479.58246567983429
  0
LINE
  8
_2-0_
  6
CONTINUOUS
 62
    7
 10
313.77803393876275
 20
479.58246567983429
 11
314.20356193876273
 21
478.60570567983427
  0
LINE
  8
_2-0_
  6
CONTINUOUS
 62
    7
 10
314.20356193876273
 20
478.60570567983427
 11
314.55236393876277
 21
477.66342567983429
  0
LINE
  8
_2-0_
  6
CONTINUOUS
 62
    7
 10
314.55236393876277
 20
477.66342567983429
 11
314.81080593876271
 21
476.78256167983432
  0
LINE
  8
_2-0_
  6
CONTINUOUS
 62
    7
 10
314.81080593876271
 20
476.78256167983432
 11
314.97602593876275
 21
475.98588967983426
  0
LINE
  8
_2-0_
  6
CONTINUOUS
 62
    7
 10
314.97602593876275
 20
475.98588967983426
 11
315.05633593876274
 21
475.29131567983427
  0
LINE
  8
_2-0_
  6
CONTINUOUS
 62
    7
 10
315.05633593876274
 20
475.29131567983427
 11
315.06972593876276
 21
474.71176367983435
  0
LINE
  8
_2-0_
  6
CONTINUOUS
 62
    7
 10
315.06972593876276
 20
474.71176367983435
 11
315.04061593876276
 21
474.25565167983427
  0
LINE
  8
_2-0_
  6
CONTINUOUS
 62
    7
 10
315.04061593876276
 20
474.25565167983427
 11
314.99537393876273
 21
473.9277876798343
  0
LINE
  8
_2-0_
  6
CONTINUOUS
 62
    7
 10
314.99537393876273
 20
473.9277876798343
 11
314.95742593876275
 21
473.73049567983435
  0
LINE
  8
_2-0_
  6
CONTINUOUS
 62
    7
 10
314.95742593876275
 20
473.73049567983435
 11
314.94286993876273
 21
473.66466367983435
  0
LINE
  8
_2-0_
  6
CONTINUOUS
 62
    7
 10
314.94286993876273
 20
473.66466367983435
 11
314.92740193876273
 21
473.59910167983435
  0
LINE
  8
_2-0_
  6
CONTINUOUS
 62
    7
 10
314.92740193876273
 20
473.59910167983435
 11
314.87615593876274
 21
473.40578567983425
  0
LINE
  8
_2-0_
  6
CONTINUOUS
 62
    7
 10
314.87615593876274
 20
473.40578567983425
 11
314.77600193876276
 21
473.09438767983431
  0
LINE
  8
_2-0_
  6
CONTINUOUS
 62
    7
 10
314.77600193876276
 20
473.09438767983431
 11
314.60940793876273
 21
472.67969367983426
  0
LINE
  8
_2-0_
  6
CONTINUOUS
 62
    7
 10
314.60940793876273
 20
472.67969367983426
 11
314.35981393876273
 21
472.17987367983426
  0
LINE
  8
_2-0_
  6
CONTINUOUS
 62
    7
 10
314.35981393876273
 20
472.17987367983426
 11
314.01720993876273
 21
471.61458967983435
  0
LINE
  8
_2-0_
  6
CONTINUOUS
 62
    7
 10
314.01720993876273
 20
471.61458967983435
 11
313.58249393876275
 21
471.00325967983429
  0
LINE
  8
_2-0_
  6
CONTINUOUS
 62
    7
 10
313.58249393876275
 20
471.00325967983429
 11
313.06950993876274
 21
470.36383967983431
  0
LINE
  8
_2-0_
  6
CONTINUOUS
 62
    7
 10
313.06950993876274
 20
470.36383967983431
 11
312.50421793876274
 21
469.71223967983428
  0
LINE
  8
_2-0_
  6
CONTINUOUS
 62
    7
 10
312.50421793876274
 20
469.71223967983428
 11
311.92112993876276
 21
469.06242767983429
  0
LINE
  8
_2-0_
  6
CONTINUOUS
 62
    7
 10
311.92112993876276
 20
469.06242767983429
 11
311.35776593876272
 21
468.42705967983431
  0
LINE
  8
_2-0_
  6
CONTINUOUS
 62
    7
 10
311.35776593876272
 20
468.42705967983431
 11
310.84842393876272
 21
467.81834167983425
  0
LINE
  8
_2-0_
  6
CONTINUOUS
 62
    7
 10
310.84842393876272
 20
467.81834167983425
 11
310.41867193876271
 21
467.24885967983425
  0
LINE
  8
_2-0_
  6
CONTINUOUS
 62
    7
 10
310.41867193876271
 20
467.24885967983425
 11
310.08181793876275
 21
466.73203167983434
  0
LINE
  8
_2-0_
  6
CONTINUOUS
 62
    7
 10
310.08181793876275
 20
466.73203167983434
 11
309.83813393876272
 21
466.2820296798343
  0
LINE
  8
_2-0_
  6
CONTINUOUS
 62
    7
 10
309.83813393876272
 20
466.2820296798343
 11
309.67696993876274
 21
465.91311367983428
  0
LINE
  8
_2-0_
  6
CONTINUOUS
 62
    7
 10
309.67696993876274
 20
465.91311367983428
 11
309.58118193876271
 21
465.63849167983426
  0
LINE
  8
_2-0_
  6
CONTINUOUS
 62
    7
 10
309.58118193876271
 20
465.63849167983426
 11
309.53275793876276
 21
465.46896767983435
  0
LINE
  8
_2-0_
  6
CONTINUOUS
 62
    7
 10
309.53275793876276
 20
465.46896767983435
 11
309.51826593876274
 21
465.41163367983427
  0
LINE
  8
_2-0_
  6
CONTINUOUS
 62
    7
 10
309.51826593876274
 20
465.41163367983427
 11
309.50469793876272
 21
465.35414167983436
  0
LINE
  8
_2-0_
  6
CONTINUOUS
 62
    7
 10
309.50469793876272
 20
465.35414167983436
 11
309.46977193876273
 21
465.18230167983427
  0
LINE
  8
_2-0_
  6
CONTINUOUS
 62
    7
 10
309.46977193876273
 20
465.18230167983427
 11
309.42971793876274
 21
464.89817567983425
  0
LINE
  8
_2-0_
  6
CONTINUOUS
 62
    7
 10
309.42971793876274
 20
464.89817567983425
 11
309.40814993876273
 21
464.50563567983431
  0
LINE
  8
_2-0_
  6
CONTINUOUS
 62
    7
 10
309.40814993876273
 20
464.50563567983431
 11
309.43160793876274
 21
464.01092767983425
  0
LINE
  8
_2-0_
  6
CONTINUOUS
 62
    7
 10
309.43160793876274
 20
464.01092767983425
 11
309.52459593876273
 21
463.42321967983435
  0
LINE
  8
_2-0_
  6
CONTINUOUS
 62
    7
 10
309.52459593876273
 20
463.42321967983435
 11
309.70505793876276
 21
462.75501767983428
  0
LINE
  8
_2-0_
  6
CONTINUOUS
 62
    7
 10
309.70505793876276
 20
462.75501767983428
 11
309.98107793876272
 21
462.02231367983427
  0
LINE
  8
_2-0_
  6
CONTINUOUS
 62
    7
 10
309.98107793876272
 20
462.02231367983427
 11
310.34937793876276
 21
461.24435967983425
  0
LINE
  8
_2-0_
  6
CONTINUOUS
 62
    7
 10
310.34937793876276
 20
461.24435967983425
 11
310.79572793876275
 21
460.4430976798343
  0
LINE
  8
_2-0_
  6
CONTINUOUS
 62
    7
 10
310.79572793876275
 20
460.4430976798343
 11
311.29706993876272
 21
459.64225567983431
  0
LINE
  8
_2-0_
  6
CONTINUOUS
 62
    7
 10
311.29706993876272
 20
459.64225567983431
 11
311.82475793876273
 21
458.86625567983435
  0
LINE
  8
_2-0_
  6
CONTINUOUS
 62
    7
 10
311.82475793876273
 20
458.86625567983435
 11
312.34823993876273
 21
458.13904167983435
  0
LINE
  8
_2-0_
  6
CONTINUOUS
 62
    7
 10
312.34823993876273
 20
458.13904167983435
 11
312.83842993876272
 21
457.48299967983428
  0
LINE
  8
_2-0_
  6
CONTINUOUS
 62
    7
 10
312.83842993876272
 20
457.48299967983428
 11
313.27022593876274
 21
456.91804367983434
  0
LINE
  8
_2-0_
  6
CONTINUOUS
 62
    7
 10
313.27022593876274
 20
456.91804367983434
 11
313.62388593876273
 21
456.46095167983435
  0
LINE
  8
_2-0_
  6
CONTINUOUS
 62
    7
 10
313.62388593876273
 20
456.46095167983435
 11
313.88528793876276
 21
456.12496367983431
  0
LINE
  8
_2-0_
  6
CONTINUOUS
 62
    7
 10
313.88528793876276
 20
456.12496367983431
 11
314.04537593876273
 21
455.91957367983434
  0
LINE
  8
_2-0_
  6
CONTINUOUS
 62
    7
 10
314.04537593876273
 20
455.91957367983434
 11
314.09924793876274
 21
455.85047967983428
  0
LINE
  8
_2-0_
  6
CONTINUOUS
 62
    7
 10
307.89592879726052
 20
411.08387468760327
 11
307.92876679726049
 21
411.03960868760328
  0
LINE
  8
_2-0_
  6
CONTINUOUS
 62
    7
 10
307.92876679726049
 20
411.03960868760328
 11
308.0263407972605
 21
410.90800868760334
  0
LINE
  8
_2-0_
  6
CONTINUOUS
 62
    7
 10
308.0263407972605
 20
410.90800868760334
 11
308.18561279726049
 21
410.69259668760333
  0
LINE
  8
_2-0_
  6
CONTINUOUS
 62
    7
 10
308.18561279726049
 20
410.69259668760333
 11
308.40088079726053
 21
410.39900268760334
  0
LINE
  8
_2-0_
  6
CONTINUOUS
 62
    7
 10
308.40088079726053
 20
410.39900268760334
 11
308.66311279726051
 21
410.03466268760326
  0
LINE
  8
_2-0_
  6
CONTINUOUS
 62
    7
 10
308.66311279726051
 20
410.03466268760326
 11
308.95953479726052
 21
409.60850068760328
  0
LINE
  8
_2-0_
  6
CONTINUOUS
 62
    7
 10
308.95953479726052
 20
409.60850068760328
 11
309.27378279726048
 21
409.13064068760332
  0
LINE
  8
_2-0_
  6
CONTINUOUS
 62
    7
 10
309.27378279726048
 20
409.13064068760332
 11
309.58683279726051
 21
408.61222468760332
  0
LINE
  8
_2-0_
  6
CONTINUOUS
 62
    7
 10
309.58683279726051
 20
408.61222468760332
 11
309.87874679726048
 21
408.06533268760336
  0
LINE
  8
_2-0_
  6
CONTINUOUS
 62
    7
 10
309.87874679726048
 20
408.06533268760336
 11
310.13099279726049
 21
407.50297068760335
  0
LINE
  8
_2-0_
  6
CONTINUOUS
 62
    7
 10
310.13099279726049
 20
407.50297068760335
 11
310.32901079726048
 21
406.93908668760332
  0
LINE
  8
_2-0_
  6
CONTINUOUS
 62
    7
 10
310.32901079726048
 20
406.93908668760332
 11
310.46444679726051
 21
406.3885286876033
  0
LINE
  8
_2-0_
  6
CONTINUOUS
 62
    7
 10
310.46444679726051
 20
406.3885286876033
 11
310.5366067972605
 21
405.86685468760334
  0
LINE
  8
_2-0_
  6
CONTINUOUS
 62
    7
 10
310.5366067972605
 20
405.86685468760334
 11
310.55270079726051
 21
405.38996068760332
  0
LINE
  8
_2-0_
  6
CONTINUOUS
 62
    7
 10
310.55270079726051
 20
405.38996068760332
 11
310.52674479726051
 21
404.97346868760326
  0
LINE
  8
_2-0_
  6
CONTINUOUS
 62
    7
 10
310.52674479726051
 20
404.97346868760326
 11
310.4771927972605
 21
404.63194868760331
  0
LINE
  8
_2-0_
  6
CONTINUOUS
 62
    7
 10
310.4771927972605
 20
404.63194868760331
 11
310.42371079726053
 21
404.3780346876033
  0
LINE
  8
_2-0_
  6
CONTINUOUS
 62
    7
 10
310.42371079726053
 20
404.3780346876033
 11
310.38365279726048
 21
404.22152668760327
  0
LINE
  8
_2-0_
  6
CONTINUOUS
 62
    7
 10
310.38365279726048
 20
404.22152668760327
 11
310.36889279726051
 21
404.16864668760331
  0
LINE
  8
_2-0_
  6
CONTINUOUS
 62
    7
 10
310.36889279726051
 20
404.16864668760331
 11
310.35348279726048
 21
404.11564868760331
  0
LINE
  8
_2-0_
  6
CONTINUOUS
 62
    7
 10
310.35348279726048
 20
404.11564868760331
 11
310.30390279726049
 21
403.95740068760335
  0
LINE
  8
_2-0_
  6
CONTINUOUS
 62
    7
 10
310.30390279726049
 20
403.95740068760335
 11
310.21112279726049
 21
403.69620668760331
  0
LINE
  8
_2-0_
  6
CONTINUOUS
 62
    7
 10
310.21112279726049
 20
403.69620668760331
 11
310.06323279726053
 21
403.33608868760336
  0
LINE
  8
_2-0_
  6
CONTINUOUS
 62
    7
 10
310.06323279726053
 20
403.33608868760336
 11
309.84932279726053
 21
402.88303068760331
  0
LINE
  8
_2-0_
  6
CONTINUOUS
 62
    7
 10
309.84932279726053
 20
402.88303068760331
 11
309.56348079726052
 21
402.34524668760332
  0
LINE
  8
_2-0_
  6
CONTINUOUS
 62
    7
 10
309.56348079726052
 20
402.34524668760332
 11
309.20788879726052
 21
401.73341468760327
  0
LINE
  8
_2-0_
  6
CONTINUOUS
 62
    7
 10
309.20788879726052
 20
401.73341468760327
 11
308.79422279726049
 21
401.06082668760337
  0
LINE
  8
_2-0_
  6
CONTINUOUS
 62
    7
 10
308.79422279726049
 20
401.06082668760337
 11
308.34294279726049
 21
400.34339468760334
  0
LINE
  8
_2-0_
  6
CONTINUOUS
 62
    7
 10
308.34294279726049
 20
400.34339468760334
 11
307.8805847972605
 21
399.59946468760336
  0
LINE
  8
_2-0_
  6
CONTINUOUS
 62
    7
 10
307.8805847972605
 20
399.59946468760336
 11
307.43564679726052
 21
398.8494446876033
  0
LINE
  8
_2-0_
  6
CONTINUOUS
 62
    7
 10
307.43564679726052
 20
398.8494446876033
 11
307.03398079726048
 21
398.11521668760327
  0
LINE
  8
_2-0_
  6
CONTINUOUS
 62
    7
 10
307.03398079726048
 20
398.11521668760327
 11
306.69474279726052
 21
397.41936868760331
  0
LINE
  8
_2-0_
  6
CONTINUOUS
 62
    7
 10
306.69474279726052
 20
397.41936868760331
 11
306.42783879726051
 21
396.78429868760327
  0
LINE
  8
_2-0_
  6
CONTINUOUS
 62
    7
 10
306.42783879726051
 20
396.78429868760327
 11
306.23339679726053
 21
396.23122668760334
  0
LINE
  8
_2-0_
  6
CONTINUOUS
 62
    7
 10
306.23339679726053
 20
396.23122668760334
 11
306.10339679726047
 21
395.77920468760328
  0
LINE
  8
_2-0_
  6
CONTINUOUS
 62
    7
 10
306.10339679726047
 20
395.77920468760328
 11
306.02498879726051
 21
395.44417468760332
  0
LINE
  8
_2-0_
  6
CONTINUOUS
 62
    7
 10
306.02498879726051
 20
395.44417468760332
 11
305.98470679726051
 21
395.23816268760334
  0
LINE
  8
_2-0_
  6
CONTINUOUS
 62
    7
 10
305.98470679726051
 20
395.23816268760334
 11
305.9725107972605
 21
395.16864668760331
  0
LINE
  8
_2-0_
  6
CONTINUOUS
 62
    7
 10
305.9725107972605
 20
395.16864668760331
 11
305.96101279726048
 21
395.09902068760334
  0
LINE
  8
_2-0_
  6
CONTINUOUS
 62
    7
 10
305.96101279726048
 20
395.09902068760334
 11
305.93090079726051
 21
394.8914106876033
  0
LINE
  8
_2-0_
  6
CONTINUOUS
 62
    7
 10
305.93090079726051
 20
394.8914106876033
 11
305.89451279726052
 21
394.54968868760329
  0
LINE
  8
_2-0_
  6
CONTINUOUS
 62
    7
 10
305.89451279726052
 20
394.54968868760329
 11
305.86980479726049
 21
394.08053468760329
  0
LINE
  8
_2-0_
  6
CONTINUOUS
 62
    7
 10
305.86980479726049
 20
394.08053468760329
 11
305.8770047972605
 21
393.49370668760332
  0
LINE
  8
_2-0_
  6
CONTINUOUS
 62
    7
 10
305.8770047972605
 20
393.49370668760332
 11
305.93486279726051
 21
392.80226268760327
  0
LINE
  8
_2-0_
  6
CONTINUOUS
 62
    7
 10
305.93486279726051
 20
392.80226268760327
 11
306.05722879726051
 21
392.02266468760331
  0
LINE
  8
_2-0_
  6
CONTINUOUS
 62
    7
 10
306.05722879726051
 20
392.02266468760331
 11
306.25056679726049
 21
391.17465268760327
  0
LINE
  8
_2-0_
  6
CONTINUOUS
 62
    7
 10
306.25056679726049
 20
391.17465268760327
 11
306.51280279726052
 21
390.28086068760331
  0
LINE
  8
_2-0_
  6
CONTINUOUS
 62
    7
 10
306.51280279726052
 20
390.28086068760331
 11
306.83363679726051
 21
389.36615868760327
  0
LINE
  8
_2-0_
  6
CONTINUOUS
 62
    7
 10
306.83363679726051
 20
389.36615868760327
 11
307.19611079726047
 21
388.45677068760335
  0
LINE
  8
_2-0_
  6
CONTINUOUS
 62
    7
 10
307.19611079726047
 20
388.45677068760335
 11
307.57906279726052
 21
387.57926268760332
  0
LINE
  8
_2-0_
  6
CONTINUOUS
 62
    7
 10
307.57906279726052
 20
387.57926268760332
 11
307.95987279726052
 21
386.75946068760334
  0
LINE
  8
_2-0_
  6
CONTINUOUS
 62
    7
 10
307.95987279726052
 20
386.75946068760334
 11
308.31699479726052
 21
386.02146068760328
  0
LINE
  8
_2-0_
  6
CONTINUOUS
 62
    7
 10
308.31699479726052
 20
386.02146068760328
 11
308.63185279726048
 21
385.3867726876033
  0
LINE
  8
_2-0_
  6
CONTINUOUS
 62
    7
 10
308.63185279726048
 20
385.3867726876033
 11
308.88985479726051
 21
384.87364068760326
  0
LINE
  8
_2-0_
  6
CONTINUOUS
 62
    7
 10
308.88985479726051
 20
384.87364068760326
 11
309.08059079726053
 21
384.49658468760333
  0
LINE
  8
_2-0_
  6
CONTINUOUS
 62
    7
 10
309.08059079726053
 20
384.49658468760333
 11
309.19741079726049
 21
384.26611868760335
  0
LINE
  8
_2-0_
  6
CONTINUOUS
 62
    7
 10
309.19741079726049
 20
384.26611868760335
 11
309.23672279726048
 21
384.18858868760333
  0
LINE
  8
_2-0_
  6
CONTINUOUS
 62
    7
 10
311.06215079726053
 20
411.08387468760327
 11
311.0949887972605
 21
411.03960868760328
  0
LINE
  8
_2-0_
  6
CONTINUOUS
 62
    7
 10
311.0949887972605
 20
411.03960868760328
 11
311.19256279726051
 21
410.90800868760334
  0
LINE
  8
_2-0_
  6
CONTINUOUS
 62
    7
 10
311.19256279726051
 20
410.90800868760334
 11
311.35183479726049
 21
410.69259668760333
  0
LINE
  8
_2-0_
  6
CONTINUOUS
 62
    7
 10
311.35183479726049
 20
410.69259668760333
 11
311.56710279726047
 21
410.39900268760334
  0
LINE
  8
_2-0_
  6
CONTINUOUS
 62
    7
 10
311.56710279726047
 20
410.39900268760334
 11
311.82933479726051
 21
410.03466268760326
  0
LINE
  8
_2-0_
  6
CONTINUOUS
 62
    7
 10
311.82933479726051
 20
410.03466268760326
 11
312.12575679726052
 21
409.60850068760328
  0
LINE
  8
_2-0_
  6
CONTINUOUS
 62
    7
 10
312.12575679726052
 20
409.60850068760328
 11
312.44000479726049
 21
409.13064068760332
  0
LINE
  8
_2-0_
  6
CONTINUOUS
 62
    7
 10
312.44000479726049
 20
409.13064068760332
 11
312.75305679726051
 21
408.61222468760332
  0
LINE
  8
_2-0_
  6
CONTINUOUS
 62
    7
 10
312.75305679726051
 20
408.61222468760332
 11
313.04496879726048
 21
408.06533268760336
  0
LINE
  8
_2-0_
  6
CONTINUOUS
 62
    7
 10
313.04496879726048
 20
408.06533268760336
 11
313.29721679726049
 21
407.50297068760335
  0
LINE
  8
_2-0_
  6
CONTINUOUS
 62
    7
 10
313.29721679726049
 20
407.50297068760335
 11
313.49523279726048
 21
406.93908668760332
  0
LINE
  8
_2-0_
  6
CONTINUOUS
 62
    7
 10
313.49523279726048
 20
406.93908668760332
 11
313.63067079726051
 21
406.3885286876033
  0
LINE
  8
_2-0_
  6
CONTINUOUS
 62
    7
 10
313.63067079726051
 20
406.3885286876033
 11
313.70282879726051
 21
405.86685468760334
  0
LINE
  8
_2-0_
  6
CONTINUOUS
 62
    7
 10
313.70282879726051
 20
405.86685468760334
 11
313.71892479726051
 21
405.38996068760332
  0
LINE
  8
_2-0_
  6
CONTINUOUS
 62
    7
 10
313.71892479726051
 20
405.38996068760332
 11
313.69296679726051
 21
404.97346868760326
  0
LINE
  8
_2-0_
  6
CONTINUOUS
 62
    7
 10
313.69296679726051
 20
404.97346868760326
 11
313.6434147972605
 21
404.63194868760331
  0
LINE
  8
_2-0_
  6
CONTINUOUS
 62
    7
 10
313.6434147972605
 20
404.63194868760331
 11
313.58993279726047
 21
404.3780346876033
  0
LINE
  8
_2-0_
  6
CONTINUOUS
 62
    7
 10
313.58993279726047
 20
404.3780346876033
 11
313.54987479726049
 21
404.22152668760327
  0
LINE
  8
_2-0_
  6
CONTINUOUS
 62
    7
 10
313.54987479726049
 20
404.22152668760327
 11
313.53511679726051
 21
404.16864668760331
  0
LINE
  8
_2-0_
  6
CONTINUOUS
 62
    7
 10
313.53511679726051
 20
404.16864668760331
 11
313.51970479726049
 21
404.11564868760331
  0
LINE
  8
_2-0_
  6
CONTINUOUS
 62
    7
 10
313.51970479726049
 20
404.11564868760331
 11
313.4701247972605
 21
403.95740068760335
  0
LINE
  8
_2-0_
  6
CONTINUOUS
 62
    7
 10
313.4701247972605
 20
403.95740068760335
 11
313.37734679726049
 21
403.69620668760331
  0
LINE
  8
_2-0_
  6
CONTINUOUS
 62
    7
 10
313.37734679726049
 20
403.69620668760331
 11
313.22945679726053
 21
403.33608868760336
  0
LINE
  8
_2-0_
  6
CONTINUOUS
 62
    7
 10
313.22945679726053
 20
403.33608868760336
 11
313.01554479726047
 21
402.88303068760331
  0
LINE
  8
_2-0_
  6
CONTINUOUS
 62
    7
 10
313.01554479726047
 20
402.88303068760331
 11
312.72970279726053
 21
402.34524668760332
  0
LINE
  8
_2-0_
  6
CONTINUOUS
 62
    7
 10
312.72970279726053
 20
402.34524668760332
 11
312.37411079726053
 21
401.73341468760327
  0
LINE
  8
_2-0_
  6
CONTINUOUS
 62
    7
 10
312.37411079726053
 20
401.73341468760327
 11
311.96044679726049
 21
401.06082668760337
  0
LINE
  8
_2-0_
  6
CONTINUOUS
 62
    7
 10
311.96044679726049
 20
401.06082668760337
 11
311.5091647972605
 21
400.34339468760334
  0
LINE
  8
_2-0_
  6
CONTINUOUS
 62
    7
 10
311.5091647972605
 20
400.34339468760334
 11
311.0468067972605
 21
399.59946468760336
  0
LINE
  8
_2-0_
  6
CONTINUOUS
 62
    7
 10
311.0468067972605
 20
399.59946468760336
 11
310.60187079726052
 21
398.8494446876033
  0
LINE
  8
_2-0_
  6
CONTINUOUS
 62
    7
 10
310.60187079726052
 20
398.8494446876033
 11
310.20020279726049
 21
398.11521668760327
  0
LINE
  8
_2-0_
  6
CONTINUOUS
 62
    7
 10
310.20020279726049
 20
398.11521668760327
 11
309.86096679726052
 21
397.41936868760331
  0
LINE
  8
_2-0_
  6
CONTINUOUS
 62
    7
 10
309.86096679726052
 20
397.41936868760331
 11
309.59406079726051
 21
396.78429868760327
  0
LINE
  8
_2-0_
  6
CONTINUOUS
 62
    7
 10
309.59406079726051
 20
396.78429868760327
 11
309.39961879726047
 21
396.23122668760334
  0
LINE
  8
_2-0_
  6
CONTINUOUS
 62
    7
 10
309.39961879726047
 20
396.23122668760334
 11
309.26961879726048
 21
395.77920468760328
  0
LINE
  8
_2-0_
  6
CONTINUOUS
 62
    7
 10
309.26961879726048
 20
395.77920468760328
 11
309.19121079726051
 21
395.44417468760332
  0
LINE
  8
_2-0_
  6
CONTINUOUS
 62
    7
 10
309.19121079726051
 20
395.44417468760332
 11
309.15092879726052
 21
395.23816268760334
  0
LINE
  8
_2-0_
  6
CONTINUOUS
 62
    7
 10
309.15092879726052
 20
395.23816268760334
 11
309.1387347972605
 21
395.16864668760331
  0
LINE
  8
_2-0_
  6
CONTINUOUS
 62
    7
 10
309.1387347972605
 20
395.16864668760331
 11
309.12723479726048
 21
395.09902068760334
  0
LINE
  8
_2-0_
  6
CONTINUOUS
 62
    7
 10
309.12723479726048
 20
395.09902068760334
 11
309.09712279726051
 21
394.8914106876033
  0
LINE
  8
_2-0_
  6
CONTINUOUS
 62
    7
 10
309.09712279726051
 20
394.8914106876033
 11
309.06073479726052
 21
394.54968868760329
  0
LINE
  8
_2-0_
  6
CONTINUOUS
 62
    7
 10
309.06073479726052
 20
394.54968868760329
 11
309.03602679726049
 21
394.08053468760329
  0
LINE
  8
_2-0_
  6
CONTINUOUS
 62
    7
 10
309.03602679726049
 20
394.08053468760329
 11
309.0432267972605
 21
393.49370668760332
  0
LINE
  8
_2-0_
  6
CONTINUOUS
 62
    7
 10
309.0432267972605
 20
393.49370668760332
 11
309.10108479726051
 21
392.80226268760327
  0
LINE
  8
_2-0_
  6
CONTINUOUS
 62
    7
 10
309.10108479726051
 20
392.80226268760327
 11
309.22345279726051
 21
392.02266468760331
  0
LINE
  8
_2-0_
  6
CONTINUOUS
 62
    7
 10
309.22345279726051
 20
392.02266468760331
 11
309.41678879726049
 21
391.17465268760327
  0
LINE
  8
_2-0_
  6
CONTINUOUS
 62
    7
 10
309.41678879726049
 20
391.17465268760327
 11
309.67902679726052
 21
390.28086068760331
  0
LINE
  8
_2-0_
  6
CONTINUOUS
 62
    7
 10
309.67902679726052
 20
390.28086068760331
 11
309.99985879726052
 21
389.36615868760327
  0
LINE
  8
_2-0_
  6
CONTINUOUS
 62
    7
 10
309.99985879726052
 20
389.36615868760327
 11
310.36233279726048
 21
388.45677068760335
  0
LINE
  8
_2-0_
  6
CONTINUOUS
 62
    7
 10
310.36233279726048
 20
388.45677068760335
 11
310.74528479726052
 21
387.57926268760332
  0
LINE
  8
_2-0_
  6
CONTINUOUS
 62
    7
 10
310.74528479726052
 20
387.57926268760332
 11
311.12609479726052
 21
386.75946068760334
  0
LINE
  8
_2-0_
  6
CONTINUOUS
 62
    7
 10
311.12609479726052
 20
386.75946068760334
 11
311.48321679726052
 21
386.02146068760328
  0
LINE
  8
_2-0_
  6
CONTINUOUS
 62
    7
 10
311.48321679726052
 20
386.02146068760328
 11
311.79807479726048
 21
385.3867726876033
  0
LINE
  8
_2-0_
  6
CONTINUOUS
 62
    7
 10
311.79807479726048
 20
385.3867726876033
 11
312.05607679726052
 21
384.87364068760326
  0
LINE
  8
_2-0_
  6
CONTINUOUS
 62
    7
 10
312.05607679726052
 20
384.87364068760326
 11
312.24681479726053
 21
384.49658468760333
  0
LINE
  8
_2-0_
  6
CONTINUOUS
 62
    7
 10
312.24681479726053
 20
384.49658468760333
 11
312.36363279726049
 21
384.26611868760335
  0
LINE
  8
_2-0_
  6
CONTINUOUS
 62
    7
 10
312.36363279726049
 20
384.26611868760335
 11
312.40294679726048
 21
384.18858868760333
  0
LINE
  8
_2-0_
  6
CONTINUOUS
 62
    7
 10
292.24758749819961
 20
494.43669883335735
 11
282.43367420423448
 21
481.61529598156415
  0
TEXT
  8
_2-0_
 62
    7
 10
290.21388394446421
 20
495.56475614097542
 40
12
 41
1
 50
0
  1
①
  0
TEXT
  8
_2-0_
 62
    7
 10
304.18209092450149
 20
439.97531867795539
 40
8
 41
1
 50
0
  1
全長
  0
LINE
  8
_2-0_
  6
CONTINUOUS
 62
    7
 10
307.39273451320622
 20
485.15777167983435
 11
159.13375859040622
 21
485.15777167983435
  0
LINE
  8
_2-0_
  6
CONTINUOUS
 62
    7
 10
307.39273451320622
 20
485.25047967983426
 11
159.13375859040622
 21
485.25047967983426
  0
LINE
  8
_2-0_
  6
CONTINUOUS
 62
    7
 10
499.97994964667004
 20
485.15777167983435
 11
310.46284516235983
 21
485.15777167983435
  0
LINE
  8
_2-0_
  6
CONTINUOUS
 62
    7
 10
499.96561839305792
 20
485.25047967983426
 11
310.53218050486578
 21
485.25047967983426
  0
LINE
  8
_2-0_
  6
CONTINUOUS
 62
    2
 10
313.68835403171329
 20
455.86843308502648
 11
342.93769629354824
 21
485.11777534686138
  0
LINE
  8
_2-0_
  6
CONTINUOUS
 62
    2
 10
316.5333100194577
 20
455.88496107277075
 11
345.75859168266311
 21
485.11024273597639
  0
LINE
  8
_2-0_
  6
CONTINUOUS
 62
    2
 10
319.30380372185687
 20
455.86119462967008
 11
348.5706715472673
 21
485.12806245508057
  0
LINE
  8
_2-0_
  6
CONTINUOUS
 62
    2
 10
322.13946817721325
 20
455.86843308502648
 11
351.29411113796283
 21
485.02307604577624
  0
LINE
  8
_2-0_
  6
CONTINUOUS
 62
    2
 10
324.9844241649576
 20
455.88496107277081
 11
354.20970582816307
 21
485.11024273597639
  0
LINE
  8
_2-0_
  6
CONTINUOUS
 62
    2
 10
327.53281135544466
 20
455.86119462967008
 11
356.79967918085498
 21
485.12806245508068
  0
LINE
  8
_2-0_
  6
CONTINUOUS
 62
    7
 10
159.13375859040622
 20
455.85047967983428
 11
310.46284516235983
 21
455.85047967983428
  0
LINE
  8
_2-0_
  6
CONTINUOUS
 62
    7
 10
314.06828297266964
 20
455.85047967983428
 11
499.96928459040623
 21
455.85047967983428
  0
LINE
  8
_2-0_
  6
CONTINUOUS
 62
    2
 10
330.66256202417503
 20
456.16251929840047
 11
359.61781807263588
 21
485.11777534686144
  0
LINE
  8
_2-0_
  6
CONTINUOUS
 62
    2
 10
333.56748588805317
 20
456.23901516227852
 11
362.43871346175081
 21
485.11024273597639
  0
LINE
  8
_2-0_
  6
CONTINUOUS
 62
    2
 10
280.72365105010113
 20
455.86119462967008
 11
308.02783216044094
 21
483.16537574000995
  0
LINE
  8
_2-0_
  6
CONTINUOUS
 62
    2
 10
312.79660201968022
 20
457.80400915650102
 11
340.10283559915541
 21
485.11024273597639
  0
LINE
  8
_2-0_
  6
CONTINUOUS
 62
    2
 10
311.763732403463
 20
459.59956754028383
 11
337.28194021004049
 21
485.11777534686144
  0
LINE
  8
_2-0_
  6
CONTINUOUS
 62
    2
 10
310.86953447225767
 20
461.53379560907854
 11
334.4638013182597
 21
485.12806245508057
  0
LINE
  8
_2-0_
  6
CONTINUOUS
 62
    2
 10
310.3808140942823
 20
463.6172288646909
 11
331.87382796556761
 21
485.11024273597639
  0
LINE
  8
_2-0_
  6
CONTINUOUS
 62
    2
 10
309.72928886184781
 20
465.79413163225649
 11
327.94656184929516
 21
484.01140461970385
  0
LINE
  8
_2-0_
  6
CONTINUOUS
 62
    2
 10
315.04060408492575
 20
473.93387285533447
 11
326.2347936846719
 21
485.12806245508057
  0
LINE
  8
_2-0_
  6
CONTINUOUS
 62
    2
 10
315.04009831974076
 20
476.29178026572197
 11
323.85856078999512
 21
485.11024273597639
  0
LINE
  8
_2-0_
  6
CONTINUOUS
 62
    2
 10
314.35390541605335
 20
478.43401536203453
 11
321.0376654008802
 21
485.11777534686144
  0
LINE
  8
_2-0_
  6
CONTINUOUS
 62
    2
 10
313.6330458411129
 20
480.54158178709417
 11
318.21952650909935
 21
485.12806245508057
  0
LINE
  8
_2-0_
  6
CONTINUOUS
 62
    2
 10
312.62431039434284
 20
482.10499997391184
 11
315.62955315640738
 21
485.11024273597639
  0
LINE
  8
_2-0_
  6
CONTINUOUS
 62
    2
 10
311.6954437918846
 20
484.00456137145358
 11
312.66613858696803
 21
484.97525616653695
  0
LINE
  8
_2-0_
  6
CONTINUOUS
 62
    2
 10
283.55931550545756
 20
455.86843308502648
 11
309.44204516044095
 21
481.75116274000993
  0
LINE
  8
_2-0_
  6
CONTINUOUS
 62
    2
 10
286.40427149320192
 20
455.88496107277081
 11
310.26690874914027
 21
479.74759832870927
  0
LINE
  8
_2-0_
  6
CONTINUOUS
 62
    2
 10
288.95265868368892
 20
455.86119462967008
 11
310.99830282588653
 21
477.90683877186774
  0
LINE
  8
_2-0_
  6
CONTINUOUS
 62
    2
 10
291.7883231390453
 20
455.86843308502648
 11
311.71916240082692
 21
475.79927234680815
  0
LINE
  8
_2-0_
  6
CONTINUOUS
 62
    2
 10
294.63327912678966
 20
455.88496107277081
 11
310.63730407061246
 21
471.88898601659361
  0
LINE
  8
_2-0_
  6
CONTINUOUS
 62
    2
 10
296.96792585926141
 20
455.86119462967008
 11
306.13101257291009
 21
465.02428134331882
  0
LINE
  8
_2-0_
  6
CONTINUOUS
 62
    2
 10
299.80359031461785
 20
455.86843308502648
 11
306.43586009281478
 21
462.50070286322347
  0
LINE
  8
_2-0_
  6
CONTINUOUS
 62
    2
 10
302.64854630236221
 20
455.88496107277081
 11
307.3300590240201
 21
460.56647379442876
  0
LINE
  8
_2-0_
  6
CONTINUOUS
 62
    2
 10
305.19693349284921
 20
455.86119462967008
 11
308.30412679953719
 21
458.96838793635811
  0
LINE
  8
_2-0_
  6
CONTINUOUS
 62
    2
 10
308.03259794820565
 20
455.86843308502648
 11
309.37166308700739
 21
457.20749822382828
  0
LINE
  8
_2-0_
  6
CONTINUOUS
 62
    7
 10
159.13375859040622
 20
411.08387468760327
 11
307.86994094771711
 21
411.08387468760327
  0
LINE
  8
_2-0_
  6
CONTINUOUS
 62
    7
 10
311.30087858274521
 20
411.08387468760327
 11
499.95772166594054
 21
411.08387468760327
  0
LINE
  8
_2-0_
  6
CONTINUOUS
 62
    7
 10
313.39291372605499
 20
407.58858868760331
 11
499.95430841981545
 21
407.58858868760331
  0
LINE
  8
_2-0_
  6
CONTINUOUS
 62
    7
 10
159.14700547790272
 20
400.66864468760332
 11
308.45571078784388
 21
400.66864468760332
  0
LINE
  8
_2-0_
  6
CONTINUOUS
 62
    7
 10
159.14700547790272
 20
399.16864668760331
 11
307.53521532478754
 21
399.16864668760331
  0
LINE
  8
_2-0_
  6
CONTINUOUS
 62
    7
 10
159.14700547790272
 20
390.64858868760336
 11
306.27999423880169
 21
390.64858868760336
  0
LINE
  8
_2-0_
  6
CONTINUOUS
 62
    7
 10
159.20944264804024
 20
389.97730868760334
 11
306.36367564453406
 21
389.97730868760334
  0
LINE
  8
_2-0_
  6
CONTINUOUS
 62
    7
 10
159.14700547790272
 20
389.37422868760336
 11
306.61471986173126
 21
389.37422868760336
  0
LINE
  8
_2-0_
  6
CONTINUOUS
 62
    7
 10
159.14700547790272
 20
387.98858868760328
 11
307.20048970185798
 21
387.98858868760328
  0
LINE
  8
_2-0_
  6
CONTINUOUS
 62
    7
 10
159.13375859040622
 20
384.18858868760333
 11
309.0414806279706
 21
384.18858868760333
  0
LINE
  8
_2-0_
  6
CONTINUOUS
 62
    7
 10
312.30505545153392
 20
384.18858868760333
 11
499.96928459040623
 21
384.18858868760333
  0
LINE
  8
_2-0_
  6
CONTINUOUS
 62
    7
 10
310.79879014835086
 20
387.98858868760328
 11
499.92381071751475
 21
387.98858868760328
  0
LINE
  8
_2-0_
  6
CONTINUOUS
 62
    7
 10
310.12933890249172
 20
389.37422868760336
 11
499.93975479724213
 21
389.37422868760336
  0
LINE
  8
_2-0_
  6
CONTINUOUS
 62
    7
 10
309.62725046809737
 20
389.97730868760334
 11
499.95569887696951
 21
389.97730868760334
  0
LINE
  8
_2-0_
  6
CONTINUOUS
 62
    7
 10
309.62725046809737
 20
390.64858868760336
 11
499.97164295669683
 21
390.64858868760336
  0
LINE
  8
_2-0_
  6
CONTINUOUS
 62
    7
 10
310.96615295981564
 20
399.16864668760331
 11
499.90193282340135
 21
399.16864668760331
  0
LINE
  8
_2-0_
  6
CONTINUOUS
 62
    7
 10
312.13769264006913
 20
400.66864468760332
 11
499.87574502519425
 21
400.66864468760332
  0
LINE
  8
_2-0_
  6
CONTINUOUS
 62
    2
 10
306.41582893118738
 20
407.58858868760331
 11
308.65717478116113
 21
409.82993453757717
  0
LINE
  8
_2-0_
  6
CONTINUOUS
 62
    2
 10
311.78685759867517
 20
410.13118935509124
 11
312.73954293118726
 21
411.08387468760327
  0
LINE
  8
_2-0_
  6
CONTINUOUS
 62
    2
 10
313.13945769658739
 20
408.61122634856929
 11
315.61210462077395
 21
411.08387468760327
  0
LINE
  8
_2-0_
  6
CONTINUOUS
 62
    2
 10
309.24425693118729
 20
407.58858868760331
 11
309.78169780788141
 21
408.12602956429748
  0
LINE
  8
_2-0_
  6
CONTINUOUS
 62
    7
 10
159.14700547790272
 20
407.58858868760331
 11
310.05012902225644
 21
407.58858868760331
  0
LINE
  8
_2-0_
  6
CONTINUOUS
 62
    7
 10
728.7078651010529
 20
404.59164779327693
 11
730.30786510105281
 21
407.79164979327697
  0
LINE
  8
_2-0_
  6
CONTINUOUS
 62
    7
 10
737.50786510105286
 20
407.79164979327697
 11
739.10786510105299
 21
404.59164979327693
  0
LINE
  8
_2-0_
  6
CONTINUOUS
 62
    7
 10
729.20228710105289
 20
400.63626779327694
 11
728.7078651010529
 21
404.59164779327693
  0
ARC
  8
_2-0_
  6
CONTINUOUS
 62
    7
 10
730.39302110105291
 20
400.78510979327694
 40
1.2
 50
187.12501599999999
 51
243.73151100000001
  0
LINE
  8
_2-0_
  6
CONTINUOUS
 62
    7
 10
739.10786510105299
 20
404.59164979327693
 11
738.61344310105289
 21
400.63626779327694
  0
ARC
  8
_2-0_
  6
CONTINUOUS
 62
    7
 10
737.42270910105299
 20
400.78510979327694
 40
1.2
 50
296.26848899999999
 51
352.87498399999998
  0
ARC
  8
_2-0_
  6
CONTINUOUS
 62
    7
 10
738.30786510105281
 20
398.99164979327696
 40
0.8
 50
116.268489
 51
270
  0
LINE
  8
_2-0_
  6
CONTINUOUS
 62
    7
 10
738.30786510105281
 20
398.19164979327695
 11
741.90786510105295
 21
398.19164979327695
  0
ARC
  8
_2-0_
  6
CONTINUOUS
 62
    7
 10
741.90786510105295
 20
399.39164979327694
 40
1.2
 50
270
 51
0
  0
ARC
  8
_2-0_
  6
CONTINUOUS
 62
    7
 10
737.19906310105284
 20
408.59149779327697
 40
0.8
 50
141.59308100000001
 51
205.79653999999999
  0
ARC
  8
_2-0_
  6
CONTINUOUS
 62
    7
 10
733.90786510105295
 20
411.20071579327697
 40
3.3999999999999999
 50
321.59308099999998
 51
47.197693999999998
  0
ARC
  8
_2-0_
  6
CONTINUOUS
 62
    7
 10
733.90786510105295
 20
411.20071579327697
 40
3.3999999999999999
 50
47.197693999999998
 51
132.80230599999999
  0
ARC
  8
_2-0_
  6
CONTINUOUS
 62
    7
 10
733.90786510105295
 20
411.20071579327697
 40
3.3999999999999999
 50
132.80230599999999
 51
218.40691899999996
  0
ARC
  8
_2-0_
  6
CONTINUOUS
 62
    7
 10
730.61666710105283
 20
408.59149779327697
 40
0.8
 50
334.20346000000001
 51
38.406919000000016
  0
LINE
  8
_2-0_
  6
CONTINUOUS
 62
    7
 10
737.18349310105282
 20
407.79164979327697
 11
737.50786510105286
 21
407.79164979327697
  0
ARC
  8
_2-0_
  6
CONTINUOUS
 62
    7
 10
737.19906310105284
 20
408.59149779327697
 40
0.8
 50
205.79653999999999
 51
268.88492300000001
  0
LINE
  8
_2-0_
  6
CONTINUOUS
 62
    7
 10
730.30786510105281
 20
407.79164979327697
 11
730.63223510105286
 21
407.79164979327697
  0
ARC
  8
_2-0_
  6
CONTINUOUS
 62
    7
 10
730.61666710105283
 20
408.59149779327697
 40
0.8
 50
271.11507699999999
 51
334.20346000000001
  0
ARC
  8
_2-0_
  6
CONTINUOUS
 62
    7
 10
729.50786510105286
 20
398.99164979327696
 40
0.8
 50
270
 51
63.731510999999998
  0
LINE
  8
_2-0_
  6
CONTINUOUS
 62
    7
 10
725.90786510105295
 20
398.19164979327695
 11
729.50786510105286
 21
398.19164979327695
  0
LINE
  8
_2-0_
  6
CONTINUOUS
 62
    7
 10
694.30786510105281
 20
404.59164779327693
 11
695.90786510105295
 21
407.79164979327697
  0
LINE
  8
_2-0_
  6
CONTINUOUS
 62
    7
 10
703.10786310105289
 20
407.79164979327697
 11
704.70786310105291
 21
404.59164979327693
  0
LINE
  8
_2-0_
  6
CONTINUOUS
 62
    7
 10
694.80228710105291
 20
400.63626779327694
 11
694.30786510105281
 21
404.59164779327693
  0
ARC
  8
_2-0_
  6
CONTINUOUS
 62
    7
 10
695.99301910105282
 20
400.78510979327694
 40
1.2
 50
187.12501599999999
 51
243.73151100000001
  0
LINE
  8
_2-0_
  6
CONTINUOUS
 62
    7
 10
704.70786310105291
 20
404.59164979327693
 11
704.21344110105292
 21
400.63626779327694
  0
ARC
  8
_2-0_
  6
CONTINUOUS
 62
    7
 10
703.0227071010529
 20
400.78510979327694
 40
1.2
 50
296.26848899999999
 51
352.87498399999998
  0
ARC
  8
_2-0_
  6
CONTINUOUS
 62
    7
 10
695.10786310105289
 20
398.99164979327696
 40
0.8
 50
270
 51
63.731510999999998
  0
ARC
  8
_2-0_
  6
CONTINUOUS
 62
    7
 10
702.79906110105298
 20
408.59149779327697
 40
0.8
 50
141.59308100000001
 51
205.79653999999999
  0
ARC
  8
_2-0_
  6
CONTINUOUS
 62
    7
 10
699.50786310105286
 20
411.20071579327697
 40
3.3999999999999999
 50
321.59308099999998
 51
47.197693999999998
  0
ARC
  8
_2-0_
  6
CONTINUOUS
 62
    7
 10
699.50786310105286
 20
411.20071579327697
 40
3.3999999999999999
 50
47.197693999999998
 51
132.80230599999999
  0
ARC
  8
_2-0_
  6
CONTINUOUS
 62
    7
 10
699.50786310105286
 20
411.20071579327697
 40
3.3999999999999999
 50
132.80230599999999
 51
218.40691899999996
  0
ARC
  8
_2-0_
  6
CONTINUOUS
 62
    7
 10
696.21666710105296
 20
408.59149779327697
 40
0.8
 50
334.20346000000001
 51
38.406919000000016
  0
LINE
  8
_2-0_
  6
CONTINUOUS
 62
    7
 10
695.90786510105295
 20
407.79164979327697
 11
696.23223510105288
 21
407.79164979327697
  0
ARC
  8
_2-0_
  6
CONTINUOUS
 62
    7
 10
696.21666710105296
 20
408.59149779327697
 40
0.8
 50
271.11507699999999
 51
334.20346000000001
  0
LINE
  8
_2-0_
  6
CONTINUOUS
 62
    7
 10
702.78349310105295
 20
407.79164979327697
 11
703.10786310105289
 21
407.79164979327697
  0
ARC
  8
_2-0_
  6
CONTINUOUS
 62
    7
 10
702.79906110105298
 20
408.59149779327697
 40
0.8
 50
205.79653999999999
 51
268.88492300000001
  0
LINE
  8
_2-0_
  6
CONTINUOUS
 62
    7
 10
691.50786510105286
 20
398.19164979327695
 11
695.10786310105289
 21
398.19164979327695
  0
ARC
  8
_2-0_
  6
CONTINUOUS
 62
    7
 10
691.50786510105286
 20
399.39164979327694
 40
1.2
 50
180
 51
270
  0
ARC
  8
_2-0_
  6
CONTINUOUS
 62
    7
 10
703.90786310105295
 20
398.99164979327696
 40
0.8
 50
116.268489
 51
270
  0
LINE
  8
_2-0_
  6
CONTINUOUS
 62
    7
 10
703.90786310105295
 20
398.19164979327695
 11
707.50786310105286
 21
398.19164979327695
  0
LINE
  8
_2-0_
  6
CONTINUOUS
 62
    7
 10
690.30786510105281
 20
423.00129379327694
 11
690.30786510105281
 21
412.66735979327694
  0
LINE
  8
_2-0_
  6
CONTINUOUS
 62
    7
 10
695.00072310105293
 20
421.66482979327697
 11
708.90272110105298
 21
415.18222179327694
  0
LINE
  8
_2-0_
  6
CONTINUOUS
 62
    7
 10
708.90272110105298
 20
415.18222179327694
 11
722.85986110105296
 21
408.67389979327697
  0
ARC
  8
_2-0_
  6
CONTINUOUS
 62
    7
 10
723.36700310105289
 20
409.76146979327694
 40
1.2
 50
245
 51
335.00000599999998
  0
LINE
  8
_2-0_
  6
CONTINUOUS
 62
    7
 10
724.4545731010528
 20
409.25432779327696
 11
727.1566671010529
 21
415.04898979327697
  0
ARC
  8
_2-0_
  6
CONTINUOUS
 62
    7
 10
707.50786310105286
 20
399.39164979327694
 40
1.2
 50
270
 51
0
  0
ARC
  8
_2-0_
  6
CONTINUOUS
 62
    7
 10
725.90786510105295
 20
399.39164979327694
 40
1.2
 50
180
 51
270
  0
LINE
  8
_2-0_
  6
CONTINUOUS
 62
    7
 10
709.90786310105295
 20
404.59164979327693
 11
723.55395510105291
 21
404.59164979327693
  0
LINE
  8
_2-0_
  6
CONTINUOUS
 62
    7
 10
708.70786310105291
 20
399.39164979327694
 11
708.70786310105291
 21
403.39164979327694
  0
ARC
  8
_2-0_
  6
CONTINUOUS
 62
    7
 10
709.90786310105295
 20
403.39164979327694
 40
1.2
 50
90
 51
180
  0
LINE
  8
_2-0_
  6
CONTINUOUS
 62
    7
 10
724.7078651010529
 20
403.39164979327694
 11
724.7078651010529
 21
399.39164979327694
  0
ARC
  8
_2-0_
  6
CONTINUOUS
 62
    7
 10
723.50786510105286
 20
403.39164979327694
 40
1.2
 50
0
 51
90
  0
LINE
  8
_2-0_
  6
CONTINUOUS
 62
    7
 10
738.56998310105291
 20
422.63974579327697
 11
738.67987910105285
 21
422.74963979327697
  0
ARC
  8
_2-0_
  6
CONTINUOUS
 62
    7
 10
738.32366110105295
 20
423.38870779327698
 40
0.4
 50
315
 51
45
  0
LINE
  8
_2-0_
  6
CONTINUOUS
 62
    7
 10
738.41013310105291
 20
422.90949579327696
 11
738.60650310105291
 21
423.10586579327696
  0
ARC
  8
_2-0_
  6
CONTINUOUS
 62
    7
 10
738.004297101053
 20
423.20542979327695
 40
0.8
 50
281.00000599999998
 51
315
  0
LINE
  8
_2-0_
  6
CONTINUOUS
 62
    7
 10
738.18281310105294
 20
425.50944579327694
 11
738.4656551010529
 21
425.79228979327695
  0
ARC
  8
_2-0_
  6
CONTINUOUS
 62
    7
 10
739.03134110105293
 20
425.22660379327698
 40
0.8
 50
45
 51
135
  0
LINE
  8
_2-0_
  6
CONTINUOUS
 62
    7
 10
737.75855110105294
 20
425.65087179327696
 11
738.18281310105294
 21
426.07513179327697
  0
ARC
  8
_2-0_
  6
CONTINUOUS
 62
    7
 10
738.74849710105286
 20
425.50944579327694
 40
0.8
 50
45
 51
135
  0
LINE
  8
_2-0_
  6
CONTINUOUS
 62
    7
 10
738.60650310105291
 20
423.67155179327693
 11
737.75855310105294
 21
424.51950179327696
  0
ARC
  8
_2-0_
  6
CONTINUOUS
 62
    7
 10
738.32423710105286
 20
425.08518579327693
 40
0.8
 50
135
 51
225
  0
ARC
  8
_2-0_
  6
CONTINUOUS
 62
    7
 10
738.74849710105286
 20
424.94376179327696
 40
0.8
 50
135
 51
225.00026100000005
  0
LINE
  8
_2-0_
  6
CONTINUOUS
 62
    7
 10
738.18281510105294
 20
424.37807379327694
 11
738.67987710105285
 21
423.88101579327696
  0
ARC
  8
_2-0_
  6
CONTINUOUS
 62
    7
 10
738.11419310105293
 20
423.31532579327694
 40
0.8
 50
315
 51
45.000260999999988
  0
ARC
  8
_2-0_
  6
CONTINUOUS
 62
    7
 10
695.50786510105286
 20
422.75239779327694
 40
1.2
 50
180
 51
245.00000000000003
  0
ARC
  8
_2-0_
  6
CONTINUOUS
 62
    7
 10
708.90272110105298
 20
415.18221979327694
 40
26.800000000000001
 50
17.469797
 51
104.99999800000001
  0
LINE
  8
_2-0_
  6
CONTINUOUS
 62
    7
 10
735.84020110105291
 20
422.40995179327695
 11
738.41013310105291
 21
422.90949579327696
  0
ARC
  8
_2-0_
  6
CONTINUOUS
 62
    7
 10
735.61123110105291
 20
423.58790579327695
 40
1.2
 50
197.469797
 51
281
  0
LINE
  8
_2-0_
  6
CONTINUOUS
 62
    7
 10
738.156945101053
 20
422.42012979327694
 11
734.01230310105291
 21
421.61449179327695
  0
LINE
  8
_2-0_
  6
CONTINUOUS
 62
    7
 10
733.39274510105292
 20
421.28506779327694
 11
727.1566671010529
 21
415.04898979327697
  0
ARC
  8
_2-0_
  6
CONTINUOUS
 62
    7
 10
734.24127310105291
 20
420.43653979327695
 40
1.2
 50
101.000006
 51
135
  0
LINE
  8
_2-0_
  6
CONTINUOUS
 62
    7
 10
687.30784110105287
 20
446.93478779327694
 11
687.30784110105287
 21
445.79164979327697
  0
LINE
  8
_2-0_
  6
CONTINUOUS
 62
    7
 10
688.23269510105297
 20
448.10281779327693
 11
699.37818110105286
 21
450.72829179327692
  0
ARC
  8
_2-0_
  6
CONTINUOUS
 62
    7
 10
688.50784110105292
 20
446.93478779327694
 40
1.2
 50
103.25515900000001
 51
180
  0
ARC
  8
_2-0_
  6
CONTINUOUS
 62
    7
 10
708.90272110105298
 20
415.18221979327694
 40
36.799999999999997
 50
33.158850999999999
 51
105
  0
ARC
  8
_2-0_
  6
CONTINUOUS
 62
    7
 10
742.82150310105294
 20
424.26486979327694
 40
1.2
 50
225
 51
270
  0
LINE
  8
_2-0_
  6
CONTINUOUS
 62
    7
 10
742.82150310105294
 20
423.06486979327696
 11
744.72242510105298
 21
423.06486979327696
  0
ARC
  8
_2-0_
  6
CONTINUOUS
 62
    7
 10
744.72242510105298
 20
424.26486979327694
 40
1.2
 50
270
 51
30.085491000000019
  0
ARC
  8
_2-0_
  6
CONTINUOUS
 62
    7
 10
690.81158910105296
 20
442.19164979327695
 40
0.8
 50
90
 51
180
  0
LINE
  8
_2-0_
  6
CONTINUOUS
 62
    7
 10
691.30784910105285
 20
442.99164979327696
 11
690.81158910105296
 21
442.99164979327696
  0
ARC
  8
_2-0_
  6
CONTINUOUS
 62
    7
 10
691.30784910105285
 20
443.79164979327697
 40
0.8
 50
270
 51
0
  0
LINE
  8
_2-0_
  6
CONTINUOUS
 62
    7
 10
692.10784910105292
 20
444.19164979327695
 11
692.10784910105292
 21
443.79164979327697
  0
ARC
  8
_2-0_
  6
CONTINUOUS
 62
    7
 10
691.30784910105285
 20
444.19164979327695
 40
0.8
 50
0
 51
90
  0
LINE
  8
_2-0_
  6
CONTINUOUS
 62
    7
 10
688.10784110105283
 20
444.99164979327696
 11
691.30784910105285
 21
444.99164979327696
  0
LINE
  8
_2-0_
  6
CONTINUOUS
 62
    7
 10
690.01158910105289
 20
442.19164979327695
 11
690.01158910105289
 21
442.03623379327695
  0
ARC
  8
_2-0_
  6
CONTINUOUS
 62
    7
 10
690.81158910105296
 20
442.03623379327695
 40
0.8
 50
180
 51
214
  0
ARC
  8
_2-0_
  6
CONTINUOUS
 62
    7
 10
691.70781710105291
 20
444.19164979327695
 40
0.8
 50
0
 51
90
  0
LINE
  8
_2-0_
  6
CONTINUOUS
 62
    7
 10
692.50781710105298
 20
444.19164979327695
 11
692.50781710105298
 21
443.39164979327694
  0
ARC
  8
_2-0_
  6
CONTINUOUS
 62
    7
 10
691.70781710105291
 20
443.39164979327694
 40
0.8
 50
270
 51
0
  0
LINE
  8
_2-0_
  6
CONTINUOUS
 62
    7
 10
691.70781710105291
 20
442.59164979327693
 11
690.81158910105296
 21
442.59164979327693
  0
ARC
  8
_2-0_
  6
CONTINUOUS
 62
    7
 10
690.81158910105296
 20
442.19164979327695
 40
0.4
 50
90
 51
180
  0
LINE
  8
_2-0_
  6
CONTINUOUS
 62
    7
 10
690.41158910105287
 20
442.19164979327695
 11
690.41158910105287
 21
441.91394179327693
  0
ARC
  8
_2-0_
  6
CONTINUOUS
 62
    7
 10
688.10784110105283
 20
444.19164979327695
 40
0.8
 50
90
 51
180
  0
LINE
  8
_2-0_
  6
CONTINUOUS
 62
    7
 10
688.10784110105283
 20
444.99164979327696
 11
691.70781710105291
 21
444.99164979327696
  0
ARC
  8
_2-0_
  6
CONTINUOUS
 62
    7
 10
688.10784110105283
 20
445.79164979327697
 40
0.8
 50
180
 51
270
  0
LINE
  8
_2-0_
  6
CONTINUOUS
 62
    7
 10
692.49114510105289
 20
438.83087379327696
 11
701.96637310105291
 21
441.06903379327696
  0
LINE
  8
_2-0_
  6
CONTINUOUS
 62
    7
 10
690.41158910105287
 20
441.91394179327693
 11
692.49114510105289
 21
438.83087379327696
  0
LINE
  8
_2-0_
  6
CONTINUOUS
 62
    7
 10
691.90355310105292
 20
409.75535179327693
 11
690.59363510105288
 21
410.85453379327697
  0
LINE
  8
_2-0_
  6
CONTINUOUS
 62
    7
 10
691.90353710105296
 20
408.55535179327694
 11
691.90355510105292
 21
409.77068379327693
  0
LINE
  8
_2-0_
  6
CONTINUOUS
 62
    7
 10
690.30786510105281
 20
428.21580579327696
 11
690.30786510105281
 21
411.46736179327695
  0
ARC
  8
_2-0_
  6
CONTINUOUS
 62
    7
 10
691.10787310105297
 20
411.46736179327695
 40
0.8
 50
180
 51
229.99923599999997
  0
LINE
  8
_2-0_
  6
CONTINUOUS
 62
    7
 10
690.30786510105281
 20
405.79164979327697
 11
691.90353710105296
 21
408.55535179327694
  0
LINE
  8
_2-0_
  6
CONTINUOUS
 62
    7
 10
690.30786510105281
 20
405.79164979327697
 11
690.30786510105281
 21
399.39164979327694
  0
LINE
  8
_2-0_
  6
CONTINUOUS
 62
    7
 10
741.51216710105291
 20
409.75535179327693
 11
742.82208710105283
 21
410.85453379327697
  0
LINE
  8
_2-0_
  6
CONTINUOUS
 62
    7
 10
741.51218310105287
 20
408.55535179327694
 11
741.51216710105291
 21
409.77068379327693
  0
LINE
  8
_2-0_
  6
CONTINUOUS
 62
    7
 10
743.10786510105299
 20
405.79163579327695
 11
741.51218310105287
 21
408.55535179327694
  0
LINE
  8
_2-0_
  6
CONTINUOUS
 62
    7
 10
743.10786510105299
 20
399.39164979327694
 11
743.10786510105299
 21
405.79163579327695
  0
ARC
  8
_2-0_
  6
CONTINUOUS
 62
    7
 10
742.30784910105285
 20
411.46736179327695
 40
0.8
 50
310.000764
 51
0
  0
LINE
  8
_2-0_
  6
CONTINUOUS
 62
    7
 10
745.76075910105283
 20
424.86641979327698
 11
739.71011310105291
 21
435.31042779327697
  0
LINE
  8
_2-0_
  6
CONTINUOUS
 62
    7
 10
743.1078571010529
 20
418.19164979327695
 11
746.10784110105283
 21
421.19162979327695
  0
ARC
  8
_2-0_
  6
CONTINUOUS
 62
    7
 10
742.82150310105294
 20
424.26486979327694
 40
1.2
 50
225
 51
270
  0
LINE
  8
_2-0_
  6
CONTINUOUS
 62
    7
 10
746.10784110105283
 20
421.86486979327697
 11
746.10784110105283
 21
421.19162979327695
  0
ARC
  8
_2-0_
  6
CONTINUOUS
 62
    7
 10
744.9078411010529
 20
421.86486979327697
 40
1.2
 50
0
 51
90
  0
ARC
  8
_2-0_
  6
CONTINUOUS
 62
    7
 10
743.15287310105282
 20
425.06486979327696
 40
2
 50
225
 51
270
  0
LINE
  8
_2-0_
  6
CONTINUOUS
 62
    7
 10
741.97297510105295
 20
423.41634179327696
 11
739.31418310105289
 21
426.07513179327697
  0
LINE
  8
_2-0_
  6
CONTINUOUS
 62
    7
 10
744.9078411010529
 20
423.06486979327696
 11
742.82150310105294
 21
423.06486979327696
  0
ARC
  8
_2-0_
  6
CONTINUOUS
 62
    7
 10
742.82150310105294
 20
424.26486979327694
 40
1.2
 50
225
 51
270
  0
LINE
  8
_2-0_
  6
CONTINUOUS
 62
    7
 10
687.30784110105287
 20
444.19164979327695
 11
687.30784110105287
 21
433.48870379327695
  0
ARC
  8
_2-0_
  6
CONTINUOUS
 62
    7
 10
688.50784110105292
 20
433.48870379327695
 40
1.2
 50
180
 51
224.99999300000002
  0
LINE
  8
_2-0_
  6
CONTINUOUS
 62
    7
 10
687.65931310105293
 20
432.64017579327697
 11
689.95639310105298
 21
430.34309379327698
  0
LINE
  8
_2-0_
  6
CONTINUOUS
 62
    7
 10
690.30786510105281
 20
423.00129379327694
 11
690.30786510105281
 21
429.49456579327693
  0
ARC
  8
_2-0_
  6
CONTINUOUS
 62
    7
 10
689.10786510105288
 20
429.49456579327693
 40
1.2
 50
0
 51
44.999993000000003
  0
ARC
  8
_2-0_
  6
CONTINUOUS
 62
    7
 10
692.50784110105292
 20
435.14555779327696
 40
1.2
 50
180
 51
225.00001099999997
  0
LINE
  8
_2-0_
  6
CONTINUOUS
 62
    7
 10
691.65931310105293
 20
434.29702779327692
 11
693.95639310105298
 21
431.99994979327693
  0
LINE
  8
_2-0_
  6
CONTINUOUS
 62
    7
 10
694.30786510105281
 20
431.15142179327694
 11
694.30786510105281
 21
422.75239779327694
  0
ARC
  8
_2-0_
  6
CONTINUOUS
 62
    7
 10
693.10786510105288
 20
431.15142179327694
 40
1.2
 50
0
 51
45.000011000000001
  0
LINE
  8
_2-0_
  6
CONTINUOUS
 62
    7
 10
690.14835910105285
 20
441.58887979327693
 11
691.10268510105288
 21
440.17403379327698
  0
LINE
  8
_2-0_
  6
CONTINUOUS
 62
    7
 10
691.30784110105287
 20
439.50300179327695
 11
691.30784110105287
 21
435.14555779327696
  0
ARC
  8
_2-0_
  6
CONTINUOUS
 62
    7
 10
690.10784110105283
 20
439.50300179327695
 40
1.2
 50
0
 51
34
  0
CIRCLE
  8
_2-0_
  6
CONTINUOUS
 62
    7
 10
699.50786310105286
 20
403.19164979327695
 40
4.5999999999999996
  0
CIRCLE
  8
_2-0_
  6
CONTINUOUS
 62
    7
 10
733.90786510105295
 20
403.19164979327695
 40
4.5999999999999996
  0
LINE
  8
_2-0_
  6
CONTINUOUS
 62
    7
 10
726.2163771010529
 20
416.81845579327694
 11
722.49733710105284
 21
408.84294779327695
  0
LINE
  8
_2-0_
  6
CONTINUOUS
 62
    7
 10
699.02714510105284
 20
429.49700379327697
 11
726.2163771010529
 21
416.81845579327694
  0
LINE
  8
_2-0_
  6
CONTINUOUS
 62
    7
 10
695.30810510105289
 20
421.52149379327693
 11
699.02714510105284
 21
429.49700379327697
  0
LINE
  8
_2-0_
  6
CONTINUOUS
 62
    7
 10
718.05960910105296
 20
420.62201979327693
 11
719.24294110105291
 21
423.15968179327695
  0
LINE
  8
_2-0_
  6
CONTINUOUS
 62
    7
 10
708.36724710105295
 20
428.23110179327693
 11
719.24294110105291
 21
423.15968179327695
  0
LINE
  8
_2-0_
  6
CONTINUOUS
 62
    7
 10
708.36724710105295
 20
428.23110179327693
 11
707.18391510105289
 21
425.69343779327693
  0
LINE
  8
_2-0_
  6
CONTINUOUS
 62
    7
 10
723.51162110105292
 20
411.01808579327695
 11
696.32238910105298
 21
423.69663379327693
  0
LINE
  8
_2-0_
  6
CONTINUOUS
 62
    4
 10
690.42026110105292
 20
442.27448779327693
 11
690.72875110105292
 21
442.58297779327694
  0
TEXT
  8
_2-0_
 62
    7
 10
674.77031911193149
 20
416.17188502606865
 40
8
 41
1
 50
90
  1
13.5
  0
TEXT
  8
_2-0_
 62
    7
 10
713.47760334149507
 20
495.44642085553795
 40
8
 41
1
 50
0
  1
A-A 断面図
  0
LINE
  8
_2-0_
  6
CONTINUOUS
 62
    7
 10
754.02794181189688
 20
470.44029958231312
 11
727.18939939507413
 21
442.27092035143312
  0
LINE
  8
_2-0_
  6
CONTINUOUS
 62
    7
 10
755.13697249027791
 20
448.92510442171977
 11
715.43367420423442
 21
418.98127610542997
  0
TEXT
  8
_2-0_
 62
    7
 10
708.58536766030215
 20
377.36970602929688
 40
8
 41
1
 50
0
  1
13.2
  0
LINE
  8
_2-0_
  6
CONTINUOUS
 62
    7
 10
756.68961544001149
 20
425.19184790436412
 11
737.1706755005041
 21
417.42863315569639
  0
LINE
  8
_2-0_
  6
CONTINUOUS
 62
    7
 10
758.02045225406891
 20
412.32709203514332
 11
746.70833933458152
 21
412.32709203514332
  0
LINE
  8
_2-0_
  6
CONTINUOUS
 62
    7
 10
746.48653319890536
 20
412.32709203514332
 11
701.45988765663265
 21
404.34207115079937
  0
LINE
  8
_2-0_
  6
CONTINUOUS
 62
    7
 10
746.48653319890536
 20
412.54889817081954
 11
734.50900187238949
 21
403.67665274377072
  0
TEXT
  8
_2-0_
 62
    7
 10
756.89327380095062
 20
467.01440299582316
 40
8
 41
1
 50
0
  1
樹脂カバー
  0
TEXT
  8
_2-0_
 62
    7
 10
756.89327380095062
 20
445.27034423160018
 40
8
 41
1
 50
0
  1
LED基板
  0
TEXT
  8
_2-0_
 62
    7
 10
756.89327380095062
 20
423.19559268327816
 40
8
 41
1
 50
0
  1
アルミフレーム
  0
TEXT
  8
_2-0_
 62
    7
 10
756.89327380095062
 20
408.50874245542235
 40
8
 41
1
 50
0
  1
マグネット
  0
TEXT
  8
_2-0_
 62
    7
 10
756.89327380095062
 20
401.45859138700848
 40
6
 41
1
 50
0
  1
(オプション)
  0
LINE
  8
_2-0_
  6
CONTINUOUS
 62
    2
 10
625.64417490077415
 20
483.90220227186035
 11
626.37749718629937
 21
483.53554112909774
  0
LINE
  8
_2-0_
  6
CONTINUOUS
 62
    2
 10
624.62510447711225
 20
483.29370349494138
 11
625.25751085178547
 21
482.97750030760483
  0
LINE
  8
_2-0_
  6
CONTINUOUS
 62
    2
 10
623.59930632606029
 20
482.6885685817175
 11
624.18461860900243
 21
482.39591244024638
  0
LINE
  8
_2-0_
  6
CONTINUOUS
 62
    2
 10
622.54659726544787
 20
482.09688912327385
 11
623.08481545665904
 21
481.82778002766827
  0
LINE
  8
_2-0_
  6
CONTINUOUS
 62
    2
 10
621.59480411568734
 20
481.45475170940415
 11
622.13302230689851
 21
481.18564261379856
  0
LINE
  8
_2-0_
  6
CONTINUOUS
 62
    2
 10
620.71701596721846
 20
480.77561179488873
 11
621.25523415842963
 21
480.50650269928315
  0
LINE
  8
_2-0_
  6
CONTINUOUS
 62
    2
 10
619.93341600221152
 20
480.04937778864229
 11
620.43799555647206
 21
479.79708801151207
  0
LINE
  8
_2-0_
  6
CONTINUOUS
 62
    2
 10
619.12963285503417
 20
479.3332353734811
 11
619.65439559146512
 21
479.07085400526563
  0
LINE
  8
_2-0_
  6
CONTINUOUS
 62
    2
 10
618.49066755773936
 20
478.52624569620104
 11
618.98179165721945
 21
478.28068364646094
  0
LINE
  8
_2-0_
  6
CONTINUOUS
 62
    2
 10
617.85507759531538
 20
477.72600668866312
 11
618.31256305784495
 21
477.49726395739833
  0
LINE
  8
_2-0_
  6
CONTINUOUS
 62
    2
 10
617.24639854245208
 20
476.91231222634485
 11
617.75097809671263
 21
476.66002244921464
  0
LINE
  8
_2-0_
  6
CONTINUOUS
 62
    2
 10
616.68481358131976
 20
476.0750707181611
 11
617.19612086297036
 21
475.81941707733586
  0
LINE
  8
_2-0_
  6
CONTINUOUS
 62
    2
 10
616.20396134886914
 20
475.19746284563655
 11
616.68835772095917
 21
474.95526465959153
  0
LINE
  8
_2-0_
  6
CONTINUOUS
 62
    2
 10
615.81510022012696
 20
474.27385942125784
 11
616.22479486226371
 21
474.06901210018941
  0
LINE
  8
_2-0_
  6
CONTINUOUS
 62
    2
 10
615.42099518934845
 20
473.35287794789713
 11
615.84586370711986
 21
473.14044368901148
  0
LINE
  8
_2-0_
  6
CONTINUOUS
 62
    2
 10
615.05723790983927
 20
472.41672259890186
 11
615.51245417888003
 21
472.18911446438142
  0
LINE
  8
_2-0_
  6
CONTINUOUS
 62
    2
 10
614.70865450596489
 20
471.47298031208913
 11
615.23215321536179
 21
471.21123095739068
  0
LINE
  8
_2-0_
  6
CONTINUOUS
 62
    2
 10
614.54215760970669
 20
470.43819477146832
 11
614.98978694093023
 21
470.21438010585655
  0
LINE
  8
_2-0_
  6
CONTINUOUS
 62
    2
 10
614.35147264180762
 20
469.415503266668
 11
614.81201667924211
 21
469.1852312479507
  0
LINE
  8
_2-0_
  6
CONTINUOUS
 62
    2
 10
614.17516730362217
 20
468.38562194701086
 11
614.71021111181813
 21
468.11810004291283
  0
LINE
  8
_2-0_
  6
CONTINUOUS
 62
    2
 10
614.08013444263099
 20
467.31510438875654
 11
614.65581448942419
 21
467.02726436535988
  0
LINE
  8
_2-0_
  6
CONTINUOUS
 62
    2
 10
614.11378300386423
 20
466.18024611939006
 11
614.62850869276167
 21
465.92288327494128
  0
LINE
  8
_2-0_
  6
CONTINUOUS
 62
    2
 10
614.15420427153026
 20
465.04200149680707
 11
614.72311161189066
 21
464.75754782662693
  0
LINE
  8
_2-0_
  6
CONTINUOUS
 62
    2
 10
614.27589801639067
 20
463.86312063562696
 11
614.91253242107973
 21
463.54480343328248
  0
LINE
  8
_2-0_
  6
CONTINUOUS
 62
    2
 10
614.37548178128156
 20
462.97865513615091
 11
615.11370678246351
 21
462.60954263555993
  0
LINE
  8
_2-0_
  6
CONTINUOUS
 62
    2
 10
614.78162919632223
 20
461.65754743988066
 11
615.43180901387689
 21
461.33245753110333
  0
LINE
  8
_2-0_
  6
CONTINUOUS
 62
    2
 10
615.06586789557127
 20
460.39739410150622
 11
615.71604771312604
 21
460.07230419272889
  0
LINE
  8
_2-0_
  6
CONTINUOUS
 62
    2
 10
615.35687930125323
 20
459.13385440991533
 11
616.02060453167371
 21
458.80199179470515
  0
LINE
  8
_2-0_
  6
CONTINUOUS
 62
    2
 10
615.70207235839814
 20
457.84322389259302
 11
616.31838864378847
 21
457.53506574989785
  0
LINE
  8
_2-0_
  6
CONTINUOUS
 62
    2
 10
616.01340188337872
 20
456.56952514135287
 11
617.22571633486086
 21
455.96336791561174
  0
LINE
  8
_2-0_
  6
CONTINUOUS
 62
    2
 10
627.72176082539693
 20
485.09947728704879
 11
628.49637076230465
 21
484.71217231859487
  0
LINE
  8
_2-0_
  6
CONTINUOUS
 62
    2
 10
626.67594286432973
 20
484.50435227883247
 11
627.51766670298366
 21
484.0834903595055
  0
LINE
  8
_2-0_
  6
CONTINUOUS
 62
    2
 10
687.45236298965403
 20
446.47410971666886
 11
689.06297799757567
 21
448.0847247245905
  0
LINE
  8
_2-0_
  6
CONTINUOUS
 62
    2
 10
689.00974276813599
 20
445.20306149515079
 11
692.87521878714801
 21
449.06853751416276
  0
LINE
  8
_2-0_
  6
CONTINUOUS
 62
    2
 10
691.74823921909376
 20
445.11313194610864
 11
696.40112701975636
 21
449.76601974677112
  0
LINE
  8
_2-0_
  6
CONTINUOUS
 62
    2
 10
690.97917509724448
 20
441.51563982425932
 11
700.24915925394896
 21
450.78562398096386
  0
LINE
  8
_2-0_
  6
CONTINUOUS
 62
    2
 10
692.07126551205681
 20
439.77930340964429
 11
703.88244181577079
 21
451.5904805554477
  0
LINE
  8
_2-0_
  6
CONTINUOUS
 62
    2
 10
694.84555399123838
 20
439.72516471825327
 11
707.01464516220199
 21
451.89425588921677
  0
LINE
  8
_2-0_
  6
CONTINUOUS
 62
    2
 10
698.44304511308769
 20
440.49422984010255
 11
709.86051594702121
 21
451.91170067403601
  0
LINE
  8
_2-0_
  6
CONTINUOUS
 62
    2
 10
702.14791156879846
 20
441.37066829581329
 11
712.67059628721995
 21
451.89335301423478
  0
LINE
  8
_2-0_
  6
CONTINUOUS
 62
    2
 10
705.44198820643396
 20
441.87048478794884
 11
714.95467687976929
 21
451.38317346128423
  0
LINE
  8
_2-0_
  6
CONTINUOUS
 62
    2
 10
708.53839910359659
 20
442.13846968511143
 11
717.34309448023498
 21
450.94316506174982
  0
LINE
  8
_2-0_
  6
CONTINUOUS
 62
    2
 10
711.31268799917484
 20
442.08433058068977
 11
719.43734592802411
 21
450.20898850953893
  0
LINE
  8
_2-0_
  6
CONTINUOUS
 62
    2
 10
713.49355093148074
 20
441.69303987940793
 11
721.4034601926071
 21
449.60294914053418
  0
LINE
  8
_2-0_
  6
CONTINUOUS
 62
    2
 10
715.76675860237242
 20
441.13782155029946
 11
723.46191919577586
 21
448.83298214370291
  0
LINE
  8
_2-0_
  6
CONTINUOUS
 62
    2
 10
717.96838438402301
 20
440.51101933195002
 11
725.3056305312216
 21
447.84826547914861
  0
LINE
  8
_2-0_
  6
CONTINUOUS
 62
    2
 10
719.86341986421871
 20
440.04764163657342
 11
726.84275156521267
 21
447.02697333756726
  0
LINE
  8
_2-0_
  6
CONTINUOUS
 62
    2
 10
721.5997558658031
 20
438.95555163815766
 11
728.65067045603791
 21
446.00646622839247
  0
LINE
  8
_2-0_
  6
CONTINUOUS
 62
    2
 10
723.33609286738738
 20
437.86346063974202
 11
730.3512160130017
 21
444.87858378535634
  0
LINE
  8
_2-0_
  6
CONTINUOUS
 62
    2
 10
724.87270979652476
 20
436.82792393529149
 11
731.816250052898
 21
443.77146419166485
  0
LINE
  8
_2-0_
  6
CONTINUOUS
 62
    2
 10
726.57325435348855
 20
435.70004249225536
 11
733.33783738675947
 21
442.46462552552623
  0
LINE
  8
_2-0_
  6
CONTINUOUS
 62
    2
 10
728.02325979810905
 20
434.32161993687583
 11
734.82363427600046
 21
441.12199441476724
  0
LINE
  8
_2-0_
  6
CONTINUOUS
 62
    2
 10
729.21910451066401
 20
432.98260944583888
 11
736.27001910089893
 21
440.03352403607369
  0
LINE
  8
_2-0_
  6
CONTINUOUS
 62
    2
 10
730.52594417680268
 20
431.4610211119774
 11
737.21894432083263
 21
438.15402125600735
  0
LINE
  8
_2-0_
  6
CONTINUOUS
 62
    2
 10
731.60095124796828
 20
429.74176803764311
 11
738.58028294896212
 21
436.72109973863695
  0
LINE
  8
_2-0_
  6
CONTINUOUS
 62
    2
 10
732.72883269100441
 20
428.04122348067926
 11
739.67237294737777
 21
434.98476373705262
  0
LINE
  8
_2-0_
  6
CONTINUOUS
 62
    2
 10
733.60617502169725
 20
426.09013781137202
 11
740.62129816731158
 21
433.10526095698634
  0
LINE
  8
_2-0_
  6
CONTINUOUS
 62
    2
 10
734.31958872456335
 20
424.23139788065043
 11
741.65683487176204
 21
431.56864402784913
  0
LINE
  8
_2-0_
  6
CONTINUOUS
 62
    2
 10
739.14600948641942
 20
426.22939264250647
 11
742.67734198093672
 21
429.76072513702377
  0
LINE
  8
_2-0_
  6
CONTINUOUS
 62
    2
 10
735.04016093514304
 20
422.12354409123014
 11
737.59387634838708
 21
424.67725950447414
  0
LINE
  8
_2-0_
  6
CONTINUOUS
 62
    2
 10
740.59696036542618
 20
424.85191552151315
 11
743.73364153473199
 21
427.98859669081901
  0
LINE
  8
_2-0_
  6
CONTINUOUS
 62
    2
 10
744.05855657128143
 20
423.12667255179599
 11
745.77497587657331
 21
424.84309185708787
  0
LINE
  8
_2-0_
  6
CONTINUOUS
 62
    2
 10
741.80067984495167
 20
423.69722182546616
 11
744.70016782394737
 21
426.59670980446197
  0
LINE
  8
_2-0_
  6
CONTINUOUS
 62
    4
 10
675.7298056280099
 20
398.19164979327695
 11
675.7298056280099
 21
451.98221979327695
  0
LINE
  8
_2-0_
  6
CONTINUOUS
 62
    4
 10
671.46711906459427
 20
451.98221979327695
 11
704.90272110105298
 21
451.98221979327695
  0
LINE
  8
_2-0_
  6
CONTINUOUS
 62
    4
 10
671.46711906459427
 20
398.19164979327695
 11
687.50786510105286
 21
398.19164979327695
  0
LINE
  8
_2-0_
  6
CONTINUOUS
 62
    4
 10
690.30786510105281
 20
371.90868272074539
 11
690.30786510105281
 21
396.35705026645542
  0
LINE
  8
_2-0_
  6
CONTINUOUS
 62
    4
 10
743.10786510105299
 20
375.90868272074539
 11
690.30786510105281
 21
375.90868272074539
  0
LINE
  8
_2-0_
  6
CONTINUOUS
 62
    4
 10
743.10786510105299
 20
371.90868272074539
 11
743.10786510105299
 21
397.24427480916029
  0
LINE
  8
_2-0_
  6
CONTINUOUS
 62
    4
 10
105.13375859040622
 20
434.21973808287976
 11
105.13375859040622
 21
456.88954367983433
  0
LINE
  8
_2-0_
  6
CONTINUOUS
 62
    4
 10
155.13375859040622
 20
438.1612673549306
 11
105.13375859040622
 21
438.1612673549306
  0
LINE
  8
_2-0_
  6
CONTINUOUS
 62
    4
 10
155.13375859040622
 20
434.00934564200679
 11
155.13375859040622
 21
451.85047967983428
  0
LINE
  8
_2-0_
  6
CONTINUOUS
 62
    4
 10
503.96928459040623
 20
435.27170028724464
 11
503.96928459040623
 21
451.85047967983428
  0
LINE
  8
_2-0_
  6
CONTINUOUS
 62
    4
 10
553.96928459040623
 20
435.69248516899063
 11
553.96928459040623
 21
457.75905367983432
  0
LINE
  8
_2-0_
  6
CONTINUOUS
 62
    7
 10
735.84196201571081
 20
334.52869839304856
 11
735.84196201571081
 21
329.9190081684946
  0
LINE
  8
_2-0_
  6
CONTINUOUS
 62
    7
 10
756.12774269664408
 20
329.91900816849392
 11
760.73743292119821
 21
334.5286983930481
  0
LINE
  8
_2-0_
  6
CONTINUOUS
 62
    7
 10
752.53564024821605
 20
329.91900816849414
 11
757.14533047277018
 21
334.52869839304833
  0
LINE
  8
_2-0_
  6
CONTINUOUS
 62
    7
 10
748.94353779978803
 20
329.91900816849443
 11
753.55322802434227
 21
334.52869839304861
  0
LINE
  8
_2-0_
  6
CONTINUOUS
 62
    7
 10
745.35143535136012
 20
329.91900816849471
 11
749.96112557591425
 21
334.52869839304896
  0
LINE
  8
_2-0_
  6
CONTINUOUS
 62
    7
 10
741.7593329029321
 20
329.919008168495
 11
746.36902312748623
 21
334.52869839304918
  0
LINE
  8
_2-0_
  6
CONTINUOUS
 62
    7
 10
738.16723045450271
 20
329.91900816849392
 11
742.77692067905832
 21
334.52869839304947
  0
LINE
  8
_2-0_
  6
CONTINUOUS
 62
    7
 10
735.84196201571103
 20
331.18584217813054
 11
739.18481823062893
 21
334.52869839304839
  0
LINE
  8
_2-0_
  6
CONTINUOUS
 62
    7
 10
735.84196201571081
 20
334.52869839304856
 11
775.84196201571081
 21
334.52869839304856
  0
LINE
  8
_2-0_
  6
CONTINUOUS
 62
    7
 10
775.84196201571081
 20
329.9190081684946
 11
735.84196201571081
 21
329.9190081684946
  0
LINE
  8
_2-0_
  6
CONTINUOUS
 62
    7
 10
759.71984514506971
 20
329.91900816849352
 11
764.10460418867126
 21
334.30376721209507
  0
LINE
  8
_2-0_
  6
CONTINUOUS
 62
    7
 10
770.80771946739264
 20
329.91900816849443
 11
775.41740969194689
 21
334.52869839304861
  0
LINE
  8
_2-0_
  6
CONTINUOUS
 62
    7
 10
767.21561701896474
 20
329.91900816849471
 11
771.82530724351886
 21
334.52869839304896
  0
LINE
  8
_2-0_
  6
CONTINUOUS
 62
    7
 10
763.62351457053671
 20
329.919008168495
 11
768.23320479509084
 21
334.52869839304918
  0
LINE
  8
_2-0_
  6
CONTINUOUS
 62
    7
 10
775.84196201571081
 20
334.52869839304856
 11
775.84196201571081
 21
329.9190081684946
  0
LINE
  8
_2-0_
  6
CONTINUOUS
 62
    7
 10
774.39982191582067
 20
329.91900816849414
 11
775.78288328594033
 21
331.30206953861381
  0
LINE
  8
_2-0_
  6
CONTINUOUS
 62
    4
 10
735.84196201571081
 20
317.90605641504726
 11
775.84196201571081
 21
317.90605641504726
  0
LINE
  8
_2-0_
  6
CONTINUOUS
 62
    4
 10
735.84196201571081
 20
317.90605641504726
 11
741.63751697344526
 21
319.45897068566239
  0
LINE
  8
_2-0_
  6
CONTINUOUS
 62
    4
 10
735.84196201571081
 20
317.90605641504726
 11
741.63751697344526
 21
316.35314214443213
  0
LINE
  8
_2-0_
  6
CONTINUOUS
 62
    4
 10
775.84196201571081
 20
317.90605641504726
 11
770.04640705797635
 21
316.35314214443213
  0
LINE
  8
_2-0_
  6
CONTINUOUS
 62
    4
 10
775.84196201571081
 20
317.90605641504726
 11
770.04640705797635
 21
319.45897068566239
  0
LINE
  8
_2-0_
  6
CONTINUOUS
 62
    4
 10
735.84196201571081
 20
316.90605641504726
 11
735.84196201571081
 21
327.65397382337767
  0
LINE
  8
_2-0_
  6
CONTINUOUS
 62
    4
 10
775.84196201571081
 20
316.90605641504726
 11
775.84196201571081
 21
327.65397382337767
  0
TEXT
  8
_2-0_
 62
    7
 10
751.59196201571081
 20
318.90605641504726
 40
8
 41
1
 50
0
  1
20
  0
TEXT
  8
_2-0_
 62
    7
 10
719.1739013321029
 20
320.59806454925439
 40
8
 41
1
 50
90
  1
Φ2.3
  0
LINE
  8
_2-0_
  6
CONTINUOUS
 62
    4
 10
801.69087118793334
 20
272.47492304269196
 11
801.69087118793334
 21
286.28096537073429
  0
LINE
  8
_2-0_
  6
CONTINUOUS
 62
    4
 10
736.76363309269527
 20
272.47492304269196
 11
736.76363309269527
 21
286.28096537073429
  0
LINE
  8
_2-0_
  6
CONTINUOUS
 62
    4
 10
801.69087118793334
 20
273.74492304269199
 11
794.33051639161056
 21
275.7171241663732
  0
LINE
  8
_2-0_
  6
CONTINUOUS
 62
    4
 10
801.69087118793334
 20
273.74492304269199
 11
794.33051639161056
 21
271.77272191901073
  0
LINE
  8
_2-0_
  6
CONTINUOUS
 62
    4
 10
736.76363309269527
 20
273.74492304269199
 11
744.12398788901783
 21
271.77272191901073
  0
LINE
  8
_2-0_
  6
CONTINUOUS
 62
    4
 10
736.76363309269527
 20
273.74492304269199
 11
744.12398788901783
 21
275.7171241663732
  0
LINE
  8
_2-0_
  6
CONTINUOUS
 62
    4
 10
736.76363309269527
 20
273.74492304269199
 11
801.69087118793334
 21
273.74492304269199
  0
LINE
  8
_2-0_
  6
CONTINUOUS
 62
    7
 10
770.99531803711557
 20
290.7313500056058
 11
801.69087118793334
 21
290.7313500056058
  0
LINE
  8
_2-0_
  6
CONTINUOUS
 62
    7
 10
736.76363309269527
 20
290.7313500056058
 11
768.03330864152588
 21
290.7313500056058
  0
LINE
  8
_2-0_
  6
CONTINUOUS
 62
    7
 10
770.84034422354318
 20
295.30335000560581
 11
801.69087118793334
 21
295.30335000560581
  0
LINE
  8
_2-0_
  6
CONTINUOUS
 62
    7
 10
736.76363309269527
 20
295.30335000560581
 11
767.91491580283662
 21
295.30335000560581
  0
ARC
  8
_2-0_
  6
CONTINUOUS
 62
    7
 10
772.1380136815618
 20
293.15155028923692
 40
4.7397043908516867
 50
152.9997428828153
 51
209.99998474121088
  0
LINE
  8
_2-0_
  6
CONTINUOUS
 62
    7
 10
770.84034422354318
 20
295.30335000560581
 11
770.23301110023431
 21
294.25142142316645
  0
LINE
  8
_2-0_
  6
CONTINUOUS
 62
    7
 10
770.23301110023431
 20
292.0517013771709
 11
770.99531803711557
 21
290.7313500056058
  0
LINE
  8
_2-0_
  6
CONTINUOUS
 62
    7
 10
768.03330216517043
 20
290.78169965628587
 11
768.03330398751041
 21
290.78169649993418
  0
ARC
  8
_2-0_
  6
CONTINUOUS
 62
    7
 10
772.1380136815618
 20
293.15155028923692
 40
2.1997045948560632
 50
150
 51
209.99998474121094
  0
LINE
  8
_2-0_
  6
CONTINUOUS
 62
    7
 10
801.69087118793334
 20
295.30335000560581
 11
801.69087118793334
 21
290.7313500056058
  0
LINE
  8
_2-0_
  6
CONTINUOUS
 62
    7
 10
736.76363309269527
 20
295.30335000560581
 11
736.76363309269527
 21
290.7313500056058
  0
TEXT
  8
_2-0_
 62
    7
 10
718.52797751579817
 20
281.59922593986221
 40
8
 41
1
 50
90
  1
Φ2.1
  0
TEXT
  8
_2-0_
 62
    7
 10
741.11676334283527
 20
278.28266592626369
 40
6
 41
1
 50
0
  1
ピッチにより変動
  0
TEXT
  8
_2-0_
 62
    7
 10
738.07387793479711
 20
303.13289675857573
 40
6
 41
1
 50
0
  1
※1 マグネットスペーサー
  0
LINE
  8
_2-0_
  6
CONTINUOUS
 62
    4
 10
518.05468840255423
 20
271.7484667974897
 11
523.85024336028869
 21
273.30138106810483
  0
LINE
  8
_2-0_
  6
CONTINUOUS
 62
    4
 10
518.05468840255423
 20
271.7484667974897
 11
523.85024336028869
 21
270.19555252687456
  0
LINE
  8
_2-0_
  6
CONTINUOUS
 62
    4
 10
518.05468840255423
 20
270.7484667974897
 11
518.05468840255423
 21
282.04362521685596
  0
LINE
  8
_2-0_
  6
CONTINUOUS
 62
    4
 10
618.05468840255423
 20
271.7484667974897
 11
612.25913344481989
 21
270.19555252687456
  0
LINE
  8
_2-0_
  6
CONTINUOUS
 62
    4
 10
618.05468840255423
 20
271.7484667974897
 11
612.25913344481989
 21
273.30138106810483
  0
LINE
  8
_2-0_
  6
CONTINUOUS
 62
    4
 10
618.05468840255423
 20
270.7484667974897
 11
618.05468840255423
 21
281.82457929303973
  0
TEXT
  8
_2-0_
 62
    7
 10
560.80082369973911
 20
273.1548092548195
 40
8
 41
1
 50
0
  1
50
  0
LINE
  8
_2-0_
  6
CONTINUOUS
 62
    4
 10
518.05468840255423
 20
271.7484667974897
 11
618.54658326560502
 21
271.7484667974897
  0
LINE
  8
_2-0_
  6
CONTINUOUS
 62
    7
 10
498.05468840255423
 20
293.22106160203259
 11
498.05468840255423
 21
289.58433234172537
  0
LINE
  8
_2-0_
  6
CONTINUOUS
 62
    7
 10
538.05468840255423
 20
293.278043704808
 11
538.05468840255423
 21
289.71756740632236
  0
LINE
  8
_2-0_
  6
CONTINUOUS
 62
    7
 10
498.10918889270908
 20
290.17481407235698
 11
501.0828072720202
 21
293.1484324516681
  0
LINE
  8
_2-0_
  6
CONTINUOUS
 62
    7
 10
500.31449222650679
 20
289.55169028140813
 11
503.95006445516537
 21
293.1872625100666
  0
LINE
  8
_2-0_
  6
CONTINUOUS
 62
    7
 10
505.98707543423188
 20
289.56741923963966
 11
509.59910566729275
 21
293.17944947270058
  0
LINE
  8
_2-0_
  6
CONTINUOUS
 62
    7
 10
503.16020156574348
 20
289.56897249589804
 11
506.70335743275984
 21
293.1121283629144
  0
LINE
  8
_2-0_
  6
CONTINUOUS
 62
    7
 10
508.78109695125136
 20
289.53301363191258
 11
512.4378717990503
 21
293.18978847971147
  0
LINE
  8
_2-0_
  6
CONTINUOUS
 62
    7
 10
511.65933820091027
 20
289.58282775682471
 11
515.19116477664477
 21
293.11465433255933
  0
LINE
  8
_2-0_
  6
CONTINUOUS
 62
    7
 10
514.56419813579237
 20
289.65926056696026
 11
518.05842195978994
 21
293.15348439095783
  0
LINE
  8
_2-0_
  6
CONTINUOUS
 62
    7
 10
517.47826192502453
 20
289.74489723144745
 11
520.83632175143032
 21
293.10295705785325
  0
LINE
  8
_2-0_
  6
CONTINUOUS
 62
    7
 10
520.20131860091988
 20
289.63868268396436
 11
523.70788522123235
 21
293.14524930427683
  0
LINE
  8
_2-0_
  6
CONTINUOUS
 62
    7
 10
522.94275332311031
 20
289.55169028140813
 11
526.46117819882681
 21
293.07011515712463
  0
LINE
  8
_2-0_
  6
CONTINUOUS
 62
    7
 10
525.788462662347
 20
289.56897249589804
 11
529.29994433058437
 21
293.08045416413552
  0
LINE
  8
_2-0_
  6
CONTINUOUS
 62
    7
 10
528.61533653083529
 20
289.56741923963966
 11
532.13871046234192
 21
293.09079317114634
  0
LINE
  8
_2-0_
  6
CONTINUOUS
 62
    7
 10
531.40935804785488
 20
289.53301363191258
 11
535.06294974826244
 21
293.18660533232026
  0
LINE
  8
_2-0_
  6
CONTINUOUS
 62
    7
 10
534.28759929751368
 20
289.58282775682471
 11
537.84473377724464
 21
293.13996223655573
  0
LINE
  8
_2-0_
  6
CONTINUOUS
 62
    7
 10
537.19245923239589
 20
289.65926056696026
 11
538.09081423272289
 21
290.55761556728737
  0
LINE
  8
_2-0_
  6
CONTINUOUS
 62
    7
 10
498.06819664392924
 20
292.20463186365737
 11
499.13568860757425
 21
293.27212382730221
  0
LINE
  8
_2-0_
  6
CONTINUOUS
 62
    7
 10
458.05468840255423
 20
313.17736704727167
 11
458.05468840255423
 21
286.7773670472717
  0
LINE
  8
_2-0_
  6
CONTINUOUS
 62
    7
 10
457.99434851698732
 20
312.7773670472717
 11
454.05468840255423
 21
312.7773670472717
  0
LINE
  8
_2-0_
  6
CONTINUOUS
 62
    7
 10
457.99434851698732
 20
287.17736704727167
 11
454.05468840255423
 21
287.17736704727167
  0
LINE
  8
_2-0_
  6
CONTINUOUS
 62
    7
 10
454.05468840255423
 20
312.7773670472717
 11
454.05468840255423
 21
287.17736704727167
  0
LINE
  8
_2-0_
  6
CONTINUOUS
 62
    7
 10
638.05468840255423
 20
310.1371651902295
 11
638.05468840255423
 21
306.86753563218969
  0
LINE
  8
_2-0_
  6
CONTINUOUS
 62
    7
 10
600.31449222650679
 20
306.7016585072754
 11
603.71972997535954
 21
310.10689625612804
  0
LINE
  8
_2-0_
  6
CONTINUOUS
 62
    7
 10
603.16020156574348
 20
306.71894072176531
 11
606.54815710010598
 21
310.10689625612781
  0
LINE
  8
_2-0_
  6
CONTINUOUS
 62
    7
 10
605.98707543423188
 20
306.71738746550699
 11
609.37658422485242
 21
310.10689625612758
  0
LINE
  8
_2-0_
  6
CONTINUOUS
 62
    7
 10
598.10918889270908
 20
307.32478229822431
 11
600.89130285061196
 21
310.10689625612719
  0
LINE
  8
_2-0_
  6
CONTINUOUS
 62
    7
 10
598.05468840255423
 20
310.1371651902295
 11
598.05468840255423
 21
306.7343005675927
  0
LINE
  8
_2-0_
  6
CONTINUOUS
 62
    7
 10
608.78109695125136
 20
306.68298185777991
 11
612.20501134959886
 21
310.10689625612736
  0
LINE
  8
_2-0_
  6
CONTINUOUS
 62
    7
 10
611.65933820091016
 20
306.73279598269204
 11
615.0334384743453
 21
310.10689625612713
  0
LINE
  8
_2-0_
  6
CONTINUOUS
 62
    7
 10
614.56419813579237
 20
306.80922879282758
 11
617.86186559909174
 21
310.10689625612696
  0
LINE
  8
_2-0_
  6
CONTINUOUS
 62
    7
 10
617.24279924627501
 20
306.65940277856527
 11
620.83632175143021
 21
310.25292528372057
  0
LINE
  8
_2-0_
  6
CONTINUOUS
 62
    7
 10
622.94275332311031
 20
306.7016585072754
 11
626.34799107196295
 21
310.10689625612804
  0
LINE
  8
_2-0_
  6
CONTINUOUS
 62
    7
 10
625.78846266234689
 20
306.71894072176531
 11
629.17641819670939
 21
310.10689625612781
  0
LINE
  8
_2-0_
  6
CONTINUOUS
 62
    7
 10
628.61533653083529
 20
306.71738746550699
 11
632.00484532145583
 21
310.10689625612758
  0
LINE
  8
_2-0_
  6
CONTINUOUS
 62
    7
 10
631.40935804785488
 20
306.68298185777991
 11
634.83327244620227
 21
310.10689625612736
  0
LINE
  8
_2-0_
  6
CONTINUOUS
 62
    7
 10
634.28759929751368
 20
306.73279598269204
 11
637.66169957094871
 21
310.10689625612713
  0
LINE
  8
_2-0_
  6
CONTINUOUS
 62
    7
 10
620.20131860091988
 20
306.78865090983163
 11
623.51956394721537
 21
310.10689625612719
  0
LINE
  8
_2-0_
  6
CONTINUOUS
 62
    7
 10
637.19245923239589
 20
306.80922879282758
 11
637.97652111811681
 21
307.59329067854856
  0
LINE
  8
_2-0_
  6
CONTINUOUS
 62
    7
 10
598.06819664392924
 20
309.35460008952464
 11
598.85225852965016
 21
310.13866197524561
  0
LINE
  8
_2-0_
  6
CONTINUOUS
 62
    7
 10
625.90657718813725
 20
322.25935506868836
 11
614.78816934132783
 21
308.24151734981621
  0
TEXT
  8
_2-0_
 62
    7
 10
610.95663109547206
 20
324.06350610463113
 40
6
 41
1
 50
0
  1
マグネット
  0
ARC
  8
_2-0_
  6
CONTINUOUS
 62
    2
 10
649.05164561694664
 20
307.52809754493603
 40
16.18982306077352
 50
315.60640298124792
 51
56.046281077863661
  0
ARC
  8
_2-0_
  6
CONTINUOUS
 62
    2
 10
668.98452731000918
 20
288.0127408907955
 40
11.705856137409377
 50
135.60640298124798
 51
234.19178192632754
  0
ARC
  8
_2-0_
  6
CONTINUOUS
 62
    2
 10
646.35372090389319
 20
307.52809754493603
 40
14.68982306077352
 50
315.60640298124792
 51
56.046281077863661
  0
ARC
  8
_2-0_
  6
CONTINUOUS
 62
    2
 10
666.28660259695562
 20
288.0127408907955
 40
13.205856137409377
 50
135.60640298124798
 51
234.19178192632754
  0
LINE
  8
_2-0_
  6
CONTINUOUS
 62
    7
 10
653.14341952375673
 20
289.57736704727165
 11
458.05468840255423
 21
289.57736704727165
  0
LINE
  8
_2-0_
  6
CONTINUOUS
 62
    7
 10
659.87554359182252
 20
313.17736704727167
 11
458.05468840255423
 21
313.17736704727167
  0
LINE
  8
_2-0_
  6
CONTINUOUS
 62
    7
 10
688.17870686352342
 20
313.17736704727167
 11
664.46810812768865
 21
313.17736704727167
  0
LINE
  8
_2-0_
  6
CONTINUOUS
 62
    7
 10
688.73927146095969
 20
310.37736704727172
 11
665.14848805892814
 21
310.37736704727172
  0
LINE
  8
_2-0_
  6
CONTINUOUS
 62
    7
 10
660.61262185066516
 20
310.37736704727172
 11
458.05468840255423
 21
310.37736704727172
  0
LINE
  8
_2-0_
  6
CONTINUOUS
 62
    7
 10
660.66932017826844
 20
306.7773670472717
 11
458.05468840255423
 21
306.7773670472717
  0
LINE
  8
_2-0_
  6
CONTINUOUS
 62
    7
 10
689.29983605839595
 20
306.7773670472717
 11
665.31858304173795
 21
306.7773670472717
  0
LINE
  8
_2-0_
  6
CONTINUOUS
 62
    7
 10
689.58011835711409
 20
303.97736704727168
 11
664.80829809330839
 21
303.97736704727168
  0
LINE
  8
_2-0_
  6
CONTINUOUS
 62
    7
 10
660.61262185066516
 20
303.97736704727168
 11
458.05468840255423
 21
303.97736704727168
  0
LINE
  8
_2-0_
  6
CONTINUOUS
 62
    7
 10
655.67986734917929
 20
295.97736704727168
 11
458.05468840255423
 21
295.97736704727168
  0
LINE
  8
_2-0_
  6
CONTINUOUS
 62
    7
 10
654.09231417628723
 20
293.17736704727167
 11
458.05468840255423
 21
293.17736704727167
  0
LINE
  8
_2-0_
  6
CONTINUOUS
 62
    7
 10
652.95834762422157
 20
286.7773670472717
 11
458.05468840255423
 21
286.7773670472717
  0
LINE
  8
_2-0_
  6
CONTINUOUS
 62
    7
 10
689.29983605839595
 20
286.7773670472717
 11
657.32411884967462
 21
286.7773670472717
  0
LINE
  8
_2-0_
  6
CONTINUOUS
 62
    7
 10
689.01955375967782
 20
289.57736704727165
 11
657.43751550488116
 21
289.57736704727165
  0
LINE
  8
_2-0_
  6
CONTINUOUS
 62
    7
 10
688.73927146095969
 20
293.17736704727167
 11
658.57148205694693
 21
293.17736704727167
  0
LINE
  8
_2-0_
  6
CONTINUOUS
 62
    7
 10
689.29983605839595
 20
295.97736704727168
 11
660.55592352306189
 21
295.97736704727168
  0
TEXT
  8
_2-0_
 62
    7
 10
477.74718305374086
 20
271.14279566895669
 40
6
 41
1
 50
0
  1
マグネット
  0
LINE
  8
_2-0_
  6
CONTINUOUS
 62
    7
 10
505.67468380785988
 20
290.98622504943762
 11
492.37051590697422
 21
278.7907378069591
  0
LINE
  8
_2-0_
  6
CONTINUOUS
 62
    4
 10
518.05468840255423
 20
204.53506810813292
 11
523.85024336028869
 21
206.08798237874805
  0
LINE
  8
_2-0_
  6
CONTINUOUS
 62
    4
 10
518.05468840255423
 20
204.53506810813292
 11
523.85024336028869
 21
202.98215383751779
  0
LINE
  8
_2-0_
  6
CONTINUOUS
 62
    4
 10
518.05468840255423
 20
203.53506810813292
 11
518.05468840255423
 21
214.83022652749918
  0
LINE
  8
_2-0_
  6
CONTINUOUS
 62
    7
 10
498.10918889270908
 20
222.9614153830002
 11
501.0828072720202
 21
225.93503376231132
  0
LINE
  8
_2-0_
  6
CONTINUOUS
 62
    7
 10
500.31449222650679
 20
222.33829159205135
 11
503.95006445516537
 21
225.97386382070982
  0
LINE
  8
_2-0_
  6
CONTINUOUS
 62
    7
 10
505.98707543423188
 20
222.35402055028288
 11
509.59910566729275
 21
225.9660507833438
  0
LINE
  8
_2-0_
  6
CONTINUOUS
 62
    7
 10
503.16020156574348
 20
222.35557380654126
 11
506.70335743275984
 21
225.89872967355763
  0
LINE
  8
_2-0_
  6
CONTINUOUS
 62
    7
 10
508.78109695125136
 20
222.3196149425558
 11
512.4378717990503
 21
225.97638979035469
  0
LINE
  8
_2-0_
  6
CONTINUOUS
 62
    7
 10
511.65933820091027
 20
222.36942906746793
 11
515.19116477664477
 21
225.90125564320255
  0
LINE
  8
_2-0_
  6
CONTINUOUS
 62
    7
 10
514.56419813579237
 20
222.44586187760348
 11
518.05842195978994
 21
225.94008570160105
  0
LINE
  8
_2-0_
  6
CONTINUOUS
 62
    7
 10
517.47826192502453
 20
222.53149854209067
 11
520.83632175143032
 21
225.88955836849647
  0
LINE
  8
_2-0_
  6
CONTINUOUS
 62
    7
 10
520.20131860091988
 20
222.42528399460758
 11
523.70788522123235
 21
225.93185061492005
  0
LINE
  8
_2-0_
  6
CONTINUOUS
 62
    7
 10
522.94275332311031
 20
222.33829159205135
 11
526.46117819882681
 21
225.85671646776785
  0
LINE
  8
_2-0_
  6
CONTINUOUS
 62
    7
 10
525.788462662347
 20
222.35557380654126
 11
529.29994433058437
 21
225.86705547477874
  0
LINE
  8
_2-0_
  6
CONTINUOUS
 62
    7
 10
528.61533653083529
 20
222.35402055028288
 11
532.13871046234192
 21
225.87739448178957
  0
LINE
  8
_2-0_
  6
CONTINUOUS
 62
    7
 10
531.40935804785488
 20
222.3196149425558
 11
535.06294974826244
 21
225.97320664296348
  0
LINE
  8
_2-0_
  6
CONTINUOUS
 62
    7
 10
534.28759929751368
 20
222.36942906746793
 11
537.84473377724464
 21
225.92656354719895
  0
LINE
  8
_2-0_
  6
CONTINUOUS
 62
    7
 10
458.05468840255423
 20
245.96396835791489
 11
458.05468840255423
 21
219.56396835791492
  0
LINE
  8
_2-0_
  6
CONTINUOUS
 62
    7
 10
457.99434851698732
 20
245.56396835791492
 11
454.05468840255423
 21
245.56396835791492
  0
LINE
  8
_2-0_
  6
CONTINUOUS
 62
    7
 10
457.99434851698732
 20
219.96396835791489
 11
454.05468840255423
 21
219.96396835791489
  0
LINE
  8
_2-0_
  6
CONTINUOUS
 62
    7
 10
454.05468840255423
 20
245.56396835791492
 11
454.05468840255423
 21
219.96396835791489
  0
LINE
  8
_2-0_
  6
CONTINUOUS
 62
    7
 10
537.19245923239589
 20
222.44586187760348
 11
538.05396187494796
 21
223.30736452015572
  0
LINE
  8
_2-0_
  6
CONTINUOUS
 62
    7
 10
538.05468840255423
 20
225.9577384672715
 11
538.05468840255423
 21
222.38370235703962
  0
LINE
  8
_2-0_
  6
CONTINUOUS
 62
    7
 10
498.06819664392924
 20
224.99123317430059
 11
499.03909268029406
 21
225.9621292106653
  0
LINE
  8
_2-0_
  6
CONTINUOUS
 62
    7
 10
498.05468840255423
 20
225.96121533780524
 11
498.05468840255423
 21
222.37093365236859
  0
ARC
  8
_2-0_
  6
CONTINUOUS
 62
    2
 10
752.09502653991376
 20
240.31469885557925
 40
16.18982306077352
 50
315.60640298124792
 51
56.046281077863661
  0
ARC
  8
_2-0_
  6
CONTINUOUS
 62
    2
 10
772.0279082329763
 20
220.79934220143872
 40
11.705856137409377
 50
135.60640298124798
 51
234.19178192632754
  0
ARC
  8
_2-0_
  6
CONTINUOUS
 62
    2
 10
749.39710182686031
 20
240.31469885557925
 40
14.68982306077352
 50
315.60640298124792
 51
56.046281077863661
  0
ARC
  8
_2-0_
  6
CONTINUOUS
 62
    2
 10
769.32998351992273
 20
220.79934220143872
 40
13.205856137409377
 50
135.60640298124798
 51
234.19178192632754
  0
LINE
  8
_2-0_
  6
CONTINUOUS
 62
    7
 10
756.02367360782807
 20
219.56396835791492
 11
458.05468840255423
 21
219.56396835791492
  0
LINE
  8
_2-0_
  6
CONTINUOUS
 62
    7
 10
795.10262088097147
 20
219.56396835791492
 11
760.38495717952662
 21
219.56396835791492
  0
LINE
  8
_2-0_
  6
CONTINUOUS
 62
    7
 10
794.15610393094244
 20
222.36396835791487
 11
760.54953391808124
 21
222.36396835791487
  0
LINE
  8
_2-0_
  6
CONTINUOUS
 62
    7
 10
756.1882503463828
 20
222.36396835791487
 11
458.05468840255423
 21
222.36396835791487
  0
LINE
  8
_2-0_
  6
CONTINUOUS
 62
    7
 10
757.17571077771072
 20
225.96396835791489
 11
458.05468840255423
 21
225.96396835791489
  0
LINE
  8
_2-0_
  6
CONTINUOUS
 62
    7
 10
793.8405982809328
 20
225.96396835791489
 11
761.61928271868646
 21
225.96396835791489
  0
LINE
  8
_2-0_
  6
CONTINUOUS
 62
    7
 10
793.52509263092315
 20
228.76396835791491
 11
763.59420358134241
 21
228.76396835791491
  0
LINE
  8
_2-0_
  6
CONTINUOUS
 62
    7
 10
758.57461305542529
 20
228.76396835791491
 11
458.05468840255423
 21
228.76396835791491
  0
LINE
  8
_2-0_
  6
CONTINUOUS
 62
    7
 10
763.4296268427878
 20
236.76396835791491
 11
458.05468840255423
 21
236.76396835791491
  0
LINE
  8
_2-0_
  6
CONTINUOUS
 62
    7
 10
793.8405982809328
 20
236.76396835791491
 11
767.87319878376354
 21
236.76396835791491
  0
LINE
  8
_2-0_
  6
CONTINUOUS
 62
    7
 10
793.8405982809328
 20
239.56396835791492
 11
768.3669289994275
 21
239.56396835791492
  0
LINE
  8
_2-0_
  6
CONTINUOUS
 62
    7
 10
764.00564542772906
 20
239.56396835791492
 11
458.05468840255423
 21
239.56396835791492
  0
LINE
  8
_2-0_
  6
CONTINUOUS
 62
    7
 10
763.67649195061972
 20
243.16396835791494
 11
458.05468840255423
 21
243.16396835791494
  0
LINE
  8
_2-0_
  6
CONTINUOUS
 62
    7
 10
793.52509263092315
 20
243.16396835791494
 11
768.03777552231816
 21
243.16396835791494
  0
LINE
  8
_2-0_
  6
CONTINUOUS
 62
    7
 10
793.8405982809328
 20
245.96396835791489
 11
767.37946856809958
 21
245.96396835791489
  0
LINE
  8
_2-0_
  6
CONTINUOUS
 62
    7
 10
762.93589662712384
 20
245.96396835791489
 11
458.05468840255423
 21
245.96396835791489
  0
LINE
  8
_2-0_
  6
CONTINUOUS
 62
    4
 10
718.05468840255423
 20
203.53506810813292
 11
718.05468840255423
 21
214.83022652749918
  0
LINE
  8
_2-0_
  6
CONTINUOUS
 62
    4
 10
518.05468840255423
 20
204.53506810813292
 11
717.29990644284726
 21
204.53506810813292
  0
LINE
  8
_2-0_
  6
CONTINUOUS
 62
    4
 10
718.11788330809236
 20
204.53506810813292
 11
712.32232835035802
 21
202.98215383751779
  0
LINE
  8
_2-0_
  6
CONTINUOUS
 62
    4
 10
718.11788330809236
 20
204.53506810813292
 11
712.32232835035802
 21
206.08798237874805
  0
LINE
  8
_2-0_
  6
CONTINUOUS
 62
    7
 10
698.10918889270908
 20
240.10348157833448
 11
701.0828072720202
 21
243.0770999576456
  0
LINE
  8
_2-0_
  6
CONTINUOUS
 62
    7
 10
700.31449222650679
 20
239.48035778738563
 11
703.95006445516537
 21
243.1159300160441
  0
LINE
  8
_2-0_
  6
CONTINUOUS
 62
    7
 10
705.98707543423188
 20
239.49608674561716
 11
709.59910566729275
 21
243.10811697867808
  0
LINE
  8
_2-0_
  6
CONTINUOUS
 62
    7
 10
703.16020156574348
 20
239.49764000187554
 11
706.70335743275984
 21
243.04079586889191
  0
LINE
  8
_2-0_
  6
CONTINUOUS
 62
    7
 10
708.78109695125136
 20
239.46168113789008
 11
712.4378717990503
 21
243.11845598568897
  0
LINE
  8
_2-0_
  6
CONTINUOUS
 62
    7
 10
711.65933820091027
 20
239.51149526280221
 11
715.19116477664477
 21
243.04332183853683
  0
LINE
  8
_2-0_
  6
CONTINUOUS
 62
    7
 10
714.56419813579237
 20
239.58792807293776
 11
718.05842195978994
 21
243.08215189693533
  0
LINE
  8
_2-0_
  6
CONTINUOUS
 62
    7
 10
717.47826192502453
 20
239.67356473742495
 11
720.83632175143032
 21
243.03162456383075
  0
LINE
  8
_2-0_
  6
CONTINUOUS
 62
    7
 10
720.20131860091988
 20
239.56735018994186
 11
723.70788522123235
 21
243.07391681025433
  0
LINE
  8
_2-0_
  6
CONTINUOUS
 62
    7
 10
722.94275332311031
 20
239.48035778738563
 11
726.46117819882681
 21
242.99878266310213
  0
LINE
  8
_2-0_
  6
CONTINUOUS
 62
    7
 10
725.788462662347
 20
239.49764000187554
 11
729.29994433058437
 21
243.00912167011302
  0
LINE
  8
_2-0_
  6
CONTINUOUS
 62
    7
 10
728.61533653083529
 20
239.49608674561716
 11
732.13871046234192
 21
243.01946067712385
  0
LINE
  8
_2-0_
  6
CONTINUOUS
 62
    7
 10
731.40935804785488
 20
239.46168113789008
 11
735.06294974826244
 21
243.11527283829776
  0
LINE
  8
_2-0_
  6
CONTINUOUS
 62
    7
 10
734.28759929751368
 20
239.51149526280221
 11
737.84473377724464
 21
243.06862974253323
  0
LINE
  8
_2-0_
  6
CONTINUOUS
 62
    7
 10
737.19245923239589
 20
239.58792807293776
 11
738.05396187494796
 21
240.44943071549
  0
LINE
  8
_2-0_
  6
CONTINUOUS
 62
    7
 10
738.05468840255423
 20
243.09980466260578
 11
738.05468840255423
 21
239.5257685523739
  0
LINE
  8
_2-0_
  6
CONTINUOUS
 62
    7
 10
698.06819664392924
 20
242.13329936963487
 11
699.03909268029406
 21
243.10419540599958
  0
LINE
  8
_2-0_
  6
CONTINUOUS
 62
    7
 10
698.05468840255423
 20
243.10328153313952
 11
698.05468840255423
 21
239.51299984770287
  0
TEXT
  8
_2-0_
 62
    7
 10
605.99801965039444
 20
205.94141056546272
 40
8
 41
1
 50
0
  1
100
  0
LINE
  8
_2-0_
  6
CONTINUOUS
 62
    7
 10
720.34006350855407
 20
255.04595637933159
 11
709.22165566174465
 21
241.02811866045943
  0
TEXT
  8
_2-0_
 62
    7
 10
705.39011741588888
 20
256.85010741527435
 40
6
 41
1
 50
0
  1
マグネット
  0
TEXT
  8
_2-0_
 62
    7
 10
477.74718305374086
 20
203.87122869634032
 40
6
 41
1
 50
0
  1
マグネット
  0
LINE
  8
_2-0_
  6
CONTINUOUS
 62
    7
 10
505.67468380785988
 20
223.71465807682125
 11
492.37051590697422
 21
211.51917083434273
  0
TEXT
  8
_2-0_
 62
    7
 10
440.02960986317959
 20
253.7499642815003
 40
8
 41
1
 50
0
  1
・100mmピッチ
  0
TEXT
  8
_2-0_
 62
    7
 10
440.02960986317959
 20
321.98199148902501
 40
8
 41
1
 50
0
  1
・50mmピッチ
  0
LINE
  8
_2-0_
  6
CONTINUOUS
 62
    7
 10
636.00089172455364
 20
253.27928423355871
 11
612.98665999735772
 21
224.26346020359819
  0
TEXT
  8
_2-0_
 62
    7
 10
633.01970037851981
 20
255.82781382078366
 40
6
 41
1
 50
0
  1
※1
  0
TEXT
  8
_2-0_
 62
    7
 10
575.92049788363988
 20
324.62664370637094
 40
6
 41
1
 50
0
  1
※1
  0
LINE
  8
_2-0_
  6
CONTINUOUS
 62
    7
 10
578.90168922967359
 20
322.07811411914599
 11
554.17026191303216
 21
290.89728863969111
  0
TEXT
  8
_2-0_
 62
    7
 10
432.01270133456046
 20
334.24528301886795
 40
10
 41
1
 50
0
  1
オプション品：マグネット
  0
ARC
  8
_2-0_
  6
CONTINUOUS
 62
    7
 10
-881.8458692879999
 20
249.35758265092278
 40
0.9
 50
90
 51
270
  0
LINE
  8
_2-0_
  6
CONTINUOUS
 62
    7
 10
-881.8458692879999
 20
250.25758265092276
 11
-851.64586928799963
 21
250.25758265092276
  0
ARC
  8
_2-0_
  6
CONTINUOUS
 62
    7
 10
-851.64586928799963
 20
249.35758265092278
 40
0.9
 50
270
 51
90
  0
ARC
  8
_2-0_
  6
CONTINUOUS
 62
    7
 10
-866.74586928799977
 20
199.5371286509228
 40
52.920453999999999
 50
73.421191000000007
 51
106.57880900000001
  0
LINE
  8
_2-0_
  6
CONTINUOUS
 62
    7
 10
-858.74586928799977
 20
247.25758265092276
 11
-858.74586928799977
 21
214.95388665092275
  0
LINE
  8
_2-0_
  6
CONTINUOUS
 62
    7
 10
-874.74586928799977
 20
247.25758265092276
 11
-874.74586928799977
 21
214.95388665092275
  0
LINE
  8
_2-0_
  6
CONTINUOUS
 62
    7
 10
-866.74586928799977
 20
208.05758265092277
 11
-874.74586928799977
 21
214.95388665092275
  0
LINE
  8
_2-0_
  6
CONTINUOUS
 62
    7
 10
-866.74586928799977
 20
208.05758265092277
 11
-858.74586928799977
 21
214.95388665092275
  0
LINE
  8
_2-0_
  6
CONTINUOUS
 62
    7
 10
-859.8319012879997
 20
231.70115465092277
 11
-856.92597528799979
 21
230.95577265092277
  0
LINE
  8
_2-0_
  6
CONTINUOUS
 62
    7
 10
-859.8319012879997
 20
231.70115465092277
 11
-857.68798728799993
 21
229.60267265092278
  0
LINE
  8
_2-0_
  6
CONTINUOUS
 62
    7
 10
-856.92597528799979
 20
230.95577265092277
 11
-857.68798728799993
 21
229.60267265092278
  0
LINE
  8
_2-0_
  6
CONTINUOUS
 62
    7
 10
-859.20067128799974
 20
231.34567265092278
 11
-857.7477092879999
 21
230.97298065092281
  0
LINE
  8
_2-0_
  6
CONTINUOUS
 62
    7
 10
-859.20067128799974
 20
231.34567265092278
 11
-858.12871528799997
 21
230.29643065092279
  0
LINE
  8
_2-0_
  6
CONTINUOUS
 62
    7
 10
-857.7477092879999
 20
230.97298065092281
 11
-858.12871528799997
 21
230.29643065092279
  0
LINE
  8
_2-0_
  6
CONTINUOUS
 62
    7
 10
-859.8319012879997
 20
231.70115465092277
 11
-827.05836928799977
 21
213.24442465092278
  0
LINE
  8
_2-0_
  6
CONTINUOUS
 62
    7
 10
-827.05836928799977
 20
213.24442465092278
 11
-764.53597528799992
 21
213.24442465092278
  0
TEXT
  8
_2-0_
 62
    7
 10
-824.53597528799992
 20
213.24442465092278
 40
8
 41
0.5769229999999999
 50
0
  1
タッピン1種φ4.0×12
  0
LINE
  8
_2-0_
  6
CONTINUOUS
 62
    7
 10
-841.49734728799967
 20
263.23163865092278
 11
-839.34587528799966
 21
265.38311065092279
  0
LINE
  8
_2-0_
  6
CONTINUOUS
 62
    7
 10
-842.34587528799966
 20
264.08016665092276
 11
-839.34587528799966
 21
267.08016665092276
  0
LINE
  8
_2-0_
  6
CONTINUOUS
 62
    7
 10
-891.99439728799985
 20
263.23163865092278
 11
-894.14586928799963
 21
265.38311065092279
  0
LINE
  8
_2-0_
  6
CONTINUOUS
 62
    7
 10
-891.14586928799963
 20
264.08016665092276
 11
-894.14586928799963
 21
267.08016665092276
  0
ARC
  8
_2-0_
  6
CONTINUOUS
 62
    7
 10
-840.14587528799984
 20
249.25758265092276
 40
0.8
 50
270
 51
0
  0
LINE
  8
_2-0_
  6
CONTINUOUS
 62
    7
 10
-839.34587528799966
 20
249.25758265092276
 11
-839.34587528799966
 21
272.44177665092275
  0
LINE
  8
_2-0_
  6
CONTINUOUS
 62
    7
 10
-840.14587528799984
 20
248.45758265092275
 11
-893.3458692879999
 21
248.45758265092275
  0
ARC
  8
_2-0_
  6
CONTINUOUS
 62
    7
 10
-893.3458692879999
 20
249.25758265092276
 40
0.8
 50
180
 51
270
  0
LINE
  8
_2-0_
  6
CONTINUOUS
 62
    7
 10
-894.14586928799963
 20
249.25758265092276
 11
-894.14586928799963
 21
283.32879865092275
  0
ARC
  8
_2-0_
  6
CONTINUOUS
 62
    7
 10
-840.14587528799984
 20
249.25758265092276
 40
2
 50
270
 51
0
  0
LINE
  8
_2-0_
  6
CONTINUOUS
 62
    7
 10
-838.14587528799984
 20
249.25758265092276
 11
-838.14587528799984
 21
272.44177665092275
  0
LINE
  8
_2-0_
  6
CONTINUOUS
 62
    7
 10
-893.3458692879999
 20
247.25758265092276
 11
-840.14587528799984
 21
247.25758265092276
  0
ARC
  8
_2-0_
  6
CONTINUOUS
 62
    7
 10
-893.3458692879999
 20
249.25758265092276
 40
2
 50
180
 51
270
  0
LINE
  8
_2-0_
  6
CONTINUOUS
 62
    7
 10
-895.3458692879999
 20
249.25758265092276
 11
-895.3458692879999
 21
283.32879865092275
  0
LINE
  8
_2-0_
  6
CONTINUOUS
 62
    7
 10
-839.34587528799966
 20
272.44177665092275
 11
-838.14587528799984
 21
272.44177665092275
  0
LINE
  8
_2-0_
  6
CONTINUOUS
 62
    7
 10
-894.14586928799963
 20
283.32879865092275
 11
-895.3458692879999
 21
283.32879865092275
  0
LINE
  8
_2-0_
  6
CONTINUOUS
 62
    7
 10
-842.34587728799988
 20
264.08016665092276
 11
-841.49734728799967
 21
263.23163865092278
  0
LINE
  8
_2-0_
  6
CONTINUOUS
 62
    7
 10
-891.14586928799963
 20
264.08016665092276
 11
-891.99439728799985
 21
263.23163865092278
  0
LINE
  8
_2-0_
  6
CONTINUOUS
 62
    7
 10
-893.14586928799963
 20
282.81310265092276
 11
-893.14586928799963
 21
283.3101586509228
  0
LINE
  8
_2-0_
  6
CONTINUOUS
 62
    7
 10
-895.79439928799979
 20
285.9586866509228
 11
-896.14586928799963
 21
286.3101586509228
  0
LINE
  8
_2-0_
  6
CONTINUOUS
 62
    7
 10
-893.42586928799983
 20
296.90469065092276
 11
-893.42586928799983
 21
297.14927465092279
  0
LINE
  8
_2-0_
  6
CONTINUOUS
 62
    7
 10
-893.42586928799983
 20
296.90469065092276
 11
-893.28909928799976
 21
296.70192065092277
  0
LINE
  8
_2-0_
  6
CONTINUOUS
 62
    7
 10
-893.14586928799963
 20
283.3101586509228
 11
-893.49734128799992
 21
283.66163065092275
  0
LINE
  8
_2-0_
  6
CONTINUOUS
 62
    7
 10
-896.14586928799963
 20
286.3101586509228
 11
-896.14586928799963
 21
286.80721465092279
  0
LINE
  8
_2-0_
  6
CONTINUOUS
 62
    7
 10
-888.54586928799972
 20
278.40363065092276
 11
-889.14586928799963
 21
278.75004265092275
  0
LINE
  8
_2-0_
  6
CONTINUOUS
 62
    7
 10
-889.14586928799963
 20
278.75004265092275
 11
-889.14586928799963
 21
279.44286265092279
  0
ARC
  8
_2-0_
  6
CONTINUOUS
 62
    7
 10
-841.14586928799963
 20
260.7356826509228
 40
0.8
 50
0
 51
29.999999999999996
  0
LINE
  8
_2-0_
  6
CONTINUOUS
 62
    7
 10
-852.04586928799972
 20
263.75196465092279
 11
-852.04586928799972
 21
263.75004265092275
  0
LINE
  8
_2-0_
  6
CONTINUOUS
 62
    7
 10
-879.54586928799972
 20
253.35004265092277
 11
-876.74586928799977
 21
253.35004265092277
  0
LINE
  8
_2-0_
  6
CONTINUOUS
 62
    7
 10
-891.94586928799981
 20
253.35004265092277
 11
-888.3458692879999
 21
253.35004265092277
  0
LINE
  8
_2-0_
  6
CONTINUOUS
 62
    7
 10
-880.64586928799963
 20
262.9500426509228
 11
-880.3458692879999
 21
262.9500426509228
  0
ARC
  8
_2-0_
  6
CONTINUOUS
 62
    7
 10
-879.54586928799972
 20
254.15004265092279
 40
0.8
 50
116.268489
 51
270
  0
LINE
  8
_2-0_
  6
CONTINUOUS
 62
    7
 10
-878.74586928799977
 20
259.75004265092275
 11
-879.24029328799975
 21
255.79466065092276
  0
ARC
  8
_2-0_
  6
CONTINUOUS
 62
    7
 10
-880.43102728799977
 20
255.94350265092277
 40
1.2
 50
296.26848899999999
 51
352.87498399999998
  0
LINE
  8
_2-0_
  6
CONTINUOUS
 62
    7
 10
-880.3458692879999
 20
262.9500426509228
 11
-878.74586928799977
 21
259.75004265092275
  0
LINE
  8
_2-0_
  6
CONTINUOUS
 62
    7
 10
-887.24586928799977
 20
262.9500426509228
 11
-887.54586928799972
 21
262.9500426509228
  0
ARC
  8
_2-0_
  6
CONTINUOUS
 62
    7
 10
-888.3458692879999
 20
254.15004265092279
 40
0.8
 50
270
 51
63.731510999999998
  0
LINE
  8
_2-0_
  6
CONTINUOUS
 62
    7
 10
-889.14586928799963
 20
259.75004265092275
 11
-888.65144728799987
 21
255.79466065092276
  0
ARC
  8
_2-0_
  6
CONTINUOUS
 62
    7
 10
-887.46071328799985
 20
255.94350265092277
 40
1.2
 50
187.12501599999999
 51
243.73151100000001
  0
LINE
  8
_2-0_
  6
CONTINUOUS
 62
    7
 10
-887.54586928799972
 20
262.9500426509228
 11
-889.14586928799963
 21
259.75004265092275
  0
ARC
  8
_2-0_
  6
CONTINUOUS
 62
    7
 10
-883.94586928799981
 20
266.35004265092277
 40
3.3999999999999999
 50
321.786789
 51
218.21321099999997
  0
LINE
  8
_2-0_
  6
CONTINUOUS
 62
    7
 10
-881.44586928799981
 20
263.75196465092279
 11
-881.44586928799981
 21
263.75004265092275
  0
LINE
  8
_2-0_
  6
CONTINUOUS
 62
    7
 10
-886.44586928799981
 20
263.75196465092279
 11
-886.44586928799981
 21
263.75004265092275
  0
ARC
  8
_2-0_
  6
CONTINUOUS
 62
    7
 10
-880.64586928799963
 20
263.75196465092279
 40
0.8
 50
141.786789
 51
180
  0
ARC
  8
_2-0_
  6
CONTINUOUS
 62
    7
 10
-880.64586928799963
 20
263.75004265092275
 40
0.8
 50
180
 51
270
  0
ARC
  8
_2-0_
  6
CONTINUOUS
 62
    7
 10
-887.24586928799977
 20
263.75004265092275
 40
0.8
 50
270
 51
0
  0
ARC
  8
_2-0_
  6
CONTINUOUS
 62
    7
 10
-887.24586928799977
 20
263.75196465092279
 40
0.8
 50
0
 51
38.213211000000001
  0
LINE
  8
_2-0_
  6
CONTINUOUS
 62
    7
 10
-852.8458692879999
 20
262.9500426509228
 11
-853.14586928799963
 21
262.9500426509228
  0
ARC
  8
_2-0_
  6
CONTINUOUS
 62
    7
 10
-853.94586928799981
 20
254.15004265092279
 40
0.8
 50
270
 51
63.731510999999998
  0
LINE
  8
_2-0_
  6
CONTINUOUS
 62
    7
 10
-854.74586928799977
 20
259.75004265092275
 11
-854.25144728799978
 21
255.79466065092276
  0
ARC
  8
_2-0_
  6
CONTINUOUS
 62
    7
 10
-853.06071328799976
 20
255.94350265092277
 40
1.2
 50
187.12501599999999
 51
243.73151100000001
  0
LINE
  8
_2-0_
  6
CONTINUOUS
 62
    7
 10
-853.14586928799963
 20
262.9500426509228
 11
-854.74586928799977
 21
259.75004265092275
  0
LINE
  8
_2-0_
  6
CONTINUOUS
 62
    7
 10
-846.24586928799977
 20
262.9500426509228
 11
-845.94586928799981
 21
262.9500426509228
  0
ARC
  8
_2-0_
  6
CONTINUOUS
 62
    7
 10
-845.14586928799963
 20
254.15004265092279
 40
0.8
 50
116.268489
 51
270
  0
LINE
  8
_2-0_
  6
CONTINUOUS
 62
    7
 10
-844.3458692879999
 20
259.75004265092275
 11
-844.84029328799988
 21
255.79466065092276
  0
ARC
  8
_2-0_
  6
CONTINUOUS
 62
    7
 10
-846.03102728799968
 20
255.94350265092277
 40
1.2
 50
296.26848899999999
 51
352.87498399999998
  0
LINE
  8
_2-0_
  6
CONTINUOUS
 62
    7
 10
-845.94586928799981
 20
262.9500426509228
 11
-844.3458692879999
 21
259.75004265092275
  0
ARC
  8
_2-0_
  6
CONTINUOUS
 62
    7
 10
-849.54586928799972
 20
266.35004265092277
 40
3.3999999999999999
 50
321.786789
 51
218.21321099999997
  0
LINE
  8
_2-0_
  6
CONTINUOUS
 62
    7
 10
-847.04586928799972
 20
263.75196465092279
 11
-847.04586928799972
 21
263.75004265092275
  0
ARC
  8
_2-0_
  6
CONTINUOUS
 62
    7
 10
-852.8458692879999
 20
263.75196465092279
 40
0.8
 50
0
 51
38.213211000000001
  0
ARC
  8
_2-0_
  6
CONTINUOUS
 62
    7
 10
-852.8458692879999
 20
263.75004265092275
 40
0.8
 50
270
 51
0
  0
ARC
  8
_2-0_
  6
CONTINUOUS
 62
    7
 10
-846.24586928799977
 20
263.75004265092275
 40
0.8
 50
180
 51
270
  0
ARC
  8
_2-0_
  6
CONTINUOUS
 62
    7
 10
-846.24586928799977
 20
263.75196465092279
 40
0.8
 50
141.786789
 51
180
  0
LINE
  8
_2-0_
  6
CONTINUOUS
 62
    7
 10
-893.14586928799963
 20
254.55004265092276
 11
-893.14586928799963
 21
260.7356826509228
  0
ARC
  8
_2-0_
  6
CONTINUOUS
 62
    7
 10
-891.94586928799981
 20
254.55004265092276
 40
1.2
 50
180
 51
270
  0
LINE
  8
_2-0_
  6
CONTINUOUS
 62
    7
 10
-891.54586928799972
 20
264.9274826509228
 11
-891.54586928799972
 21
263.72132265092279
  0
ARC
  8
_2-0_
  6
CONTINUOUS
 62
    7
 10
-892.3458692879999
 20
266.64715265092275
 40
0.8
 50
180
 51
230.47736900000001
  0
LINE
  8
_2-0_
  6
CONTINUOUS
 62
    7
 10
-891.54586928799972
 20
264.9274826509228
 11
-892.85699528799978
 21
266.02764665092275
  0
LINE
  8
_2-0_
  6
CONTINUOUS
 62
    7
 10
-891.54586928799972
 20
263.72132265092279
 11
-893.03869128799988
 21
261.13568265092277
  0
ARC
  8
_2-0_
  6
CONTINUOUS
 62
    7
 10
-892.3458692879999
 20
260.7356826509228
 40
0.8
 50
150
 51
180
  0
LINE
  8
_2-0_
  6
CONTINUOUS
 62
    7
 10
-893.14586928799963
 20
266.64715265092275
 11
-893.14586928799963
 21
282.81310265092276
  0
LINE
  8
_2-0_
  6
CONTINUOUS
 62
    7
 10
-858.74586928799977
 20
255.35004265092277
 11
-858.74586928799977
 21
257.35004265092277
  0
LINE
  8
_2-0_
  6
CONTINUOUS
 62
    7
 10
-874.74586928799977
 20
255.35004265092277
 11
-874.74586928799977
 21
257.35004265092277
  0
ARC
  8
_2-0_
  6
CONTINUOUS
 62
    7
 10
-876.74586928799977
 20
255.35004265092277
 40
2
 50
270
 51
0
  0
ARC
  8
_2-0_
  6
CONTINUOUS
 62
    7
 10
-856.74586928799977
 20
255.35004265092277
 40
2
 50
180
 51
270
  0
LINE
  8
_2-0_
  6
CONTINUOUS
 62
    7
 10
-873.54586928799972
 20
258.55004265092276
 11
-859.94586928799981
 21
258.55004265092276
  0
ARC
  8
_2-0_
  6
CONTINUOUS
 62
    7
 10
-873.54586928799972
 20
257.35004265092277
 40
1.2
 50
90
 51
180
  0
ARC
  8
_2-0_
  6
CONTINUOUS
 62
    7
 10
-859.94586928799981
 20
257.35004265092277
 40
1.2
 50
0
 51
90
  0
LINE
  8
_2-0_
  6
CONTINUOUS
 62
    7
 10
-889.14586928799963
 20
279.44286265092279
 11
-889.14586928799963
 21
284.46995665092277
  0
LINE
  8
_2-0_
  6
CONTINUOUS
 62
    7
 10
-892.14586928799963
 20
288.4640686509228
 11
-892.14586928799963
 21
295.00701265092277
  0
ARC
  8
_2-0_
  6
CONTINUOUS
 62
    7
 10
-890.94586928799981
 20
288.4640686509228
 40
1.2
 50
180
 51
225
  0
ARC
  8
_2-0_
  6
CONTINUOUS
 62
    7
 10
-890.3458692879999
 20
284.46995665092277
 40
1.2
 50
0
 51
45
  0
LINE
  8
_2-0_
  6
CONTINUOUS
 62
    7
 10
-889.49734128799992
 20
285.31848465092276
 11
-891.79439928799979
 21
287.61554065092275
  0
ARC
  8
_2-0_
  6
CONTINUOUS
 62
    7
 10
-894.94586928799981
 20
286.80721465092279
 40
1.2
 50
180
 51
225
  0
ARC
  8
_2-0_
  6
CONTINUOUS
 62
    7
 10
-894.3458692879999
 20
282.81310265092276
 40
1.2
 50
0
 51
45
  0
LINE
  8
_2-0_
  6
CONTINUOUS
 62
    7
 10
-895.3458692879999
 20
300.15004265092279
 11
-892.14586928799963
 21
300.15004265092279
  0
LINE
  8
_2-0_
  6
CONTINUOUS
 62
    7
 10
-891.3458692879999
 20
298.9500426509228
 11
-891.3458692879999
 21
299.35004265092277
  0
LINE
  8
_2-0_
  6
CONTINUOUS
 62
    7
 10
-892.62586928799965
 20
298.15004265092279
 11
-892.14586928799963
 21
298.15004265092279
  0
ARC
  8
_2-0_
  6
CONTINUOUS
 62
    7
 10
-892.14586928799963
 20
299.35004265092277
 40
0.8
 50
0
 51
90
  0
ARC
  8
_2-0_
  6
CONTINUOUS
 62
    7
 10
-892.14586928799963
 20
298.9500426509228
 40
0.8
 50
270
 51
0
  0
ARC
  8
_2-0_
  6
CONTINUOUS
 62
    7
 10
-895.3458692879999
 20
299.35004265092277
 40
0.8
 50
90
 51
180
  0
ARC
  8
_2-0_
  6
CONTINUOUS
 62
    7
 10
-892.62586928799965
 20
297.35004265092277
 40
0.8
 50
90
 51
180
  0
ARC
  8
_2-0_
  6
CONTINUOUS
 62
    7
 10
-892.62586928799965
 20
297.14927465092279
 40
0.8
 50
180
 51
214
  0
LINE
  8
_2-0_
  6
CONTINUOUS
 62
    7
 10
-893.28909928799976
 20
296.70192065092277
 11
-892.14586928799963
 21
295.00701265092277
  0
LINE
  8
_2-0_
  6
CONTINUOUS
 62
    7
 10
-893.42586928799983
 20
297.14927465092279
 11
-893.42586928799983
 21
297.35004265092277
  0
LINE
  8
_2-0_
  6
CONTINUOUS
 62
    7
 10
-896.14586928799963
 20
286.80721465092279
 11
-896.14586928799963
 21
299.35004265092277
  0
LINE
  8
_2-0_
  6
CONTINUOUS
 62
    7
 10
-893.49734128799992
 20
283.66163065092275
 11
-895.79439928799979
 21
285.9586866509228
  0
LINE
  8
_2-0_
  6
CONTINUOUS
 62
    7
 10
-856.74586928799977
 20
253.35004265092277
 11
-853.94586928799981
 21
253.35004265092277
  0
LINE
  8
_2-0_
  6
CONTINUOUS
 62
    7
 10
-840.3458692879999
 20
254.55004265092276
 11
-840.3458692879999
 21
260.7356826509228
  0
ARC
  8
_2-0_
  6
CONTINUOUS
 62
    7
 10
-841.54586928799972
 20
254.55004265092276
 40
1.2
 50
270
 51
0
  0
LINE
  8
_2-0_
  6
CONTINUOUS
 62
    7
 10
-841.94586928799981
 20
264.9274826509228
 11
-841.94586928799981
 21
263.72132265092279
  0
ARC
  8
_2-0_
  6
CONTINUOUS
 62
    7
 10
-841.14586928799963
 20
266.64715265092275
 40
0.8
 50
309.52263099999999
 51
0
  0
LINE
  8
_2-0_
  6
CONTINUOUS
 62
    7
 10
-841.94586928799981
 20
264.9274826509228
 11
-840.63474328799975
 21
266.02764665092275
  0
LINE
  8
_2-0_
  6
CONTINUOUS
 62
    7
 10
-841.94586928799981
 20
263.72132265092279
 11
-840.45304928799987
 21
261.13568265092277
  0
LINE
  8
_2-0_
  6
CONTINUOUS
 62
    7
 10
-845.14586928799963
 20
253.35004265092277
 11
-841.54586928799972
 21
253.35004265092277
  0
LINE
  8
_2-0_
  6
CONTINUOUS
 62
    7
 10
-840.64881328799993
 20
278.23004265092277
 11
-838.54586928799972
 21
278.23004265092277
  0
LINE
  8
_2-0_
  6
CONTINUOUS
 62
    7
 10
-840.3458692879999
 20
273.35004265092277
 11
-837.3458692879999
 21
276.35004265092277
  0
LINE
  8
_2-0_
  6
CONTINUOUS
 62
    7
 10
-837.3458692879999
 20
276.35004265092277
 11
-837.3458692879999
 21
277.03004265092278
  0
ARC
  8
_2-0_
  6
CONTINUOUS
 62
    7
 10
-838.54586928799972
 20
277.03004265092278
 40
1.2
 50
0
 51
90
  0
LINE
  8
_2-0_
  6
CONTINUOUS
 62
    7
 10
-841.49734128799992
 20
278.58151465092277
 11
-843.86018528799968
 21
280.94435665092277
  0
ARC
  8
_2-0_
  6
CONTINUOUS
 62
    7
 10
-840.64881328799993
 20
279.43004265092276
 40
1.2
 50
225
 51
270
  0
LINE
  8
_2-0_
  6
CONTINUOUS
 62
    7
 10
-844.71819728799983
 20
278.97394065092277
 11
-845.27439928799981
 21
279.53014265092276
  0
LINE
  8
_2-0_
  6
CONTINUOUS
 62
    7
 10
-845.27439928799981
 20
280.66151465092275
 11
-844.99155528799974
 21
280.94435665092277
  0
ARC
  8
_2-0_
  6
CONTINUOUS
 62
    7
 10
-844.42586928799983
 20
280.3786706509228
 40
0.8
 50
45
 51
135
  0
ARC
  8
_2-0_
  6
CONTINUOUS
 62
    7
 10
-844.70871328799967
 20
280.09582865092278
 40
0.8
 50
135
 51
225
  0
ARC
  8
_2-0_
  6
CONTINUOUS
 62
    7
 10
-861.04090328799975
 20
263.90927265092279
 40
1.2
 50
240
 51
330
  0
LINE
  8
_2-0_
  6
CONTINUOUS
 62
    7
 10
-861.64090328799966
 20
262.87004265092276
 11
-888.54586928799972
 21
278.40363065092276
  0
LINE
  8
_2-0_
  6
CONTINUOUS
 62
    7
 10
-860.00167328799989
 20
263.30927265092276
 11
-855.30715528799965
 21
271.44041465092278
  0
ARC
  8
_2-0_
  6
CONTINUOUS
 62
    7
 10
-844.91485128799968
 20
265.44041465092278
 40
12
 50
101
 51
149.99999999999997
  0
ARC
  8
_2-0_
  6
CONTINUOUS
 62
    7
 10
-845.28388328799974
 20
278.4082546509228
 40
0.8
 50
281
 51
45
  0
LINE
  8
_2-0_
  6
CONTINUOUS
 62
    7
 10
-840.3458692879999
 20
266.64715265092275
 11
-840.3458692879999
 21
273.35004265092277
  0
ARC
  8
_2-0_
  6
CONTINUOUS
 62
    7
 10
-887.94586928799981
 20
279.44286265092279
 40
1.2
 50
180
 51
239.99999999999997
  0
LINE
  8
_2-0_
  6
CONTINUOUS
 62
    7
 10
-847.20455928799993
 20
277.21994065092275
 11
-845.13123528799974
 21
277.62295465092279
  0
ARC
  8
_2-0_
  6
CONTINUOUS
 62
    7
 10
-844.70521328799987
 20
280.66783865092276
 40
0.8
 50
45
 51
135
  0
ARC
  8
_2-0_
  6
CONTINUOUS
 62
    7
 10
-874.55098728799976
 20
270.34061265092276
 40
26.800000000000001
 50
17.469797
 51
104.99999800000001
  0
ARC
  8
_2-0_
  6
CONTINUOUS
 62
    7
 10
-847.84247928799982
 20
278.74629865092277
 40
1.2
 50
197.469797
 51
281
  0
LINE
  8
_2-0_
  6
CONTINUOUS
 62
    7
 10
-896.14586928799963
 20
302.09318065092276
 11
-896.14586928799963
 21
300.9500426509228
  0
LINE
  8
_2-0_
  6
CONTINUOUS
 62
    7
 10
-895.22101528799976
 20
303.26121065092275
 11
-884.07552728799965
 21
305.88668465092275
  0
ARC
  8
_2-0_
  6
CONTINUOUS
 62
    7
 10
-894.94586928799981
 20
302.09318065092276
 40
1.2
 50
103.25515900000001
 51
180
  0
ARC
  8
_2-0_
  6
CONTINUOUS
 62
    7
 10
-874.55098728799976
 20
270.34061265092276
 40
36.799999999999997
 50
33.158850999999999
 51
105
  0
LINE
  8
_2-0_
  6
CONTINUOUS
 62
    7
 10
-895.3458692879999
 20
300.15004265092279
 11
-892.14586128799965
 21
300.15004265092279
  0
ARC
  8
_2-0_
  6
CONTINUOUS
 62
    7
 10
-891.74589328799993
 20
299.35004265092277
 40
0.8
 50
0
 51
90
  0
LINE
  8
_2-0_
  6
CONTINUOUS
 62
    7
 10
-890.94589328799975
 20
299.35004265092277
 11
-890.94589328799975
 21
298.55004265092276
  0
ARC
  8
_2-0_
  6
CONTINUOUS
 62
    7
 10
-891.74589328799993
 20
298.55004265092276
 40
0.8
 50
270
 51
0
  0
LINE
  8
_2-0_
  6
CONTINUOUS
 62
    7
 10
-891.74589328799993
 20
297.75004265092275
 11
-892.64212128799977
 21
297.75004265092275
  0
ARC
  8
_2-0_
  6
CONTINUOUS
 62
    7
 10
-892.64212128799977
 20
297.35004265092277
 40
0.4
 50
90
 51
180
  0
LINE
  8
_2-0_
  6
CONTINUOUS
 62
    7
 10
-893.04212128799963
 20
297.35004265092277
 11
-893.04212128799963
 21
297.07233465092276
  0
LINE
  8
_2-0_
  6
CONTINUOUS
 62
    7
 10
-895.3458692879999
 20
300.15004265092279
 11
-891.74589328799993
 21
300.15004265092279
  0
ARC
  8
_2-0_
  6
CONTINUOUS
 62
    7
 10
-895.3458692879999
 20
300.9500426509228
 40
0.8
 50
180
 51
270
  0
LINE
  8
_2-0_
  6
CONTINUOUS
 62
    7
 10
-837.69295128799968
 20
280.0248126509228
 11
-843.74359728799982
 21
290.46882065092279
  0
LINE
  8
_2-0_
  6
CONTINUOUS
 62
    7
 10
-841.71505128799981
 20
278.80904865092276
 11
-844.13952728799995
 21
281.23352465092279
  0
ARC
  8
_2-0_
  6
CONTINUOUS
 62
    7
 10
-840.30083728799991
 20
280.22326265092278
 40
2
 50
225
 51
270
  0
LINE
  8
_2-0_
  6
CONTINUOUS
 62
    7
 10
-838.73128528799975
 20
278.22326265092278
 11
-840.30083728799991
 21
278.22326265092278
  0
ARC
  8
_2-0_
  6
CONTINUOUS
 62
    7
 10
-838.73128528799975
 20
279.42326265092277
 40
1.2
 50
270
 51
30.085491000000019
  0
LINE
  8
_2-0_
  6
CONTINUOUS
 62
    7
 10
-844.98863128799985
 20
278.68851865092279
 11
-845.83658328799993
 21
279.53646865092276
  0
LINE
  8
_2-0_
  6
CONTINUOUS
 62
    7
 10
-845.83658328799993
 20
280.66783865092276
 11
-845.27089728799979
 21
281.23352465092279
  0
ARC
  8
_2-0_
  6
CONTINUOUS
 62
    7
 10
-845.27089728799979
 20
280.10215465092278
 40
0.8
 50
135
 51
225
  0
LINE
  8
_2-0_
  6
CONTINUOUS
 62
    7
 10
-847.61350728799971
 20
277.56834465092277
 11
-845.06344528799991
 21
278.06402665092276
  0
ARC
  8
_2-0_
  6
CONTINUOUS
 62
    7
 10
-845.27147528799969
 20
278.40567665092277
 40
0.4
 50
301.33709900000002
 51
45
  0
LINE
  8
_2-0_
  6
CONTINUOUS
 62
    7
 10
-893.04212128799963
 20
297.07233465092276
 11
-891.27169528799982
 21
294.44757065092278
  0
LINE
  8
_2-0_
  6
CONTINUOUS
 62
    7
 10
-890.42455728799996
 20
294.11635065092275
 11
-881.48733728799971
 21
296.22742665092278
  0
ARC
  8
_2-0_
  6
CONTINUOUS
 62
    7
 10
-890.60846528799993
 20
294.89492465092275
 40
0.8
 50
214
 51
283.290322
  0
LINE
  8
_2-0_
  6
CONTINUOUS
 62
    7
 10
-860.35898728799975
 20
264.91926265092275
 11
-886.33974728799967
 21
279.91926265092275
  0
LINE
  8
_2-0_
  6
CONTINUOUS
 62
    7
 10
-873.94551928799979
 20
283.38669665092277
 11
-875.34551928799965
 21
280.96182465092278
  0
LINE
  8
_2-0_
  6
CONTINUOUS
 62
    7
 10
-873.94551928799979
 20
283.38669665092277
 11
-863.55321328799982
 21
277.38669665092277
  0
LINE
  8
_2-0_
  6
CONTINUOUS
 62
    7
 10
-864.95321328799992
 20
274.96182465092278
 11
-863.55321328799982
 21
277.38669665092277
  0
LINE
  8
_2-0_
  6
CONTINUOUS
 62
    7
 10
-887.53974728799994
 20
277.8408006509228
 11
-883.13974728799985
 21
285.46182465092278
  0
LINE
  8
_2-0_
  6
CONTINUOUS
 62
    7
 10
-883.13974728799985
 20
285.46182465092278
 11
-857.15898728799993
 21
270.46182665092277
  0
LINE
  8
_2-0_
  6
CONTINUOUS
 62
    7
 10
-857.15898728799993
 20
270.46182665092277
 11
-861.5589872879998
 21
262.8408026509228
  0
TEXT
  8
_2-0_
 62
    7
 10
-890.42673928799968
 20
183.3053626509228
 40
8
 41
1
 50
0
  1
金具取付寸法
  0
ARC
  8
_2-0_
  6
CONTINUOUS
 62
    7
 10
-716.21125328799985
 20
249.35758265092278
 40
0.9
 50
90
 51
270
  0
LINE
  8
_2-0_
  6
CONTINUOUS
 62
    7
 10
-716.21125328799985
 20
250.25758265092276
 11
-686.01125328799981
 21
250.25758265092276
  0
ARC
  8
_2-0_
  6
CONTINUOUS
 62
    7
 10
-686.01125328799981
 20
249.35758265092278
 40
0.9
 50
270
 51
90
  0
ARC
  8
_2-0_
  6
CONTINUOUS
 62
    7
 10
-701.11125328799972
 20
199.5371286509228
 40
52.920453999999999
 50
73.421191000000007
 51
106.57880900000001
  0
LINE
  8
_2-0_
  6
CONTINUOUS
 62
    7
 10
-693.11125328799972
 20
247.25758265092276
 11
-693.11125328799972
 21
214.95388665092275
  0
LINE
  8
_2-0_
  6
CONTINUOUS
 62
    7
 10
-709.11125328799972
 20
247.25758265092276
 11
-709.11125328799972
 21
214.95388665092275
  0
LINE
  8
_2-0_
  6
CONTINUOUS
 62
    7
 10
-701.11125328799972
 20
208.05758265092277
 11
-709.11125328799972
 21
214.95388665092275
  0
LINE
  8
_2-0_
  6
CONTINUOUS
 62
    7
 10
-701.11125328799972
 20
208.05758265092277
 11
-693.11125328799972
 21
214.95388665092275
  0
LINE
  8
_2-0_
  6
CONTINUOUS
 62
    7
 10
-675.86273328799984
 20
263.23163865092278
 11
-673.71126128799983
 21
265.38311065092279
  0
LINE
  8
_2-0_
  6
CONTINUOUS
 62
    7
 10
-676.71126128799983
 20
264.08016665092276
 11
-673.71126128799983
 21
267.08016665092276
  0
LINE
  8
_2-0_
  6
CONTINUOUS
 62
    7
 10
-726.35978128799979
 20
263.23163865092278
 11
-728.51125328799981
 21
265.38311065092279
  0
LINE
  8
_2-0_
  6
CONTINUOUS
 62
    7
 10
-725.51125328799981
 20
264.08016665092276
 11
-728.51125328799981
 21
267.08016665092276
  0
ARC
  8
_2-0_
  6
CONTINUOUS
 62
    7
 10
-674.51126128799979
 20
249.25758265092276
 40
0.8
 50
270
 51
0
  0
LINE
  8
_2-0_
  6
CONTINUOUS
 62
    7
 10
-673.71126128799983
 20
249.25758265092276
 11
-673.71126128799983
 21
272.44177665092275
  0
LINE
  8
_2-0_
  6
CONTINUOUS
 62
    7
 10
-674.51126128799979
 20
248.45758265092275
 11
-727.71125328799985
 21
248.45758265092275
  0
ARC
  8
_2-0_
  6
CONTINUOUS
 62
    7
 10
-727.71125328799985
 20
249.25758265092276
 40
0.8
 50
180
 51
270
  0
LINE
  8
_2-0_
  6
CONTINUOUS
 62
    7
 10
-728.51125328799981
 20
249.25758265092276
 11
-728.51125328799981
 21
283.32879865092275
  0
ARC
  8
_2-0_
  6
CONTINUOUS
 62
    7
 10
-674.51126128799979
 20
249.25758265092276
 40
2
 50
270
 51
0
  0
LINE
  8
_2-0_
  6
CONTINUOUS
 62
    7
 10
-672.51126128799979
 20
249.25758265092276
 11
-672.51126128799979
 21
272.44177665092275
  0
LINE
  8
_2-0_
  6
CONTINUOUS
 62
    7
 10
-727.71125328799985
 20
247.25758265092276
 11
-674.51126128799979
 21
247.25758265092276
  0
ARC
  8
_2-0_
  6
CONTINUOUS
 62
    7
 10
-727.71125328799985
 20
249.25758265092276
 40
2
 50
180
 51
270
  0
LINE
  8
_2-0_
  6
CONTINUOUS
 62
    7
 10
-729.71125328799985
 20
249.25758265092276
 11
-729.71125328799985
 21
283.32879865092275
  0
LINE
  8
_2-0_
  6
CONTINUOUS
 62
    7
 10
-673.71126128799983
 20
272.44177665092275
 11
-672.51126128799979
 21
272.44177665092275
  0
LINE
  8
_2-0_
  6
CONTINUOUS
 62
    7
 10
-728.51125328799981
 20
283.32879865092275
 11
-729.71125328799985
 21
283.32879865092275
  0
LINE
  8
_2-0_
  6
CONTINUOUS
 62
    7
 10
-676.71126128799983
 20
264.08016665092276
 11
-675.86273328799984
 21
263.23163865092278
  0
LINE
  8
_2-0_
  6
CONTINUOUS
 62
    7
 10
-725.51125328799981
 20
264.08016665092276
 11
-726.35978128799979
 21
263.23163865092278
  0
LINE
  8
_2-0_
  6
CONTINUOUS
 62
    7
 10
-686.4112532879999
 20
263.75196465092279
 11
-686.4112532879999
 21
263.75004265092275
  0
LINE
  8
_2-0_
  6
CONTINUOUS
 62
    7
 10
-672.51126128799979
 20
247.8251086509228
 11
-671.15448328799994
 21
245.14944865092275
  0
LINE
  8
_2-0_
  6
CONTINUOUS
 62
    7
 10
-672.51126128799979
 20
247.8251086509228
 11
-672.67408728799978
 21
244.82953065092278
  0
LINE
  8
_2-0_
  6
CONTINUOUS
 62
    7
 10
-671.15448328799994
 20
245.14944865092275
 11
-672.67408728799978
 21
244.82953065092278
  0
LINE
  8
_2-0_
  6
CONTINUOUS
 62
    7
 10
-672.36201728799983
 20
247.11620465092278
 11
-671.68362928799979
 21
245.77837465092279
  0
LINE
  8
_2-0_
  6
CONTINUOUS
 62
    7
 10
-672.36201728799983
 20
247.11620465092278
 11
-672.44342928799983
 21
245.61841465092277
  0
LINE
  8
_2-0_
  6
CONTINUOUS
 62
    7
 10
-671.68362928799979
 20
245.77837465092279
 11
-672.44342928799983
 21
245.61841465092277
  0
LINE
  8
_2-0_
  6
CONTINUOUS
 62
    7
 10
-672.51126128799979
 20
247.8251086509228
 11
-664.92950528799975
 21
211.81195065092277
  0
LINE
  8
_2-0_
  6
CONTINUOUS
 62
    7
 10
-664.92950528799975
 20
211.81195065092277
 11
-606.06513328799974
 21
211.81195065092277
  0
TEXT
  8
_2-0_
 62
    7
 10
-660.06513328799974
 20
211.81195065092277
 40
8
 41
0.75
 50
0
  1
固定金具（付属品）
  0
LINE
  8
_2-0_
  6
CONTINUOUS
 62
    7
 10
-727.51125328799981
 20
340.6800046509228
 11
-727.51125328799981
 21
341.17706065092278
  0
LINE
  8
_2-0_
  6
CONTINUOUS
 62
    7
 10
-730.15978328799974
 20
343.82558865092278
 11
-730.51125328799981
 21
344.17706065092278
  0
LINE
  8
_2-0_
  6
CONTINUOUS
 62
    7
 10
-727.79125328799978
 20
354.7715926509228
 11
-727.79125328799978
 21
355.01617665092277
  0
LINE
  8
_2-0_
  6
CONTINUOUS
 62
    7
 10
-727.79125328799978
 20
354.7715926509228
 11
-727.65448528799971
 21
354.56882465092275
  0
LINE
  8
_2-0_
  6
CONTINUOUS
 62
    7
 10
-727.51125328799981
 20
341.17706065092278
 11
-727.86272528799964
 21
341.52853265092278
  0
LINE
  8
_2-0_
  6
CONTINUOUS
 62
    7
 10
-730.51125328799981
 20
344.17706065092278
 11
-730.51125328799981
 21
344.67411665092277
  0
LINE
  8
_2-0_
  6
CONTINUOUS
 62
    7
 10
-722.9112532879999
 20
336.2705346509228
 11
-723.51125328799981
 21
336.61694465092279
  0
LINE
  8
_2-0_
  6
CONTINUOUS
 62
    7
 10
-723.51125328799981
 20
336.61694465092279
 11
-723.51125328799981
 21
337.30976465092277
  0
ARC
  8
_2-0_
  6
CONTINUOUS
 62
    7
 10
-675.51125328799981
 20
318.60258465092278
 40
0.8
 50
0
 51
29.999999999999996
  0
LINE
  8
_2-0_
  6
CONTINUOUS
 62
    7
 10
-713.9112532879999
 20
311.21694465092276
 11
-711.11125328799972
 21
311.21694465092276
  0
LINE
  8
_2-0_
  6
CONTINUOUS
 62
    7
 10
-726.31125328799976
 20
311.21694465092276
 11
-722.71125328799985
 21
311.21694465092276
  0
LINE
  8
_2-0_
  6
CONTINUOUS
 62
    7
 10
-715.01125328799981
 20
320.81694465092278
 11
-714.71125328799985
 21
320.81694465092278
  0
ARC
  8
_2-0_
  6
CONTINUOUS
 62
    7
 10
-713.9112532879999
 20
312.01694465092277
 40
0.8
 50
116.268489
 51
270
  0
LINE
  8
_2-0_
  6
CONTINUOUS
 62
    7
 10
-713.11125328799972
 20
317.61694465092279
 11
-713.6056772879997
 21
313.66156265092275
  0
ARC
  8
_2-0_
  6
CONTINUOUS
 62
    7
 10
-714.79641128799994
 20
313.81040465092275
 40
1.2
 50
296.26848899999999
 51
352.87498399999998
  0
LINE
  8
_2-0_
  6
CONTINUOUS
 62
    7
 10
-714.71125328799985
 20
320.81694465092278
 11
-713.11125328799972
 21
317.61694465092279
  0
LINE
  8
_2-0_
  6
CONTINUOUS
 62
    7
 10
-721.61125328799972
 20
320.81694465092278
 11
-721.9112532879999
 21
320.81694465092278
  0
ARC
  8
_2-0_
  6
CONTINUOUS
 62
    7
 10
-722.71125328799985
 20
312.01694465092277
 40
0.8
 50
270
 51
63.731510999999998
  0
LINE
  8
_2-0_
  6
CONTINUOUS
 62
    7
 10
-723.51125328799981
 20
317.61694465092279
 11
-723.01683128799982
 21
313.66156265092275
  0
ARC
  8
_2-0_
  6
CONTINUOUS
 62
    7
 10
-721.8260972879998
 20
313.81040465092275
 40
1.2
 50
187.12501599999999
 51
243.73151100000001
  0
LINE
  8
_2-0_
  6
CONTINUOUS
 62
    7
 10
-721.9112532879999
 20
320.81694465092278
 11
-723.51125328799981
 21
317.61694465092279
  0
ARC
  8
_2-0_
  6
CONTINUOUS
 62
    7
 10
-718.31125328799976
 20
324.21694465092276
 40
3.3999999999999999
 50
321.786789
 51
218.21321099999997
  0
LINE
  8
_2-0_
  6
CONTINUOUS
 62
    7
 10
-715.81125328799976
 20
321.61886865092276
 11
-715.81125328799976
 21
321.61694465092279
  0
LINE
  8
_2-0_
  6
CONTINUOUS
 62
    7
 10
-720.81125328799976
 20
321.61886865092276
 11
-720.81125328799976
 21
321.61694465092279
  0
ARC
  8
_2-0_
  6
CONTINUOUS
 62
    7
 10
-715.01125328799981
 20
321.61886865092276
 40
0.8
 50
141.786789
 51
180
  0
ARC
  8
_2-0_
  6
CONTINUOUS
 62
    7
 10
-715.01125328799981
 20
321.61694465092279
 40
0.8
 50
180
 51
270
  0
ARC
  8
_2-0_
  6
CONTINUOUS
 62
    7
 10
-721.61125328799972
 20
321.61694465092279
 40
0.8
 50
270
 51
0
  0
ARC
  8
_2-0_
  6
CONTINUOUS
 62
    7
 10
-721.61125328799972
 20
321.61886865092276
 40
0.8
 50
0
 51
38.213211000000001
  0
LINE
  8
_2-0_
  6
CONTINUOUS
 62
    7
 10
-687.21125328799985
 20
320.81694465092278
 11
-687.51125328799981
 21
320.81694465092278
  0
ARC
  8
_2-0_
  6
CONTINUOUS
 62
    7
 10
-688.31125328799976
 20
312.01694465092277
 40
0.8
 50
270
 51
63.731510999999998
  0
LINE
  8
_2-0_
  6
CONTINUOUS
 62
    7
 10
-689.11125328799972
 20
317.61694465092279
 11
-688.61683128799996
 21
313.66156265092275
  0
ARC
  8
_2-0_
  6
CONTINUOUS
 62
    7
 10
-687.42609728799971
 20
313.81040465092275
 40
1.2
 50
187.12501599999999
 51
243.73151100000001
  0
LINE
  8
_2-0_
  6
CONTINUOUS
 62
    7
 10
-687.51125328799981
 20
320.81694465092278
 11
-689.11125328799972
 21
317.61694465092279
  0
LINE
  8
_2-0_
  6
CONTINUOUS
 62
    7
 10
-680.61125328799972
 20
320.81694465092278
 11
-680.31125328799999
 21
320.81694465092278
  0
ARC
  8
_2-0_
  6
CONTINUOUS
 62
    7
 10
-679.51125328799981
 20
312.01694465092277
 40
0.8
 50
116.268489
 51
270
  0
LINE
  8
_2-0_
  6
CONTINUOUS
 62
    7
 10
-678.71125328799985
 20
317.61694465092279
 11
-679.20567728799983
 21
313.66156265092275
  0
ARC
  8
_2-0_
  6
CONTINUOUS
 62
    7
 10
-680.39641128799985
 20
313.81040465092275
 40
1.2
 50
296.26848899999999
 51
352.87498399999998
  0
LINE
  8
_2-0_
  6
CONTINUOUS
 62
    7
 10
-680.31125328799999
 20
320.81694465092278
 11
-678.71125328799985
 21
317.61694465092279
  0
ARC
  8
_2-0_
  6
CONTINUOUS
 62
    7
 10
-683.9112532879999
 20
324.21694465092276
 40
3.3999999999999999
 50
321.786789
 51
218.21321099999997
  0
LINE
  8
_2-0_
  6
CONTINUOUS
 62
    7
 10
-681.4112532879999
 20
321.61886865092276
 11
-681.4112532879999
 21
321.61694465092279
  0
ARC
  8
_2-0_
  6
CONTINUOUS
 62
    7
 10
-687.21125328799985
 20
321.61886865092276
 40
0.8
 50
0
 51
38.213211000000001
  0
ARC
  8
_2-0_
  6
CONTINUOUS
 62
    7
 10
-687.21125328799985
 20
321.61694465092279
 40
0.8
 50
270
 51
0
  0
ARC
  8
_2-0_
  6
CONTINUOUS
 62
    7
 10
-680.61125328799972
 20
321.61694465092279
 40
0.8
 50
180
 51
270
  0
ARC
  8
_2-0_
  6
CONTINUOUS
 62
    7
 10
-680.61125328799972
 20
321.61886865092276
 40
0.8
 50
141.786789
 51
180
  0
LINE
  8
_2-0_
  6
CONTINUOUS
 62
    7
 10
-727.51125328799981
 20
312.4169446509228
 11
-727.51125328799981
 21
318.60258465092278
  0
ARC
  8
_2-0_
  6
CONTINUOUS
 62
    7
 10
-726.31125328799976
 20
312.4169446509228
 40
1.2
 50
180
 51
270
  0
LINE
  8
_2-0_
  6
CONTINUOUS
 62
    7
 10
-725.9112532879999
 20
322.79438465092278
 11
-725.9112532879999
 21
321.58822465092277
  0
ARC
  8
_2-0_
  6
CONTINUOUS
 62
    7
 10
-726.71125328799985
 20
324.51405665092278
 40
0.8
 50
180
 51
230.47736900000001
  0
LINE
  8
_2-0_
  6
CONTINUOUS
 62
    7
 10
-725.9112532879999
 20
322.79438465092278
 11
-727.22238128799972
 21
323.89455065092278
  0
LINE
  8
_2-0_
  6
CONTINUOUS
 62
    7
 10
-725.9112532879999
 20
321.58822465092277
 11
-727.40407528799983
 21
319.00258465092276
  0
ARC
  8
_2-0_
  6
CONTINUOUS
 62
    7
 10
-726.71125328799985
 20
318.60258465092278
 40
0.8
 50
150
 51
180
  0
LINE
  8
_2-0_
  6
CONTINUOUS
 62
    7
 10
-727.51125328799981
 20
324.51405665092278
 11
-727.51125328799981
 21
340.6800046509228
  0
LINE
  8
_2-0_
  6
CONTINUOUS
 62
    7
 10
-693.11125328799972
 20
313.21694465092276
 11
-693.11125328799972
 21
315.21694465092276
  0
LINE
  8
_2-0_
  6
CONTINUOUS
 62
    7
 10
-709.11125328799972
 20
313.21694465092276
 11
-709.11125328799972
 21
315.21694465092276
  0
ARC
  8
_2-0_
  6
CONTINUOUS
 62
    7
 10
-711.11125328799972
 20
313.21694465092276
 40
2
 50
270
 51
0
  0
ARC
  8
_2-0_
  6
CONTINUOUS
 62
    7
 10
-691.11125328799972
 20
313.21694465092276
 40
2
 50
180
 51
270
  0
LINE
  8
_2-0_
  6
CONTINUOUS
 62
    7
 10
-707.9112532879999
 20
316.4169446509228
 11
-694.31125328799976
 21
316.4169446509228
  0
ARC
  8
_2-0_
  6
CONTINUOUS
 62
    7
 10
-707.9112532879999
 20
315.21694465092276
 40
1.2
 50
90
 51
180
  0
ARC
  8
_2-0_
  6
CONTINUOUS
 62
    7
 10
-694.31125328799976
 20
315.21694465092276
 40
1.2
 50
0
 51
90
  0
LINE
  8
_2-0_
  6
CONTINUOUS
 62
    7
 10
-723.51125328799981
 20
337.30976465092277
 11
-723.51125328799981
 21
342.33685865092275
  0
LINE
  8
_2-0_
  6
CONTINUOUS
 62
    7
 10
-726.51125328799981
 20
346.33097265092277
 11
-726.51125328799981
 21
352.87391465092276
  0
ARC
  8
_2-0_
  6
CONTINUOUS
 62
    7
 10
-725.31125328799976
 20
346.33097265092277
 40
1.2
 50
180
 51
225
  0
ARC
  8
_2-0_
  6
CONTINUOUS
 62
    7
 10
-724.71125328799985
 20
342.33685865092275
 40
1.2
 50
0
 51
45
  0
LINE
  8
_2-0_
  6
CONTINUOUS
 62
    7
 10
-723.86272528799964
 20
343.18538665092279
 11
-726.15978328799974
 21
345.48244265092279
  0
ARC
  8
_2-0_
  6
CONTINUOUS
 62
    7
 10
-729.31125328799976
 20
344.67411665092277
 40
1.2
 50
180
 51
225
  0
ARC
  8
_2-0_
  6
CONTINUOUS
 62
    7
 10
-728.71125328799985
 20
340.6800046509228
 40
1.2
 50
0
 51
45
  0
LINE
  8
_2-0_
  6
CONTINUOUS
 62
    7
 10
-729.71125328799985
 20
358.01694465092277
 11
-726.51125328799981
 21
358.01694465092277
  0
LINE
  8
_2-0_
  6
CONTINUOUS
 62
    7
 10
-725.71125328799985
 20
356.81694465092278
 11
-725.71125328799985
 21
357.21694465092276
  0
LINE
  8
_2-0_
  6
CONTINUOUS
 62
    7
 10
-726.99125328799983
 20
356.01694465092277
 11
-726.51125328799981
 21
356.01694465092277
  0
ARC
  8
_2-0_
  6
CONTINUOUS
 62
    7
 10
-726.51125328799981
 20
357.21694465092276
 40
0.8
 50
0
 51
90
  0
ARC
  8
_2-0_
  6
CONTINUOUS
 62
    7
 10
-726.51125328799981
 20
356.81694465092278
 40
0.8
 50
270
 51
0
  0
ARC
  8
_2-0_
  6
CONTINUOUS
 62
    7
 10
-729.71125328799985
 20
357.21694465092276
 40
0.8
 50
90
 51
180
  0
ARC
  8
_2-0_
  6
CONTINUOUS
 62
    7
 10
-726.99125328799983
 20
355.21694465092276
 40
0.8
 50
90
 51
180
  0
ARC
  8
_2-0_
  6
CONTINUOUS
 62
    7
 10
-726.99125328799983
 20
355.01617665092277
 40
0.8
 50
180
 51
214
  0
LINE
  8
_2-0_
  6
CONTINUOUS
 62
    7
 10
-727.65448528799971
 20
354.56882465092275
 11
-726.51125328799981
 21
352.87391465092276
  0
LINE
  8
_2-0_
  6
CONTINUOUS
 62
    7
 10
-727.79125328799978
 20
355.01617665092277
 11
-727.79125328799978
 21
355.21694465092276
  0
LINE
  8
_2-0_
  6
CONTINUOUS
 62
    7
 10
-730.51125328799981
 20
344.67411665092277
 11
-730.51125328799981
 21
357.21694465092276
  0
LINE
  8
_2-0_
  6
CONTINUOUS
 62
    7
 10
-727.86272528799964
 20
341.52853265092278
 11
-730.15978328799974
 21
343.82558865092278
  0
LINE
  8
_2-0_
  6
CONTINUOUS
 62
    7
 10
-691.11125328799972
 20
311.21694465092276
 11
-688.31125328799976
 21
311.21694465092276
  0
LINE
  8
_2-0_
  6
CONTINUOUS
 62
    7
 10
-674.71125328799985
 20
312.4169446509228
 11
-674.71125328799985
 21
318.60258465092278
  0
ARC
  8
_2-0_
  6
CONTINUOUS
 62
    7
 10
-675.9112532879999
 20
312.4169446509228
 40
1.2
 50
270
 51
0
  0
LINE
  8
_2-0_
  6
CONTINUOUS
 62
    7
 10
-676.31125328799999
 20
322.79438465092278
 11
-676.31125328799999
 21
321.58822465092277
  0
ARC
  8
_2-0_
  6
CONTINUOUS
 62
    7
 10
-675.51125328799981
 20
324.51405665092278
 40
0.8
 50
309.52263099999999
 51
0
  0
LINE
  8
_2-0_
  6
CONTINUOUS
 62
    7
 10
-676.31125328799999
 20
322.79438465092278
 11
-675.0001292879997
 21
323.89455065092278
  0
LINE
  8
_2-0_
  6
CONTINUOUS
 62
    7
 10
-676.31125328799999
 20
321.58822465092277
 11
-674.81843328799982
 21
319.00258465092276
  0
LINE
  8
_2-0_
  6
CONTINUOUS
 62
    7
 10
-679.51125328799981
 20
311.21694465092276
 11
-675.9112532879999
 21
311.21694465092276
  0
LINE
  8
_2-0_
  6
CONTINUOUS
 62
    7
 10
-675.01419728799988
 20
336.09694465092275
 11
-672.9112532879999
 21
336.09694465092275
  0
LINE
  8
_2-0_
  6
CONTINUOUS
 62
    7
 10
-674.71125328799985
 20
331.21694465092276
 11
-671.71125328799985
 21
334.21694465092276
  0
LINE
  8
_2-0_
  6
CONTINUOUS
 62
    7
 10
-671.71125328799985
 20
334.21694465092276
 11
-671.71125328799985
 21
334.89694465092276
  0
ARC
  8
_2-0_
  6
CONTINUOUS
 62
    7
 10
-672.9112532879999
 20
334.89694465092276
 40
1.2
 50
0
 51
90
  0
LINE
  8
_2-0_
  6
CONTINUOUS
 62
    7
 10
-675.86272528799987
 20
336.44841665092275
 11
-678.22556928799986
 21
338.81125865092275
  0
ARC
  8
_2-0_
  6
CONTINUOUS
 62
    7
 10
-675.01419728799988
 20
337.2969446509228
 40
1.2
 50
225
 51
270
  0
LINE
  8
_2-0_
  6
CONTINUOUS
 62
    7
 10
-679.08358128799978
 20
336.84084465092275
 11
-679.63978328799976
 21
337.39704465092279
  0
LINE
  8
_2-0_
  6
CONTINUOUS
 62
    7
 10
-679.63978328799976
 20
338.52841665092279
 11
-679.35693928799992
 21
338.81125865092275
  0
ARC
  8
_2-0_
  6
CONTINUOUS
 62
    7
 10
-678.79125328799978
 20
338.24557265092278
 40
0.8
 50
45
 51
135
  0
ARC
  8
_2-0_
  6
CONTINUOUS
 62
    7
 10
-679.07409728799985
 20
337.96273065092277
 40
0.8
 50
135
 51
225
  0
ARC
  8
_2-0_
  6
CONTINUOUS
 62
    7
 10
-695.40628728799993
 20
321.77617465092277
 40
1.2
 50
240
 51
330
  0
LINE
  8
_2-0_
  6
CONTINUOUS
 62
    7
 10
-696.00628728799984
 20
320.73694465092279
 11
-722.9112532879999
 21
336.2705346509228
  0
LINE
  8
_2-0_
  6
CONTINUOUS
 62
    7
 10
-694.36705728799984
 20
321.17617465092275
 11
-689.67253928799983
 21
329.30731665092276
  0
ARC
  8
_2-0_
  6
CONTINUOUS
 62
    7
 10
-679.28023528799986
 20
323.30731665092276
 40
12
 50
101
 51
149.99999999999997
  0
ARC
  8
_2-0_
  6
CONTINUOUS
 62
    7
 10
-679.64926728799992
 20
336.27515865092278
 40
0.8
 50
281
 51
45
  0
LINE
  8
_2-0_
  6
CONTINUOUS
 62
    7
 10
-674.71125328799985
 20
324.51405665092278
 11
-674.71125328799985
 21
331.21694465092276
  0
ARC
  8
_2-0_
  6
CONTINUOUS
 62
    7
 10
-722.31125328799976
 20
337.30976465092277
 40
1.2
 50
180
 51
239.99999999999997
  0
LINE
  8
_2-0_
  6
CONTINUOUS
 62
    7
 10
-681.56994328799965
 20
335.08684465092279
 11
-679.49661928799969
 21
335.48985665092277
  0
ARC
  8
_2-0_
  6
CONTINUOUS
 62
    7
 10
-679.07059728799982
 20
338.53474265092279
 40
0.8
 50
45
 51
135
  0
ARC
  8
_2-0_
  6
CONTINUOUS
 62
    7
 10
-708.9163732879997
 20
328.2075166509228
 40
26.800000000000001
 50
17.469797
 51
104.99999800000001
  0
ARC
  8
_2-0_
  6
CONTINUOUS
 62
    7
 10
-682.20786328799977
 20
336.61320065092275
 40
1.2
 50
197.469797
 51
281
  0
LINE
  8
_2-0_
  6
CONTINUOUS
 62
    7
 10
-730.51125328799981
 20
359.9600826509228
 11
-730.51125328799981
 21
358.81694465092278
  0
LINE
  8
_2-0_
  6
CONTINUOUS
 62
    7
 10
-729.58639928799994
 20
361.12811465092278
 11
-718.44091328799982
 21
363.75358665092278
  0
ARC
  8
_2-0_
  6
CONTINUOUS
 62
    7
 10
-729.31125328799976
 20
359.9600826509228
 40
1.2
 50
103.25515900000001
 51
180
  0
ARC
  8
_2-0_
  6
CONTINUOUS
 62
    7
 10
-708.9163732879997
 20
328.2075166509228
 40
36.799999999999997
 50
33.158850999999999
 51
105
  0
LINE
  8
_2-0_
  6
CONTINUOUS
 62
    7
 10
-729.71125328799985
 20
358.01694465092277
 11
-726.51124728799982
 21
358.01694465092277
  0
ARC
  8
_2-0_
  6
CONTINUOUS
 62
    7
 10
-726.11127928799988
 20
357.21694465092276
 40
0.8
 50
0
 51
90
  0
LINE
  8
_2-0_
  6
CONTINUOUS
 62
    7
 10
-725.3112792879997
 20
357.21694465092276
 11
-725.3112792879997
 21
356.4169446509228
  0
ARC
  8
_2-0_
  6
CONTINUOUS
 62
    7
 10
-726.11127928799988
 20
356.4169446509228
 40
0.8
 50
270
 51
0
  0
LINE
  8
_2-0_
  6
CONTINUOUS
 62
    7
 10
-726.11127928799988
 20
355.61694465092279
 11
-727.00750528799972
 21
355.61694465092279
  0
ARC
  8
_2-0_
  6
CONTINUOUS
 62
    7
 10
-727.00750528799972
 20
355.21694465092276
 40
0.4
 50
90
 51
180
  0
LINE
  8
_2-0_
  6
CONTINUOUS
 62
    7
 10
-727.40750528799981
 20
355.21694465092276
 11
-727.40750528799981
 21
354.93923665092279
  0
LINE
  8
_2-0_
  6
CONTINUOUS
 62
    7
 10
-729.71125328799985
 20
358.01694465092277
 11
-726.11127928799988
 21
358.01694465092277
  0
ARC
  8
_2-0_
  6
CONTINUOUS
 62
    7
 10
-729.71125328799985
 20
358.81694465092278
 40
0.8
 50
180
 51
270
  0
LINE
  8
_2-0_
  6
CONTINUOUS
 62
    7
 10
-672.05833728799985
 20
337.89171665092277
 11
-678.10898328799976
 21
348.33572265092278
  0
LINE
  8
_2-0_
  6
CONTINUOUS
 62
    7
 10
-676.08043528799999
 20
336.6759526509228
 11
-678.50491128799968
 21
339.10042865092277
  0
ARC
  8
_2-0_
  6
CONTINUOUS
 62
    7
 10
-674.66622128799986
 20
338.09016665092275
 40
2
 50
225
 51
270
  0
LINE
  8
_2-0_
  6
CONTINUOUS
 62
    7
 10
-673.09667128799992
 20
336.09016665092275
 11
-674.66622128799986
 21
336.09016665092275
  0
ARC
  8
_2-0_
  6
CONTINUOUS
 62
    7
 10
-673.09667128799992
 20
337.2901666509228
 40
1.2
 50
270
 51
30.085491000000019
  0
LINE
  8
_2-0_
  6
CONTINUOUS
 62
    7
 10
-679.3540172879998
 20
336.55542065092277
 11
-680.20196728799988
 21
337.40337265092279
  0
LINE
  8
_2-0_
  6
CONTINUOUS
 62
    7
 10
-680.20196728799988
 20
338.53474265092279
 11
-679.63628328799996
 21
339.10042865092277
  0
ARC
  8
_2-0_
  6
CONTINUOUS
 62
    7
 10
-679.63628328799996
 20
337.96905665092277
 40
0.8
 50
135
 51
225
  0
LINE
  8
_2-0_
  6
CONTINUOUS
 62
    7
 10
-681.97889328799965
 20
335.4352486509228
 11
-679.42883128799986
 21
335.93093065092279
  0
ARC
  8
_2-0_
  6
CONTINUOUS
 62
    7
 10
-679.63685928799987
 20
336.27257865092275
 40
0.4
 50
301.33709900000002
 51
45
  0
LINE
  8
_2-0_
  6
CONTINUOUS
 62
    7
 10
-727.40750528799981
 20
354.93923665092279
 11
-725.63707928799977
 21
352.31447265092277
  0
LINE
  8
_2-0_
  6
CONTINUOUS
 62
    7
 10
-724.78994128799968
 20
351.98325265092279
 11
-715.85272328799965
 21
354.09432865092276
  0
ARC
  8
_2-0_
  6
CONTINUOUS
 62
    7
 10
-724.97384928799966
 20
352.76182865092278
 40
0.8
 50
214
 51
283.290322
  0
LINE
  8
_2-0_
  6
CONTINUOUS
 62
    7
 10
-694.72437128799993
 20
322.78616665092278
 11
-720.70513128799985
 21
337.78616465092279
  0
LINE
  8
_2-0_
  6
CONTINUOUS
 62
    7
 10
-708.31090328799974
 20
341.25359865092275
 11
-709.71090328799983
 21
338.82872665092276
  0
LINE
  8
_2-0_
  6
CONTINUOUS
 62
    7
 10
-708.31090328799974
 20
341.25359865092275
 11
-697.91859928799977
 21
335.25359865092275
  0
LINE
  8
_2-0_
  6
CONTINUOUS
 62
    7
 10
-699.31859928799986
 20
332.82872665092276
 11
-697.91859728799977
 21
335.25359865092275
  0
LINE
  8
_2-0_
  6
CONTINUOUS
 62
    7
 10
-721.90513128799967
 20
335.70770465092278
 11
-717.5051312879998
 21
343.32872665092276
  0
LINE
  8
_2-0_
  6
CONTINUOUS
 62
    7
 10
-717.5051312879998
 20
343.32872665092276
 11
-691.52437328799988
 21
328.32872865092276
  0
LINE
  8
_2-0_
  6
CONTINUOUS
 62
    7
 10
-691.52437328799988
 20
328.32872865092276
 11
-695.92437128799975
 21
320.70770465092278
  0
LINE
  8
_2-0_
  6
CONTINUOUS
 62
    7
 10
-834.75083328799974
 20
199.76163065092277
 11
-833.60277728799974
 21
200.90968665092277
  0
LINE
  8
_2-0_
  6
CONTINUOUS
 62
    7
 10
-840.4076892879998
 20
199.76163065092277
 11
-833.60277728799974
 21
206.56654065092278
  0
LINE
  8
_2-0_
  6
CONTINUOUS
 62
    7
 10
-846.06454328799964
 20
199.76163065092277
 11
-833.60277728799974
 21
212.22339665092278
  0
LINE
  8
_2-0_
  6
CONTINUOUS
 62
    7
 10
-851.72139728799993
 20
199.76163065092277
 11
-833.60277728799974
 21
217.88025065092279
  0
LINE
  8
_2-0_
  6
CONTINUOUS
 62
    7
 10
-857.37825128799977
 20
199.76163065092277
 11
-833.60277728799974
 21
223.5371046509228
  0
LINE
  8
_2-0_
  6
CONTINUOUS
 62
    7
 10
-863.03510528799984
 20
199.76163065092277
 11
-833.60277728799974
 21
229.19395865092275
  0
LINE
  8
_2-0_
  6
CONTINUOUS
 62
    7
 10
-868.69195928799991
 20
199.76163065092277
 11
-833.60277728799974
 21
234.85081265092276
  0
LINE
  8
_2-0_
  6
CONTINUOUS
 62
    7
 10
-874.34881328799975
 20
199.76163065092277
 11
-833.60277728799974
 21
240.50766665092277
  0
LINE
  8
_2-0_
  6
CONTINUOUS
 62
    7
 10
-880.00566728799981
 20
199.76163065092277
 11
-833.60277728799974
 21
246.16452265092278
  0
LINE
  8
_2-0_
  6
CONTINUOUS
 62
    7
 10
-885.66252328799965
 20
199.76163065092277
 11
-838.16657128799989
 21
247.25758265092276
  0
LINE
  8
_2-0_
  6
CONTINUOUS
 62
    7
 10
-891.31937728799994
 20
199.76163065092277
 11
-843.82342528799973
 21
247.25758265092276
  0
LINE
  8
_2-0_
  6
CONTINUOUS
 62
    7
 10
-896.97623128799978
 20
199.76163065092277
 11
-849.48027928799979
 21
247.25758265092276
  0
LINE
  8
_2-0_
  6
CONTINUOUS
 62
    7
 10
-901.54002528799992
 20
200.8546926509228
 11
-855.13713328799986
 21
247.25758265092276
  0
LINE
  8
_2-0_
  6
CONTINUOUS
 62
    7
 10
-901.54002528799992
 20
206.51154665092275
 11
-860.7939872879997
 21
247.25758265092276
  0
LINE
  8
_2-0_
  6
CONTINUOUS
 62
    7
 10
-901.54002528799992
 20
212.16840065092276
 11
-866.45084128799976
 21
247.25758265092276
  0
LINE
  8
_2-0_
  6
CONTINUOUS
 62
    7
 10
-901.54002528799992
 20
217.82525465092277
 11
-872.10769728799983
 21
247.25758265092276
  0
LINE
  8
_2-0_
  6
CONTINUOUS
 62
    7
 10
-901.54002528799992
 20
223.48210865092278
 11
-877.76455128799989
 21
247.25758265092276
  0
LINE
  8
_2-0_
  6
CONTINUOUS
 62
    7
 10
-901.54002528799992
 20
229.13896265092279
 11
-883.42140528799973
 21
247.25758265092276
  0
LINE
  8
_2-0_
  6
CONTINUOUS
 62
    7
 10
-901.54002528799992
 20
234.79581665092275
 11
-889.0782592879998
 21
247.25758265092276
  0
LINE
  8
_2-0_
  6
CONTINUOUS
 62
    7
 10
-901.54002528799992
 20
240.45267065092276
 11
-894.73511328799987
 21
247.25758265092276
  0
LINE
  8
_2-0_
  6
CONTINUOUS
 62
    7
 10
-896.14586928799963
 20
329.65710865092279
 11
-837.3458692879999
 21
329.65710865092279
  0
LINE
  8
_2-0_
  6
CONTINUOUS
 62
    7
 10
-896.14586928799963
 20
333.65710865092279
 11
-896.14586928799963
 21
303.35004265092277
  0
LINE
  8
_2-0_
  6
CONTINUOUS
 62
    7
 10
-837.3458692879999
 20
333.65710865092279
 11
-837.3458692879999
 21
281.03004265092278
  0
LINE
  8
_2-0_
  6
CONTINUOUS
 62
    7
 10
-896.14586928799963
 20
329.65710865092279
 11
-893.24809128799984
 21
330.43356665092278
  0
LINE
  8
_2-0_
  6
CONTINUOUS
 62
    7
 10
-896.14586928799963
 20
329.65710865092279
 11
-893.24809128799984
 21
328.8806526509228
  0
LINE
  8
_2-0_
  6
CONTINUOUS
 62
    7
 10
-893.24809128799984
 20
330.43356665092278
 11
-893.24809128799984
 21
328.8806526509228
  0
LINE
  8
_2-0_
  6
CONTINUOUS
 62
    7
 10
-895.42142528799968
 20
329.65710865092279
 11
-893.97253728799978
 21
330.04533665092276
  0
LINE
  8
_2-0_
  6
CONTINUOUS
 62
    7
 10
-895.42142528799968
 20
329.65710865092279
 11
-893.97253728799978
 21
329.26888065092277
  0
LINE
  8
_2-0_
  6
CONTINUOUS
 62
    7
 10
-893.97253728799978
 20
330.04533665092276
 11
-893.97253728799978
 21
329.26888065092277
  0
LINE
  8
_2-0_
  6
CONTINUOUS
 62
    7
 10
-837.3458692879999
 20
329.65710865092279
 11
-840.24364728799992
 21
328.8806526509228
  0
LINE
  8
_2-0_
  6
CONTINUOUS
 62
    7
 10
-837.3458692879999
 20
329.65710865092279
 11
-840.24364728799992
 21
330.43356665092278
  0
LINE
  8
_2-0_
  6
CONTINUOUS
 62
    7
 10
-840.24364728799992
 20
328.8806526509228
 11
-840.24364728799992
 21
330.43356665092278
  0
LINE
  8
_2-0_
  6
CONTINUOUS
 62
    7
 10
-838.07031328799985
 20
329.65710865092279
 11
-839.51920328799974
 21
329.26888065092277
  0
LINE
  8
_2-0_
  6
CONTINUOUS
 62
    7
 10
-838.07031328799985
 20
329.65710865092279
 11
-839.51920328799974
 21
330.04533665092276
  0
LINE
  8
_2-0_
  6
CONTINUOUS
 62
    7
 10
-839.51920328799974
 20
329.26888065092277
 11
-839.51920328799974
 21
330.04533665092276
  0
TEXT
  8
_2-0_
 62
    7
 10
-874.74586928799977
 20
329.65710865092279
 40
8
 41
0.5
 50
0
  1
14.7
  0
LINE
  8
_2-0_
  6
CONTINUOUS
 62
    7
 10
-922.11324528799969
 20
247.25758265092276
 11
-922.11324528799969
 21
307.14061265092278
  0
LINE
  8
_2-0_
  6
CONTINUOUS
 62
    7
 10
-926.11324528799969
 20
247.25758265092276
 11
-896.24279128799981
 21
247.25758265092276
  0
LINE
  8
_2-0_
  6
CONTINUOUS
 62
    7
 10
-926.11324528799969
 20
307.14061265092278
 11
-878.55098728799976
 21
307.14061265092278
  0
LINE
  8
_2-0_
  6
CONTINUOUS
 62
    7
 10
-922.11324528799969
 20
247.25758265092276
 11
-922.88970328799996
 21
250.15536065092277
  0
LINE
  8
_2-0_
  6
CONTINUOUS
 62
    7
 10
-922.11324528799969
 20
247.25758265092276
 11
-921.33678928799964
 21
250.15536065092277
  0
LINE
  8
_2-0_
  6
CONTINUOUS
 62
    7
 10
-922.88970328799996
 20
250.15536065092277
 11
-921.33678928799964
 21
250.15536065092277
  0
LINE
  8
_2-0_
  6
CONTINUOUS
 62
    7
 10
-922.11324528799969
 20
247.98202665092276
 11
-922.50147528799971
 21
249.43091465092277
  0
LINE
  8
_2-0_
  6
CONTINUOUS
 62
    7
 10
-922.11324528799969
 20
247.98202665092276
 11
-921.72501728799989
 21
249.43091465092277
  0
LINE
  8
_2-0_
  6
CONTINUOUS
 62
    7
 10
-922.50147528799971
 20
249.43091465092277
 11
-921.72501728799989
 21
249.43091465092277
  0
LINE
  8
_2-0_
  6
CONTINUOUS
 62
    7
 10
-922.11324528799969
 20
307.14061265092278
 11
-921.33678928799964
 21
304.24283665092275
  0
LINE
  8
_2-0_
  6
CONTINUOUS
 62
    7
 10
-922.11324528799969
 20
307.14061265092278
 11
-922.88970328799996
 21
304.24283665092275
  0
LINE
  8
_2-0_
  6
CONTINUOUS
 62
    7
 10
-921.33678928799964
 20
304.24283665092275
 11
-922.88970328799996
 21
304.24283665092275
  0
LINE
  8
_2-0_
  6
CONTINUOUS
 62
    7
 10
-922.11324528799969
 20
306.41616865092277
 11
-921.72501728799989
 21
304.96728065092276
  0
LINE
  8
_2-0_
  6
CONTINUOUS
 62
    7
 10
-922.11324528799969
 20
306.41616865092277
 11
-922.50147528799971
 21
304.96728065092276
  0
LINE
  8
_2-0_
  6
CONTINUOUS
 62
    7
 10
-921.72501728799989
 20
304.96728065092276
 11
-922.50147528799971
 21
304.96728065092276
  0
TEXT
  8
_2-0_
 62
    7
 10
-922.11324528799969
 20
265.19909865092279
 40
8
 41
0.75
 50
90
  1
（15）
  0
LINE
  8
_2-0_
  6
CONTINUOUS
 62
    7
 10
-693.60004928799981
 20
322.50467065092278
 11
-692.67158528799973
 21
324.11281865092275
  0
LINE
  8
_2-0_
  6
CONTINUOUS
 62
    7
 10
-729.71125328799985
 20
294.7095646509228
 11
-672.51126128799979
 21
294.7095646509228
  0
LINE
  8
_2-0_
  6
CONTINUOUS
 62
    7
 10
-729.71125328799985
 20
298.7095646509228
 11
-729.71125328799985
 21
287.32879865092275
  0
LINE
  8
_2-0_
  6
CONTINUOUS
 62
    7
 10
-672.51126128799979
 20
298.7095646509228
 11
-672.51126128799979
 21
276.44177665092275
  0
LINE
  8
_2-0_
  6
CONTINUOUS
 62
    7
 10
-729.71125328799985
 20
294.7095646509228
 11
-726.81347528799984
 21
295.4860206509228
  0
LINE
  8
_2-0_
  6
CONTINUOUS
 62
    7
 10
-729.71125328799985
 20
294.7095646509228
 11
-726.81347528799984
 21
293.93310665092275
  0
LINE
  8
_2-0_
  6
CONTINUOUS
 62
    7
 10
-726.81347528799984
 20
295.4860206509228
 11
-726.81347528799984
 21
293.93310665092275
  0
LINE
  8
_2-0_
  6
CONTINUOUS
 62
    7
 10
-728.98680928799968
 20
294.7095646509228
 11
-727.53791928799978
 21
295.09779265092277
  0
LINE
  8
_2-0_
  6
CONTINUOUS
 62
    7
 10
-728.98680928799968
 20
294.7095646509228
 11
-727.53791928799978
 21
294.32133465092278
  0
LINE
  8
_2-0_
  6
CONTINUOUS
 62
    7
 10
-727.53791928799978
 20
295.09779265092277
 11
-727.53791928799978
 21
294.32133465092278
  0
LINE
  8
_2-0_
  6
CONTINUOUS
 62
    7
 10
-672.51126128799979
 20
294.7095646509228
 11
-675.4090392879998
 21
293.93310665092275
  0
LINE
  8
_2-0_
  6
CONTINUOUS
 62
    7
 10
-672.51126128799979
 20
294.7095646509228
 11
-675.4090392879998
 21
295.4860206509228
  0
LINE
  8
_2-0_
  6
CONTINUOUS
 62
    7
 10
-675.4090392879998
 20
293.93310665092275
 11
-675.4090392879998
 21
295.4860206509228
  0
LINE
  8
_2-0_
  6
CONTINUOUS
 62
    7
 10
-673.23570528799974
 20
294.7095646509228
 11
-674.68459328799986
 21
294.32133465092278
  0
LINE
  8
_2-0_
  6
CONTINUOUS
 62
    7
 10
-673.23570528799974
 20
294.7095646509228
 11
-674.68459328799986
 21
295.09779265092277
  0
LINE
  8
_2-0_
  6
CONTINUOUS
 62
    7
 10
-674.68459328799986
 20
294.32133465092278
 11
-674.68459328799986
 21
295.09779265092277
  0
TEXT
  8
_2-0_
 62
    7
 10
-709.11125728799971
 20
294.7095646509228
 40
8
 41
0.5
 50
0
  1
14.3
  0
LINE
  8
_2-0_
  6
CONTINUOUS
 62
    7
 10
-752.39435128799983
 20
247.25758265092276
 11
-752.39435128799983
 21
283.32879865092275
  0
LINE
  8
_2-0_
  6
CONTINUOUS
 62
    7
 10
-756.39435128799983
 20
247.25758265092276
 11
-731.71125328799985
 21
247.25758265092276
  0
LINE
  8
_2-0_
  6
CONTINUOUS
 62
    7
 10
-756.39435128799983
 20
283.32879865092275
 11
-733.71125328799985
 21
283.32879865092275
  0
LINE
  8
_2-0_
  6
CONTINUOUS
 62
    7
 10
-752.39435128799983
 20
247.25758265092276
 11
-753.17080928799987
 21
250.15536065092277
  0
LINE
  8
_2-0_
  6
CONTINUOUS
 62
    7
 10
-752.39435128799983
 20
247.25758265092276
 11
-751.61789328799978
 21
250.15536065092277
  0
LINE
  8
_2-0_
  6
CONTINUOUS
 62
    7
 10
-753.17080928799987
 20
250.15536065092277
 11
-751.61789328799978
 21
250.15536065092277
  0
LINE
  8
_2-0_
  6
CONTINUOUS
 62
    7
 10
-752.39435128799983
 20
247.98202665092276
 11
-752.78257928799985
 21
249.43091465092277
  0
LINE
  8
_2-0_
  6
CONTINUOUS
 62
    7
 10
-752.39435128799983
 20
247.98202665092276
 11
-752.0061232879998
 21
249.43091465092277
  0
LINE
  8
_2-0_
  6
CONTINUOUS
 62
    7
 10
-752.78257928799985
 20
249.43091465092277
 11
-752.0061232879998
 21
249.43091465092277
  0
LINE
  8
_2-0_
  6
CONTINUOUS
 62
    7
 10
-752.39435128799983
 20
283.32879865092275
 11
-751.61789328799978
 21
280.43102065092279
  0
LINE
  8
_2-0_
  6
CONTINUOUS
 62
    7
 10
-752.39435128799983
 20
283.32879865092275
 11
-753.17080928799987
 21
280.43102065092279
  0
LINE
  8
_2-0_
  6
CONTINUOUS
 62
    7
 10
-751.61789328799978
 20
280.43102065092279
 11
-753.17080928799987
 21
280.43102065092279
  0
LINE
  8
_2-0_
  6
CONTINUOUS
 62
    7
 10
-752.39435128799983
 20
282.6043546509228
 11
-752.0061232879998
 21
281.15546665092279
  0
LINE
  8
_2-0_
  6
CONTINUOUS
 62
    7
 10
-752.39435128799983
 20
282.6043546509228
 11
-752.78257928799985
 21
281.15546665092279
  0
LINE
  8
_2-0_
  6
CONTINUOUS
 62
    7
 10
-752.0061232879998
 20
281.15546665092279
 11
-752.78257928799985
 21
281.15546665092279
  0
TEXT
  8
_2-0_
 62
    7
 10
-752.39435128799983
 20
263.29319065092278
 40
8
 41
0.5
 50
90
  1
9
  0
LINE
  8
_2-0_
  6
CONTINUOUS
 62
    7
 10
-652.39435128799983
 20
247.25758265092276
 11
-652.39435128799983
 21
272.44177665092275
  0
LINE
  8
_2-0_
  6
CONTINUOUS
 62
    7
 10
-648.39435128799983
 20
247.25758265092276
 11
-670.51126128799979
 21
247.25758265092276
  0
LINE
  8
_2-0_
  6
CONTINUOUS
 62
    7
 10
-648.39435128799983
 20
272.44177665092275
 11
-668.51126128799979
 21
272.44177665092275
  0
LINE
  8
_2-0_
  6
CONTINUOUS
 62
    7
 10
-652.39435128799983
 20
247.25758265092276
 11
-653.17080928799987
 21
250.15536065092277
  0
LINE
  8
_2-0_
  6
CONTINUOUS
 62
    7
 10
-652.39435128799983
 20
247.25758265092276
 11
-651.61789328799978
 21
250.15536065092277
  0
LINE
  8
_2-0_
  6
CONTINUOUS
 62
    7
 10
-653.17080928799987
 20
250.15536065092277
 11
-651.61789328799978
 21
250.15536065092277
  0
LINE
  8
_2-0_
  6
CONTINUOUS
 62
    7
 10
-652.39435128799983
 20
247.98202665092276
 11
-652.78257928799985
 21
249.43091465092277
  0
LINE
  8
_2-0_
  6
CONTINUOUS
 62
    7
 10
-652.39435128799983
 20
247.98202665092276
 11
-652.0061232879998
 21
249.43091465092277
  0
LINE
  8
_2-0_
  6
CONTINUOUS
 62
    7
 10
-652.78257928799985
 20
249.43091465092277
 11
-652.0061232879998
 21
249.43091465092277
  0
LINE
  8
_2-0_
  6
CONTINUOUS
 62
    7
 10
-652.39435128799983
 20
272.44177665092275
 11
-651.61789328799978
 21
269.54399865092279
  0
LINE
  8
_2-0_
  6
CONTINUOUS
 62
    7
 10
-652.39435128799983
 20
272.44177665092275
 11
-653.17080928799987
 21
269.54399865092279
  0
LINE
  8
_2-0_
  6
CONTINUOUS
 62
    7
 10
-651.61789328799978
 20
269.54399865092279
 11
-653.17080928799987
 21
269.54399865092279
  0
LINE
  8
_2-0_
  6
CONTINUOUS
 62
    7
 10
-652.39435128799983
 20
271.71733065092275
 11
-652.0061232879998
 21
270.26844265092279
  0
LINE
  8
_2-0_
  6
CONTINUOUS
 62
    7
 10
-652.39435128799983
 20
271.71733065092275
 11
-652.78257928799985
 21
270.26844265092279
  0
LINE
  8
_2-0_
  6
CONTINUOUS
 62
    7
 10
-652.0061232879998
 20
270.26844265092279
 11
-652.78257928799985
 21
270.26844265092279
  0
TEXT
  8
_2-0_
 62
    7
 10
-652.39435128799983
 20
253.84967865092278
 40
8
 41
0.5
 50
90
  1
6.3
  0
LINE
  8
_2-0_
  6
CONTINUOUS
 62
    7
 10
-859.23466528799963
 20
264.63776865092279
 11
-858.30620128799978
 21
266.24591465092277
  0
LINE
  8
_2-0_
  6
CONTINUOUS
 62
    4
 10
105.16577366728518
 20
438.17238569237276
 11
110.96132862501952
 21
439.72529996298789
  0
LINE
  8
_2-0_
  6
CONTINUOUS
 62
    4
 10
105.16577366728518
 20
438.17238569237276
 11
110.96132862501952
 21
436.61947142175768
  0
LINE
  8
_2-0_
  6
CONTINUOUS
 62
    4
 10
154.97414647424608
 20
438.17238569237276
 11
160.76970143198042
 21
439.72529996298789
  0
LINE
  8
_2-0_
  6
CONTINUOUS
 62
    4
 10
154.97414647424608
 20
438.17238569237276
 11
160.76970143198042
 21
436.61947142175768
  0
LINE
  8
_2-0_
  6
CONTINUOUS
 62
    4
 10
503.92086532993244
 20
438.17238569237276
 11
509.71642028766678
 21
439.72529996298789
  0
LINE
  8
_2-0_
  6
CONTINUOUS
 62
    4
 10
503.92086532993244
 20
438.17238569237276
 11
509.71642028766678
 21
436.61947142175768
  0
LINE
  8
_2-0_
  6
CONTINUOUS
 62
    4
 10
554.12294461795432
 20
438.17238569237276
 11
548.32738966021998
 21
439.72529996298789
  0
LINE
  8
_2-0_
  6
CONTINUOUS
 62
    4
 10
554.12294461795432
 20
438.17238569237276
 11
548.32738966021998
 21
436.61947142175768
  0
LINE
  8
_2-0_
  6
CONTINUOUS
 62
    4
 10
503.97814742936833
 20
438.17238569237276
 11
498.182592471634
 21
439.72529996298789
  0
LINE
  8
_2-0_
  6
CONTINUOUS
 62
    4
 10
503.97814742936833
 20
438.17238569237276
 11
498.182592471634
 21
436.61947142175768
  0
LINE
  8
_2-0_
  6
CONTINUOUS
 62
    4
 10
155.21880831181704
 20
438.17238569237276
 11
149.4232533540827
 21
439.72529996298789
  0
LINE
  8
_2-0_
  6
CONTINUOUS
 62
    4
 10
155.21880831181704
 20
438.17238569237276
 11
149.4232533540827
 21
436.61947142175768
  0
LINE
  8
_2-0_
  6
CONTINUOUS
 62
    4
 10
155.13375859040622
 20
438.1612673549306
 11
503.94149050525749
 21
438.1612673549306
  0
LINE
  8
_2-0_
  6
CONTINUOUS
 62
    4
 10
503.991116359437
 20
438.1612673549306
 11
554.04199890630684
 21
438.1612673549306
  0
LINE
  8
_2-0_
  6
CONTINUOUS
 62
    4
 10
601.42027941811898
 20
485.25047967983426
 11
625.23991780129131
 21
485.25047967983426
  0
LINE
  8
_2-0_
  6
CONTINUOUS
 62
    4
 10
604.98920298569158
 20
455.85047967983428
 11
604.98920298569158
 21
485.25047967983426
  0
LINE
  8
_2-0_
  6
CONTINUOUS
 62
    4
 10
601.61688031110475
 20
455.85047967983428
 11
613.97080380129137
 21
455.85047967983428
  0
LINE
  8
_2-0_
  6
CONTINUOUS
 62
    4
 10
614.07555580129133
 20
423.85047967983428
 11
614.07555580129133
 21
462.61040767983434
  0
LINE
  8
_2-0_
  6
CONTINUOUS
 62
    4
 10
617.61216180129134
 20
440.88917167983425
 11
634.21080380129138
 21
469.63886167983435
  0
ARC
  8
_2-0_
  6
CONTINUOUS
 62
    4
 10
636.21080380129138
 20
473.10296367983426
 40
33.197282000000001
 50
240
 51
270
  0
LINE
  8
_2-0_
  6
CONTINUOUS
 62
    4
 10
636.21080380129138
 20
435.90567967983429
 11
636.21080380129138
 21
469.10296367983426
  0
LINE
  8
_2-0_
  6
CONTINUOUS
 62
    4
 10
640.97080380129137
 20
423.85047967983428
 11
640.97080380129137
 21
453.9504796798343
  0
LINE
  8
_2-0_
  6
CONTINUOUS
 62
    4
 10
614.07555580129133
 20
427.85047967983428
 11
640.97080380129137
 21
427.85047967983428
  0
TEXT
  8
_1-0_
 62
    7
 10
79.64537505752412
 20
160.76962724344224
 40
16
 41
1
 50
0
  1
LXSW-FGB-1000-N K CR
  0
TEXT
  8
_1-0_
 62
    7
 10
92.114879826246636
 20
149.13998964502497
 40
8
 41
1
 50
0
  1
①
  0
LINE
  8
_1-0_
  6
CONTINUOUS
 62
    7
 10
76.284191995558729
 20
159.01088911592447
 11
117.8164671278339
 21
159.01088911592447
  0
TEXT
  8
_1-0_
 62
    7
 10
133.9713058532202
 20
149.9780848831202
 40
8
 41
1
 50
0
  1
②
  0
LINE
  8
_1-0_
  6
CONTINUOUS
 62
    7
 10
122.79670267861707
 20
159.01088911592447
 11
153.5268614087758
 21
159.01088911592447
  0
LINE
  8
_1-0_
  6
CONTINUOUS
 62
    7
 10
161.17577338037529
 20
159.01088911592447
 11
195.01491026231017
 21
159.01088911592447
  0
TEXT
  8
_1-0_
 62
    7
 10
173.09581224114126
 20
149.9780848831202
 40
8
 41
1
 50
0
  1
③
  0
TEXT
  8
_1-0_
 62
    7
 10
205.98628672719789
 20
149.88496318999853
 40
8
 41
1
 50
0
  1
④
  0
LINE
  8
_1-0_
  6
CONTINUOUS
 62
    7
 10
204.6825830234942
 20
159.01088911592447
 11
215.29845603936721
 21
159.01088911592447
  0
TEXT
  8
_1-0_
 62
    7
 10
223.63663722890601
 20
149.9780848831202
 40
8
 41
1
 50
0
  1
⑤
  0
LINE
  8
_1-0_
  6
CONTINUOUS
 62
    7
 10
222.23981183208059
 20
159.01088911592447
 11
233.13504992731868
 21
159.01088911592447
  0
TEXT
  8
_1-0_
 62
    7
 10
247.35382386528266
 20
150.44369334872869
 40
8
 41
1
 50
0
  1
⑥
  0
LINE
  8
_1-0_
  6
CONTINUOUS
 62
    7
 10
241.67340058485939
 20
159.01088911592447
 11
261.50832121978004
 21
159.01088911592447
  0
TEXT
  8
_1-0_
 62
    7
 10
294.03506776605616
 20
145.79531439385673
 40
10
 41
0.9999999999999996
 50
0
  1
③　全長
  0
TEXT
  8
_1-0_
 62
    7
 10
78.170639668660783
 20
91.472526461113631
 40
10
 41
1
 50
0
  1
LXSW-FGB-505-N
  0
TEXT
  8
_1-0_
 62
    7
 10
202.86034175863298
 20
91.472526461113631
 40
10
 41
1
 50
0
  1
505
  0
TEXT
  8
_1-0_
 62
    7
 10
267.92669989320041
 20
91.472526461113631
 40
10
 41
1
 50
0
  1
92
  0
TEXT
  8
_1-0_
 62
    7
 10
316.47864008543968
 20
91.392144853911645
 40
10
 41
1
 50
0
  1
108
  0
TEXT
  8
_1-0_
 62
    7
 10
316.47864008543968
 20
75.865144507464009
 40
10
 41
1
 50
0
  1
216
  0
TEXT
  8
_1-0_
 62
    7
 10
316.47864008543968
 20
60.270451403512993
 40
10
 41
1
 50
0
  1
324
  0
TEXT
  8
_1-0_
 62
    7
 10
316.47864008543968
 20
44.025979420230698
 40
10
 41
1
 50
0
  1
432
  0
TEXT
  8
_1-0_
 62
    7
 10
404.82975946216692
 20
75.865144507463953
 40
10
 41
1
 50
0
  1
15.5
  0
TEXT
  8
_1-0_
 62
    7
 10
404.82975946216692
 20
60.270451403512965
 40
10
 41
1
 50
0
  1
23.2
  0
TEXT
  8
_1-0_
 62
    7
 10
404.82975946216692
 20
44.025979420230641
 40
10
 41
1
 50
0
  1
31.0
  0
TEXT
  8
_1-0_
 62
    7
 10
409.70310105715163
 20
91.392144853911617
 40
10
 41
1
 50
0
  1
7.7
  0
TEXT
  8
_1-0_
 62
    7
 10
460.88007352641341
 20
91.392144853911617
 40
10
 41
1
 50
0
  1
0.32
  0
TEXT
  8
_1-0_
 62
    7
 10
460.88007352641341
 20
75.865144507463953
 40
10
 41
1
 50
0
  1
0.65
  0
TEXT
  8
_1-0_
 62
    7
 10
460.88007352641341
 20
60.270451403512965
 40
10
 41
1
 50
0
  1
0.97
  0
TEXT
  8
_1-0_
 62
    7
 10
460.88007352641341
 20
44.025979420230641
 40
10
 41
1
 50
0
  1
1.30
  0
TEXT
  8
_1-0_
 62
    7
 10
224.89084885522848
 20
75.097735232686773
 40
8
 41
0.9999999999999994
 50
0
  1
[mm]
  0
TEXT
  8
_1-0_
 62
    7
 10
224.89084885522848
 20
59.086322439313562
 40
8
 41
0.9999999999999994
 50
0
  1
[mm]
  0
TEXT
  8
_1-0_
 62
    7
 10
224.89084885522848
 20
42.653556677693672
 40
8
 41
0.9999999999999994
 50
0
  1
[mm]
  0
TEXT
  8
_1-0_
 62
    7
 10
78.170639668660783
 20
75.272989927806663
 40
10
 41
1
 50
0
  1
LXSW-FGB-1000-N
  0
TEXT
  8
_1-0_
 62
    7
 10
78.170639668660783
 20
59.261577134433452
 40
10
 41
1
 50
0
  1
LXSW-FGB-1495-N
  0
TEXT
  8
_1-0_
 62
    7
 10
78.170639668660783
 20
42.828811372813561
 40
10
 41
1
 50
0
  1
LXSW-FGB-1990-N
  0
TEXT
  8
_1-0_
 62
    7
 10
198.69341923607908
 20
75.272989927806663
 40
10
 41
1
 50
0
  1
1000
  0
TEXT
  8
_1-0_
 62
    7
 10
198.69341923607908
 20
59.261577134433452
 40
10
 41
1
 50
0
  1
1495
  0
TEXT
  8
_1-0_
 62
    7
 10
198.69341923607908
 20
42.828811372813561
 40
10
 41
1
 50
0
  1
1990
  0
TEXT
  8
_1-0_
 62
    7
 10
263.34298205246199
 20
75.272989927806663
 40
10
 41
1
 50
0
  1
182
  0
TEXT
  8
_1-0_
 62
    7
 10
263.34298205246199
 20
59.261577134433452
 40
10
 41
1
 50
0
  1
267
  0
TEXT
  8
_1-0_
 62
    7
 10
263.34298205246199
 20
42.828811372813561
 40
10
 41
1
 50
0
  1
359
  0
TEXT
  8
_0-0_1
 62
    7
 10
732.23692928129049
 20
47.026501512314582
 40
8
 41
1
 50
0
  1
LXSW-FGB モジュール
  0
TEXT
  8
_1-0_
 62
    7
 10
640.2114631541474
 20
62.228195087219632
 40
8
 41
1
 50
0
  1
森田
  0
TEXT
  8
_1-0_
 62
    7
 10
670.14524741901027
 20
61.809540761836928
 40
8
 41
1
 50
0
  1
森田
  0
TEXT
  8
_2-0_
 62
    7
 10
714.8943988936087
 20
483.7219501656345
 40
8
 41
1
 50
0
  1
S = 2 : 1
  0
TEXT
  8
_2-0_
 62
    7
 10
138.49242484297122
 20
495.56475614097542
 40
12
 41
1
 50
0
  1
⑤
  0
TEXT
  8
_2-0_
 62
    7
 10
508.85790993694849
 20
495.56475614097542
 40
12
 41
1
 50
0
  1
⑥
  0
LINE
  8
_2-0_
  6
CONTINUOUS
 62
    7
 10
512.50297997618497
 20
495.25617449154879
 11
502.20183104956061
 21
482.27834907217954
  0
TEXT
  8
_1-0_
 62
    7
 10
664.63596429750828
 20
137.22634026099374
 40
8
 41
1
 50
0
  1
樹脂端板　2
  0
TEXT
  8
_1-0_
 62
    7
 10
664.35659921814329
 20
127.82104925570272
 40
8
 41
1
 50
0
  1
樹脂端板　1
  0
LINE
  8
_2-0_
  6
DASHED3
 62
    9
 10
699.50663812885648
 20
397.51888902016719
 11
699.50663812885648
 21
408.8266774234736
  0
LINE
  8
_2-0_
  6
DASHED3
 62
    9
 10
693.54628381137832
 20
403.20047262104254
 11
705.48697081934733
 21
403.20047262104254
  0
LINE
  8
_2-0_
  6
DASHED3
 62
    9
 10
733.90500601460974
 20
397.39230929923468
 11
733.90500601460974
 21
408.86887066378443
  0
LINE
  8
_2-0_
  6
DASHED3
 62
    9
 10
728.14474086627092
 20
403.1984209994344
 11
739.8322684323748
 21
403.1984209994344
  0
TEXT
  8
_1-0_
 62
    7
 10
520.24966180135277
 20
91.392144853911617
 40
10
 41
1
 50
0
  1
670
  0
TEXT
  8
_1-0_
 62
    7
 10
516.03317906728375
 20
75.865144507463953
 40
10
 41
1
 50
0
  1
1339
  0
TEXT
  8
_1-0_
 62
    7
 10
516.03317906728375
 20
44.025979420230641
 40
10
 41
1
 50
0
  1
2678
  0
TEXT
  8
_1-0_
 62
    7
 10
516.03317906728375
 20
60.270451403512965
 40
10
 41
1
 50
0
  1
2009
  0
TEXT
  8
_1-0_
 62
    7
 10
743.85698432551817
 20
89.486494398169071
 40
5
 41
0.8800000000000001
 50
0
  1
ポリカーボネイト 乳白色
  0
TEXT
  8
_1-0_
 62
    7
 10
743.85698432551817
 20
128.98954147483832
 40
5
 41
0.8800000000000001
 50
0
  1
ポリカーボネイト 乳白色
  0
TEXT
  8
_1-0_
 62
    7
 10
743.58825611411226
 20
139.20121350826304
 40
5
 41
0.8800000000000001
 50
0
  1
ポリカーボネイト 乳白色
  0
TEXT
  8
_1-0_
 62
    7
 10
742.29525295124176
 20
101.87501750967098
 40
4
 41
1
 50
0
  1
シルバーアルマイト加工
  0
ARC
  8
_2-0_
  6
CONTINUOUS
 62
    2
 10
125.56914028913229
 20
471.4099454379799
 40
5.7064015740103065
 50
320.661199489333
 51
54.386441387944416
  0
ARC
  8
_2-0_
  6
CONTINUOUS
 62
    2
 10
137.5457522741259
 20
461.59365062315362
 40
9.7790392828292987
 50
140.66119948933292
 51
214.56691244988951
  0
ARC
  8
_2-0_
  6
CONTINUOUS
 62
    2
 10
137.5457522741259
 20
461.59365062315362
 40
8.0790392828292976
 50
140.66119948933292
 51
214.56691244988951
  0
ARC
  8
_2-0_
  6
CONTINUOUS
 62
    2
 10
125.56914028913229
 20
471.4099454379799
 40
7.4064015740103066
 50
320.661199489333
 51
54.386441387944416
  0
LINE
  8
_2-0_
  6
CONTINUOUS
 62
    7
 10
130.93089378998701
 20
470.77302591751709
 11
106.12836534287248
 21
470.77302591751709
  0
LINE
  8
_2-0_
  6
CONTINUOUS
 62
    7
 10
105.32865463866744
 20
467.77302591751709
 11
129.5431169903411
 21
467.77302591751709
  0
LINE
  8
_2-0_
  6
CONTINUOUS
 62
    7
 10
119.27306802301104
 20
470.77302591751709
 11
104.79443072998896
 21
470.77302591751709
  0
LINE
  8
_2-0_
  6
CONTINUOUS
 62
    7
 10
104.6787826633518
 20
467.77302591751709
 11
119.27306802301104
 21
467.77302591751709
  0
LINE
  8
_2-0_
  6
CONTINUOUS
 62
    7
 10
119.27306802301104
 20
464.77302591751709
 11
104.79443072998896
 21
464.77302591751709
  0
LINE
  8
_2-0_
  6
CONTINUOUS
 62
    7
 10
128.03969212405804
 20
464.77302591751709
 11
104.56313459671469
 21
464.77302591751709
  0
LINE
  8
_2-0_
  6
CONTINUOUS
 62
    7
 10
72.766535750725097
 20
459.58791359914085
 11
72.766535750725097
 21
475.58927969757087
  0
LINE
  8
_2-0_
  6
CONTINUOUS
 62
    7
 10
81.30364772775755
 20
472.16368345276771
 11
72.766535750725097
 21
472.16368345276771
  0
LINE
  8
_2-0_
  6
CONTINUOUS
 62
    7
 10
81.30364772775755
 20
463.01293795809329
 11
72.766535750725097
 21
463.01293795809329
  0
LINE
  8
_2-0_
  6
CONTINUOUS
 62
    7
 10
104.41012363343918
 20
461.63297740071266
 11
104.41012363343918
 21
473.54421589599872
  0
LINE
  8
_2-0_
  6
CONTINUOUS
 62
    7
 10
104.41012363343918
 20
461.63297740071266
 11
85.035774788456422
 21
461.63297740071266
  0
LINE
  8
_2-0_
  6
CONTINUOUS
 62
    7
 10
104.41012363343918
 20
473.54421589599872
 11
85.035774788456422
 21
473.54421589599872
  0
LINE
  8
_2-0_
  6
CONTINUOUS
 62
    7
 10
103.59232686715069
 20
461.63297740071266
 11
103.59232686715069
 21
473.54421589599872
  0
LINE
  8
_2-0_
  6
CONTINUOUS
 62
    7
 10
96.997339238591053
 20
470.98788614403384
 11
77.87862336880471
 21
470.98788614403384
  0
LINE
  8
_2-0_
  6
CONTINUOUS
 62
    7
 10
81.30364772775755
 20
470.98788614403384
 11
81.30364772775755
 21
472.16368345276771
  0
LINE
  8
_2-0_
  6
CONTINUOUS
 62
    7
 10
96.997339238591053
 20
469.30082288490689
 11
77.87862336880471
 21
469.30082288490689
  0
LINE
  8
_2-0_
  6
CONTINUOUS
 62
    7
 10
96.997339238591053
 20
464.18873526682728
 11
77.87862336880471
 21
464.18873526682728
  0
LINE
  8
_2-0_
  6
CONTINUOUS
 62
    7
 10
81.30364772775755
 20
463.01293795809329
 11
81.30364772775755
 21
464.18930715267788
  0
LINE
  8
_2-0_
  6
CONTINUOUS
 62
    7
 10
96.997339238591053
 20
465.87579852595434
 11
77.87862336880471
 21
465.87579852595434
  0
LINE
  8
_2-0_
  6
CONTINUOUS
 62
    7
 10
77.87862336880471
 20
464.18873526682728
 11
77.87862336880471
 21
470.98788614403384
  0
LINE
  8
_2-0_
  6
CONTINUOUS
 62
    7
 10
96.997339238591053
 20
464.18873526682728
 11
96.997339238591053
 21
470.98788614403384
  0
ARC
  8
_2-0_
  6
CONTINUOUS
 62
    7
 10
83.314796315992965
 20
473.84198094801729
 40
1.7400000000000002
 50
4.7896201658778645
 51
84.492773310618546
  0
LINE
  8
_2-0_
  6
CONTINUOUS
 62
    7
 10
85.035202902605818
 20
470.98788614403384
 11
85.035202902605818
 21
473.97272853932543
  0
LINE
  8
_2-0_
  6
CONTINUOUS
 62
    7
 10
83.46335728594039
 20
475.58870781172027
 11
72.766535750725097
 21
475.58870781172027
  0
ARC
  8
_2-0_
  6
CONTINUOUS
 62
    7
 10
83.314796315992965
 20
461.33243772426295
 40
1.7400000000000002
 50
275.50722668938147
 51
355.21037983412214
  0
LINE
  8
_2-0_
  6
CONTINUOUS
 62
    7
 10
85.035202902605818
 20
461.20253434967219
 11
85.035202902605818
 21
464.18873526682728
  0
LINE
  8
_2-0_
  6
CONTINUOUS
 62
    7
 10
83.443262583764295
 20
459.58791359914085
 11
72.766535750725097
 21
459.58791359914085
  0
LINE
  8
_2-0_
  6
CONTINUOUS
 62
    7
 10
132.98973544751578
 20
470.85047967983428
 11
155.13375859040622
 21
470.85047967983428
  0
LINE
  8
_2-0_
  6
CONTINUOUS
 62
    7
 10
131.97683739486894
 20
467.85047967983428
 11
155.13375859040622
 21
467.85047967983428
  0
LINE
  8
_2-0_
  6
CONTINUOUS
 62
    7
 10
130.14095967444655
 20
464.85047967983428
 11
155.13375859040622
 21
464.85047967983428
  0
LINE
  8
_2-0_
  6
CONTINUOUS
 62
    7
 10
85.77432102590609
 20
403.05060936261941
 11
73.505653874025313
 21
403.05060936261941
  0
LINE
  8
_2-0_
  6
CONTINUOUS
 62
    7
 10
85.77432102590609
 20
392.82643412645996
 11
73.505653874025313
 21
392.82643412645996
  0
LINE
  8
_2-0_
  6
CONTINUOUS
 62
    7
 10
81.531499900664642
 20
400.49427961065419
 11
73.505081988174766
 21
400.49427961065419
  0
LINE
  8
_2-0_
  6
CONTINUOUS
 62
    7
 10
73.505081988174766
 20
400.49427961065419
 11
73.505081988174766
 21
403.05003747676881
  0
LINE
  8
_2-0_
  6
CONTINUOUS
 62
    7
 10
81.531499900664642
 20
395.38219199257458
 11
73.505081988174766
 21
395.38219199257458
  0
LINE
  8
_2-0_
  6
CONTINUOUS
 62
    7
 10
73.505081988174766
 20
392.82643412645996
 11
73.505081988174766
 21
395.38162010672386
  0
LINE
  8
_2-0_
  6
CONTINUOUS
 62
    7
 10
85.77432102590609
 20
392.82643412645996
 11
85.77432102590609
 21
403.05003747676881
  0
LINE
  8
_2-0_
  6
CONTINUOUS
 62
    7
 10
105.1492417567394
 20
401.36354610349247
 11
85.77432102590609
 21
401.36354610349247
  0
LINE
  8
_2-0_
  6
CONTINUOUS
 62
    7
 10
105.1492417567394
 20
394.5134973855869
 11
85.77432102590609
 21
394.5134973855869
  0
LINE
  8
_2-0_
  6
CONTINUOUS
 62
    7
 10
104.3308731046003
 20
394.5134973855869
 11
104.3308731046003
 21
401.36354610349247
  0
LINE
  8
_2-0_
  6
CONTINUOUS
 62
    7
 10
105.1492417567394
 20
394.5134973855869
 11
105.1492417567394
 21
401.36354610349247
  0
LINE
  8
_2-0_
  6
CONTINUOUS
 62
    7
 10
97.736457361891212
 20
404.78857046244536
 11
78.617169606254379
 21
404.78857046244536
  0
LINE
  8
_2-0_
  6
CONTINUOUS
 62
    7
 10
78.617169606254379
 20
403.05060936261941
 11
78.617169606254379
 21
404.78857046244536
  0
LINE
  8
_2-0_
  6
CONTINUOUS
 62
    7
 10
97.736457361891212
 20
402.23224071048003
 11
85.774892911756638
 21
402.23224071048003
  0
LINE
  8
_2-0_
  6
CONTINUOUS
 62
    7
 10
97.736457361891212
 20
402.23224071048003
 11
97.736457361891212
 21
404.78799857659465
  0
LINE
  8
_2-0_
  6
CONTINUOUS
 62
    7
 10
88.330078892020595
 20
401.36354610349247
 11
88.330078892020595
 21
402.23224071048003
  0
LINE
  8
_2-0_
  6
CONTINUOUS
 62
    7
 10
81.531499900664642
 20
395.38219199257458
 11
81.531499900664642
 21
400.49485149650479
  0
ARC
  8
_2-0_
  6
CONTINUOUS
 62
    2
 10
126.17157769415064
 20
404.81246503199941
 40
5.7064015740103065
 50
320.661199489333
 51
54.386441387944416
  0
ARC
  8
_2-0_
  6
CONTINUOUS
 62
    2
 10
138.14818967914425
 20
394.99617021717307
 40
9.7790392828292987
 50
140.66119948933292
 51
214.56691244988951
  0
ARC
  8
_2-0_
  6
CONTINUOUS
 62
    2
 10
138.14818967914425
 20
394.99617021717307
 40
8.0790392828292976
 50
140.66119948933292
 51
214.56691244988951
  0
ARC
  8
_2-0_
  6
CONTINUOUS
 62
    2
 10
126.17157769415064
 20
404.81246503199941
 40
7.4064015740103066
 50
320.661199489333
 51
54.386441387944416
  0
LINE
  8
_2-0_
  6
CONTINUOUS
 62
    7
 10
128.31264164111013
 20
396.40472389336082
 11
105.14866987088885
 21
396.40472389336082
  0
LINE
  8
_2-0_
  6
CONTINUOUS
 62
    7
 10
129.53458347727633
 20
399.47174770986828
 11
105.14866987088885
 21
399.47174770986828
  0
LINE
  8
_2-0_
  6
CONTINUOUS
 62
    7
 10
131.58358753424778
 20
399.4944806876033
 11
155.13375859040622
 21
399.4944806876033
  0
LINE
  8
_2-0_
  6
CONTINUOUS
 62
    7
 10
155.13375859040622
 20
396.4944806876033
 11
130.33788709846124
 21
396.4944806876033
  0
LINE
  8
_2-0_
  6
CONTINUOUS
 62
    7
 10
553.72442704694481
 20
392.58785021385688
 11
553.72442704694481
 21
402.81145356416562
  0
LINE
  8
_2-0_
  6
CONTINUOUS
 62
    7
 10
573.91771642991739
 20
392.58785021385688
 11
553.72442704694481
 21
392.58785021385688
  0
LINE
  8
_2-0_
  6
CONTINUOUS
 62
    7
 10
573.91771642991739
 20
392.58785021385688
 11
573.91771642991739
 21
402.81145356416562
  0
LINE
  8
_2-0_
  6
CONTINUOUS
 62
    7
 10
573.91771642991739
 20
402.81202545001622
 11
553.72442704694481
 21
402.81202545001622
  0
LINE
  8
_2-0_
  6
CONTINUOUS
 62
    7
 10
568.60146556319103
 20
395.29744537376973
 11
568.60146556319103
 21
400.10300217595375
  0
LINE
  8
_2-0_
  6
CONTINUOUS
 62
    7
 10
568.60146556319103
 20
400.10243029010337
 11
558.52941196327856
 21
400.10243029010337
  0
LINE
  8
_2-0_
  6
CONTINUOUS
 62
    7
 10
568.60146556319103
 20
395.29744537376973
 11
558.52941196327856
 21
395.29744537376973
  0
LINE
  8
_2-0_
  6
CONTINUOUS
 62
    7
 10
558.53055573497943
 20
395.29744537376973
 11
558.53055573497943
 21
400.10300217595375
  0
LINE
  8
_2-0_
  6
CONTINUOUS
 62
    7
 10
564.86933850249216
 20
395.29744537376973
 11
564.86933850249216
 21
400.10300217595375
  0
LINE
  8
_2-0_
  6
CONTINUOUS
 62
    7
 10
553.72442704694481
 20
396.16613998075729
 11
531.9344284378285
 21
396.16613998075729
  0
ARC
  8
_2-0_
  6
CONTINUOUS
 62
    2
 10
527.2332529401051
 20
403.03379252386105
 40
5.7064015740103065
 50
320.661199489333
 51
54.386441387944416
  0
ARC
  8
_2-0_
  6
CONTINUOUS
 62
    2
 10
539.20986492509871
 20
393.21749770903477
 40
9.7790392828292987
 50
140.66119948933292
 51
214.56691244988951
  0
ARC
  8
_2-0_
  6
CONTINUOUS
 62
    2
 10
539.20986492509871
 20
393.21749770903477
 40
8.0790392828292976
 50
140.66119948933292
 51
214.56691244988951
  0
ARC
  8
_2-0_
  6
CONTINUOUS
 62
    2
 10
527.2332529401051
 20
403.03379252386105
 40
7.4064015740103066
 50
320.661199489333
 51
54.386441387944416
  0
LINE
  8
_2-0_
  6
CONTINUOUS
 62
    7
 10
553.72442704694481
 20
399.2337356831157
 11
533.79992169700836
 21
399.2337356831157
  0
ARC
  8
_2-0_
  6
CONTINUOUS
 62
    2
 10
527.2332529401051
 20
470.58946838155714
 40
5.7064015740103065
 50
320.661199489333
 51
54.386441387944416
  0
ARC
  8
_2-0_
  6
CONTINUOUS
 62
    2
 10
539.20986492509871
 20
460.7731735667308
 40
9.7790392828292987
 50
140.66119948933292
 51
214.56691244988951
  0
ARC
  8
_2-0_
  6
CONTINUOUS
 62
    2
 10
539.20986492509871
 20
460.7731735667308
 40
8.0790392828292976
 50
140.66119948933292
 51
214.56691244988951
  0
ARC
  8
_2-0_
  6
CONTINUOUS
 62
    2
 10
527.2332529401051
 20
470.58946838155714
 40
7.4064015740103066
 50
320.661199489333
 51
54.386441387944416
  0
LINE
  8
_2-0_
  6
CONTINUOUS
 62
    7
 10
553.96928459040623
 20
470.85047967983428
 11
534.81867143232535
 21
470.85047967983428
  0
LINE
  8
_2-0_
  6
CONTINUOUS
 62
    7
 10
534.01682280380282
 20
467.85047967983428
 11
553.96928459040623
 21
467.85047967983428
  0
LINE
  8
_2-0_
  6
CONTINUOUS
 62
    7
 10
553.96928459040623
 20
464.85047967983428
 11
532.29857574268317
 21
464.85047967983428
  0
LINE
  8
_2-0_
  6
CONTINUOUS
 62
    7
 10
530.23667926933945
 20
464.85047967983428
 11
503.96928459040623
 21
464.85047967983428
  0
LINE
  8
_2-0_
  6
CONTINUOUS
 62
    7
 10
503.96928459040623
 20
467.85047967983428
 11
532.18402593860844
 21
467.85047967983428
  0
LINE
  8
_2-0_
  6
CONTINUOUS
 62
    7
 10
532.87132476305635
 20
470.85047967983428
 11
503.96928459040623
 21
470.85047967983428
  0
TEXT
  8
_1-0_
 62
    7
 10
572.92232111071553
 20
67.643218227127079
 40
10.000000000000057
 41
0.9999999999999943
 50
0
  1
3960
  0
LINE
  8
_1-0_
  6
CONTINUOUS
 62
    4
 10
604.97624609176353
 20
485.39600631453368
 11
606.14093179472479
 21
481.04934009623287
  0
LINE
  8
_1-0_
  6
CONTINUOUS
 62
    4
 10
604.97624609176353
 20
485.39600631453368
 11
603.81156038880226
 21
481.04934009623287
  0
LINE
  8
_1-0_
  6
CONTINUOUS
 62
    4
 10
604.94811660908806
 20
455.72244308194126
 11
603.7834309061268
 21
460.06910930024202
  0
LINE
  8
_1-0_
  6
CONTINUOUS
 62
    4
 10
604.94811660908806
 20
455.72244308194126
 11
606.11280231204933
 21
460.06910930024202
  0
LINE
  8
_1-0_
  6
CONTINUOUS
 62
    4
 10
613.91894265767064
 20
427.78777623879262
 11
618.26560887597145
 21
428.952461941754
  0
LINE
  8
_1-0_
  6
CONTINUOUS
 62
    4
 10
613.91894265767064
 20
427.78777623879262
 11
618.26560887597145
 21
426.62309053583135
  0
LINE
  8
_1-0_
  6
CONTINUOUS
 62
    4
 10
641.07410858119965
 20
427.66692148484356
 11
636.72744236289896
 21
426.50223578188218
  0
LINE
  8
_1-0_
  6
CONTINUOUS
 62
    4
 10
641.07410858119965
 20
427.66692148484356
 11
636.72744236289896
 21
428.83160718780482
  0
LINE
  8
_1-0_
  6
CONTINUOUS
 62
    4
 10
675.67473788771622
 20
452.02884910182888
 11
676.8394235906776
 21
447.68218288352807
  0
LINE
  8
_1-0_
  6
CONTINUOUS
 62
    4
 10
675.67473788771622
 20
452.02884910182888
 11
674.51005218475495
 21
447.68218288352807
  0
LINE
  8
_1-0_
  6
CONTINUOUS
 62
    4
 10
675.66607747343164
 20
397.72500411763156
 11
674.50139177047038
 21
402.07167033593231
  0
LINE
  8
_1-0_
  6
CONTINUOUS
 62
    4
 10
675.66607747343164
 20
397.72500411763156
 11
676.83076317639302
 21
402.07167033593231
  0
LINE
  8
_1-0_
  6
CONTINUOUS
 62
    4
 10
690.13264671194622
 20
375.89426680569977
 11
694.47931293024692
 21
377.05895250866115
  0
LINE
  8
_1-0_
  6
CONTINUOUS
 62
    4
 10
690.13264671194622
 20
375.89426680569977
 11
694.47931293024692
 21
374.72958110273851
  0
LINE
  8
_1-0_
  6
CONTINUOUS
 62
    4
 10
743.15197294482323
 20
375.85785457605334
 11
738.8053067265223
 21
374.69316887309196
  0
LINE
  8
_1-0_
  6
CONTINUOUS
 62
    4
 10
743.15197294482323
 20
375.85785457605334
 11
738.8053067265223
 21
377.02254027901461
  0
LINE
  8
_2-0_
  6
CONTINUOUS
 62
    4
 10
723.21358175034743
 20
334.52869839304856
 11
723.21358175034743
 21
329.9190081684946
  0
LINE
  8
_2-0_
  6
CONTINUOUS
 62
    4
 10
723.21358175034743
 20
334.52869839304856
 11
721.24138062666623
 21
341.88905318937123
  0
LINE
  8
_2-0_
  6
CONTINUOUS
 62
    4
 10
723.21358175034743
 20
334.52869839304856
 11
725.18578287402875
 21
341.88905318937123
  0
LINE
  8
_2-0_
  6
CONTINUOUS
 62
    4
 10
723.21358175034743
 20
329.9190081684946
 11
725.18578287402875
 21
322.55865337217193
  0
LINE
  8
_2-0_
  6
CONTINUOUS
 62
    4
 10
723.21358175034743
 20
329.9190081684946
 11
721.24138062666623
 21
322.55865337217193
  0
LINE
  8
_2-0_
  6
CONTINUOUS
 62
    4
 10
721.94358175034745
 20
334.52869839304856
 11
731.72862936939521
 21
334.52869839304856
  0
LINE
  8
_2-0_
  6
CONTINUOUS
 62
    4
 10
721.94358175034745
 20
329.9190081684946
 11
731.72862936939521
 21
329.9190081684946
  0
LINE
  8
_2-0_
  6
CONTINUOUS
 62
    4
 10
723.21358175034743
 20
329.9190081684946
 11
723.21358175034743
 21
318.52320117356459
  0
LINE
  8
_2-0_
  6
CONTINUOUS
 62
    4
 10
723.21358175034743
 20
334.52869839304856
 11
723.21358175034743
 21
346.32371394441714
  0
LINE
  8
_2-0_
  6
CONTINUOUS
 62
    4
 10
723.21358175034743
 20
290.7313500056058
 11
723.21358175034743
 21
279.00417879912595
  0
LINE
  8
_2-0_
  6
CONTINUOUS
 62
    4
 10
723.21358175034743
 20
295.30335000560581
 11
723.21358175034743
 21
307.44735926001374
  0
LINE
  8
_2-0_
  6
CONTINUOUS
 62
    4
 10
723.21358175034743
 20
295.30335000560581
 11
721.24138062666623
 21
302.66370480192853
  0
LINE
  8
_2-0_
  6
CONTINUOUS
 62
    4
 10
723.21358175034743
 20
295.30335000560581
 11
725.18578287402875
 21
302.66370480192853
  0
LINE
  8
_2-0_
  6
CONTINUOUS
 62
    4
 10
721.94358175034745
 20
295.30335000560581
 11
731.72862936939521
 21
295.30335000560581
  0
LINE
  8
_2-0_
  6
CONTINUOUS
 62
    4
 10
721.94358175034745
 20
290.7313500056058
 11
731.72862936939521
 21
290.7313500056058
  0
LINE
  8
_2-0_
  6
CONTINUOUS
 62
    4
 10
723.21358175034743
 20
295.30335000560581
 11
723.21358175034743
 21
290.7313500056058
  0
LINE
  8
_2-0_
  6
CONTINUOUS
 62
    4
 10
723.21358175034743
 20
290.7313500056058
 11
721.24138062666623
 21
283.37099520928308
  0
LINE
  8
_2-0_
  6
CONTINUOUS
 62
    4
 10
723.21358175034743
 20
290.7313500056058
 11
725.18578287402875
 21
283.37099520928308
  0
TEXT
  8
_2-0_
 62
    7
 10
601.81528557028173
 20
462.30728100111571
 40
8
 41
1
 50
90
  1
14.7
  0
TEXT
  8
_1-0_
 62
    7
 10
630.15004372017233
 20
176.90757939825616
 40
7
 41
1
 50
0
  1
※電源の入力は必ず片側からだけにしてください。
  0
TEXT
  8
_1-0_
 62
    7
 10
629.79513238813217
 20
160.00364768877739
 40
7
 41
1
 50
0
  1
※取付箇所の下地・強度にご注意下さい。
  0
TEXT
  8
_1-0_
 62
    7
 10
638.13388080311404
 20
151.329390026238
 40
7
 41
1
 50
0
  1
落下等による破損の原因になります。
  0
TEXT
  8
_1-0_
 62
    7
 10
433.31020004118841
 20
160.24081703935943
 40
10
 41
0.9999999999999996
 50
0
  1
K：片側仕様 / R：両側仕様
  0
TEXT
  8
_1-0_
 62
    7
 10
433.72730762496337
 20
135.29940022572015
 40
10
 41
0.9999999999999996
 50
0
  1
CR:クリップ / MG:マグネット
  0
TEXT
  8
_1-0_
 62
    7
 10
630.15004372017233
 20
185.64451608045803
 40
7
 41
1
 50
0
  1
※本製品は入力電圧DC24V専用です。
  0
TEXT
  8
_0-0_1
 62
    7
 10
63.037579667993896
 20
336.4397775122174
 40
10.000000000000021
 41
0.9999999999999973
 50
0
  1
◆付属品/オプション品
  0
LINE
  8
_0-0_1
  6
CONTINUOUS
 62
    7
 10
63.741148992167382
 20
335.24195841744267
 11
173.74114899216733
 21
335.24195841744267
  0
LINE
  8
_2-0_
  6
CONTINUOUS
 62
    7
 10
95.301640636994421
 20
287.06409845009938
 11
95.301640636994421
 21
258.46410245009935
  0
LINE
  8
_2-0_
  6
CONTINUOUS
 62
    7
 10
122.30164063699442
 20
260.56410245009937
 11
122.30164063699442
 21
259.06410245009937
  0
LINE
  8
_2-0_
  6
CONTINUOUS
 62
    7
 10
128.30164063699442
 20
260.56410245009937
 11
128.30164063699442
 21
259.06410245009937
  0
LINE
  8
_2-0_
  6
CONTINUOUS
 62
    7
 10
122.30164063699442
 20
260.56410245009937
 11
128.30164063699442
 21
260.56410245009937
  0
LINE
  8
_2-0_
  6
CONTINUOUS
 62
    7
 10
108.30164063699442
 20
260.56410245009937
 11
108.30164063699442
 21
259.06410245009937
  0
LINE
  8
_2-0_
  6
CONTINUOUS
 62
    7
 10
102.30164063699442
 20
260.56410245009937
 11
108.30164063699442
 21
260.56410245009937
  0
LINE
  8
_2-0_
  6
CONTINUOUS
 62
    7
 10
102.30164063699442
 20
259.06410245009937
 11
102.30164063699442
 21
260.56410245009937
  0
LINE
  8
_2-0_
  6
CONTINUOUS
 62
    7
 10
122.30164063699442
 20
284.96409845009936
 11
122.30164063699442
 21
286.46409845009936
  0
LINE
  8
_2-0_
  6
CONTINUOUS
 62
    7
 10
128.30164063699442
 20
284.96409845009936
 11
128.30164063699442
 21
286.46409845009936
  0
LINE
  8
_2-0_
  6
CONTINUOUS
 62
    7
 10
122.30164063699442
 20
284.96409845009936
 11
128.30164063699442
 21
284.96409845009936
  0
LINE
  8
_2-0_
  6
CONTINUOUS
 62
    7
 10
108.30164063699442
 20
284.96409845009936
 11
108.30164063699442
 21
286.46409845009936
  0
LINE
  8
_2-0_
  6
CONTINUOUS
 62
    7
 10
102.30164063699442
 20
284.96409845009936
 11
108.30164063699442
 21
284.96409845009936
  0
LINE
  8
_2-0_
  6
CONTINUOUS
 62
    7
 10
102.30164063699442
 20
286.46409845009936
 11
102.30164063699442
 21
284.96409845009936
  0
LINE
  8
_2-0_
  6
CONTINUOUS
 62
    7
 10
95.301640636994421
 20
259.06410245009937
 11
135.30164063699442
 21
259.06410245009937
  0
LINE
  8
_2-0_
  6
CONTINUOUS
 62
    7
 10
95.301640636994421
 20
286.46409845009936
 11
135.30164063699442
 21
286.46409845009936
  0
LINE
  8
_2-0_
  6
CONTINUOUS
 62
    7
 10
95.301640636994421
 20
258.46410245009935
 11
135.30164063699442
 21
258.46410245009935
  0
LINE
  8
_2-0_
  6
CONTINUOUS
 62
    7
 10
95.301640636994421
 20
287.06409845009938
 11
135.30164063699442
 21
287.06409845009938
  0
LINE
  8
_2-0_
  6
CONTINUOUS
 62
    4
 10
135.30164063699442
 20
240.47906445009937
 11
135.30164063699442
 21
254.46410245009935
  0
LINE
  8
_2-0_
  6
CONTINUOUS
 62
    4
 10
95.301640636994421
 20
244.47906445009937
 11
135.30164063699442
 21
244.47906445009937
  0
LINE
  8
_2-0_
  6
CONTINUOUS
 62
    4
 10
95.301640636994421
 20
240.47906445009937
 11
95.301640636994421
 21
254.46410245009935
  0
TEXT
  8
_2-0_
 62
    7
 10
111.21314754189081
 20
245.98600765988573
 40
8
 41
1
 50
0
  1
20
  0
LINE
  8
_2-0_
  6
CONTINUOUS
 62
    4
 10
135.41762014216556
 20
244.65145990911873
 11
129.62206518443122
 21
246.20437417973386
  0
LINE
  8
_2-0_
  6
CONTINUOUS
 62
    4
 10
135.41762014216556
 20
244.65145990911873
 11
129.62206518443122
 21
243.09854563850365
  0
LINE
  8
_2-0_
  6
CONTINUOUS
 62
    4
 10
95.28387749354124
 20
244.49791023463723
 11
101.07943245127558
 21
246.05082450525236
  0
LINE
  8
_2-0_
  6
CONTINUOUS
 62
    4
 10
95.28387749354124
 20
244.49791023463723
 11
101.07943245127558
 21
242.94499596402216
  0
LINE
  8
_2-0_
  6
CONTINUOUS
 62
    7
 10
172.18128454705479
 20
287.06409845009938
 11
160.38128454705486
 21
287.06409845009938
  0
LINE
  8
_2-0_
  6
CONTINUOUS
 62
    7
 10
160.38128454705486
 20
286.46409845009936
 11
160.38128454705486
 21
287.06409845009938
  0
LINE
  8
_2-0_
  6
CONTINUOUS
 62
    7
 10
172.18128454705479
 20
286.46409845009936
 11
160.38128454705486
 21
286.46409845009936
  0
LINE
  8
_2-0_
  6
CONTINUOUS
 62
    7
 10
172.14276854705483
 20
259.06410245009937
 11
154.98128454705477
 21
259.06410245009937
  0
LINE
  8
_2-0_
  6
CONTINUOUS
 62
    7
 10
154.98128454705477
 20
259.06410245009937
 11
154.98128454705477
 21
258.46410245009935
  0
LINE
  8
_2-0_
  6
CONTINUOUS
 62
    7
 10
172.14276854705483
 20
258.46410245009935
 11
154.98128454705477
 21
258.46410245009935
  0
LINE
  8
_2-0_
  6
_
 62
    7
 10
173.18128454705479
 20
262.12492445009934
 11
173.18128454705479
 21
283.02827045009934
  0
LINE
  8
_2-0_
  6
CONTINUOUS
 62
    7
 10
164.9913485470548
 20
285.38836245009935
 11
163.91561254705482
 21
286.46409845009936
  0
LINE
  8
_2-0_
  6
CONTINUOUS
 62
    7
 10
164.5670845470548
 20
284.96409845009936
 11
163.06708454705483
 21
286.46409845009936
  0
LINE
  8
_2-0_
  6
CONTINUOUS
 62
    7
 10
164.9913485470548
 20
260.13983845009938
 11
163.91561254705482
 21
259.06410245009937
  0
LINE
  8
_2-0_
  6
CONTINUOUS
 62
    7
 10
164.5670845470548
 20
260.56410245009937
 11
163.06708454705483
 21
259.06410245009937
  0
ARC
  8
_2-0_
  6
CONTINUOUS
 62
    7
 10
172.18128454705479
 20
286.06409845009938
 40
0.4
 50
357.48312399999998
 51
90
  0
LINE
  8
_2-0_
  6
CONTINUOUS
 62
    7
 10
172.58089854705483
 20
286.04653245009939
 11
171.97895654705482
 21
272.35233245009937
  0
ARC
  8
_2-0_
  6
CONTINUOUS
 62
    7
 10
172.14276854705483
 20
259.46410245009935
 40
0.4
 50
270
 51
2.5168759999999968
  0
LINE
  8
_2-0_
  6
CONTINUOUS
 62
    7
 10
172.54238254705476
 20
259.48166845009939
 11
171.97895654705482
 21
272.29963645009934
  0
ARC
  8
_2-0_
  6
CONTINUOUS
 62
    7
 10
172.18128454705479
 20
286.06409845009938
 40
1
 50
357.48312399999998
 51
90
  0
LINE
  8
_2-0_
  6
CONTINUOUS
 62
    7
 10
173.18032054705483
 20
286.02018445009935
 11
172.57837654705483
 21
272.32598445009938
  0
ARC
  8
_2-0_
  6
CONTINUOUS
 62
    7
 10
172.14276854705483
 20
259.46410245009935
 40
1
 50
270
 51
2.5168759999999968
  0
LINE
  8
_2-0_
  6
CONTINUOUS
 62
    7
 10
173.14180454705476
 20
259.50801645009938
 11
172.57837654705483
 21
272.32598445009938
  0
LINE
  8
_2-0_
  6
CONTINUOUS
 62
    7
 10
164.5670845470548
 20
284.96409845009936
 11
164.9913485470548
 21
285.38836245009935
  0
LINE
  8
_2-0_
  6
CONTINUOUS
 62
    7
 10
164.5670845470548
 20
260.56410245009937
 11
164.9913485470548
 21
260.13983845009938
  0
TEXT
  8
_2-0_
 62
    7
 10
162.22954646258552
 20
296.77810623654796
 40
6
 41
1
 50
0
  1
6.4
  0
TEXT
  8
_2-0_
 62
    7
 10
159.29679633017139
 20
246.22308014445719
 40
8
 41
0.75
 50
0
  1
9.1
  0
LINE
  8
_2-0_
  6
CONTINUOUS
 62
    4
 10
173.18128454705479
 20
240.47906445009937
 11
173.18128454705479
 21
258.12492445009934
  0
LINE
  8
_2-0_
  6
CONTINUOUS
 62
    4
 10
173.18128454705479
 20
244.47906445009937
 11
154.98128454705477
 21
244.47906445009937
  0
LINE
  8
_2-0_
  6
CONTINUOUS
 62
    4
 10
154.98128454705477
 20
240.47906445009937
 11
154.98128454705477
 21
254.46410245009935
  0
LINE
  8
_2-0_
  6
CONTINUOUS
 62
    4
 10
173.18749887957159
 20
294.20362553389202
 11
178.98305383730593
 21
295.75653980450716
  0
LINE
  8
_2-0_
  6
CONTINUOUS
 62
    4
 10
173.18749887957159
 20
294.20362553389202
 11
178.98305383730593
 21
292.65071126327695
  0
LINE
  8
_2-0_
  6
CONTINUOUS
 62
    4
 10
160.45410644924755
 20
294.21206760878977
 11
154.65855149151321
 21
295.7649818794049
  0
LINE
  8
_2-0_
  6
CONTINUOUS
 62
    4
 10
160.45410644924755
 20
294.21206760878977
 11
154.65855149151321
 21
292.65915333817469
  0
LINE
  8
_2-0_
  6
CONTINUOUS
 62
    4
 10
173.37048104279117
 20
244.65145990911873
 11
167.57492608505683
 21
246.20437417973386
  0
LINE
  8
_2-0_
  6
CONTINUOUS
 62
    4
 10
173.37048104279117
 20
244.65145990911873
 11
167.57492608505683
 21
243.09854563850365
  0
LINE
  8
_2-0_
  6
CONTINUOUS
 62
    4
 10
154.94231502368575
 20
244.48110844654803
 11
160.73786998142009
 21
246.03402271716317
  0
LINE
  8
_2-0_
  6
CONTINUOUS
 62
    4
 10
154.94231502368575
 20
244.48110844654803
 11
160.73786998142009
 21
242.92819417593296
  0
LINE
  8
_2-0_
  6
CONTINUOUS
 62
    4
 10
149.78017344746752
 20
294.19199445009934
 11
184.20425386177158
 21
294.19199445009934
  0
LINE
  8
_2-0_
  6
CONTINUOUS
 62
    7
 10
95.417994900303825
 20
287.06409845009938
 11
135.238182572006
 21
287.06409845009938
  0
LINE
  8
_2-0_
  6
CONTINUOUS
 62
    7
 10
135.30164063699442
 20
287.06409845009938
 11
135.30164063699442
 21
258.53354876255338
  0
CIRCLE
  8
_2-0_
  6
CONTINUOUS
 62
    7
 10
115.30164063699442
 20
272.76598445009938
 40
4.5
  0
CIRCLE
  8
_2-0_
  6
CONTINUOUS
 62
    7
 10
129.30164063699442
 20
272.76598445009938
 40
2.5
  0
CIRCLE
  8
_2-0_
  6
CONTINUOUS
 62
    7
 10
101.30164063699442
 20
272.76598445009938
 40
2.5
  0
LINE
  8
_2-0_
  6
CONTINUOUS
 62
    4
 10
160.38128454705486
 20
298.19199445009934
 11
160.38128454705486
 21
291.06409845009938
  0
LINE
  8
_2-0_
  6
CONTINUOUS
 62
    4
 10
173.18128454705479
 20
298.19199445009934
 11
173.18128454705479
 21
287.02827045009934
  0
LINE
  8
_2-0_
  6
CONTINUOUS
 62
    7
 10
121.16939839135449
 20
303.07698384922111
 11
116.64483169380981
 21
275.02467032444383
  0
LINE
  8
_2-0_
  6
CENTER1
 62
    2
 10
101.28971698518586
 20
268.80870740824184
 11
101.28971698518586
 21
276.91085393479682
  0
LINE
  8
_2-0_
  6
CENTER1
 62
    2
 10
115.30164063699442
 20
254.72773551381522
 11
115.30164063699442
 21
291.70701217063441
  0
LINE
  8
_2-0_
  6
CENTER1
 62
    2
 10
129.29799937439748
 20
268.58519991785408
 11
129.29799937439748
 21
276.91085393479682
  0
LINE
  8
_2-0_
  6
CENTER1
 62
    2
 10
90.555385335631854
 20
272.76410045009936
 11
140.10864245975046
 21
272.76410045009936
  0
LINE
  8
_2-0_
  6
CENTER1
 62
    2
 10
150.44889941509388
 20
272.76410045009936
 11
180.79530569708001
 21
272.76410045009936
  0
LINE
  8
_2-0_
  6
CONTINUOUS
 62
    7
 10
135.30164063699442
 20
211.40840659804326
 11
135.30164063699442
 21
226.6084065980433
  0
LINE
  8
_2-0_
  6
CONTINUOUS
 62
    7
 10
95.301640636994421
 20
211.40840659804326
 11
95.301640636994421
 21
226.6084065980433
  0
LINE
  8
_2-0_
  6
CONTINUOUS
 62
    7
 10
95.301640636994421
 20
211.40840659804326
 11
135.30164063699442
 21
211.40840659804326
  0
LINE
  8
_2-0_
  6
CONTINUOUS
 62
    7
 10
108.30164063699442
 20
216.90840659804326
 11
102.30164063699442
 21
216.90840659804326
  0
ARC
  8
_2-0_
  6
CONTINUOUS
 62
    7
 10
108.30164063699442
 20
218.90840659804326
 40
2
 50
270
 51
0
  0
LINE
  8
_2-0_
  6
CONTINUOUS
 62
    7
 10
110.30164063699442
 20
218.90840659804326
 11
110.30164063699442
 21
221.20840659804327
  0
LINE
  8
_2-0_
  6
CONTINUOUS
 62
    7
 10
100.30164063699442
 20
218.90840659804326
 11
100.30164063699442
 21
221.20840659804327
  0
ARC
  8
_2-0_
  6
CONTINUOUS
 62
    7
 10
102.30164063699442
 20
218.90840659804326
 40
2
 50
180
 51
270
  0
LINE
  8
_2-0_
  6
CONTINUOUS
 62
    7
 10
107.30164063699442
 20
219.00840659804328
 11
103.30164063699442
 21
219.00840659804328
  0
ARC
  8
_2-0_
  6
CONTINUOUS
 62
    7
 10
107.30164063699442
 20
220.00840659804328
 40
1
 50
270
 51
0
  0
LINE
  8
_2-0_
  6
CONTINUOUS
 62
    7
 10
108.30164063699442
 20
220.00840659804328
 11
108.30164063699442
 21
221.20840659804327
  0
ARC
  8
_2-0_
  6
CONTINUOUS
 62
    7
 10
103.30164063699442
 20
220.00840659804328
 40
1
 50
180
 51
270
  0
LINE
  8
_2-0_
  6
CONTINUOUS
 62
    7
 10
102.30164063699442
 20
220.00840659804328
 11
102.30164063699442
 21
221.20840659804327
  0
LINE
  8
_2-0_
  6
__18
 62
    7
 10
109.30164063699442
 20
221.20840659804327
 11
109.30164063699442
 21
222.20840659804327
  0
ARC
  8
_2-0_
  6
CONTINUOUS
 62
    7
 10
109.30164063699442
 20
221.20840659804327
 40
1
 50
0
 51
90
  0
ARC
  8
_2-0_
  6
CONTINUOUS
 62
    7
 10
109.30164063699442
 20
221.20840659804327
 40
1
 50
90
 51
180
  0
LINE
  8
_2-0_
  6
__18
 62
    7
 10
101.30164063699442
 20
221.20840659804327
 11
101.30164063699442
 21
222.20840659804327
  0
ARC
  8
_2-0_
  6
CONTINUOUS
 62
    7
 10
101.30164063699442
 20
221.20840659804327
 40
1
 50
0
 51
90
  0
ARC
  8
_2-0_
  6
CONTINUOUS
 62
    7
 10
101.30164063699442
 20
221.20840659804327
 40
1
 50
90
 51
180
  0
LINE
  8
_2-0_
  6
CONTINUOUS
 62
    7
 10
122.30164063699442
 20
216.90840659804326
 11
128.30164063699442
 21
216.90840659804326
  0
ARC
  8
_2-0_
  6
CONTINUOUS
 62
    7
 10
122.30164063699442
 20
218.90840659804326
 40
2
 50
180
 51
270
  0
LINE
  8
_2-0_
  6
CONTINUOUS
 62
    7
 10
120.30164063699442
 20
218.90840659804326
 11
120.30164063699442
 21
221.20840659804327
  0
LINE
  8
_2-0_
  6
CONTINUOUS
 62
    7
 10
130.30164063699442
 20
218.90840659804326
 11
130.30164063699442
 21
221.20840659804327
  0
ARC
  8
_2-0_
  6
CONTINUOUS
 62
    7
 10
128.30164063699442
 20
218.90840659804326
 40
2
 50
270
 51
0
  0
LINE
  8
_2-0_
  6
CONTINUOUS
 62
    7
 10
123.30164063699442
 20
219.00840659804328
 11
127.30164063699442
 21
219.00840659804328
  0
ARC
  8
_2-0_
  6
CONTINUOUS
 62
    7
 10
123.30164063699442
 20
220.00840659804328
 40
1
 50
180
 51
270
  0
LINE
  8
_2-0_
  6
CONTINUOUS
 62
    7
 10
122.30164063699442
 20
220.00840659804328
 11
122.30164063699442
 21
221.20840659804327
  0
ARC
  8
_2-0_
  6
CONTINUOUS
 62
    7
 10
127.30164063699442
 20
220.00840659804328
 40
1
 50
270
 51
0
  0
LINE
  8
_2-0_
  6
CONTINUOUS
 62
    7
 10
128.30164063699442
 20
220.00840659804328
 11
128.30164063699442
 21
221.20840659804327
  0
LINE
  8
_2-0_
  6
__18
 62
    7
 10
121.30164063699442
 20
221.20840659804327
 11
121.30164063699442
 21
222.20840659804327
  0
ARC
  8
_2-0_
  6
CONTINUOUS
 62
    7
 10
121.30164063699442
 20
221.20840659804327
 40
1
 50
90
 51
180
  0
ARC
  8
_2-0_
  6
CONTINUOUS
 62
    7
 10
121.30164063699442
 20
221.20840659804327
 40
1
 50
0
 51
90
  0
LINE
  8
_2-0_
  6
__18
 62
    7
 10
129.30164063699442
 20
221.20840659804327
 11
129.30164063699442
 21
222.20840659804327
  0
ARC
  8
_2-0_
  6
CONTINUOUS
 62
    7
 10
129.30164063699442
 20
221.20840659804327
 40
1
 50
90
 51
180
  0
ARC
  8
_2-0_
  6
CONTINUOUS
 62
    7
 10
129.30164063699442
 20
221.20840659804327
 40
1
 50
0
 51
90
  0
ARC
  8
_2-0_
  6
CONTINUOUS
 62
    7
 10
98.301640636994421
 20
226.6084065980433
 40
3
 50
90
 51
180
  0
ARC
  8
_2-0_
  6
CONTINUOUS
 62
    7
 10
132.30164063699442
 20
226.6084065980433
 40
3
 50
0
 51
90
  0
LINE
  8
_2-0_
  6
CONTINUOUS
 62
    7
 10
98.301640636994421
 20
229.6084065980433
 11
132.30164063699442
 21
229.6084065980433
  0
LINE
  8
_2-0_
  6
CENTER1
 62
    2
 10
115.30164063699442
 20
206.28857563700109
 11
115.30164063699442
 21
234.67402691624198
  0
LINE
  8
_2-0_
  6
CONTINUOUS
 62
    4
 10
83.19613380380224
 20
287.06409845009938
 11
83.19613380380224
 21
258.46410245009935
  0
TEXT
  8
_2-0_
 62
    7
 10
81.677624457502588
 20
264.63843475059377
 40
8
 41
1
 50
90
  1
14.3
  0
LINE
  8
_2-0_
  6
CONTINUOUS
 62
    4
 10
83.147997010753556
 20
287.07214279512596
 11
84.70091128136869
 21
281.27658783739162
  0
LINE
  8
_2-0_
  6
CONTINUOUS
 62
    4
 10
83.147997010753556
 20
287.07214279512596
 11
81.595082740138423
 21
281.27658783739162
  0
LINE
  8
_2-0_
  6
CONTINUOUS
 62
    4
 10
83.206360797785578
 20
258.41043426205118
 11
81.653446527170445
 21
264.20598921978552
  0
LINE
  8
_2-0_
  6
CONTINUOUS
 62
    4
 10
83.206360797785578
 20
258.41043426205118
 11
84.759275068400711
 21
264.20598921978552
  0
LINE
  8
_2-0_
  6
CONTINUOUS
 62
    4
 10
79.19613380380224
 20
287.06409845009938
 11
90.206772410804717
 21
287.06409845009938
  0
LINE
  8
_2-0_
  6
CONTINUOUS
 62
    4
 10
79.19613380380224
 20
258.46410245009935
 11
90.375867553615251
 21
258.46410245009935
  0
TEXT
  8
_2-0_
 62
    7
 10
74.027128572604283
 20
306.44631354677142
 40
8
 41
1
 50
0
  1
φ4.5 金具固定ネジ用穴
  0
TEXT
  8
_2-0_
 62
    7
 10
74.476477785834675
 20
322.35849056603774
 40
8
 41
1
 50
0
  1
付属品：固定金具
  0
ARC
  8
_2-0_
  6
CONTINUOUS
 62
    7
 10
224.44842055249586
 20
249.8555725484708
 40
0.45
 50
90
 51
270
  0
LINE
  8
_2-0_
  6
CONTINUOUS
 62
    7
 10
224.44842055249586
 20
250.30557254847082
 11
239.54842055249588
 21
250.30557254847082
  0
ARC
  8
_2-0_
  6
CONTINUOUS
 62
    7
 10
239.54842055249588
 20
249.8555725484708
 40
0.45
 50
270
 51
90
  0
ARC
  8
_2-0_
  6
CONTINUOUS
 62
    7
 10
231.99842055249582
 20
224.94534554847081
 40
26.460227
 50
73.421191000000007
 51
106.57880900000001
  0
LINE
  8
_2-0_
  6
CONTINUOUS
 62
    7
 10
235.99842055249582
 20
248.80557254847082
 11
235.99842055249582
 21
232.65372454847082
  0
LINE
  8
_2-0_
  6
CONTINUOUS
 62
    7
 10
227.99842055249582
 20
248.80557254847082
 11
227.99842055249582
 21
232.65372454847082
  0
LINE
  8
_2-0_
  6
CONTINUOUS
 62
    7
 10
231.99842055249582
 20
229.2055725484708
 11
227.99842055249582
 21
232.65372454847082
  0
LINE
  8
_2-0_
  6
CONTINUOUS
 62
    7
 10
231.99842055249582
 20
229.2055725484708
 11
235.99842055249582
 21
232.65372454847082
  0
LINE
  8
_2-0_
  6
CONTINUOUS
 62
    7
 10
244.62268055249586
 20
256.79260054847077
 11
245.69841655249587
 21
257.86833654847084
  0
LINE
  8
_2-0_
  6
CONTINUOUS
 62
    7
 10
244.19841655249587
 20
257.21686454847082
 11
245.69841655249587
 21
258.71686454847082
  0
LINE
  8
_2-0_
  6
CONTINUOUS
 62
    7
 10
219.37415655249589
 20
256.79260054847077
 11
218.29842055249588
 21
257.86833654847084
  0
LINE
  8
_2-0_
  6
CONTINUOUS
 62
    7
 10
219.79842055249588
 20
257.21686454847082
 11
218.29842055249588
 21
258.71686454847082
  0
ARC
  8
_2-0_
  6
CONTINUOUS
 62
    7
 10
245.29841655249589
 20
249.80557254847082
 40
0.4
 50
270
 51
0
  0
LINE
  8
_2-0_
  6
CONTINUOUS
 62
    7
 10
245.69841655249587
 20
249.80557254847082
 11
245.69841655249587
 21
261.39766954847079
  0
LINE
  8
_2-0_
  6
CONTINUOUS
 62
    7
 10
245.29841655249589
 20
249.40557254847079
 11
218.69842055249586
 21
249.40557254847079
  0
ARC
  8
_2-0_
  6
CONTINUOUS
 62
    7
 10
218.69842055249586
 20
249.80557254847082
 40
0.4
 50
180
 51
270
  0
LINE
  8
_2-0_
  6
CONTINUOUS
 62
    7
 10
218.29842055249588
 20
249.80557254847082
 11
218.29842055249588
 21
266.84118054847079
  0
ARC
  8
_2-0_
  6
CONTINUOUS
 62
    7
 10
245.29841655249589
 20
249.80557254847082
 40
1
 50
270
 51
0
  0
LINE
  8
_2-0_
  6
CONTINUOUS
 62
    7
 10
246.29841655249589
 20
249.80557254847082
 11
246.29841655249589
 21
261.39766954847079
  0
LINE
  8
_2-0_
  6
CONTINUOUS
 62
    7
 10
218.69842055249586
 20
248.80557254847082
 11
245.29841655249589
 21
248.80557254847082
  0
ARC
  8
_2-0_
  6
CONTINUOUS
 62
    7
 10
218.69842055249586
 20
249.80557254847082
 40
1
 50
180
 51
270
  0
LINE
  8
_2-0_
  6
CONTINUOUS
 62
    7
 10
217.69842055249586
 20
249.80557254847082
 11
217.69842055249586
 21
266.84118054847079
  0
LINE
  8
_2-0_
  6
CONTINUOUS
 62
    7
 10
245.69841655249587
 20
261.39766954847079
 11
246.29841655249589
 21
261.39766954847079
  0
LINE
  8
_2-0_
  6
CONTINUOUS
 62
    7
 10
218.29842055249588
 20
266.84118054847079
 11
217.69842055249586
 21
266.84118054847079
  0
LINE
  8
_2-0_
  6
CONTINUOUS
 62
    7
 10
244.19841655249587
 20
257.21686454847082
 11
244.62268055249586
 21
256.79260054847077
  0
LINE
  8
_2-0_
  6
CONTINUOUS
 62
    7
 10
219.79842055249588
 20
257.21686454847082
 11
219.37415655249589
 21
256.79260054847077
  0
LINE
  8
_2-0_
  6
CONTINUOUS
 62
    7
 10
239.34842055249595
 20
257.05276354847081
 11
239.34842055249595
 21
257.05180254847079
  0
LINE
  8
_2-0_
  6
CONTINUOUS
 62
    4
 10
217.69842055249586
 20
272.53156354847084
 11
246.29841655249589
 21
272.53156354847084
  0
LINE
  8
_2-0_
  6
CONTINUOUS
 62
    4
 10
206.35687155249587
 20
248.80557254847082
 11
206.35687155249587
 21
266.84118054847079
  0
LINE
  8
_2-0_
  6
CONTINUOUS
 62
    4
 10
217.69842055249586
 20
274.53156354847084
 11
217.69842055249586
 21
268.84118054847079
  0
LINE
  8
_2-0_
  6
CONTINUOUS
 62
    4
 10
246.29841655249589
 20
274.53156354847084
 11
246.29841655249589
 21
263.39766954847079
  0
LINE
  8
_2-0_
  6
CONTINUOUS
 62
    4
 10
246.41968451602185
 20
272.47894223056863
 11
240.62412955828751
 21
274.03185650118377
  0
LINE
  8
_2-0_
  6
CONTINUOUS
 62
    4
 10
246.41968451602185
 20
272.47894223056863
 11
240.62412955828751
 21
270.92602795995356
  0
LINE
  8
_2-0_
  6
CONTINUOUS
 62
    4
 10
217.71374568762781
 20
272.54558776886449
 11
223.50930064536215
 21
274.09850203947963
  0
LINE
  8
_2-0_
  6
CONTINUOUS
 62
    4
 10
217.71374568762781
 20
272.54558776886449
 11
223.50930064536215
 21
270.99267349824942
  0
LINE
  8
_2-0_
  6
CONTINUOUS
 62
    4
 10
206.28473835884563
 20
266.99526287262188
 11
207.83765262946076
 21
261.19970791488754
  0
LINE
  8
_2-0_
  6
CONTINUOUS
 62
    4
 10
206.24723238194497
 20
248.50393473405401
 11
207.8001466525601
 21
254.29948969178835
  0
LINE
  8
_2-0_
  6
CONTINUOUS
 62
    4
 10
261.37609738778326
 20
248.80557254847082
 11
247.29841655249589
 21
248.80557254847082
  0
LINE
  8
_2-0_
  6
CONTINUOUS
 62
    4
 10
261.24467625575392
 20
261.39766954847079
 11
247.46662619501205
 21
261.39766954847079
  0
LINE
  8
_2-0_
  6
CONTINUOUS
 62
    4
 10
259.24467625575392
 20
239.86537403174054
 11
259.24467625575392
 21
279.89271591445203
  0
LINE
  8
_2-0_
  6
CONTINUOUS
 62
    4
 10
259.30842969731782
 20
248.90650128741498
 11
260.86134396793295
 21
243.11094632968064
  0
LINE
  8
_2-0_
  6
CONTINUOUS
 62
    4
 10
259.30842969731782
 20
248.90650128741498
 11
257.7555154267028
 21
243.11094632968064
  0
LINE
  8
_2-0_
  6
CONTINUOUS
 62
    4
 10
259.27092372041727
 20
261.07734662034346
 11
257.71800944980214
 21
266.8729015780778
  0
LINE
  8
_2-0_
  6
CONTINUOUS
 62
    4
 10
259.27092372041727
 20
261.07734662034346
 11
260.82383799103229
 21
266.8729015780778
  0
LINE
  8
_2-0_
  6
CONTINUOUS
 62
    7
 10
231.32243711914577
 20
284.80889850432305
 11
232.87535138976085
 21
290.60445346205739
  0
LINE
  8
_2-0_
  6
CONTINUOUS
 62
    7
 10
231.32243711914577
 20
284.80889850432305
 11
229.76952284853064
 21
290.60445346205739
  0
TEXT
  8
_2-0_
 62
    7
 10
223.83404594278164
 20
274.5665360822415
 40
8
 41
1
 50
0
  1
14.3
  0
TEXT
  8
_2-0_
 62
    7
 10
256.25354827293381
 20
250.91490692635293
 40
6
 41
1
 50
90
  1
6.3
  0
LINE
  8
_2-0_
  6
CONTINUOUS
 62
    7
 10
231.33646133953948
 20
284.79357336919111
 11
231.33646133953948
 21
297.03002816609921
  0
LINE
  8
_2-0_
  6
CONTINUOUS
 62
    7
 10
218.79842055249588
 20
313.05257441132409
 11
218.79842055249588
 21
313.30110241132405
  0
LINE
  8
_2-0_
  6
CONTINUOUS
 62
    7
 10
217.47415555249592
 20
314.62536641132408
 11
217.29842055249588
 21
314.80110241132405
  0
LINE
  8
_2-0_
  6
CONTINUOUS
 62
    7
 10
218.6584205524959
 20
320.09836841132409
 11
218.6584205524959
 21
320.22066041132405
  0
LINE
  8
_2-0_
  6
CONTINUOUS
 62
    7
 10
218.6584205524959
 20
320.09836841132409
 11
218.72680455249582
 21
319.99698441132409
  0
LINE
  8
_2-0_
  6
CONTINUOUS
 62
    7
 10
218.79842055249588
 20
313.30110241132405
 11
218.62268455249585
 21
313.47683841132408
  0
LINE
  8
_2-0_
  6
CONTINUOUS
 62
    7
 10
217.29842055249588
 20
314.80110241132405
 11
217.29842055249588
 21
315.04963041132407
  0
LINE
  8
_2-0_
  6
CONTINUOUS
 62
    7
 10
221.09842055249595
 20
310.84783941132406
 11
220.79842055249588
 21
311.02104441132406
  0
LINE
  8
_2-0_
  6
CONTINUOUS
 62
    7
 10
220.79842055249588
 20
311.02104441132406
 11
220.79842055249588
 21
311.36745441132405
  0
ARC
  8
_2-0_
  6
CONTINUOUS
 62
    7
 10
244.79842055249588
 20
302.01386441132405
 40
0.4
 50
0
 51
29.999999999999996
  0
LINE
  8
_2-0_
  6
CONTINUOUS
 62
    7
 10
225.59842055249595
 20
298.32104441132407
 11
226.99842055249582
 21
298.32104441132407
  0
LINE
  8
_2-0_
  6
CONTINUOUS
 62
    7
 10
219.39842055249591
 20
298.32104441132407
 11
221.19842055249586
 21
298.32104441132407
  0
LINE
  8
_2-0_
  6
CONTINUOUS
 62
    7
 10
225.04842055249588
 20
303.12104441132408
 11
225.19842055249586
 21
303.12104441132408
  0
ARC
  8
_2-0_
  6
CONTINUOUS
 62
    7
 10
225.59842055249595
 20
298.7210444113241
 40
0.4
 50
116.268489
 51
270
  0
LINE
  8
_2-0_
  6
CONTINUOUS
 62
    7
 10
225.99842055249582
 20
301.52104441132406
 11
225.75120855249583
 21
299.54335341132406
  0
ARC
  8
_2-0_
  6
CONTINUOUS
 62
    7
 10
225.15584155249593
 20
299.61777441132409
 40
0.5999999999999999
 50
296.26848899999999
 51
352.87498399999998
  0
LINE
  8
_2-0_
  6
CONTINUOUS
 62
    7
 10
225.19842055249586
 20
303.12104441132408
 11
225.99842055249582
 21
301.52104441132406
  0
LINE
  8
_2-0_
  6
CONTINUOUS
 62
    7
 10
221.74842055249582
 20
303.12104441132408
 11
221.59842055249595
 21
303.12104441132408
  0
ARC
  8
_2-0_
  6
CONTINUOUS
 62
    7
 10
221.19842055249586
 20
298.7210444113241
 40
0.4
 50
270
 51
63.731510999999998
  0
LINE
  8
_2-0_
  6
CONTINUOUS
 62
    7
 10
220.79842055249588
 20
301.52104441132406
 11
221.04563155249588
 21
299.54335341132406
  0
ARC
  8
_2-0_
  6
CONTINUOUS
 62
    7
 10
221.64099855249589
 20
299.61777441132409
 40
0.5999999999999999
 50
187.12501599999999
 51
243.73151100000001
  0
LINE
  8
_2-0_
  6
CONTINUOUS
 62
    7
 10
221.59842055249595
 20
303.12104441132408
 11
220.79842055249588
 21
301.52104441132406
  0
ARC
  8
_2-0_
  6
CONTINUOUS
 62
    7
 10
223.39842055249591
 20
304.82104441132407
 40
1.7
 50
321.786789
 51
218.21321099999997
  0
LINE
  8
_2-0_
  6
CONTINUOUS
 62
    7
 10
224.64842055249591
 20
303.52200641132407
 11
224.64842055249591
 21
303.52104441132406
  0
LINE
  8
_2-0_
  6
CONTINUOUS
 62
    7
 10
222.14842055249591
 20
303.52200641132407
 11
222.14842055249591
 21
303.52104441132406
  0
ARC
  8
_2-0_
  6
CONTINUOUS
 62
    7
 10
225.04842055249588
 20
303.52200641132407
 40
0.4
 50
141.786789
 51
180
  0
ARC
  8
_2-0_
  6
CONTINUOUS
 62
    7
 10
225.04842055249588
 20
303.52104441132406
 40
0.4
 50
180
 51
270
  0
ARC
  8
_2-0_
  6
CONTINUOUS
 62
    7
 10
221.74842055249582
 20
303.52104441132406
 40
0.4
 50
270
 51
0
  0
ARC
  8
_2-0_
  6
CONTINUOUS
 62
    7
 10
221.74842055249582
 20
303.52200641132407
 40
0.4
 50
0
 51
38.213211000000001
  0
LINE
  8
_2-0_
  6
CONTINUOUS
 62
    7
 10
238.94842055249586
 20
303.12104441132408
 11
238.79842055249588
 21
303.12104441132408
  0
ARC
  8
_2-0_
  6
CONTINUOUS
 62
    7
 10
238.39842055249591
 20
298.7210444113241
 40
0.4
 50
270
 51
63.731510999999998
  0
LINE
  8
_2-0_
  6
CONTINUOUS
 62
    7
 10
237.99842055249582
 20
301.52104441132406
 11
238.24563155249592
 21
299.54335341132406
  0
ARC
  8
_2-0_
  6
CONTINUOUS
 62
    7
 10
238.84099855249582
 20
299.61777441132409
 40
0.5999999999999999
 50
187.12501599999999
 51
243.73151100000001
  0
LINE
  8
_2-0_
  6
CONTINUOUS
 62
    7
 10
238.79842055249588
 20
303.12104441132408
 11
237.99842055249582
 21
301.52104441132406
  0
LINE
  8
_2-0_
  6
CONTINUOUS
 62
    7
 10
242.24842055249582
 20
303.12104441132408
 11
242.39842055249591
 21
303.12104441132408
  0
ARC
  8
_2-0_
  6
CONTINUOUS
 62
    7
 10
242.79842055249588
 20
298.7210444113241
 40
0.4
 50
116.268489
 51
270
  0
LINE
  8
_2-0_
  6
CONTINUOUS
 62
    7
 10
243.19842055249586
 20
301.52104441132406
 11
242.95120855249587
 21
299.54335341132406
  0
ARC
  8
_2-0_
  6
CONTINUOUS
 62
    7
 10
242.35584155249597
 20
299.61777441132409
 40
0.5999999999999999
 50
296.26848899999999
 51
352.87498399999998
  0
LINE
  8
_2-0_
  6
CONTINUOUS
 62
    7
 10
242.39842055249591
 20
303.12104441132408
 11
243.19842055249586
 21
301.52104441132406
  0
ARC
  8
_2-0_
  6
CONTINUOUS
 62
    7
 10
240.59842055249595
 20
304.82104441132407
 40
1.7
 50
321.786789
 51
218.21321099999997
  0
LINE
  8
_2-0_
  6
CONTINUOUS
 62
    7
 10
241.84842055249595
 20
303.52200641132407
 11
241.84842055249595
 21
303.52104441132406
  0
ARC
  8
_2-0_
  6
CONTINUOUS
 62
    7
 10
238.94842055249586
 20
303.52200641132407
 40
0.4
 50
0
 51
38.213211000000001
  0
ARC
  8
_2-0_
  6
CONTINUOUS
 62
    7
 10
238.94842055249586
 20
303.52104441132406
 40
0.4
 50
270
 51
0
  0
ARC
  8
_2-0_
  6
CONTINUOUS
 62
    7
 10
242.24842055249582
 20
303.52104441132406
 40
0.4
 50
180
 51
270
  0
ARC
  8
_2-0_
  6
CONTINUOUS
 62
    7
 10
242.24842055249582
 20
303.52200641132407
 40
0.4
 50
141.786789
 51
180
  0
LINE
  8
_2-0_
  6
CONTINUOUS
 62
    7
 10
218.79842055249588
 20
298.92104441132409
 11
218.79842055249588
 21
302.01386441132405
  0
ARC
  8
_2-0_
  6
CONTINUOUS
 62
    7
 10
219.39842055249591
 20
298.92104441132409
 40
0.5999999999999999
 50
180
 51
270
  0
LINE
  8
_2-0_
  6
CONTINUOUS
 62
    7
 10
219.59842055249595
 20
304.10976441132408
 11
219.59842055249595
 21
303.5066844113241
  0
ARC
  8
_2-0_
  6
CONTINUOUS
 62
    7
 10
219.19842055249586
 20
304.96960041132405
 40
0.4
 50
180
 51
230.47736900000001
  0
LINE
  8
_2-0_
  6
CONTINUOUS
 62
    7
 10
219.59842055249595
 20
304.10976441132408
 11
218.94285655249581
 21
304.65984741132405
  0
LINE
  8
_2-0_
  6
CONTINUOUS
 62
    7
 10
219.59842055249595
 20
303.5066844113241
 11
218.85200955249587
 21
302.2138644113241
  0
ARC
  8
_2-0_
  6
CONTINUOUS
 62
    7
 10
219.19842055249586
 20
302.01386441132405
 40
0.4
 50
150
 51
180
  0
LINE
  8
_2-0_
  6
CONTINUOUS
 62
    7
 10
218.79842055249588
 20
304.96960041132405
 11
218.79842055249588
 21
313.05257441132409
  0
LINE
  8
_2-0_
  6
CONTINUOUS
 62
    7
 10
235.99842055249582
 20
299.32104441132407
 11
235.99842055249582
 21
300.32104441132407
  0
LINE
  8
_2-0_
  6
CONTINUOUS
 62
    7
 10
227.99842055249582
 20
299.32104441132407
 11
227.99842055249582
 21
300.32104441132407
  0
ARC
  8
_2-0_
  6
CONTINUOUS
 62
    7
 10
226.99842055249582
 20
299.32104441132407
 40
1
 50
270
 51
0
  0
ARC
  8
_2-0_
  6
CONTINUOUS
 62
    7
 10
236.99842055249582
 20
299.32104441132407
 40
1
 50
180
 51
270
  0
LINE
  8
_2-0_
  6
CONTINUOUS
 62
    7
 10
228.59842055249595
 20
300.92104441132409
 11
235.39842055249591
 21
300.92104441132409
  0
ARC
  8
_2-0_
  6
CONTINUOUS
 62
    7
 10
228.59842055249595
 20
300.32104441132407
 40
0.5999999999999999
 50
90
 51
180
  0
ARC
  8
_2-0_
  6
CONTINUOUS
 62
    7
 10
235.39842055249591
 20
300.32104441132407
 40
0.5999999999999999
 50
0
 51
90
  0
LINE
  8
_2-0_
  6
CONTINUOUS
 62
    7
 10
220.79842055249588
 20
311.36745441132405
 11
220.79842055249588
 21
313.88100141132406
  0
LINE
  8
_2-0_
  6
CONTINUOUS
 62
    7
 10
219.29842055249588
 20
315.87805841132405
 11
219.29842055249588
 21
319.14952941132407
  0
ARC
  8
_2-0_
  6
CONTINUOUS
 62
    7
 10
219.89842055249591
 20
315.87805841132405
 40
0.5999999999999999
 50
180
 51
225
  0
ARC
  8
_2-0_
  6
CONTINUOUS
 62
    7
 10
220.19842055249586
 20
313.88100141132406
 40
0.5999999999999999
 50
0
 51
45
  0
LINE
  8
_2-0_
  6
CONTINUOUS
 62
    7
 10
220.62268455249585
 20
314.30526541132406
 11
219.47415555249592
 21
315.45379341132406
  0
ARC
  8
_2-0_
  6
CONTINUOUS
 62
    7
 10
217.89842055249591
 20
315.04963041132407
 40
0.5999999999999999
 50
180
 51
225
  0
ARC
  8
_2-0_
  6
CONTINUOUS
 62
    7
 10
218.19842055249586
 20
313.05257441132409
 40
0.5999999999999999
 50
0
 51
45
  0
LINE
  8
_2-0_
  6
CONTINUOUS
 62
    7
 10
217.69842055249586
 20
321.7210444113241
 11
219.29842055249588
 21
321.7210444113241
  0
LINE
  8
_2-0_
  6
CONTINUOUS
 62
    7
 10
219.69842055249586
 20
321.12104441132408
 11
219.69842055249586
 21
321.32104441132407
  0
LINE
  8
_2-0_
  6
CONTINUOUS
 62
    7
 10
219.05842055249587
 20
320.7210444113241
 11
219.29842055249588
 21
320.7210444113241
  0
ARC
  8
_2-0_
  6
CONTINUOUS
 62
    7
 10
219.29842055249588
 20
321.32104441132407
 40
0.4
 50
0
 51
90
  0
ARC
  8
_2-0_
  6
CONTINUOUS
 62
    7
 10
219.29842055249588
 20
321.12104441132408
 40
0.4
 50
270
 51
0
  0
ARC
  8
_2-0_
  6
CONTINUOUS
 62
    7
 10
217.69842055249586
 20
321.32104441132407
 40
0.4
 50
90
 51
180
  0
ARC
  8
_2-0_
  6
CONTINUOUS
 62
    7
 10
219.05842055249587
 20
320.32104441132407
 40
0.4
 50
90
 51
180
  0
ARC
  8
_2-0_
  6
CONTINUOUS
 62
    7
 10
219.05842055249587
 20
320.22066041132405
 40
0.4
 50
180
 51
214
  0
LINE
  8
_2-0_
  6
CONTINUOUS
 62
    7
 10
218.72680455249582
 20
319.99698441132409
 11
219.29842055249588
 21
319.14952941132407
  0
LINE
  8
_2-0_
  6
CONTINUOUS
 62
    7
 10
218.6584205524959
 20
320.22066041132405
 11
218.6584205524959
 21
320.32104441132407
  0
LINE
  8
_2-0_
  6
CONTINUOUS
 62
    7
 10
217.29842055249588
 20
315.04963041132407
 11
217.29842055249588
 21
321.32104441132407
  0
LINE
  8
_2-0_
  6
CONTINUOUS
 62
    7
 10
218.62268455249585
 20
313.47683841132408
 11
217.47415555249592
 21
314.62536641132408
  0
LINE
  8
_2-0_
  6
CONTINUOUS
 62
    7
 10
236.99842055249582
 20
298.32104441132407
 11
238.39842055249591
 21
298.32104441132407
  0
LINE
  8
_2-0_
  6
CONTINUOUS
 62
    7
 10
245.19842055249586
 20
298.92104441132409
 11
245.19842055249586
 21
302.01386441132405
  0
ARC
  8
_2-0_
  6
CONTINUOUS
 62
    7
 10
244.59842055249595
 20
298.92104441132409
 40
0.5999999999999999
 50
270
 51
0
  0
LINE
  8
_2-0_
  6
CONTINUOUS
 62
    7
 10
244.39842055249591
 20
304.10976441132408
 11
244.39842055249591
 21
303.5066844113241
  0
ARC
  8
_2-0_
  6
CONTINUOUS
 62
    7
 10
244.79842055249588
 20
304.96960041132405
 40
0.4
 50
309.52263099999999
 51
0
  0
LINE
  8
_2-0_
  6
CONTINUOUS
 62
    7
 10
244.39842055249591
 20
304.10976441132408
 11
245.05398255249582
 21
304.65984741132405
  0
LINE
  8
_2-0_
  6
CONTINUOUS
 62
    7
 10
244.39842055249591
 20
303.5066844113241
 11
245.14483055249588
 21
302.2138644113241
  0
LINE
  8
_2-0_
  6
CONTINUOUS
 62
    7
 10
242.79842055249588
 20
298.32104441132407
 11
244.59842055249595
 21
298.32104441132407
  0
LINE
  8
_2-0_
  6
CONTINUOUS
 62
    7
 10
245.04694855249585
 20
310.76104441132406
 11
246.09842055249595
 21
310.76104441132406
  0
LINE
  8
_2-0_
  6
CONTINUOUS
 62
    7
 10
245.19842055249586
 20
308.32104441132407
 11
246.69842055249586
 21
309.82104441132407
  0
LINE
  8
_2-0_
  6
CONTINUOUS
 62
    7
 10
246.69842055249586
 20
309.82104441132407
 11
246.69842055249586
 21
310.16104441132404
  0
ARC
  8
_2-0_
  6
CONTINUOUS
 62
    7
 10
246.09842055249595
 20
310.16104441132404
 40
0.5999999999999999
 50
0
 51
90
  0
LINE
  8
_2-0_
  6
CONTINUOUS
 62
    7
 10
244.62268455249585
 20
310.93678041132409
 11
243.44126255249586
 21
312.11820141132409
  0
ARC
  8
_2-0_
  6
CONTINUOUS
 62
    7
 10
245.04694855249585
 20
311.36104441132409
 40
0.5999999999999999
 50
225
 51
270
  0
LINE
  8
_2-0_
  6
CONTINUOUS
 62
    7
 10
243.0122565524959
 20
311.13299441132403
 11
242.73415555249579
 21
311.41109441132409
  0
LINE
  8
_2-0_
  6
CONTINUOUS
 62
    7
 10
242.73415555249579
 20
311.97678041132406
 11
242.87557755249594
 21
312.11820141132409
  0
ARC
  8
_2-0_
  6
CONTINUOUS
 62
    7
 10
243.1584205524959
 20
311.83535841132408
 40
0.4
 50
45
 51
135
  0
ARC
  8
_2-0_
  6
CONTINUOUS
 62
    7
 10
243.01699855249586
 20
311.6939374113241
 40
0.4
 50
135
 51
225
  0
ARC
  8
_2-0_
  6
CONTINUOUS
 62
    7
 10
234.85090355249594
 20
303.6006594113241
 40
0.5999999999999999
 50
240
 51
330
  0
LINE
  8
_2-0_
  6
CONTINUOUS
 62
    7
 10
234.55090355249587
 20
303.08104441132406
 11
221.09842055249595
 21
310.84783941132406
  0
LINE
  8
_2-0_
  6
CONTINUOUS
 62
    7
 10
235.37051855249587
 20
303.30065941132409
 11
237.71777755249587
 21
307.36623041132407
  0
ARC
  8
_2-0_
  6
CONTINUOUS
 62
    7
 10
242.91392955249586
 20
304.36623041132407
 40
6
 50
101
 51
149.99999999999997
  0
ARC
  8
_2-0_
  6
CONTINUOUS
 62
    7
 10
242.72941355249594
 20
310.85015141132408
 40
0.4
 50
281
 51
45
  0
LINE
  8
_2-0_
  6
CONTINUOUS
 62
    7
 10
245.19842055249586
 20
304.96960041132405
 11
245.19842055249586
 21
308.32104441132407
  0
ARC
  8
_2-0_
  6
CONTINUOUS
 62
    7
 10
221.39842055249591
 20
311.36745441132405
 40
0.5999999999999999
 50
180
 51
239.99999999999997
  0
LINE
  8
_2-0_
  6
CONTINUOUS
 62
    7
 10
241.76907555249585
 20
310.25599441132408
 11
242.80573755249583
 21
310.45750041132408
  0
ARC
  8
_2-0_
  6
CONTINUOUS
 62
    7
 10
243.01874855249588
 20
311.97994341132409
 40
0.4
 50
45
 51
135
  0
ARC
  8
_2-0_
  6
CONTINUOUS
 62
    7
 10
228.09586055249582
 20
306.81633041132409
 40
13.4
 50
17.469797
 51
104.99999800000001
  0
ARC
  8
_2-0_
  6
CONTINUOUS
 62
    7
 10
241.4501155524959
 20
311.01917241132406
 40
0.5999999999999999
 50
197.469797
 51
281
  0
LINE
  8
_2-0_
  6
CONTINUOUS
 62
    7
 10
217.29842055249588
 20
322.69261341132409
 11
217.29842055249588
 21
322.12104441132408
  0
LINE
  8
_2-0_
  6
CONTINUOUS
 62
    7
 10
217.76084755249593
 20
323.27662941132405
 11
223.33359055249588
 21
324.58936541132408
  0
ARC
  8
_2-0_
  6
CONTINUOUS
 62
    7
 10
217.89842055249591
 20
322.69261341132409
 40
0.5999999999999999
 50
103.25515900000001
 51
180
  0
ARC
  8
_2-0_
  6
CONTINUOUS
 62
    7
 10
228.09586055249582
 20
306.81633041132409
 40
18.399999999999999
 50
33.158850999999999
 51
105
  0
LINE
  8
_2-0_
  6
CONTINUOUS
 62
    7
 10
217.69842055249586
 20
321.7210444113241
 11
219.29842355249588
 21
321.7210444113241
  0
ARC
  8
_2-0_
  6
CONTINUOUS
 62
    7
 10
219.49840755249596
 20
321.32104441132407
 40
0.4
 50
0
 51
90
  0
LINE
  8
_2-0_
  6
CONTINUOUS
 62
    7
 10
219.89840755249583
 20
321.32104441132407
 11
219.89840755249583
 21
320.92104441132409
  0
ARC
  8
_2-0_
  6
CONTINUOUS
 62
    7
 10
219.49840755249596
 20
320.92104441132409
 40
0.4
 50
270
 51
0
  0
LINE
  8
_2-0_
  6
CONTINUOUS
 62
    7
 10
219.49840755249596
 20
320.52104441132406
 11
219.05029455249581
 21
320.52104441132406
  0
ARC
  8
_2-0_
  6
CONTINUOUS
 62
    7
 10
219.05029455249581
 20
320.32104441132407
 40
0.2
 50
90
 51
180
  0
LINE
  8
_2-0_
  6
CONTINUOUS
 62
    7
 10
218.85029455249588
 20
320.32104441132407
 11
218.85029455249588
 21
320.18219041132409
  0
LINE
  8
_2-0_
  6
CONTINUOUS
 62
    7
 10
217.69842055249586
 20
321.7210444113241
 11
219.49840755249596
 21
321.7210444113241
  0
ARC
  8
_2-0_
  6
CONTINUOUS
 62
    7
 10
217.69842055249586
 20
322.12104441132408
 40
0.4
 50
180
 51
270
  0
LINE
  8
_2-0_
  6
CONTINUOUS
 62
    7
 10
246.52487855249586
 20
311.65843041132405
 11
243.49955555249579
 21
316.88043341132408
  0
LINE
  8
_2-0_
  6
CONTINUOUS
 62
    7
 10
244.51382955249591
 20
311.05054841132409
 11
243.30159155249584
 21
312.2627864113241
  0
ARC
  8
_2-0_
  6
CONTINUOUS
 62
    7
 10
245.22093655249586
 20
311.75765541132409
 40
1
 50
225
 51
270
  0
LINE
  8
_2-0_
  6
CONTINUOUS
 62
    7
 10
246.00571155249594
 20
310.75765541132409
 11
245.22093655249586
 21
310.75765541132409
  0
ARC
  8
_2-0_
  6
CONTINUOUS
 62
    7
 10
246.00571155249594
 20
311.35765541132406
 40
0.5999999999999999
 50
270
 51
30.085491000000019
  0
LINE
  8
_2-0_
  6
CONTINUOUS
 62
    7
 10
242.87703855249589
 20
310.99028241132407
 11
242.45306355249585
 21
311.41425841132406
  0
LINE
  8
_2-0_
  6
CONTINUOUS
 62
    7
 10
242.45306355249585
 20
311.97994341132409
 11
242.73590555249592
 21
312.2627864113241
  0
ARC
  8
_2-0_
  6
CONTINUOUS
 62
    7
 10
242.73590555249592
 20
311.69710041132407
 40
0.4
 50
135
 51
225
  0
LINE
  8
_2-0_
  6
CONTINUOUS
 62
    7
 10
241.56460055249585
 20
310.43019641132406
 11
242.83963155249586
 21
310.67803741132406
  0
ARC
  8
_2-0_
  6
CONTINUOUS
 62
    7
 10
242.73561755249585
 20
310.84886141132404
 40
0.2
 50
301.33709900000002
 51
45
  0
LINE
  8
_2-0_
  6
CONTINUOUS
 62
    7
 10
218.85029455249588
 20
320.18219041132409
 11
219.7355075524959
 21
318.86980841132407
  0
LINE
  8
_2-0_
  6
CONTINUOUS
 62
    7
 10
220.15907655249583
 20
318.70419841132406
 11
224.62768555249585
 21
319.75973641132407
  0
ARC
  8
_2-0_
  6
CONTINUOUS
 62
    7
 10
220.06712255249585
 20
319.09348641132408
 40
0.4
 50
214
 51
283.290322
  0
LINE
  8
_2-0_
  6
CONTINUOUS
 62
    7
 10
235.19186155249594
 20
304.10565541132405
 11
222.20148155249586
 21
311.60565441132405
  0
LINE
  8
_2-0_
  6
CONTINUOUS
 62
    7
 10
228.39859555249581
 20
313.33937141132407
 11
227.69859555249587
 21
312.1269354113241
  0
LINE
  8
_2-0_
  6
CONTINUOUS
 62
    7
 10
228.39859555249581
 20
313.33937141132407
 11
233.5947475524959
 21
310.33937141132407
  0
LINE
  8
_2-0_
  6
CONTINUOUS
 62
    7
 10
232.89474755249597
 20
309.1269354113241
 11
233.5947485524959
 21
310.33937141132407
  0
LINE
  8
_2-0_
  6
CONTINUOUS
 62
    7
 10
221.60148155249584
 20
310.56642441132408
 11
223.80148155249589
 21
314.3769354113241
  0
LINE
  8
_2-0_
  6
CONTINUOUS
 62
    7
 10
223.80148155249589
 20
314.3769354113241
 11
236.79186055249596
 21
306.8769364113241
  0
LINE
  8
_2-0_
  6
CONTINUOUS
 62
    7
 10
236.79186055249596
 20
306.8769364113241
 11
234.59186155249591
 21
303.06642441132408
  0
LINE
  8
_2-0_
  6
CONTINUOUS
 62
    7
 10
235.75402255249588
 20
303.96490741132408
 11
236.21825455249581
 21
304.76898141132409
  0
LINE
  8
_2-0_
  6
CONTINUOUS
 62
    4
 10
204.35687155249587
 20
267.11365975279955
 11
215.69842055249586
 21
267.11365975279955
  0
TEXT
  8
_2-0_
 62
    7
 10
203.08667498686339
 20
256.33523773963213
 40
8
 41
1
 50
90
  1
9
  0
LINE
  8
_2-0_
  6
CONTINUOUS
 62
    4
 10
206.28473835884563
 20
267.26774207695058
 11
204.7318240882305
 21
261.47218711921624
  0
LINE
  8
_2-0_
  6
CONTINUOUS
 62
    4
 10
206.24723238194497
 20
248.77641393838275
 11
204.69431811132984
 21
254.57196889611708
  0
LINE
  8
_2-0_
  6
CONTINUOUS
 62
    4
 10
204.35687155249587
 20
248.48267059200785
 11
216.69842055249586
 21
248.48267059200785
  0
LINE
  8
_2-0_
  6
CONTINUOUS
 62
    4
 10
221.85103839546659
 20
248.56484376654058
 11
209.69345740429083
 21
230.51843448276406
  0
TEXT
  8
_2-0_
 62
    7
 10
196.8585504140718
 20
222.47863319478046
 40
6
 41
1
 50
0
  1
固定金具
  0
ARC
  8
_2-0_
  6
CONTINUOUS
 62
    7
 10
308.48106888346092
 20
249.8555725484708
 40
0.45
 50
90
 51
270
  0
LINE
  8
_2-0_
  6
CONTINUOUS
 62
    7
 10
308.48106888346092
 20
250.30557254847082
 11
323.58106888346083
 21
250.30557254847082
  0
ARC
  8
_2-0_
  6
CONTINUOUS
 62
    7
 10
323.58106888346083
 20
249.8555725484708
 40
0.45
 50
270
 51
90
  0
ARC
  8
_2-0_
  6
CONTINUOUS
 62
    7
 10
316.03106888346088
 20
224.94534554847081
 40
26.460227
 50
73.421191000000007
 51
106.57880900000001
  0
LINE
  8
_2-0_
  6
CONTINUOUS
 62
    7
 10
320.03106888346088
 20
248.80557254847082
 11
320.03106888346088
 21
232.65372454847082
  0
LINE
  8
_2-0_
  6
CONTINUOUS
 62
    7
 10
312.03106888346088
 20
248.80557254847082
 11
312.03106888346088
 21
232.65372454847082
  0
LINE
  8
_2-0_
  6
CONTINUOUS
 62
    7
 10
316.03106888346088
 20
229.2055725484708
 11
312.03106888346088
 21
232.65372454847082
  0
LINE
  8
_2-0_
  6
CONTINUOUS
 62
    7
 10
316.03106888346088
 20
229.2055725484708
 11
320.03106888346088
 21
232.65372454847082
  0
LINE
  8
_2-0_
  6
CONTINUOUS
 62
    7
 10
328.65532988346081
 20
256.79260054847077
 11
329.73106588346081
 21
257.86833654847084
  0
LINE
  8
_2-0_
  6
CONTINUOUS
 62
    7
 10
328.23106588346081
 20
257.21686454847082
 11
329.73106588346081
 21
258.71686454847082
  0
LINE
  8
_2-0_
  6
CONTINUOUS
 62
    7
 10
303.40680488346084
 20
256.79260054847077
 11
302.33106888346083
 21
257.86833654847084
  0
LINE
  8
_2-0_
  6
CONTINUOUS
 62
    7
 10
303.83106888346083
 20
257.21686454847082
 11
302.33106888346083
 21
258.71686454847082
  0
ARC
  8
_2-0_
  6
CONTINUOUS
 62
    7
 10
329.33106588346084
 20
249.80557254847082
 40
0.4
 50
270
 51
0
  0
LINE
  8
_2-0_
  6
CONTINUOUS
 62
    7
 10
329.73106588346081
 20
249.80557254847082
 11
329.73106588346081
 21
261.39766954847079
  0
LINE
  8
_2-0_
  6
CONTINUOUS
 62
    7
 10
329.33106588346084
 20
249.40557254847079
 11
302.73106888346092
 21
249.40557254847079
  0
ARC
  8
_2-0_
  6
CONTINUOUS
 62
    7
 10
302.73106888346092
 20
249.80557254847082
 40
0.4
 50
180
 51
270
  0
LINE
  8
_2-0_
  6
CONTINUOUS
 62
    7
 10
302.33106888346083
 20
249.80557254847082
 11
302.33106888346083
 21
266.84118054847079
  0
ARC
  8
_2-0_
  6
CONTINUOUS
 62
    7
 10
329.33106588346084
 20
249.80557254847082
 40
1
 50
270
 51
0
  0
LINE
  8
_2-0_
  6
CONTINUOUS
 62
    7
 10
330.33106588346084
 20
249.80557254847082
 11
330.33106588346084
 21
261.39766954847079
  0
LINE
  8
_2-0_
  6
CONTINUOUS
 62
    7
 10
302.73106888346092
 20
248.80557254847082
 11
329.33106588346084
 21
248.80557254847082
  0
ARC
  8
_2-0_
  6
CONTINUOUS
 62
    7
 10
302.73106888346092
 20
249.80557254847082
 40
1
 50
180
 51
270
  0
LINE
  8
_2-0_
  6
CONTINUOUS
 62
    7
 10
301.73106888346092
 20
249.80557254847082
 11
301.73106888346092
 21
266.84118054847079
  0
LINE
  8
_2-0_
  6
CONTINUOUS
 62
    7
 10
329.73106588346081
 20
261.39766954847079
 11
330.33106588346084
 21
261.39766954847079
  0
LINE
  8
_2-0_
  6
CONTINUOUS
 62
    7
 10
302.33106888346083
 20
266.84118054847079
 11
301.73106888346092
 21
266.84118054847079
  0
LINE
  8
_2-0_
  6
CONTINUOUS
 62
    7
 10
328.23106488346093
 20
257.21686454847082
 11
328.65532988346081
 21
256.79260054847077
  0
LINE
  8
_2-0_
  6
CONTINUOUS
 62
    7
 10
303.83106888346083
 20
257.21686454847082
 11
303.40680488346084
 21
256.79260054847077
  0
LINE
  8
_2-0_
  6
CONTINUOUS
 62
    7
 10
302.83106888346083
 20
266.58333254847082
 11
302.83106888346083
 21
266.83186054847084
  0
LINE
  8
_2-0_
  6
CONTINUOUS
 62
    7
 10
301.50680388346086
 20
268.15612454847081
 11
301.33106888346083
 21
268.33186054847084
  0
LINE
  8
_2-0_
  6
CONTINUOUS
 62
    7
 10
302.69106888346084
 20
273.62912654847082
 11
302.69106888346084
 21
273.75141854847084
  0
LINE
  8
_2-0_
  6
CONTINUOUS
 62
    7
 10
302.69106888346084
 20
273.62912654847082
 11
302.75945388346088
 21
273.52774154847083
  0
LINE
  8
_2-0_
  6
CONTINUOUS
 62
    7
 10
302.83106888346083
 20
266.83186054847084
 11
302.65533288346091
 21
267.00759654847081
  0
LINE
  8
_2-0_
  6
CONTINUOUS
 62
    7
 10
301.33106888346083
 20
268.33186054847084
 11
301.33106888346083
 21
268.58038854847081
  0
LINE
  8
_2-0_
  6
CONTINUOUS
 62
    7
 10
305.13106888346078
 20
264.3785965484708
 11
304.83106888346083
 21
264.55180254847079
  0
LINE
  8
_2-0_
  6
CONTINUOUS
 62
    7
 10
304.83106888346083
 20
264.55180254847079
 11
304.83106888346083
 21
264.89821254847084
  0
ARC
  8
_2-0_
  6
CONTINUOUS
 62
    7
 10
328.83106888346083
 20
255.54462254847081
 40
0.4
 50
0
 51
29.999999999999996
  0
LINE
  8
_2-0_
  6
CONTINUOUS
 62
    7
 10
323.38106888346078
 20
257.05276354847081
 11
323.38106888346078
 21
257.05180254847079
  0
LINE
  8
_2-0_
  6
CONTINUOUS
 62
    7
 10
309.63106888346078
 20
251.8518025484708
 11
311.03106888346088
 21
251.8518025484708
  0
LINE
  8
_2-0_
  6
CONTINUOUS
 62
    7
 10
303.43106888346085
 20
251.8518025484708
 11
305.23106888346092
 21
251.8518025484708
  0
LINE
  8
_2-0_
  6
CONTINUOUS
 62
    7
 10
309.08106888346083
 20
256.65180254847081
 11
309.23106888346092
 21
256.65180254847081
  0
ARC
  8
_2-0_
  6
CONTINUOUS
 62
    7
 10
309.63106888346078
 20
252.25180254847081
 40
0.4
 50
116.268489
 51
270
  0
LINE
  8
_2-0_
  6
CONTINUOUS
 62
    7
 10
310.03106888346088
 20
255.05180254847079
 11
309.78385688346089
 21
253.0741115484708
  0
ARC
  8
_2-0_
  6
CONTINUOUS
 62
    7
 10
309.18848988346087
 20
253.14853254847083
 40
0.5999999999999999
 50
296.26848899999999
 51
352.87498399999998
  0
LINE
  8
_2-0_
  6
CONTINUOUS
 62
    7
 10
309.23106888346092
 20
256.65180254847081
 11
310.03106888346088
 21
255.05180254847079
  0
LINE
  8
_2-0_
  6
CONTINUOUS
 62
    7
 10
305.78106888346088
 20
256.65180254847081
 11
305.63106888346078
 21
256.65180254847081
  0
ARC
  8
_2-0_
  6
CONTINUOUS
 62
    7
 10
305.23106888346092
 20
252.25180254847081
 40
0.4
 50
270
 51
63.731510999999998
  0
LINE
  8
_2-0_
  6
CONTINUOUS
 62
    7
 10
304.83106888346083
 20
255.05180254847079
 11
305.07827988346094
 21
253.0741115484708
  0
ARC
  8
_2-0_
  6
CONTINUOUS
 62
    7
 10
305.67364688346083
 20
253.14853254847083
 40
0.5999999999999999
 50
187.12501599999999
 51
243.73151100000001
  0
LINE
  8
_2-0_
  6
CONTINUOUS
 62
    7
 10
305.63106888346078
 20
256.65180254847081
 11
304.83106888346083
 21
255.05180254847079
  0
ARC
  8
_2-0_
  6
CONTINUOUS
 62
    7
 10
307.43106888346085
 20
258.3518025484708
 40
1.7
 50
321.786789
 51
218.21321099999997
  0
LINE
  8
_2-0_
  6
CONTINUOUS
 62
    7
 10
308.68106888346085
 20
257.05276354847081
 11
308.68106888346085
 21
257.05180254847079
  0
LINE
  8
_2-0_
  6
CONTINUOUS
 62
    7
 10
306.18106888346085
 20
257.05276354847081
 11
306.18106888346085
 21
257.05180254847079
  0
ARC
  8
_2-0_
  6
CONTINUOUS
 62
    7
 10
309.08106888346083
 20
257.05276354847081
 40
0.4
 50
141.786789
 51
180
  0
ARC
  8
_2-0_
  6
CONTINUOUS
 62
    7
 10
309.08106888346083
 20
257.05180254847079
 40
0.4
 50
180
 51
270
  0
ARC
  8
_2-0_
  6
CONTINUOUS
 62
    7
 10
305.78106888346088
 20
257.05180254847079
 40
0.4
 50
270
 51
0
  0
ARC
  8
_2-0_
  6
CONTINUOUS
 62
    7
 10
305.78106888346088
 20
257.05276354847081
 40
0.4
 50
0
 51
38.213211000000001
  0
LINE
  8
_2-0_
  6
CONTINUOUS
 62
    7
 10
322.98106888346092
 20
256.65180254847081
 11
322.83106888346083
 21
256.65180254847081
  0
ARC
  8
_2-0_
  6
CONTINUOUS
 62
    7
 10
322.43106888346085
 20
252.25180254847081
 40
0.4
 50
270
 51
63.731510999999998
  0
LINE
  8
_2-0_
  6
CONTINUOUS
 62
    7
 10
322.03106888346088
 20
255.05180254847079
 11
322.27827988346087
 21
253.0741115484708
  0
ARC
  8
_2-0_
  6
CONTINUOUS
 62
    7
 10
322.87364688346088
 20
253.14853254847083
 40
0.5999999999999999
 50
187.12501599999999
 51
243.73151100000001
  0
LINE
  8
_2-0_
  6
CONTINUOUS
 62
    7
 10
322.83106888346083
 20
256.65180254847081
 11
322.03106888346088
 21
255.05180254847079
  0
LINE
  8
_2-0_
  6
CONTINUOUS
 62
    7
 10
326.28106888346088
 20
256.65180254847081
 11
326.43106888346085
 21
256.65180254847081
  0
ARC
  8
_2-0_
  6
CONTINUOUS
 62
    7
 10
326.83106888346083
 20
252.25180254847081
 40
0.4
 50
116.268489
 51
270
  0
LINE
  8
_2-0_
  6
CONTINUOUS
 62
    7
 10
327.23106888346092
 20
255.05180254847079
 11
326.98385688346093
 21
253.0741115484708
  0
ARC
  8
_2-0_
  6
CONTINUOUS
 62
    7
 10
326.38848988346081
 20
253.14853254847083
 40
0.5999999999999999
 50
296.26848899999999
 51
352.87498399999998
  0
LINE
  8
_2-0_
  6
CONTINUOUS
 62
    7
 10
326.43106888346085
 20
256.65180254847081
 11
327.23106888346092
 21
255.05180254847079
  0
ARC
  8
_2-0_
  6
CONTINUOUS
 62
    7
 10
324.63106888346078
 20
258.3518025484708
 40
1.7
 50
321.786789
 51
218.21321099999997
  0
LINE
  8
_2-0_
  6
CONTINUOUS
 62
    7
 10
325.88106888346078
 20
257.05276354847081
 11
325.88106888346078
 21
257.05180254847079
  0
ARC
  8
_2-0_
  6
CONTINUOUS
 62
    7
 10
322.98106888346092
 20
257.05276354847081
 40
0.4
 50
0
 51
38.213211000000001
  0
ARC
  8
_2-0_
  6
CONTINUOUS
 62
    7
 10
322.98106888346092
 20
257.05180254847079
 40
0.4
 50
270
 51
0
  0
ARC
  8
_2-0_
  6
CONTINUOUS
 62
    7
 10
326.28106888346088
 20
257.05180254847079
 40
0.4
 50
180
 51
270
  0
ARC
  8
_2-0_
  6
CONTINUOUS
 62
    7
 10
326.28106888346088
 20
257.05276354847081
 40
0.4
 50
141.786789
 51
180
  0
LINE
  8
_2-0_
  6
CONTINUOUS
 62
    7
 10
302.83106888346083
 20
252.45180254847082
 11
302.83106888346083
 21
255.54462254847081
  0
ARC
  8
_2-0_
  6
CONTINUOUS
 62
    7
 10
303.43106888346085
 20
252.45180254847082
 40
0.5999999999999999
 50
180
 51
270
  0
LINE
  8
_2-0_
  6
CONTINUOUS
 62
    7
 10
303.63106888346078
 20
257.64052254847081
 11
303.63106888346078
 21
257.03744254847084
  0
ARC
  8
_2-0_
  6
CONTINUOUS
 62
    7
 10
303.23106888346092
 20
258.50035754847079
 40
0.4
 50
180
 51
230.47736900000001
  0
LINE
  8
_2-0_
  6
CONTINUOUS
 62
    7
 10
303.63106888346078
 20
257.64052254847081
 11
302.97550588346087
 21
258.19060454847079
  0
LINE
  8
_2-0_
  6
CONTINUOUS
 62
    7
 10
303.63106888346078
 20
257.03744254847084
 11
302.88465788346093
 21
255.7446225484708
  0
ARC
  8
_2-0_
  6
CONTINUOUS
 62
    7
 10
303.23106888346092
 20
255.54462254847081
 40
0.4
 50
150
 51
180
  0
LINE
  8
_2-0_
  6
CONTINUOUS
 62
    7
 10
302.83106888346083
 20
258.50035754847079
 11
302.83106888346083
 21
266.58333254847082
  0
LINE
  8
_2-0_
  6
CONTINUOUS
 62
    7
 10
320.03106888346088
 20
252.8518025484708
 11
320.03106888346088
 21
253.8518025484708
  0
LINE
  8
_2-0_
  6
CONTINUOUS
 62
    7
 10
312.03106888346088
 20
252.8518025484708
 11
312.03106888346088
 21
253.8518025484708
  0
ARC
  8
_2-0_
  6
CONTINUOUS
 62
    7
 10
311.03106888346088
 20
252.8518025484708
 40
1
 50
270
 51
0
  0
ARC
  8
_2-0_
  6
CONTINUOUS
 62
    7
 10
321.03106888346088
 20
252.8518025484708
 40
1
 50
180
 51
270
  0
LINE
  8
_2-0_
  6
CONTINUOUS
 62
    7
 10
312.63106888346078
 20
254.45180254847082
 11
319.43106888346085
 21
254.45180254847082
  0
ARC
  8
_2-0_
  6
CONTINUOUS
 62
    7
 10
312.63106888346078
 20
253.8518025484708
 40
0.5999999999999999
 50
90
 51
180
  0
ARC
  8
_2-0_
  6
CONTINUOUS
 62
    7
 10
319.43106888346085
 20
253.8518025484708
 40
0.5999999999999999
 50
0
 51
90
  0
LINE
  8
_2-0_
  6
CONTINUOUS
 62
    7
 10
304.83106888346083
 20
264.89821254847084
 11
304.83106888346083
 21
267.4117595484708
  0
LINE
  8
_2-0_
  6
CONTINUOUS
 62
    7
 10
303.33106888346083
 20
269.40881554847084
 11
303.33106888346083
 21
272.6802875484708
  0
ARC
  8
_2-0_
  6
CONTINUOUS
 62
    7
 10
303.93106888346085
 20
269.40881554847084
 40
0.5999999999999999
 50
180
 51
225
  0
ARC
  8
_2-0_
  6
CONTINUOUS
 62
    7
 10
304.23106888346092
 20
267.4117595484708
 40
0.5999999999999999
 50
0
 51
45
  0
LINE
  8
_2-0_
  6
CONTINUOUS
 62
    7
 10
304.65533288346091
 20
267.83602354847079
 11
303.50680388346086
 21
268.98455154847079
  0
ARC
  8
_2-0_
  6
CONTINUOUS
 62
    7
 10
301.93106888346085
 20
268.58038854847081
 40
0.5999999999999999
 50
180
 51
225
  0
ARC
  8
_2-0_
  6
CONTINUOUS
 62
    7
 10
302.23106888346092
 20
266.58333254847082
 40
0.5999999999999999
 50
0
 51
45
  0
LINE
  8
_2-0_
  6
CONTINUOUS
 62
    7
 10
301.73106888346092
 20
275.25180254847083
 11
303.33106888346083
 21
275.25180254847083
  0
LINE
  8
_2-0_
  6
CONTINUOUS
 62
    7
 10
303.73106888346092
 20
274.65180254847081
 11
303.73106888346092
 21
274.8518025484708
  0
LINE
  8
_2-0_
  6
CONTINUOUS
 62
    7
 10
303.09106888346082
 20
274.25180254847083
 11
303.33106888346083
 21
274.25180254847083
  0
ARC
  8
_2-0_
  6
CONTINUOUS
 62
    7
 10
303.33106888346083
 20
274.8518025484708
 40
0.4
 50
0
 51
90
  0
ARC
  8
_2-0_
  6
CONTINUOUS
 62
    7
 10
303.33106888346083
 20
274.65180254847081
 40
0.4
 50
270
 51
0
  0
ARC
  8
_2-0_
  6
CONTINUOUS
 62
    7
 10
301.73106888346092
 20
274.8518025484708
 40
0.4
 50
90
 51
180
  0
ARC
  8
_2-0_
  6
CONTINUOUS
 62
    7
 10
303.09106888346082
 20
273.8518025484708
 40
0.4
 50
90
 51
180
  0
ARC
  8
_2-0_
  6
CONTINUOUS
 62
    7
 10
303.09106888346082
 20
273.75141854847084
 40
0.4
 50
180
 51
214
  0
LINE
  8
_2-0_
  6
CONTINUOUS
 62
    7
 10
302.75945388346088
 20
273.52774154847083
 11
303.33106888346083
 21
272.6802875484708
  0
LINE
  8
_2-0_
  6
CONTINUOUS
 62
    7
 10
302.69106888346084
 20
273.75141854847084
 11
302.69106888346084
 21
273.8518025484708
  0
LINE
  8
_2-0_
  6
CONTINUOUS
 62
    7
 10
301.33106888346083
 20
268.58038854847081
 11
301.33106888346083
 21
274.8518025484708
  0
LINE
  8
_2-0_
  6
CONTINUOUS
 62
    7
 10
302.65533288346091
 20
267.00759654847081
 11
301.50680388346086
 21
268.15612454847081
  0
LINE
  8
_2-0_
  6
CONTINUOUS
 62
    7
 10
321.03106888346088
 20
251.8518025484708
 11
322.43106888346085
 21
251.8518025484708
  0
LINE
  8
_2-0_
  6
CONTINUOUS
 62
    7
 10
329.23106888346092
 20
252.45180254847082
 11
329.23106888346092
 21
255.54462254847081
  0
ARC
  8
_2-0_
  6
CONTINUOUS
 62
    7
 10
328.63106888346078
 20
252.45180254847082
 40
0.5999999999999999
 50
270
 51
0
  0
LINE
  8
_2-0_
  6
CONTINUOUS
 62
    7
 10
328.43106888346085
 20
257.64052254847081
 11
328.43106888346085
 21
257.03744254847084
  0
ARC
  8
_2-0_
  6
CONTINUOUS
 62
    7
 10
328.83106888346083
 20
258.50035754847079
 40
0.4
 50
309.52263099999999
 51
0
  0
LINE
  8
_2-0_
  6
CONTINUOUS
 62
    7
 10
328.43106888346085
 20
257.64052254847081
 11
329.08663188346088
 21
258.19060454847079
  0
LINE
  8
_2-0_
  6
CONTINUOUS
 62
    7
 10
328.43106888346085
 20
257.03744254847084
 11
329.17747888346094
 21
255.7446225484708
  0
LINE
  8
_2-0_
  6
CONTINUOUS
 62
    7
 10
326.83106888346083
 20
251.8518025484708
 11
328.63106888346078
 21
251.8518025484708
  0
LINE
  8
_2-0_
  6
CONTINUOUS
 62
    7
 10
329.07959688346091
 20
264.2918025484708
 11
330.13106888346078
 21
264.2918025484708
  0
LINE
  8
_2-0_
  6
CONTINUOUS
 62
    7
 10
329.23106888346092
 20
261.8518025484708
 11
330.73106888346092
 21
263.3518025484708
  0
LINE
  8
_2-0_
  6
CONTINUOUS
 62
    7
 10
330.73106888346092
 20
263.3518025484708
 11
330.73106888346092
 21
263.69180254847083
  0
ARC
  8
_2-0_
  6
CONTINUOUS
 62
    7
 10
330.13106888346078
 20
263.69180254847083
 40
0.5999999999999999
 50
0
 51
90
  0
LINE
  8
_2-0_
  6
CONTINUOUS
 62
    7
 10
328.65533288346091
 20
264.46753854847083
 11
327.4739108834608
 21
265.64895954847083
  0
ARC
  8
_2-0_
  6
CONTINUOUS
 62
    7
 10
329.07959688346091
 20
264.89180254847082
 40
0.5999999999999999
 50
225
 51
270
  0
LINE
  8
_2-0_
  6
CONTINUOUS
 62
    7
 10
327.04490488346084
 20
264.66375154847083
 11
326.76680388346085
 21
264.94185254847082
  0
LINE
  8
_2-0_
  6
CONTINUOUS
 62
    7
 10
326.76680388346085
 20
265.50753854847079
 11
326.90822588346089
 21
265.64895954847083
  0
ARC
  8
_2-0_
  6
CONTINUOUS
 62
    7
 10
327.19106888346084
 20
265.36611654847081
 40
0.4
 50
45
 51
135
  0
ARC
  8
_2-0_
  6
CONTINUOUS
 62
    7
 10
327.04964688346081
 20
265.22469554847083
 40
0.4
 50
135
 51
225
  0
ARC
  8
_2-0_
  6
CONTINUOUS
 62
    7
 10
318.88355188346088
 20
257.13141754847084
 40
0.5999999999999999
 50
240
 51
330
  0
LINE
  8
_2-0_
  6
CONTINUOUS
 62
    7
 10
318.58355188346081
 20
256.61180254847079
 11
305.13106888346078
 21
264.3785965484708
  0
LINE
  8
_2-0_
  6
CONTINUOUS
 62
    7
 10
319.40316688346093
 20
256.83141754847082
 11
321.75042588346082
 21
260.8969885484708
  0
ARC
  8
_2-0_
  6
CONTINUOUS
 62
    7
 10
326.9465778834608
 20
257.8969885484708
 40
6
 50
101
 51
149.99999999999997
  0
ARC
  8
_2-0_
  6
CONTINUOUS
 62
    7
 10
326.76206188346089
 20
264.38090854847081
 40
0.4
 50
281
 51
45
  0
LINE
  8
_2-0_
  6
CONTINUOUS
 62
    7
 10
329.23106888346092
 20
258.50035754847079
 11
329.23106888346092
 21
261.8518025484708
  0
ARC
  8
_2-0_
  6
CONTINUOUS
 62
    7
 10
305.43106888346085
 20
264.89821254847084
 40
0.5999999999999999
 50
180
 51
239.99999999999997
  0
LINE
  8
_2-0_
  6
CONTINUOUS
 62
    7
 10
325.80172388346091
 20
263.78675154847082
 11
326.83838588346089
 21
263.98825854847081
  0
ARC
  8
_2-0_
  6
CONTINUOUS
 62
    7
 10
327.05139688346094
 20
265.51070054847082
 40
0.4
 50
45
 51
135
  0
ARC
  8
_2-0_
  6
CONTINUOUS
 62
    7
 10
312.12850988346088
 20
260.34708754847082
 40
13.4
 50
17.469797
 51
104.99999800000001
  0
ARC
  8
_2-0_
  6
CONTINUOUS
 62
    7
 10
325.48276388346085
 20
264.5499305484708
 40
0.5999999999999999
 50
197.469797
 51
281
  0
LINE
  8
_2-0_
  6
CONTINUOUS
 62
    7
 10
301.33106888346083
 20
276.22337154847082
 11
301.33106888346083
 21
275.65180254847081
  0
LINE
  8
_2-0_
  6
CONTINUOUS
 62
    7
 10
301.79349588346088
 20
276.80738654847079
 11
307.36623988346082
 21
278.12012354847081
  0
ARC
  8
_2-0_
  6
CONTINUOUS
 62
    7
 10
301.93106888346085
 20
276.22337154847082
 40
0.5999999999999999
 50
103.25515900000001
 51
180
  0
ARC
  8
_2-0_
  6
CONTINUOUS
 62
    7
 10
312.12850988346088
 20
260.34708754847082
 40
18.399999999999999
 50
33.158850999999999
 51
105
  0
LINE
  8
_2-0_
  6
CONTINUOUS
 62
    7
 10
301.73106888346092
 20
275.25180254847083
 11
303.33107288346082
 21
275.25180254847083
  0
ARC
  8
_2-0_
  6
CONTINUOUS
 62
    7
 10
303.53105688346091
 20
274.8518025484708
 40
0.4
 50
0
 51
90
  0
LINE
  8
_2-0_
  6
CONTINUOUS
 62
    7
 10
303.93105688346088
 20
274.8518025484708
 11
303.93105688346088
 21
274.45180254847082
  0
ARC
  8
_2-0_
  6
CONTINUOUS
 62
    7
 10
303.53105688346091
 20
274.45180254847082
 40
0.4
 50
270
 51
0
  0
LINE
  8
_2-0_
  6
CONTINUOUS
 62
    7
 10
303.53105688346091
 20
274.05180254847079
 11
303.08294288346087
 21
274.05180254847079
  0
ARC
  8
_2-0_
  6
CONTINUOUS
 62
    7
 10
303.08294288346087
 20
273.8518025484708
 40
0.2
 50
90
 51
180
  0
LINE
  8
_2-0_
  6
CONTINUOUS
 62
    7
 10
302.88294288346083
 20
273.8518025484708
 11
302.88294288346083
 21
273.71294854847082
  0
LINE
  8
_2-0_
  6
CONTINUOUS
 62
    7
 10
301.73106888346092
 20
275.25180254847083
 11
303.53105688346091
 21
275.25180254847083
  0
ARC
  8
_2-0_
  6
CONTINUOUS
 62
    7
 10
301.73106888346092
 20
275.65180254847081
 40
0.4
 50
180
 51
270
  0
LINE
  8
_2-0_
  6
CONTINUOUS
 62
    7
 10
330.55752788346081
 20
265.18918754847084
 11
327.53220488346085
 21
270.41119154847081
  0
LINE
  8
_2-0_
  6
CONTINUOUS
 62
    7
 10
328.54647788346085
 20
264.58130554847082
 11
327.3342398834609
 21
265.79354354847084
  0
ARC
  8
_2-0_
  6
CONTINUOUS
 62
    7
 10
329.25358488346092
 20
265.28841254847083
 40
1
 50
225
 51
270
  0
LINE
  8
_2-0_
  6
CONTINUOUS
 62
    7
 10
330.03836088346088
 20
264.28841254847083
 11
329.25358488346092
 21
264.28841254847083
  0
ARC
  8
_2-0_
  6
CONTINUOUS
 62
    7
 10
330.03836088346088
 20
264.8884125484708
 40
0.5999999999999999
 50
270
 51
30.085491000000019
  0
LINE
  8
_2-0_
  6
CONTINUOUS
 62
    7
 10
326.90968788346083
 20
264.52104054847081
 11
326.48571188346091
 21
264.94501554847079
  0
LINE
  8
_2-0_
  6
CONTINUOUS
 62
    7
 10
326.48571188346091
 20
265.51070054847082
 11
326.76855488346087
 21
265.79354354847084
  0
ARC
  8
_2-0_
  6
CONTINUOUS
 62
    7
 10
326.76855488346087
 20
265.22785854847081
 40
0.4
 50
135
 51
225
  0
LINE
  8
_2-0_
  6
CONTINUOUS
 62
    7
 10
325.59724988346079
 20
263.9609535484708
 11
326.87228088346092
 21
264.20879454847079
  0
ARC
  8
_2-0_
  6
CONTINUOUS
 62
    7
 10
326.7682658834608
 20
264.37961954847083
 40
0.2
 50
301.33709900000002
 51
45
  0
LINE
  8
_2-0_
  6
CONTINUOUS
 62
    7
 10
302.88294288346083
 20
273.71294854847082
 11
303.76815588346085
 21
272.40056654847081
  0
LINE
  8
_2-0_
  6
CONTINUOUS
 62
    7
 10
304.19172488346089
 20
272.23495654847079
 11
308.66033488346079
 21
273.2904945484708
  0
ARC
  8
_2-0_
  6
CONTINUOUS
 62
    7
 10
304.09977088346091
 20
272.62424354847082
 40
0.4
 50
214
 51
283.290322
  0
LINE
  8
_2-0_
  6
CONTINUOUS
 62
    7
 10
319.22450988346088
 20
257.63641254847079
 11
306.23412988346081
 21
265.13641254847079
  0
LINE
  8
_2-0_
  6
CONTINUOUS
 62
    7
 10
312.43124388346087
 20
266.8701295484708
 11
311.73124388346082
 21
265.65769354847083
  0
LINE
  8
_2-0_
  6
CONTINUOUS
 62
    7
 10
312.43124388346087
 20
266.8701295484708
 11
317.62739688346085
 21
263.8701295484708
  0
LINE
  8
_2-0_
  6
CONTINUOUS
 62
    7
 10
316.92739688346091
 20
262.65769354847083
 11
317.62739688346085
 21
263.8701295484708
  0
LINE
  8
_2-0_
  6
CONTINUOUS
 62
    7
 10
305.6341298834609
 20
264.09718154847081
 11
307.83412988346083
 21
267.90769354847083
  0
LINE
  8
_2-0_
  6
CONTINUOUS
 62
    7
 10
307.83412988346083
 20
267.90769354847083
 11
320.82450988346091
 21
260.40769454847083
  0
LINE
  8
_2-0_
  6
CONTINUOUS
 62
    7
 10
320.82450988346091
 20
260.40769454847083
 11
318.62450988346086
 21
256.59718254847081
  0
LINE
  8
_2-0_
  6
CONTINUOUS
 62
    7
 10
332.02858688346078
 20
225.05759654847083
 11
332.60261488346089
 21
225.63162454847082
  0
LINE
  8
_2-0_
  6
CONTINUOUS
 62
    7
 10
329.20015888346086
 20
225.05759654847083
 11
332.60261488346089
 21
228.4600515484708
  0
LINE
  8
_2-0_
  6
CONTINUOUS
 62
    7
 10
326.37173188346082
 20
225.05759654847083
 11
332.60261488346089
 21
231.28847954847083
  0
LINE
  8
_2-0_
  6
CONTINUOUS
 62
    7
 10
323.54330488346091
 20
225.05759654847083
 11
332.60261488346089
 21
234.11690654847081
  0
LINE
  8
_2-0_
  6
CONTINUOUS
 62
    7
 10
320.71487788346087
 20
225.05759654847083
 11
332.60261488346089
 21
236.94533354847081
  0
LINE
  8
_2-0_
  6
CONTINUOUS
 62
    7
 10
317.88645088346084
 20
225.05759654847083
 11
332.60261488346089
 21
239.77376054847082
  0
LINE
  8
_2-0_
  6
CONTINUOUS
 62
    7
 10
315.05802388346092
 20
225.05759654847083
 11
332.60261488346089
 21
242.60218754847079
  0
LINE
  8
_2-0_
  6
CONTINUOUS
 62
    7
 10
312.22959688346089
 20
225.05759654847083
 11
332.60261488346089
 21
245.4306145484708
  0
LINE
  8
_2-0_
  6
CONTINUOUS
 62
    7
 10
309.40116988346085
 20
225.05759654847083
 11
332.60261488346089
 21
248.2590425484708
  0
LINE
  8
_2-0_
  6
CONTINUOUS
 62
    7
 10
306.57274188346082
 20
225.05759654847083
 11
330.32071788346093
 21
248.80557254847082
  0
LINE
  8
_2-0_
  6
CONTINUOUS
 62
    7
 10
303.7443148834609
 20
225.05759654847083
 11
327.49229088346078
 21
248.80557254847082
  0
LINE
  8
_2-0_
  6
CONTINUOUS
 62
    7
 10
300.91588788346087
 20
225.05759654847083
 11
324.66386388346086
 21
248.80557254847082
  0
LINE
  8
_2-0_
  6
CONTINUOUS
 62
    7
 10
298.63399088346091
 20
225.60412754847084
 11
321.83543688346094
 21
248.80557254847082
  0
LINE
  8
_2-0_
  6
CONTINUOUS
 62
    7
 10
298.63399088346091
 20
228.43255454847082
 11
319.0070098834608
 21
248.80557254847082
  0
LINE
  8
_2-0_
  6
CONTINUOUS
 62
    7
 10
298.63399088346091
 20
231.26098154847082
 11
316.17858288346088
 21
248.80557254847082
  0
LINE
  8
_2-0_
  6
CONTINUOUS
 62
    7
 10
298.63399088346091
 20
234.08940854847083
 11
313.35015488346085
 21
248.80557254847082
  0
LINE
  8
_2-0_
  6
CONTINUOUS
 62
    7
 10
298.63399088346091
 20
236.9178355484708
 11
310.52172788346093
 21
248.80557254847082
  0
LINE
  8
_2-0_
  6
CONTINUOUS
 62
    7
 10
298.63399088346091
 20
239.74626254847081
 11
307.69330088346078
 21
248.80557254847082
  0
LINE
  8
_2-0_
  6
CONTINUOUS
 62
    7
 10
298.63399088346091
 20
242.57468954847079
 11
304.86487388346086
 21
248.80557254847082
  0
LINE
  8
_2-0_
  6
CONTINUOUS
 62
    7
 10
298.63399088346091
 20
245.40311654847079
 11
302.03644688346094
 21
248.80557254847082
  0
LINE
  8
_2-0_
  6
CONTINUOUS
 62
    7
 10
319.78667088346083
 20
257.49566554847081
 11
320.25090288346087
 21
258.29973854847083
  0
TEXT
  8
_2-0_
 62
    7
 10
307.20545390250868
 20
292.91652404675796
 40
8
 41
1
 50
0
  1
14.7
  0
TEXT
  8
_2-0_
 62
    7
 10
285.3930850168266
 20
256.56257590395444
 40
8
 41
1
 50
90
  1
(15)
  0
LINE
  8
_2-0_
  6
CONTINUOUS
 62
    4
 10
301.33106888346083
 20
290.00533554847084
 11
330.73106888346092
 21
290.00533554847084
  0
LINE
  8
_2-0_
  6
CONTINUOUS
 62
    4
 10
330.73106888346092
 20
292.00533554847084
 11
330.73106888346092
 21
265.69180254847083
  0
LINE
  8
_2-0_
  6
CONTINUOUS
 62
    4
 10
301.33106888346083
 20
292.00533554847084
 11
301.33106888346083
 21
276.8518025484708
  0
LINE
  8
_2-0_
  6
CONTINUOUS
 62
    4
 10
286.3473808834608
 20
278.7470875484708
 11
310.12850988346088
 21
278.7470875484708
  0
LINE
  8
_2-0_
  6
CONTINUOUS
 62
    4
 10
288.3473808834608
 20
248.80557254847082
 11
288.3473808834608
 21
278.7470875484708
  0
LINE
  8
_2-0_
  6
CONTINUOUS
 62
    4
 10
286.3473808834608
 20
248.80557254847082
 11
301.28260788346086
 21
248.80557254847082
  0
LINE
  8
_2-0_
  6
CONTINUOUS
 62
    4
 10
301.33663197972885
 20
289.9683728484369
 11
307.13218693746319
 21
291.52128711905203
  0
LINE
  8
_2-0_
  6
CONTINUOUS
 62
    4
 10
301.33663197972885
 20
289.9683728484369
 11
307.13218693746319
 21
288.41545857782182
  0
LINE
  8
_2-0_
  6
CONTINUOUS
 62
    4
 10
330.74579823318589
 20
289.99421022803324
 11
324.95024327545156
 21
291.54712449864837
  0
LINE
  8
_2-0_
  6
CONTINUOUS
 62
    4
 10
330.74579823318589
 20
289.99421022803324
 11
324.95024327545156
 21
288.44129595741816
  0
LINE
  8
_2-0_
  6
CONTINUOUS
 62
    4
 10
288.28744038133976
 20
248.76647657235782
 11
286.73452611072463
 21
254.56203153009216
  0
LINE
  8
_2-0_
  6
CONTINUOUS
 62
    4
 10
288.28744038133976
 20
248.76647657235782
 11
289.84035465195484
 21
254.56203153009216
  0
LINE
  8
_2-0_
  6
CONTINUOUS
 62
    4
 10
288.32494635824037
 20
278.7533866309418
 11
289.8778606288555
 21
272.95783167320747
  0
LINE
  8
_2-0_
  6
CONTINUOUS
 62
    4
 10
288.32494635824037
 20
278.7533866309418
 11
286.77203208762529
 21
272.95783167320747
  0
TEXT
  8
_2-0_
 62
    7
 10
296.56751607038359
 20
212.50687590270121
 40
7
 41
1
 50
0
  1
金具取付寸法
  0
LINE
  8
_2-0_
  6
CONTINUOUS
 62
    4
 10
314.73260665322073
 20
242.85586870573403
 11
287.70649627387763
 21
222.4755231737704
  0
TEXT
  8
_2-0_
 62
    7
 10
358.64840679918331
 20
255.75351709553289
 40
6
 41
1
 50
0
  1
1000以下
  0
LINE
  8
_2-0_
  6
CONTINUOUS
 62
    7
 10
350.31671934366693
 20
271.29230798586764
 11
430.21238483054458
 21
271.29230798586764
  0
TEXT
  8
_2-0_
 62
    7
 10
358.64840679918331
 20
246.77560862097056
 40
6
 41
1
 50
0
  1
1001～1500以下
  0
TEXT
  8
_2-0_
 62
    7
 10
358.64840679918331
 20
237.84357748314423
 40
6
 41
1
 50
0
  1
1501以上
  0
TEXT
  8
_2-0_
 62
    7
 10
358.64840679918331
 20
229.10410488763125
 40
6
 41
1
 50
0
  1
2000以上
  0
LINE
  8
_2-0_
  6
CONTINUOUS
 62
    7
 10
350.31671934366693
 20
271.29230798586764
 11
350.31671934366693
 21
227.69230798586761
  0
LINE
  8
_2-0_
  6
CONTINUOUS
 62
    7
 10
350.31671934366693
 20
227.69230798586761
 11
430.21238483054458
 21
227.69230798586761
  0
LINE
  8
_2-0_
  6
CONTINUOUS
 62
    7
 10
430.21238483054458
 20
271.29230798586764
 11
430.21238483054458
 21
227.69230798586761
  0
LINE
  8
_2-0_
  6
CONTINUOUS
 62
    7
 10
350.31671934366693
 20
263.29230798586764
 11
430.21238483054458
 21
263.29230798586764
  0
LINE
  8
_2-0_
  6
CONTINUOUS
 62
    7
 10
350.31671934366693
 20
254.39230798586763
 11
430.21238483054458
 21
254.39230798586763
  0
LINE
  8
_2-0_
  6
CONTINUOUS
 62
    7
 10
350.31671934366693
 20
245.4923079858676
 11
430.21238483054458
 21
245.4923079858676
  0
LINE
  8
_2-0_
  6
CONTINUOUS
 62
    7
 10
350.31671934366693
 20
236.59230798586762
 11
430.21238483054458
 21
236.59230798586762
  0
LINE
  8
_2-0_
  6
CONTINUOUS
 62
    7
 10
411.69380418292843
 20
271.12904488890842
 11
411.69380418292843
 21
227.88598698708492
  0
TEXT
  8
_2-0_
 62
    7
 10
353.30096449442914
 20
264.57664854304187
 40
5
 41
1
 50
0
  1
アルミフレーム全長[mm]
  0
TEXT
  8
_2-0_
 62
    7
 10
354.27395987394505
 20
273.25644174409342
 40
5
 41
1
 50
0
  1
固定金具(CR)必要数
  0
TEXT
  8
_2-0_
 62
    7
 10
416.89189559627926
 20
255.96823789287555
 40
6
 41
1
 50
0
  1
2個
  0
TEXT
  8
_2-0_
 62
    7
 10
416.89189559627926
 20
246.85474895551786
 40
6
 41
1
 50
0
  1
3個
  0
TEXT
  8
_2-0_
 62
    7
 10
416.89189559627926
 20
237.32038251285027
 40
6
 41
1
 50
0
  1
4個
  0
TEXT
  8
_2-0_
 62
    7
 10
416.89189559627926
 20
228.98056247164158
 40
6
 41
1
 50
0
  1
5個
  0
TEXT
  8
_2-0_
 62
    7
 10
415.9661021676136
 20
264.57664854304187
 40
5
 41
1
 50
0
  1
個数
  0
TEXT
  8
_0-0_1
 62
    7
 10
732.99305212032993
 20
61.945408162915385
 40
6
 41
1
 50
0
  1
2020年07月22日
  0
TEXT
  8
_2-0_
 62
    7
 10
253.40147975680114
 20
216.06769470952628
 40
6
 41
1
 50
0
  1
タッピン1種
  0
TEXT
  8
_2-0_
 62
    7
 10
256.05332654569543
 20
223.04997484612744
 40
6
 41
1
 50
0
  1
ラミタイト
  0
TEXT
  8
_2-0_
 62
    7
 10
259.34395602272866
 20
208.90822242536592
 40
6
 41
1
 50
0
  1
φ4.0×12
  0
TEXT
  8
_1-0_
 62
    7
 10
630.29812739275189
 20
168.61489373379337
 40
7
 41
1
 50
0
  1
※定格表を参考にして最大連結数を守って下さい。
  0
TEXT
  8
_2-0_
 62
    7
 10
197.61777337059948
 20
215.03165069386614
 40
5
 41
1
 50
0
  1
※マグネット仕様時
  0
TEXT
  8
_2-0_
 62
    7
 10
197.61777337059948
 20
209.32512144619045
 40
5
 41
1
 50
0
  1
(オプション)には
  0
TEXT
  8
_2-0_
 62
    7
 10
197.61777337059948
 20
203.4996184194238
 40
5
 41
1
 50
0
  1
付属しません。
  0
TEXT
  8
_1-0_
 62
    7
 10
102.44498607005119
 20
19.800000000000011
 40
7
 41
1
 50
0
  1
WW:3500K / L30:3000K / L27:2700K / L25:2500K
  0
ENDSEC
  0
EOF
