  0
SECTION
  2
HEADER
  9
$ACADVER
  1
AC1009
  9
$INSBASE
 10
0
 20
0
 30
0
  9
$EXTMIN
 10
0
 20
0
  9
$EXTMAX
 10
420
 20
297
  9
$LIMMIN
 10
0
 20
0
  9
$LIMMAX
 10
420
 20
297
  9
$LTSCALE
 40
1
  0
ENDSEC
  0
SECTION
  2
TABLES
  0
TABLE
  2
LTYPE
 70
     9
  0
LTYPE
  2
CONTINUOUS
 70
    64
  3
実線
 72
    65
 73
     0
 40
0.0
  0
LTYPE
  2
DASHED1
 70
    64
  3
--  --  --  --  --  --  --  --  
 72
    65
 73
     2
 40
2.5
 49
1.25
 49
-1.25
  0
LTYPE
  2
DASHED2
 70
    64
  3
----    ----    ----    ----    
 72
    65
 73
     2
 40
5.0
 49
2.5
 49
-2.5
  0
LTYPE
  2
DASHED3
 70
    64
  3
------  ------  ------  ------  
 72
    65
 73
     2
 40
5.0
 49
3.75
 49
-1.25
  0
LTYPE
  2
CENTER1
 70
    64
  3
----- - ----- - ----- - ----- - 
 72
    65
 73
     4
 40
10.0
 49
6.25
 49
-1.25
 49
1.25
 49
-1.25
  0
LTYPE
  2
CENTER2
 70
    64
  3
----------  --  ----------  --  
 72
    65
 73
     4
 40
20.0
 49
12.5
 49
-2.5
 49
2.5
 49
-2.5
  0
LTYPE
  2
PHANTOM1
 70
    64
  3
--- - - --- - - --- - - --- - - 
 72
    65
 73
     6
 40
10.0
 49
3.25
 49
-1.25
 49
1.25
 49
-1.25
 49
1.25
 49
-1.25
  0
LTYPE
  2
PHANTOM2
 70
    64
  3
--------  -  -  --------  -  -  
 72
    65
 73
     6
 40
20.0
 49
10.0
 49
-2.5
 49
1.25
 49
-2.5
 49
1.25
 49
-2.5
  0
LTYPE
  2
DOT
 70
    64
  3
-   -   -   -   -   -   -   -   
 72
    65
 73
     2
 40
2.5
 49
0.625
 49
-1.875
  0
LTYPE
  2
DUMMY
 70
    64
  3
ダミー
 72
    65
 73
     0
 40
0.0
  0
LTYPE
  2
RAND1
 70
    64
  3
ランダム線1
 72
    65
 73
     4
 40
10.0
 49
1.0
 49
-2.0
 49
3.0
 49
-4.0
  0
LTYPE
  2
RAND2
 70
    64
  3
ランダム線2
 72
    65
 73
     4
 40
14.0
 49
2.0
 49
-3.0
 49
4.0
 49
-5.0
  0
LTYPE
  2
RAND3
 70
    64
  3
ランダム線3
 72
    65
 73
     4
 40
18.0
 49
3.0
 49
-4.0
 49
5.0
 49
-6.0
  0
LTYPE
  2
RAND4
 70
    64
  3
ランダム線4
 72
    65
 73
     4
 40
22.0
 49
4.0
 49
-5.0
 49
6.0
 49
-7.0
  0
LTYPE
  2
RAND5
 70
    64
  3
ランダム線5
 72
    65
 73
     4
 40
26.0
 49
5.0
 49
-6.0
 49
7.0
 49
-8.0
  0
LTYPE
  2
LONG1
 70
    64
  3
----------  --  ----------  --  
 72
    65
 73
     4
 40
40.0
 49
32.5
 49
-2.5
 49
2.5
 49
-2.5
  0
LTYPE
  2
LONG2
 70
    64
  3
--------  -  -  --------  -  -  
 72
    65
 73
     6
 40
40.0
 49
30.0
 49
-2.5
 49
1.25
 49
-2.5
 49
1.25
 49
-2.5
  0
LTYPE
  2
LONG3
 70
    64
  3
+++++++++++++++..+++++++++++++++
 72
    65
 73
     2
 40
40.0
 49
37.5
 49
-2.5
  0
LTYPE
  2
LONG4
 70
    64
  3
+++++++++++++++..+++++++++++++++
 72
    65
 73
     2
 40
80.0
 49
75.0
 49
-5.0
  0
LTYPE
  2
LONG5
 70
    64
  3
----------  --  ----------  --  
 72
    65
 73
     4
 40
60.0
 49
37.5
 49
-7.5
 49
7.5
 49
-7.5
  0
LTYPE
  2
dashed
 70
   64
  3
-------   -------------   ------
 72
   65
 73
    2
 40
7.5
 49
6
 49
-1.5
  0
LTYPE
  2
dashed_spaced
 70
   64
  3
----        --------        ----
 72
   65
 73
    2
 40
12
 49
6
 49
-6
  0
LTYPE
  2
long_dashed_dotted
 70
   64
  3
------------- --- --------------
 72
   65
 73
    4
 40
15.25
 49
12
 49
-1.5
 49
0.25
 49
-1.5
  0
LTYPE
  2
long_dashed_double-dotted
 70
   64
  3
----------- --- --- ------------
 72
   65
 73
    6
 40
17
 49
12
 49
-1.5
 49
0.25
 49
-1.5
 49
0.25
 49
-1.5
  0
LTYPE
  2
long_dashed_triplicate-dotted
 70
   64
  3
--------- --- --- --- ----------
 72
   65
 73
    8
 40
18.75
 49
12
 49
-1.5
 49
0.25
 49
-1.5
 49
0.25
 49
-1.5
 49
0.25
 49
-1.5
  0
LTYPE
  2
dotted
 70
   64
  3
   -       -       -       -    
 72
   65
 73
    2
 40
1.75
 49
0.25
 49
-1.5
  0
LTYPE
  2
chain
 70
   64
  3
-------------- -- --------------
 72
   65
 73
    4
 40
18.5
 49
12
 49
-1.5
 49
3.5
 49
-1.5
  0
LTYPE
  2
chain_double_dash
 70
   64
  3
------------ -- -- -------------
 72
   65
 73
    6
 40
23.5
 49
12
 49
-1.5
 49
3.5
 49
-1.5
 49
3.5
 49
-1.5
  0
LTYPE
  2
dashed_dotted
 70
   64
  3
-----------     -     ----------
 72
   65
 73
    4
 40
9.25
 49
6
 49
-1.5
 49
0.25
 49
-1.5
  0
LTYPE
  2
double-dashed_dotted
 70
   64
  3
------   -----------   -   -----
 72
   65
 73
    6
 40
16.75
 49
6
 49
-1.5
 49
6
 49
-1.5
 49
0.25
 49
-1.5
  0
LTYPE
  2
dashed_double-dotted
 70
   64
  3
---------    -    -    ---------
 72
   65
 73
    6
 40
11
 49
6
 49
-1.5
 49
0.25
 49
-1.5
 49
0.25
 49
-1.5
  0
LTYPE
  2
double-dashed_double-dotted
 70
   64
  3
-----   ---------   -   -   ----
 72
   65
 73
    8
 40
18.5
 49
6
 49
-1.5
 49
6
 49
-1.5
 49
0.25
 49
-1.5
 49
0.25
 49
-1.5
  0
LTYPE
  2
dashed_triplicate-dotted
 70
   64
  3
-------    -    -    -    ------
 72
   65
 73
    8
 40
12.75
 49
6
 49
-1.5
 49
0.25
 49
-1.5
 49
0.25
 49
-1.5
 49
0.25
 49
-1.5
  0
LTYPE
  2
double-dashed_triplicate-dotted
 70
   64
  3
-----  ---------  -  -  -  -----
 72
   65
 73
   10
 40
20.25
 49
6
 49
-1.5
 49
6
 49
-1.5
 49
0.25
 49
-1.5
 49
0.25
 49
-1.5
 49
0.25
 49
-1.5
  0
LTYPE
  2
undefined
 70
   64
  3
--------------------------------
 72
   65
 73
    0
 40
0
  0
LTYPE
  2
_
 70
   64
  3
                                
 72
   65
 73
    0
 40
0
  0
LTYPE
  2
__18
 70
   64
  3
                                
 72
   65
 73
    0
 40
0
  0
LTYPE
  2
__19
 70
   64
  3
                                
 72
   65
 73
    0
 40
0
  0
LTYPE
  2
__20
 70
   64
  3
                                
 72
   65
 73
    0
 40
0
  0
LTYPE
  2
__21
 70
   64
  3
                                
 72
   65
 73
    0
 40
0
  0
LTYPE
  2
__22
 70
   64
  3
                                
 72
   65
 73
    0
 40
0
  0
LTYPE
  2
__23
 70
   64
  3
                                
 72
   65
 73
    0
 40
0
  0
LTYPE
  2
__24
 70
   64
  3
                                
 72
   65
 73
    0
 40
0
  0
LTYPE
  2
__25
 70
   64
  3
                                
 72
   65
 73
    0
 40
0
  0
LTYPE
  2
__26
 70
   64
  3
                                
 72
   65
 73
    0
 40
0
  0
LTYPE
  2
__27
 70
   64
  3
                                
 72
   65
 73
    0
 40
0
  0
LTYPE
  2
__28
 70
   64
  3
                                
 72
   65
 73
    0
 40
0
  0
LTYPE
  2
__29
 70
   64
  3
                                
 72
   65
 73
    0
 40
0
  0
LTYPE
  2
__30
 70
   64
  3
                                
 72
   65
 73
    0
 40
0
  0
LTYPE
  2
__31
 70
   64
  3
                                
 72
   65
 73
    0
 40
0
  0
LTYPE
  2
__32
 70
   64
  3
                                
 72
   65
 73
    0
 40
0
  0
ENDTAB
  0
TABLE
  2
STYLE
  5
3
100
AcDbSymbolTable
 70
     1
  0
STYLE
  5
10
100
AcDbSymbolTableRecord
100
AcDbTextStyleTableRecord
  2
STANDARD
 70
     0
 40
0.0
 41
1.0
 50
0.0
 71
     0
 42
0.2
  3
txt
  4
bigfont.shx
  0
STYLE
  5
26
100
AcDbSymbolTableRecord
100
AcDbTextStyleTableRecord
  2
TATEGAKI
 70
    68
 40
0.0
 41
1.0
 50
0.0
 71
     0
 42
1.0
  3
txt
  4
bigfont.shx
  0
ENDTAB
  0
TABLE
  2
LAYER
 70
   16
  0
LAYER
  2
_0-0_
 70
   64
 62
    7
  6
CONTINUOUS
  0
LAYER
  2
_1-0_
 70
   64
 62
    7
  6
CONTINUOUS
  0
LAYER
  2
_1-1_
 70
   64
 62
    7
  6
CONTINUOUS
  0
LAYER
  2
_1-2_
 70
   64
 62
    7
  6
CONTINUOUS
  0
LAYER
  2
_1-3_
 70
   64
 62
    7
  6
CONTINUOUS
  0
LAYER
  2
_1-4_
 70
   64
 62
    7
  6
CONTINUOUS
  0
LAYER
  2
_1-5_
 70
   64
 62
    7
  6
CONTINUOUS
  0
LAYER
  2
_1-6_
 70
   64
 62
    7
  6
CONTINUOUS
  0
LAYER
  2
_1-7_
 70
   64
 62
    7
  6
CONTINUOUS
  0
LAYER
  2
_1-8_
 70
   64
 62
    7
  6
CONTINUOUS
  0
LAYER
  2
_1-9_
 70
   64
 62
    7
  6
CONTINUOUS
  0
LAYER
  2
_1-a_
 70
   64
 62
    7
  6
CONTINUOUS
  0
LAYER
  2
_1-b_
 70
   64
 62
    7
  6
CONTINUOUS
  0
LAYER
  2
_1-d_
 70
   64
 62
    7
  6
CONTINUOUS
  0
LAYER
  2
_1-f_
 70
   64
 62
    7
  6
CONTINUOUS
  0
LAYER
  2
ADD_LINE
 70
   64
 62
    7
  6
CONTINUOUS
  0
ENDTAB
  0
ENDSEC
  0
SECTION
  2
BLOCKS
  0
BLOCK
  2
-000-MG
 70
   64
 10
0
 20
0
 30
0
  0
LINE
  8
_1-2_
  6
CONTINUOUS
 62
    7
 10
-10
 20
-0.9000000000000056
 11
10
 21
-0.9000000000000056
  0
LINE
  8
_1-2_
  6
CONTINUOUS
 62
    7
 10
10
 20
-0.9000000000000056
 11
10
 21
0.9000000000000056
  0
LINE
  8
_1-2_
  6
CONTINUOUS
 62
    7
 10
10
 20
0.9000000000000056
 11
-10
 21
0.9000000000000056
  0
LINE
  8
_1-2_
  6
CONTINUOUS
 62
    7
 10
-10
 20
0.9000000000000056
 11
-10
 21
-0.9000000000000056
  0
LINE
  8
_2-2_
  6
CONTINUOUS
 62
   18
 10
9.7066017177984225
 20
-0.8999999999997632
 11
9.9999999999998934
 21
-0.6066017177982914
  0
LINE
  8
_2-2_
  6
CONTINUOUS
 62
   18
 10
8.9994949366118266
 20
-0.8999999999996921
 11
10.000000000000153
 21
0.1005050633886339
  0
LINE
  8
_2-2_
  6
CONTINUOUS
 62
   18
 10
8.2923881554247068
 20
-0.9000000000001446
 11
10.000000000000439
 21
0.8076118445755868
  0
LINE
  8
_2-2_
  6
CONTINUOUS
 62
   18
 10
7.5852813742380487
 20
-0.9000000000001358
 11
9.3852813742377919
 21
0.8999999999996068
  0
LINE
  8
_2-2_
  6
CONTINUOUS
 62
   18
 10
6.8781745930514369
 20
-0.9000000000000811
 11
8.6781745930511782
 21
0.8999999999996601
  0
LINE
  8
_2-2_
  6
CONTINUOUS
 62
   18
 10
6.1710678118648232
 20
-0.9000000000000274
 11
7.9710678118645646
 21
0.8999999999997134
  0
LINE
  8
_2-2_
  6
CONTINUOUS
 62
   18
 10
5.4639610306782096
 20
-0.8999999999999741
 11
7.2639610306779527
 21
0.8999999999997685
  0
LINE
  8
_2-2_
  6
CONTINUOUS
 62
   18
 10
4.756854249491596
 20
-0.8999999999999206
 11
6.5568542494913391
 21
0.8999999999998222
  0
LINE
  8
_2-2_
  6
CONTINUOUS
 62
   18
 10
4.0497474683069461
 20
-0.8999999999997223
 11
5.8497474683066901
 21
0.9000000000000207
  0
LINE
  8
_2-2_
  6
CONTINUOUS
 62
   18
 10
3.3426406871203342
 20
-0.8999999999996675
 11
5.1426406871200765
 21
0.9000000000000745
  0
LINE
  8
_2-2_
  6
CONTINUOUS
 62
   18
 10
2.6355339059337215
 20
-0.8999999999996132
 11
4.4355339059334629
 21
0.9000000000001282
  0
LINE
  8
_2-2_
  6
CONTINUOUS
 62
   18
 10
1.9284271247471079
 20
-0.8999999999995599
 11
3.7284271247468501
 21
0.9000000000001819
  0
LINE
  8
_2-2_
  6
CONTINUOUS
 62
   18
 10
1.2213203435604942
 20
-0.8999999999995065
 11
3.0213203435602374
 21
0.9000000000002359
  0
LINE
  8
_2-2_
  6
CONTINUOUS
 62
   18
 10
0.5142135623736052
 20
-0.8999999999997285
 11
2.3142135623732996
 21
0.8999999999999657
  0
LINE
  8
_2-2_
  6
CONTINUOUS
 62
   18
 10
-0.1928932188129897
 20
-0.8999999999996565
 11
1.6071067811861788
 21
0.8999999999995116
  0
LINE
  8
_2-2_
  6
CONTINUOUS
 62
   18
 10
-0.8999999999995838
 20
-0.8999999999995836
 11
0.8999999999995838
 21
0.8999999999995836
  0
LINE
  8
_2-2_
  6
CONTINUOUS
 62
   18
 10
-1.6071067811861788
 20
-0.8999999999995116
 11
0.1928932188129897
 21
0.8999999999996565
  0
LINE
  8
_2-2_
  6
CONTINUOUS
 62
   18
 10
-2.3142135623732996
 20
-0.8999999999999657
 11
-0.5142135623736052
 21
0.8999999999997285
  0
LINE
  8
_2-2_
  6
CONTINUOUS
 62
   18
 10
-3.0213203435602374
 20
-0.9000000000002359
 11
-1.2213203435604942
 21
0.8999999999995065
  0
LINE
  8
_2-2_
  6
CONTINUOUS
 62
   18
 10
-3.7284271247468501
 20
-0.9000000000001819
 11
-1.9284271247471079
 21
0.8999999999995599
  0
LINE
  8
_2-2_
  6
CONTINUOUS
 62
   18
 10
-4.4355339059334629
 20
-0.9000000000001282
 11
-2.6355339059337215
 21
0.8999999999996132
  0
LINE
  8
_2-2_
  6
CONTINUOUS
 62
   18
 10
-5.1426406871200765
 20
-0.9000000000000745
 11
-3.3426406871203342
 21
0.8999999999996675
  0
LINE
  8
_2-2_
  6
CONTINUOUS
 62
   18
 10
-5.8497474683066901
 20
-0.9000000000000207
 11
-4.0497474683069461
 21
0.8999999999997223
  0
LINE
  8
_2-2_
  6
CONTINUOUS
 62
   18
 10
-6.5568542494913391
 20
-0.8999999999998222
 11
-4.756854249491596
 21
0.8999999999999206
  0
LINE
  8
_2-2_
  6
CONTINUOUS
 62
   18
 10
-7.2639610306779527
 20
-0.8999999999997685
 11
-5.4639610306782096
 21
0.8999999999999741
  0
LINE
  8
_2-2_
  6
CONTINUOUS
 62
   18
 10
-7.9710678118645646
 20
-0.8999999999997134
 11
-6.1710678118648232
 21
0.9000000000000274
  0
LINE
  8
_2-2_
  6
CONTINUOUS
 62
   18
 10
-8.6781745930511782
 20
-0.8999999999996601
 11
-6.8781745930514369
 21
0.9000000000000811
  0
LINE
  8
_2-2_
  6
CONTINUOUS
 62
   18
 10
-9.3852813742377919
 20
-0.8999999999996068
 11
-7.5852813742380487
 21
0.9000000000001358
  0
LINE
  8
_2-2_
  6
CONTINUOUS
 62
   18
 10
-10.000000000000439
 20
-0.8076118445755868
 11
-8.2923881554247068
 21
0.9000000000001446
  0
LINE
  8
_2-2_
  6
CONTINUOUS
 62
   18
 10
-10.000000000000153
 20
-0.1005050633886339
 11
-8.9994949366118266
 21
0.8999999999996921
  0
LINE
  8
_2-2_
  6
CONTINUOUS
 62
   18
 10
-9.9999999999998934
 20
0.6066017177982914
 11
-9.7066017177984225
 21
0.8999999999997632
  0
ENDBLK
  0
ENDSEC
  0
SECTION
  2
ENTITIES
  0
TEXT
  8
_1-7_
 62
    7
 10
370.0738640968741
 20
242.94524377886387
 40
4
 41
1
 50
0
  1
樹脂カバー
  0
TEXT
  8
_1-7_
 62
    7
 10
378.8238640968741
 20
238.97698981060989
 40
4
 41
1
 50
0
  1
(乳半)
  0
TEXT
  8
_1-7_
 62
    7
 10
376.8238640968741
 20
226.80457234622145
 40
4
 41
1
 50
0
  1
LED基板
  0
LINE
  8
_1-7_
  6
CONTINUOUS
 62
   18
 10
351.93434062177062
 20
230.11530816888535
 11
369.53418155808026
 21
244.23217058662385
  0
LINE
  8
_1-7_
  6
CONTINUOUS
 62
   18
 10
343.27854460197182
 20
221.22821875510931
 11
376.20084822474678
 21
228.6766150310682
  0
TEXT
  8
_1-7_
 62
    7
 10
360.64711989530429
 20
208.18391302233863
 40
4
 41
1
 50
0
  1
アルミフレーム
  0
LINE
  8
_1-7_
  6
CONTINUOUS
 62
   18
 10
355.96926472129576
 20
217.98861743673683
 11
361.17092942000249
 21
210.08954086226981
  0
LINE
  8
_1-7_
  6
CONTINUOUS
 62
   18
 10
353.65443405044584
 20
211.64467141299042
 11
367.58130801140328
 21
198.3613017720827
  0
LINE
  8
_1-2_
  6
CONTINUOUS
 62
   18
 10
359.29343849349311
 20
222.06156996569689
 11
359.94794784640067
 21
222.71607931860422
  0
LINE
  8
_1-2_
  6
CONTINUOUS
 62
   18
 10
358.58740758658382
 20
222.06264583997404
 11
359.68912880129824
 21
223.16436705468846
  0
LINE
  8
_1-2_
  6
CONTINUOUS
 62
   18
 10
358.20037141517537
 20
222.38271644975225
 11
359.43030975619581
 21
223.61265479077269
  0
LINE
  8
_1-2_
  6
CONTINUOUS
 62
   18
 10
357.94155237007249
 20
222.83100418583626
 11
359.17149071109293
 21
224.06094252685671
  0
LINE
  8
_1-2_
  6
CONTINUOUS
 62
   18
 10
357.68273332497006
 20
223.2792919219205
 11
358.9126716659905
 21
224.50923026294072
  0
LINE
  8
_1-2_
  6
CONTINUOUS
 62
   18
 10
355.31304687566103
 20
221.61671225379791
 11
355.95965759470687
 21
222.26332297284375
  0
LINE
  8
_1-2_
  6
CONTINUOUS
 62
   18
 10
357.42391427986763
 20
223.72757965800452
 11
358.65385262088807
 21
224.95751799902496
  0
LINE
  8
_1-2_
  6
CONTINUOUS
 62
   18
 10
354.54528154759123
 20
221.55605370691455
 11
355.70099361962707
 21
222.71176577895085
  0
LINE
  8
_1-2_
  6
CONTINUOUS
 62
   18
 10
357.13565757929678
 20
224.14642973862055
 11
358.39503357578519
 21
225.40580573510897
  0
LINE
  8
_1-2_
  6
CONTINUOUS
 62
   18
 10
354.27354626991087
 20
221.99142521041927
 11
355.47297812072497
 21
223.1908570612336
  0
LINE
  8
_1-2_
  6
CONTINUOUS
 62
   18
 10
356.07789862992308
 20
223.79577757043171
 11
358.13621453068322
 21
225.85409347119185
  0
LINE
  8
_1-2_
  6
CONTINUOUS
 62
   18
 10
354.0913743227959
 20
222.51636004449097
 11
357.87739548558079
 21
226.30238120727586
  0
LINE
  8
_1-2_
  6
CONTINUOUS
 62
   18
 10
353.89160566024816
 20
223.02369816312989
 11
357.61857644047836
 21
226.7506689433601
  0
LINE
  8
_1-2_
  6
CONTINUOUS
 62
   18
 10
353.67515239173122
 20
223.51435167579962
 11
357.35975739537548
 21
227.19895667944411
  0
LINE
  8
_1-2_
  6
CONTINUOUS
 62
   18
 10
353.44277515788849
 20
223.98908122314356
 11
357.10093835027305
 21
227.64724441552812
  0
LINE
  8
_1-2_
  6
CONTINUOUS
 62
   18
 10
353.19510815491253
 20
224.44852100135427
 11
356.827184483883
 21
228.08059733032474
  0
LINE
  8
_1-2_
  6
CONTINUOUS
 62
   18
 10
352.93267822393113
 20
224.89319785155953
 11
356.53897511684568
 21
228.49949474447408
  0
LINE
  8
_1-2_
  6
CONTINUOUS
 62
   18
 10
352.65591951157035
 20
225.32354592038541
 11
356.24073383838208
 21
228.90836024719715
  0
LINE
  8
_1-2_
  6
CONTINUOUS
 62
   18
 10
352.36518475177195
 20
225.73991794177368
 11
355.93258943032356
 21
229.30732262032529
  0
LINE
  8
_1-2_
  6
CONTINUOUS
 62
   18
 10
352.06075390996853
 20
226.14259388115693
 11
355.61464597324243
 21
229.69648594443083
  0
LINE
  8
_1-2_
  6
CONTINUOUS
 62
   18
 10
351.74284071600118
 20
226.53178746837625
 11
355.2869840687124
 21
230.07593082108747
  0
LINE
  8
_1-2_
  6
CONTINUOUS
 62
   18
 10
351.41159745849222
 20
226.90765099205396
 11
354.94966176636922
 21
230.44571529993095
  0
LINE
  8
_1-2_
  6
CONTINUOUS
 62
   18
 10
351.06711830008021
 20
227.27027861482861
 11
354.6027152211243
 21
230.8058755358727
  0
LINE
  8
_1-2_
  6
CONTINUOUS
 62
   18
 10
350.7094412855738
 20
227.61970838150887
 11
354.24615909808676
 21
231.15642619402183
  0
LINE
  8
_1-2_
  6
CONTINUOUS
 62
   18
 10
350.3385491443089
 20
227.95592302143064
 11
353.87998673583729
 21
231.49736061295903
  0
LINE
  8
_1-2_
  6
CONTINUOUS
 62
   18
 10
349.95436892656176
 20
228.27884958486834
 11
353.50417007233796
 21
231.82865073064454
  0
LINE
  8
_1-2_
  6
CONTINUOUS
 62
   18
 10
349.55677045597554
 20
228.58835789546879
 11
353.1186593315108
 21
232.15024677100405
  0
LINE
  8
_1-2_
  6
CONTINUOUS
 62
   18
 10
349.14556352058185
 20
228.88425774126176
 11
352.72338246232334
 21
232.46207668300326
  0
LINE
  8
_1-2_
  6
CONTINUOUS
 62
   18
 10
348.72049365831867
 20
229.16629466018526
 11
352.31824431542896
 21
232.76404531729554
  0
LINE
  8
_1-2_
  6
CONTINUOUS
 62
   18
 10
348.2812363129708
 20
229.43414409602406
 11
351.90312553512626
 21
233.05603331817952
  0
LINE
  8
_1-2_
  6
CONTINUOUS
 62
   18
 10
347.82738903404629
 20
229.68740359828621
 11
351.47788113581669
 21
233.33789570005661
  0
LINE
  8
_1-2_
  6
CONTINUOUS
 62
   18
 10
347.35846125773082
 20
229.92558260315741
 11
351.04233872214149
 21
233.60946006756808
  0
LINE
  8
_1-2_
  6
CONTINUOUS
 62
   18
 10
346.87386101725428
 20
230.14808914386754
 11
350.59629629964934
 21
233.87052442626259
  0
LINE
  8
_1-2_
  6
CONTINUOUS
 62
   18
 10
346.37287766228906
 20
230.35421257008898
 11
350.13951960770305
 21
234.12085451550297
  0
LINE
  8
_1-2_
  6
CONTINUOUS
 62
   18
 10
345.85465927405608
 20
230.54310096304266
 11
349.67173888704087
 21
234.36018057602746
  0
LINE
  8
_1-2_
  6
CONTINUOUS
 62
   18
 10
345.31818287330566
 20
230.71373134347891
 11
349.19264496972733
 21
234.58819343990058
  0
LINE
  8
_1-2_
  6
CONTINUOUS
 62
   18
 10
344.76221460970987
 20
230.86486986106979
 11
348.70188454699587
 21
234.80453979835579
  0
LINE
  8
_1-2_
  6
CONTINUOUS
 62
   18
 10
344.18525568003474
 20
230.99501771258133
 11
348.19905442796721
 21
235.0088164605138
  0
LINE
  8
_1-2_
  6
CONTINUOUS
 62
   18
 10
343.58546736130006
 20
231.10233617503332
 11
347.6836945453199
 21
235.20056335905315
  0
LINE
  8
_1-2_
  6
CONTINUOUS
 62
   18
 10
342.96056453298775
 20
231.18454012790767
 11
347.15527938666378
 21
235.3792549815837
  0
LINE
  8
_1-2_
  6
CONTINUOUS
 62
   18
 10
342.307659950058
 20
231.23874232616276
 11
346.61320742407293
 21
235.54428980017769
  0
LINE
  8
_1-2_
  6
CONTINUOUS
 62
   18
 10
341.62302827764529
 20
231.26121743493673
 11
346.0567879654875
 21
235.69497712277894
  0
LINE
  8
_1-2_
  6
CONTINUOUS
 62
   18
 10
340.90173269728507
 20
231.24702863576317
 11
345.48522464048961
 21
235.83052057896771
  0
LINE
  8
_1-2_
  6
CONTINUOUS
 62
   18
 10
340.13700117672875
 20
231.18940389639351
 11
344.89759442716536
 21
235.94999714683013
  0
LINE
  8
_1-2_
  6
CONTINUOUS
 62
   18
 10
339.31910967536783
 20
231.07861917621926
 11
344.29282067579265
 21
236.05233017664409
  0
LINE
  8
_1-2_
  6
CONTINUOUS
 62
   18
 10
338.39228453207738
 20
230.85890081411549
 11
343.66963790446948
 21
236.13625418650759
  0
LINE
  8
_1-2_
  6
CONTINUOUS
 62
   18
 10
337.46178444455404
 20
230.63550750777904
 11
343.02654508991122
 21
236.20026815313599
  0
LINE
  8
_1-2_
  6
CONTINUOUS
 62
   18
 10
336.5312843570307
 20
230.41211420144236
 11
342.36174250442332
 21
236.24257234883476
  0
LINE
  8
_1-2_
  6
CONTINUOUS
 62
   18
 10
335.60078426950781
 20
230.18872089510592
 11
341.67304440738803
 21
236.26098103298614
  0
LINE
  8
_1-2_
  6
CONTINUOUS
 62
   18
 10
334.67028418198402
 20
229.96532758876856
 11
340.95775523455745
 21
236.25279864134222
  0
LINE
  8
_1-2_
  6
CONTINUOUS
 62
   18
 10
333.73978409446067
 20
229.74193428243211
 11
340.21248865296889
 21
236.21463884094032
  0
LINE
  8
_1-2_
  6
CONTINUOUS
 62
   18
 10
333.22267867300093
 20
229.93193564215926
 11
339.43289342153935
 21
236.14215039069745
  0
LINE
  8
_1-2_
  6
CONTINUOUS
 62
   18
 10
332.93784909976807
 20
230.35421285011284
 11
338.61126663241134
 21
236.02763038275634
  0
LINE
  8
_1-2_
  6
CONTINUOUS
 62
   18
 10
332.65301952653476
 20
230.7764900580662
 11
337.66930158793753
 21
235.79277211946896
  0
LINE
  8
_1-2_
  6
CONTINUOUS
 62
   18
 10
332.36818995330145
 20
231.19876726601979
 11
332.83099265297847
 21
231.66156996569634
  0
LINE
  8
_1-2_
  6
CONTINUOUS
 62
   18
 10
333.42582899748891
 20
232.25640631020701
 11
336.72733654346507
 21
235.55791385618318
  0
LINE
  8
_1-2_
  6
CONTINUOUS
 62
   18
 10
333.35341840166825
 20
232.8911024955712
 11
335.78537149899444
 21
235.32305559289739
  0
LINE
  8
_1-2_
  6
CONTINUOUS
 62
   18
 10
332.81677909060704
 20
233.06156996569644
 11
334.84340645452107
 21
235.08819732961069
  0
LINE
  8
_1-2_
  6
CONTINUOUS
 62
   18
 10
332.10967230942038
 20
233.06156996569666
 11
333.90144141004725
 21
234.85333906632377
  0
LINE
  8
_1-2_
  6
CONTINUOUS
 62
   18
 10
331.40256552823371
 20
233.06156996569666
 11
332.9594763655748
 21
234.61848080303776
  0
LINE
  8
_1-2_
  6
CONTINUOUS
 62
   18
 10
330.8282090798441
 20
233.19432029849395
 11
332.01751132110098
 21
234.3836225397506
  0
LINE
  8
_1-2_
  6
CONTINUOUS
 62
   18
 10
330.72943626923666
 20
233.80265426907272
 11
331.07554627662853
 21
234.14876427646482
  0
LINE
  8
_1-3_
  6
CONTINUOUS
 62
   18
 10
330.72582899748909
 20
243.45935312347751
 11
360.12582899748918
 21
243.45935312347751
  0
LINE
  8
_1-3_
  6
CONTINUOUS
 62
   18
 10
330.72582899748909
 20
243.45935312347751
 11
331.69175482377818
 21
243.71817216857994
  0
LINE
  8
_1-3_
  6
CONTINUOUS
 62
   18
 10
330.72582899748909
 20
243.45935312347751
 11
331.69175482377818
 21
243.20053407837509
  0
LINE
  8
_1-3_
  6
CONTINUOUS
 62
   18
 10
360.12582899748918
 20
243.45935312347751
 11
359.15990317120009
 21
243.20053407837509
  0
LINE
  8
_1-3_
  6
CONTINUOUS
 62
   18
 10
360.12582899748918
 20
243.45935312347751
 11
359.15990317120009
 21
243.71817216857994
  0
LINE
  8
_1-3_
  6
CONTINUOUS
 62
   18
 10
330.72582899748909
 20
243.95935312347751
 11
330.72582899748909
 21
234.74905571509385
  0
LINE
  8
_1-3_
  6
CONTINUOUS
 62
   18
 10
360.12582899748918
 20
243.95935312347751
 11
360.12582899748918
 21
222.46156996569675
  0
TEXT
  8
_1-3_
 62
    7
 10
342.05082899748936
 20
243.95935312347751
 40
3
 41
1
 50
0
  1
14.7
  0
LINE
  8
_1-3_
  6
CONTINUOUS
 62
   18
 10
332.22582899748909
 20
203.13375285592952
 11
358.62582899748918
 21
203.13375285592952
  0
LINE
  8
_1-3_
  6
CONTINUOUS
 62
   18
 10
332.22582899748909
 20
203.13375285592952
 11
333.19175482377818
 21
203.39257190103194
  0
LINE
  8
_1-3_
  6
CONTINUOUS
 62
   18
 10
332.22582899748909
 20
203.13375285592952
 11
333.19175482377818
 21
202.87493381082709
  0
LINE
  8
_1-3_
  6
CONTINUOUS
 62
   18
 10
358.62582899748918
 20
203.13375285592952
 11
357.65990317120009
 21
202.87493381082709
  0
LINE
  8
_1-3_
  6
CONTINUOUS
 62
   18
 10
358.62582899748918
 20
203.13375285592952
 11
357.65990317120009
 21
203.39257190103194
  0
LINE
  8
_1-3_
  6
CONTINUOUS
 62
   18
 10
332.22582899748909
 20
202.63375285592952
 11
332.22582899748909
 21
209.26156996569671
  0
LINE
  8
_1-3_
  6
CONTINUOUS
 62
   18
 10
358.62582899748918
 20
202.63375285592952
 11
358.62582899748918
 21
209.26156996569671
  0
TEXT
  8
_1-3_
 62
    7
 10
342.05082899748936
 20
203.63375285592952
 40
3
 41
1
 50
0
  1
13.2
  0
LINE
  8
_1-3_
  6
CONTINUOUS
 62
   18
 10
323.08011468730797
 20
209.6615699656968
 11
323.08011468730797
 21
236.26156996569671
  0
LINE
  8
_1-3_
  6
CONTINUOUS
 62
   18
 10
323.08011468730797
 20
209.6615699656968
 11
322.82129564220554
 21
210.62749579198589
  0
LINE
  8
_1-3_
  6
CONTINUOUS
 62
   18
 10
323.08011468730797
 20
209.6615699656968
 11
323.33893373241085
 21
210.62749579198589
  0
LINE
  8
_1-3_
  6
CONTINUOUS
 62
   18
 10
323.08011468730797
 20
236.26156996569671
 11
323.33893373241085
 21
235.29564413940761
  0
LINE
  8
_1-3_
  6
CONTINUOUS
 62
   18
 10
323.08011468730797
 20
236.26156996569671
 11
322.82129564220554
 21
235.29564413940761
  0
LINE
  8
_1-3_
  6
CONTINUOUS
 62
   18
 10
322.58011468730797
 20
209.6615699656968
 11
331.825828997489
 21
209.6615699656968
  0
LINE
  8
_1-3_
  6
CONTINUOUS
 62
   18
 10
322.58011468730797
 20
236.26156996569671
 11
340.52582899748927
 21
236.26156996569671
  0
TEXT
  8
_1-3_
 62
    7
 10
322.58011468730797
 20
219.58656996569675
 40
3
 41
1
 50
90
  1
13.3
  0
CIRCLE
  8
_1-4_
  6
CONTINUOUS
 62
    7
 10
336.825828997489
 20
212.06156996569644
 40
2.3000000000000003
  0
CIRCLE
  8
_1-4_
  6
CONTINUOUS
 62
    7
 10
354.02582899748882
 20
212.06156996569644
 40
2.3000000000000003
  0
LINE
  8
_1-1_
  6
CONTINUOUS
 62
    7
 10
332.72582899748909
 20
233.06156996569666
 11
331.12582899748918
 21
233.06156996569666
  0
ARC
  8
_1-1_
  6
CONTINUOUS
 62
    7
 10
331.12582899748918
 20
232.66156996569657
 40
0.4
 50
90
 51
180
  0
ARC
  8
_1-1_
  6
CONTINUOUS
 62
    7
 10
332.72582899748909
 20
232.66156996569657
 40
0.4
 50
0
 51
90
  0
LINE
  8
_1-1_
  6
CONTINUOUS
 62
    7
 10
333.12582899748918
 20
232.46156996569675
 11
333.12582899748918
 21
232.66156996569657
  0
ARC
  8
_1-1_
  6
CONTINUOUS
 62
    7
 10
332.72582899748909
 20
232.46156996569675
 40
0.4
 50
270
 51
0
  0
LINE
  8
_1-1_
  6
CONTINUOUS
 62
    7
 10
332.48582899748931
 20
232.06156996569666
 11
332.72582899748909
 21
232.06156996569666
  0
ARC
  8
_1-1_
  6
CONTINUOUS
 62
    7
 10
332.48582899748931
 20
231.66156996569657
 40
0.4
 50
90
 51
180
  0
ARC
  8
_1-1_
  6
CONTINUOUS
 62
    7
 10
332.48582899748931
 20
231.58386223828006
 40
0.4
 50
180
 51
213.99999999999997
  0
LINE
  8
_1-1_
  6
CONTINUOUS
 62
    7
 10
332.15421396846727
 20
231.36018507689187
 11
332.72582899748909
 21
230.51273094584849
  0
LINE
  8
_1-1_
  6
CONTINUOUS
 62
    7
 10
332.08582899748922
 20
231.58386223828006
 11
332.08582899748922
 21
231.66156996569657
  0
ARC
  8
_1-1_
  6
CONTINUOUS
 62
    7
 10
332.62582899748918
 20
216.26156996569648
 40
0.4
 50
180
 51
233.13010235415436
  0
LINE
  8
_1-1_
  6
CONTINUOUS
 62
    7
 10
332.38582899748894
 20
215.94156996569654
 11
333.02582899748927
 21
215.46156996569675
  0
LINE
  8
_1-1_
  6
CONTINUOUS
 62
    7
 10
333.02582899748927
 20
215.46156996569675
 11
333.02582899748927
 21
214.86156996569662
  0
LINE
  8
_1-1_
  6
CONTINUOUS
 62
    7
 10
332.27853174063944
 20
213.55379976620929
 11
333.02582899748927
 21
214.86156996569662
  0
ARC
  8
_1-1_
  6
CONTINUOUS
 62
    7
 10
332.62582899748918
 20
213.35534419086662
 40
0.4
 50
150.25511870306053
 51
180
  0
LINE
  8
_1-1_
  6
CONTINUOUS
 62
    7
 10
332.22582899748909
 20
210.26156996569671
 11
332.22582899748909
 21
213.35534419086662
  0
ARC
  8
_1-1_
  6
CONTINUOUS
 62
    7
 10
332.825828997489
 20
210.26156996569671
 40
0.6
 50
180
 51
270
  0
LINE
  8
_1-1_
  6
CONTINUOUS
 62
    7
 10
332.825828997489
 20
209.66156996569657
 11
334.62582899748918
 21
209.66156996569657
  0
ARC
  8
_1-1_
  6
CONTINUOUS
 62
    7
 10
334.62582899748918
 20
210.06156996569666
 40
0.4
 50
270
 51
63.820048562264851
  0
ARC
  8
_1-1_
  6
CONTINUOUS
 62
    7
 10
335.06702086051223
 20
210.95898276926164
 40
0.6
 50
187.08788921527426
 51
243.82004856226462
  0
LINE
  8
_1-1_
  6
CONTINUOUS
 62
    7
 10
334.22582899748909
 20
212.86156996569662
 11
334.4716060354674
 21
210.88494773622119
  0
LINE
  8
_1-1_
  6
CONTINUOUS
 62
    7
 10
335.02582899748927
 20
214.46156996569675
 11
334.22582899748909
 21
212.86156996569662
  0
ARC
  8
_1-1_
  6
CONTINUOUS
 62
    7
 10
335.17658674724203
 20
214.86156996569662
 40
0.4
 50
270
 51
38.246619878345264
  0
ARC
  8
_1-1_
  6
CONTINUOUS
 62
    7
 10
336.825828997489
 20
216.16156996569657
 40
1.7000000000000002
 50
321.75338012165497
 51
218.24661987834503
  0
ARC
  8
_1-1_
  6
CONTINUOUS
 62
    7
 10
338.47507124773597
 20
214.86156996569662
 40
0.4
 50
141.7533801216548
 51
270
  0
LINE
  8
_1-1_
  6
CONTINUOUS
 62
    7
 10
338.62582899748918
 20
214.46156996569675
 11
339.42582899748891
 21
212.86156996569662
  0
LINE
  8
_1-1_
  6
CONTINUOUS
 62
    7
 10
339.17861763862243
 20
210.8838790947616
 11
339.42582899748891
 21
212.86156996569662
  0
ARC
  8
_1-1_
  6
CONTINUOUS
 62
    7
 10
338.58325091259417
 20
210.95829993551502
 40
0.6
 50
296.26848914846562
 51
352.8749836510982
  0
ARC
  8
_1-1_
  6
CONTINUOUS
 62
    7
 10
339.02582899748927
 20
210.06156996569666
 40
0.4
 50
116.26848914846575
 51
270
  0
LINE
  8
_1-1_
  6
CONTINUOUS
 62
    7
 10
340.42582899748891
 20
209.66156996569657
 11
339.02582899748927
 21
209.66156996569657
  0
ARC
  8
_1-1_
  6
CONTINUOUS
 62
    7
 10
340.42582899748891
 20
210.66156996569657
 40
1
 50
270
 51
0
  0
LINE
  8
_1-1_
  6
CONTINUOUS
 62
    7
 10
341.42582899748891
 20
210.66156996569657
 11
341.42582899748891
 21
211.66156996569657
  0
ARC
  8
_1-1_
  6
CONTINUOUS
 62
    7
 10
342.02582899748927
 20
211.66156996569657
 40
0.6
 50
90
 51
180
  0
LINE
  8
_1-1_
  6
CONTINUOUS
 62
    7
 10
348.825828997489
 20
212.26156996569671
 11
342.02582899748927
 21
212.26156996569671
  0
ARC
  8
_1-1_
  6
CONTINUOUS
 62
    7
 10
348.825828997489
 20
211.66156996569657
 40
0.6
 50
0
 51
90
  0
LINE
  8
_1-1_
  6
CONTINUOUS
 62
    7
 10
349.42582899748891
 20
210.66156996569657
 11
349.42582899748891
 21
211.66156996569657
  0
ARC
  8
_1-1_
  6
CONTINUOUS
 62
    7
 10
350.42582899748891
 20
210.66156996569657
 40
1
 50
180
 51
270
  0
LINE
  8
_1-1_
  6
CONTINUOUS
 62
    7
 10
350.42582899748891
 20
209.66156996569657
 11
351.825828997489
 21
209.66156996569657
  0
ARC
  8
_1-1_
  6
CONTINUOUS
 62
    7
 10
351.825828997489
 20
210.06156996569666
 40
0.4
 50
270
 51
63.731510851534097
  0
ARC
  8
_1-1_
  6
CONTINUOUS
 62
    7
 10
352.2684070823841
 20
210.95829993551502
 40
0.6
 50
187.1250163489018
 51
243.73151085153435
  0
LINE
  8
_1-1_
  6
CONTINUOUS
 62
    7
 10
351.67304035635584
 20
210.8838790947616
 11
351.42582899748891
 21
212.86156996569662
  0
LINE
  8
_1-1_
  6
CONTINUOUS
 62
    7
 10
352.37658674724184
 20
214.46156996569675
 11
352.22582899748909
 21
214.46156996569675
  0
LINE
  8
_1-1_
  6
CONTINUOUS
 62
    7
 10
352.22582899748909
 20
214.46156996569675
 11
351.42582899748891
 21
212.86156996569662
  0
ARC
  8
_1-1_
  6
CONTINUOUS
 62
    7
 10
352.37658674724184
 20
214.86156996569662
 40
0.4
 50
270
 51
38.246619878345214
  0
ARC
  8
_1-1_
  6
CONTINUOUS
 62
    7
 10
354.02582899748927
 20
216.16156996569657
 40
1.7000000000000002
 50
321.75338012165503
 51
218.24661987834497
  0
ARC
  8
_1-1_
  6
CONTINUOUS
 62
    7
 10
355.67507124773624
 20
214.86156996569662
 40
0.4
 50
141.75338012165474
 51
270
  0
LINE
  8
_1-1_
  6
CONTINUOUS
 62
    7
 10
355.825828997489
 20
214.46156996569675
 11
356.62582899748918
 21
212.86156996569662
  0
LINE
  8
_1-1_
  6
CONTINUOUS
 62
    7
 10
355.825828997489
 20
214.46156996569675
 11
355.67507124773624
 21
214.46156996569675
  0
LINE
  8
_1-1_
  6
CONTINUOUS
 62
    7
 10
356.62582899748918
 20
212.86156996569662
 11
356.38005195951087
 21
210.88494773622119
  0
ARC
  8
_1-1_
  6
CONTINUOUS
 62
    7
 10
355.78463713446604
 20
210.95898276926164
 40
0.6
 50
296.17995143773538
 51
352.91211078472571
  0
ARC
  8
_1-1_
  6
CONTINUOUS
 62
    7
 10
356.22582899748909
 20
210.06156996569666
 40
0.4
 50
116.17995143773484
 51
270
  0
LINE
  8
_1-1_
  6
CONTINUOUS
 62
    7
 10
358.02582899748927
 20
209.66156996569657
 11
356.22582899748909
 21
209.66156996569657
  0
ARC
  8
_1-1_
  6
CONTINUOUS
 62
    7
 10
358.02582899748927
 20
210.26156996569671
 40
0.6
 50
270
 51
0
  0
LINE
  8
_1-1_
  6
CONTINUOUS
 62
    7
 10
358.62582899748918
 20
210.26156996569671
 11
358.62582899748918
 21
213.35534419086684
  0
ARC
  8
_1-1_
  6
CONTINUOUS
 62
    7
 10
358.22582899748909
 20
213.35534419086684
 40
0.4
 50
0
 51
29.74488129693945
  0
LINE
  8
_1-1_
  6
CONTINUOUS
 62
    7
 10
358.57312625433883
 20
213.55379976620952
 11
357.825828997489
 21
214.86156996569662
  0
LINE
  8
_1-1_
  6
CONTINUOUS
 62
    7
 10
357.825828997489
 20
215.46156996569675
 11
357.825828997489
 21
214.86156996569662
  0
LINE
  8
_1-1_
  6
CONTINUOUS
 62
    7
 10
358.62582899748918
 20
219.66156996569657
 11
360.12582899748918
 21
221.16156996569657
  0
ARC
  8
_1-1_
  6
CONTINUOUS
 62
    7
 10
359.52582899748927
 20
221.46156996569675
 40
0.6
 50
0.0000000000020355
 51
90
  0
LINE
  8
_1-1_
  6
CONTINUOUS
 62
    7
 10
360.12582899748918
 20
221.46156996569675
 11
360.12582899748918
 21
221.16156996569657
  0
LINE
  8
_1-1_
  6
CONTINUOUS
 62
    7
 10
358.45676910516499
 20
222.06156996569666
 11
359.52582899748927
 21
222.06156996569666
  0
ARC
  8
_1-1_
  6
CONTINUOUS
 62
    7
 10
358.45676910516499
 20
222.46156996569675
 40
0.4
 50
209.9999999999996
 51
270
  0
LINE
  8
_1-1_
  6
CONTINUOUS
 62
    7
 10
358.11035894365136
 20
222.26156996569671
 11
357.15565840527211
 21
223.91515980418285
  0
ARC
  8
_1-1_
  6
CONTINUOUS
 62
    7
 10
356.80924824375802
 20
223.7151598041828
 40
0.4
 50
29.999999999999602
 51
119.99999999999824
  0
LINE
  8
_1-1_
  6
CONTINUOUS
 62
    7
 10
356.6092482437582
 20
224.06156996569666
 11
355.91642792073048
 21
223.66156996569657
  0
ARC
  8
_1-1_
  6
CONTINUOUS
 62
    7
 10
356.11642792073076
 20
223.31515980418294
 40
0.4
 50
119.99999999999824
 51
210.00000000000048
  0
LINE
  8
_1-1_
  6
CONTINUOUS
 62
    7
 10
356.23590903369427
 20
222.30821244598496
 11
355.77001775921667
 21
223.11515980418289
  0
ARC
  8
_1-1_
  6
CONTINUOUS
 62
    7
 10
355.88949887218064
 20
222.10821244598515
 40
0.4
 50
279.99999999999858
 51
30.000000000000476
  0
LINE
  8
_1-1_
  6
CONTINUOUS
 62
    7
 10
355.95895814324717
 20
221.71428934478013
 11
355.28798837371346
 21
221.5959792711717
  0
ARC
  8
_1-1_
  6
CONTINUOUS
 62
    7
 10
356.32987743971512
 20
215.68713275309824
 40
6
 50
99.999999999999929
 51
150.00000000000006
  0
LINE
  8
_1-1_
  6
CONTINUOUS
 62
    7
 10
351.13372501700837
 20
218.68713275309824
 11
348.7978289974892
 21
214.64124216609298
  0
ARC
  8
_1-1_
  6
CONTINUOUS
 62
    7
 10
348.2782137552183
 20
214.94124216609293
 40
0.6
 50
239.99999999999892
 51
330.00000000000136
  0
LINE
  8
_1-1_
  6
CONTINUOUS
 62
    7
 10
347.97821375521858
 20
214.42162692382226
 11
334.52582899748927
 21
222.1883648849398
  0
ARC
  8
_1-1_
  6
CONTINUOUS
 62
    7
 10
334.825828997489
 20
222.70798012721048
 40
0.6
 50
179.99999999999932
 51
239.99999999999892
  0
LINE
  8
_1-1_
  6
CONTINUOUS
 62
    7
 10
358.46582899748887
 20
215.94156996569654
 11
357.825828997489
 21
215.46156996569675
  0
LINE
  8
_1-1_
  6
CONTINUOUS
 62
    7
 10
358.62582899748918
 20
216.26156996569648
 11
358.62582899748918
 21
219.66156996569657
  0
ARC
  8
_1-1_
  6
CONTINUOUS
 62
    7
 10
358.22582899748909
 20
216.26156996569648
 40
0.4
 50
306.86989764584564
 51
0
  0
LINE
  8
_1-1_
  6
CONTINUOUS
 62
    7
 10
330.72582899748909
 20
226.31009810312048
 11
330.72582899748909
 21
232.66156996569657
  0
LINE
  8
_1-1_
  6
CONTINUOUS
 62
    7
 10
332.72582899748909
 20
227.13852522786669
 11
332.72582899748909
 21
230.51273094584849
  0
ARC
  8
_1-1_
  6
CONTINUOUS
 62
    7
 10
333.325828997489
 20
227.13852522786669
 40
0.6
 50
180.00000000000068
 51
225.00000000000094
  0
LINE
  8
_1-1_
  6
CONTINUOUS
 62
    7
 10
334.05009306620082
 20
225.56573302173069
 11
332.90156492877736
 21
226.7142611591546
  0
ARC
  8
_1-1_
  6
CONTINUOUS
 62
    7
 10
331.325828997489
 20
226.31009810312048
 40
0.6
 50
180
 51
225.00000000000094
  0
LINE
  8
_1-1_
  6
CONTINUOUS
 62
    7
 10
332.05009306620127
 20
224.73730589698448
 11
330.90156492877736
 21
225.88583403440839
  0
ARC
  8
_1-1_
  6
CONTINUOUS
 62
    7
 10
331.62582899748918
 20
224.31304182827262
 40
0.6
 50
0
 51
45.000000000000952
  0
ARC
  8
_1-1_
  6
CONTINUOUS
 62
    7
 10
333.62582899748918
 20
225.14146895301883
 40
0.6
 50
0
 51
45.000000000000952
  0
LINE
  8
_1-1_
  6
CONTINUOUS
 62
    7
 10
334.22582899748909
 20
222.70798012721048
 11
334.22582899748909
 21
225.14146895301883
  0
LINE
  8
_1-1_
  6
CONTINUOUS
 62
    7
 10
332.22582899748909
 20
224.31304182827262
 11
332.22582899748909
 21
216.26156996569648
  0
LINE
  8
_1-1_
  6
CONTINUOUS
 62
    7
 10
338.47507124773597
 20
214.46156996569675
 11
338.62582899748872
 21
214.46156996569675
  0
LINE
  8
_1-1_
  6
CONTINUOUS
 62
    7
 10
335.02582899748882
 20
214.46156996569675
 11
335.17658674724203
 21
214.46156996569675
  0
ARC
  8
_1-2_
  6
CONTINUOUS
 62
    7
 10
341.52582899748882
 20
217.86156996569662
 40
18.400000000000002
 50
32.584915873315815
 51
99.056222246134467
  0
LINE
  8
_1-2_
  6
CONTINUOUS
 62
    7
 10
331.02906023924902
 20
234.13717400560449
 11
338.62960327454061
 21
236.03220222111736
  0
ARC
  8
_1-2_
  6
CONTINUOUS
 62
    7
 10
331.12582899748918
 20
233.46156996569675
 40
0.4
 50
180
 51
270
  0
LINE
  8
_1-2_
  6
CONTINUOUS
 62
    7
 10
331.12582899748918
 20
233.06156996569666
 11
333.02582899748882
 21
233.06156996569666
  0
LINE
  8
_1-2_
  6
CONTINUOUS
 62
    7
 10
330.72582899748909
 20
233.74905571509385
 11
330.72582899748909
 21
233.46156996569675
  0
ARC
  8
_1-2_
  6
CONTINUOUS
 62
    7
 10
331.12582899748918
 20
233.74905571509385
 40
0.4
 50
103.99999999999991
 51
180
  0
ARC
  8
_1-2_
  6
CONTINUOUS
 62
    7
 10
333.02582899748882
 20
232.66156996569657
 40
0.4
 50
0
 51
90
  0
LINE
  8
_1-2_
  6
CONTINUOUS
 62
    7
 10
333.42582899748891
 20
232.66156996569657
 11
333.42582899748891
 21
232.06156996569666
  0
ARC
  8
_1-2_
  6
CONTINUOUS
 62
    7
 10
333.02582899748882
 20
232.06156996569666
 40
0.4
 50
270
 51
0
  0
LINE
  8
_1-2_
  6
CONTINUOUS
 62
    7
 10
333.02582899748882
 20
231.66156996569657
 11
332.52582899748882
 21
231.66156996569657
  0
ARC
  8
_1-2_
  6
CONTINUOUS
 62
    7
 10
332.52582899748882
 20
231.46156996569675
 40
0.2
 50
90
 51
180
  0
LINE
  8
_1-2_
  6
CONTINUOUS
 62
    7
 10
332.325828997489
 20
231.46156996569675
 11
332.325828997489
 21
231.26156996569671
  0
LINE
  8
_1-2_
  6
CONTINUOUS
 62
    7
 10
332.325828997489
 20
231.26156996569671
 11
333.2498722562766
 21
229.89161949700042
  0
ARC
  8
_1-2_
  6
CONTINUOUS
 62
    7
 10
333.58148728529864
 20
230.11529665838884
 40
0.4
 50
213.99999999999946
 51
283.50000000000011
  0
LINE
  8
_1-2_
  6
CONTINUOUS
 62
    7
 10
333.67486543084101
 20
229.72634869022977
 11
339.28010665831312
 21
231.07204804846583
  0
ARC
  8
_1-2_
  6
CONTINUOUS
 62
    7
 10
341.52582899748882
 20
217.86156996569662
 40
13.4
 50
17.092751781951421
 51
99.647796886255193
  0
ARC
  8
_1-2_
  6
CONTINUOUS
 62
    7
 10
354.71628582374092
 20
221.91765782406264
 40
0.4
 50
197.09275178195062
 51
279.99999999999937
  0
ARC
  8
_1-2_
  6
CONTINUOUS
 62
    7
 10
355.6069228340923
 20
222.07470115900514
 40
0.4
 50
279.99999999999977
 51
30.000000000000501
  0
LINE
  8
_1-2_
  6
CONTINUOUS
 62
    7
 10
354.78574509480745
 20
221.52373472285785
 11
355.67638210515929
 21
221.68077805780035
  0
LINE
  8
_1-2_
  6
CONTINUOUS
 62
    7
 10
355.52582899748882
 20
223.01515980418276
 11
355.95333299560593
 21
222.27470115900519
  0
ARC
  8
_1-2_
  6
CONTINUOUS
 62
    7
 10
355.8722391590029
 20
223.2151598041828
 40
0.4
 50
119.99999999999962
 51
210.00000000000048
  0
LINE
  8
_1-2_
  6
CONTINUOUS
 62
    7
 10
355.67223915900263
 20
223.56156996569666
 11
356.71146964354398
 21
224.16156996569657
  0
ARC
  8
_1-2_
  6
CONTINUOUS
 62
    7
 10
356.91146964354425
 20
223.81515980418294
 40
0.4
 50
30.000000000000487
 51
120.00000000000047
  0
LINE
  8
_1-2_
  6
CONTINUOUS
 62
    7
 10
358.27031537035623
 20
222.26156996569671
 11
357.25787980505788
 21
224.01515980418276
  0
ARC
  8
_1-2_
  6
CONTINUOUS
 62
    7
 10
358.61672553186986
 20
222.46156996569675
 40
0.4
 50
210.00000000000051
 51
270
  0
LINE
  8
_1-2_
  6
CONTINUOUS
 62
    7
 10
358.61672553186986
 20
222.06156996569666
 11
359.63300867446128
 21
222.06156996569666
  0
ARC
  8
_1-2_
  6
CONTINUOUS
 62
    7
 10
359.63300867446128
 20
222.46156996569675
 40
0.4
 50
270
 51
30.000000000000476
  0
LINE
  8
_1-2_
  6
CONTINUOUS
 62
    7
 10
359.97941883597537
 20
222.66156996569657
 11
357.02956243835138
 21
227.77087112141294
  0
LINE
  8
_1-4_
  6
CONTINUOUS
 62
    7
 10
336.05586895364672
 20
221.3049959043808
 11
346.44817379906021
 21
215.3049959043808
  0
LINE
  8
_1-4_
  6
CONTINUOUS
 62
    7
 10
346.44817379906021
 20
215.3049959043808
 11
347.24817379905994
 21
216.69063655043578
  0
LINE
  8
_1-4_
  6
CONTINUOUS
 62
    7
 10
347.24817379905994
 20
216.69063655043578
 11
336.8558689536469
 21
222.69063655043578
  0
LINE
  8
_1-4_
  6
CONTINUOUS
 62
    7
 10
336.8558689536469
 20
222.69063655043578
 11
336.05586895364672
 21
221.3049959043808
  0
LINE
  8
_1-5_
  6
CONTINUOUS
 62
    7
 10
349.71420551283677
 20
218.96192829493589
 11
348.11419940932115
 21
216.19063643122649
  0
LINE
  8
_1-5_
  6
CONTINUOUS
 62
    7
 10
348.11419940932115
 20
216.19063643122649
 11
335.98984334338616
 21
223.19063666964507
  0
LINE
  8
_1-5_
  6
CONTINUOUS
 62
    7
 10
335.98984334338616
 20
223.19063666964507
 11
337.58984944690178
 21
225.96192853335447
  0
LINE
  8
_1-5_
  6
CONTINUOUS
 62
    7
 10
337.58984944690178
 20
225.96192853335447
 11
349.71420551283677
 21
218.96192829493589
  0
LINE
  8
_1-5_
  6
CONTINUOUS
 62
    7
 10
346.30729414627081
 20
222.66096029709684
 11
345.55729414627081
 21
221.36192219142026
  0
LINE
  8
_1-5_
  6
CONTINUOUS
 62
    7
 10
345.55729414627081
 20
221.36192219142026
 11
341.74678765541898
 21
223.56191913966245
  0
LINE
  8
_1-5_
  6
CONTINUOUS
 62
    7
 10
341.74678765541898
 20
223.56191913966245
 11
342.49678765541898
 21
224.86095724533902
  0
LINE
  8
_1-5_
  6
CONTINUOUS
 62
    7
 10
342.49678765541898
 20
224.86095724533902
 11
346.30729414627081
 21
222.66096029709684
  0
TEXT
  8
_1-7_
 62
    7
 10
369.95536793121676
 20
217.399470899471
 40
4
 41
1
 50
0
  1
両面テープ
  0
LINE
  8
_1-7_
  6
CONTINUOUS
 62
   18
 10
342.508277722549
 20
218.39472433963761
 11
369.77282824867711
 21
219.43915343915342
  0
LINE
  8
_1-0_
  6
CENTER2
 62
   18
 10
345.42582899748913
 20
236.74282284930428
 11
345.42582899748913
 21
208.94740838722316
  0
LINE
  8
_0-0_
  6
CONTINUOUS
 62
    7
 10
16.286964263866651
 20
191.4593531263065
 11
396.28582420887409
 21
191.4593531263065
  0
TEXT
  8
_1-f_
 62
    7
 10
167.21207537887409
 20
118.29614266091731
 40
4.5
 41
1
 50
0
  1
⑤接続コネクター仕様
  0
TEXT
  8
_1-f_
 62
    7
 10
167.21207537887409
 20
101.79614266091731
 40
4.5
 41
1
 50
0
  1
⑥固定仕様
  0
TEXT
  8
_1-f_
 62
    7
 10
24.42687565102807
 20
99.233016802245615
 40
5
 41
1.0000000000000004
 50
0
  1
①
  0
TEXT
  8
_1-f_
 62
    7
 10
258.72790337367155
 20
74.231547667917411
 40
4.5
 41
1
 50
0
  1
[lm]
  0
TEXT
  8
_1-f_
 62
    7
 10
75.738425924741335
 20
31.08918495708113
 40
3.5
 41
1
 50
0
  1
97％
  0
TEXT
  8
_1-f_
 62
    7
 10
74.863425924741335
 20
26.08918495708113
 40
3.5
 41
1
 50
0
  1
100％
  0
TEXT
  8
_1-f_
 62
    7
 10
98.796047668743583
 20
31.08918495708113
 40
3.5
 41
1
 50
0
  1
99％
  0
TEXT
  8
_1-f_
 62
    7
 10
120.97866940485012
 20
31.08918495708113
 40
3.5
 41
1
 50
0
  1
100％
  0
TEXT
  8
_1-f_
 62
    7
 10
120.97866940485012
 20
26.08918495708113
 40
3.5
 41
1
 50
0
  1
100％
  0
TEXT
  8
_1-f_
 62
    7
 10
144.91129108999348
 20
31.08918495708113
 40
3.5
 41
1
 50
0
  1
99％
  0
TEXT
  8
_1-f_
 62
    7
 10
167.96891281174422
 20
31.08918495708113
 40
3.5
 41
1
 50
0
  1
97％
  0
TEXT
  8
_1-f_
 62
    7
 10
167.09391281174422
 20
26.08918495708113
 40
3.5
 41
1
 50
0
  1
100％
  0
TEXT
  8
_1-f_
 62
    7
 10
191.02653443281162
 20
31.08918495708113
 40
3.5
 41
1
 50
0
  1
93％
  0
TEXT
  8
_1-f_
 62
    7
 10
190.15153443281162
 20
26.08918495708113
 40
3.5
 41
1
 50
0
  1
100％
  0
TEXT
  8
_1-f_
 62
    7
 10
214.08415625524566
 20
31.08918495708113
 40
3.5
 41
1
 50
0
  1
93％
  0
TEXT
  8
_1-f_
 62
    7
 10
214.08415625524566
 20
26.08918495708113
 40
3.5
 41
1
 50
0
  1
95％
  0
TEXT
  8
_1-f_
 62
    7
 10
237.14177813790417
 20
31.08918495708113
 40
3.5
 41
1
 50
0
  1
90％
  0
TEXT
  8
_1-f_
 62
    7
 10
237.14177813790417
 20
26.08918495708113
 40
3.5
 41
1
 50
0
  1
90％
  0
TEXT
  8
_1-f_
 62
    7
 10
260.19939969874713
 20
31.08918495708113
 40
3.5
 41
1
 50
0
  1
77％
  0
TEXT
  8
_1-f_
 62
    7
 10
260.19939969874713
 20
26.08918495708113
 40
3.5
 41
1
 50
0
  1
82％
  0
TEXT
  8
_1-f_
 62
    7
 10
285.88202138424828
 20
31.08918495708113
 40
3.5
 41
1
 50
0
  1
-
  0
TEXT
  8
_1-f_
 62
    7
 10
283.25702138424828
 20
26.08918495708113
 40
3.5
 41
1
 50
0
  1
70％
  0
TEXT
  8
_1-f_
 62
    7
 10
169.97505278650092
 20
68.029547667917413
 40
4.5
 41
1
 50
0
  1
80以上
  0
TEXT
  8
_1-f_
 62
    7
 10
169.97505278650092
 20
49.423547667917404
 40
4.5
 41
1
 50
0
  1
95以上
  0
TEXT
  8
_1-f_
 62
    7
 10
277.25651259947574
 20
58.725547667917397
 40
4.5
 41
1
 50
0
  1
3960
  0
TEXT
  8
_1-f_
 62
    7
 10
101.27283032216791
 20
74.231547667917411
 40
4.5
 41
1
 50
0
  1
[mm]
  0
TEXT
  8
_1-f_
 62
    7
 10
101.27283032216791
 20
68.029547667917413
 40
4.5
 41
1
 50
0
  1
[mm]
  0
TEXT
  8
_1-f_
 62
    7
 10
101.27283032216791
 20
61.827547667917415
 40
4.5
 41
1
 50
0
  1
[mm]
  0
TEXT
  8
_1-f_
 62
    7
 10
101.27283032216791
 20
55.625547667917402
 40
4.5
 41
1
 50
0
  1
[mm]
  0
TEXT
  8
_1-f_
 62
    7
 10
101.27283032216791
 20
49.423547667917404
 40
4.5
 41
1
 50
0
  1
[mm]
  0
TEXT
  8
_1-f_
 62
    7
 10
101.27283032216791
 20
43.221547667917406
 40
4.5
 41
1
 50
0
  1
[mm]
  0
TEXT
  8
_1-f_
 62
    7
 10
132.85842491418924
 20
74.231547667917411
 40
4.5
 41
1
 50
0
  1
ｇ
  0
TEXT
  8
_1-f_
 62
    7
 10
132.85842491418924
 20
68.029547667917413
 40
4.5
 41
1
 50
0
  1
ｇ
  0
TEXT
  8
_1-f_
 62
    7
 10
132.85842491418924
 20
61.827547667917415
 40
4.5
 41
1
 50
0
  1
ｇ
  0
TEXT
  8
_1-f_
 62
    7
 10
132.85842491418924
 20
55.625547667917402
 40
4.5
 41
1
 50
0
  1
ｇ
  0
TEXT
  8
_1-f_
 62
    7
 10
132.85842491418924
 20
49.423547667917404
 40
4.5
 41
1
 50
0
  1
ｇ
  0
TEXT
  8
_1-f_
 62
    7
 10
132.85842491418924
 20
43.221547667917406
 40
4.5
 41
1
 50
0
  1
ｇ
  0
TEXT
  8
_1-f_
 62
    7
 10
160.18395095436824
 20
74.231547667917411
 40
4.5
 41
1
 50
0
  1
個
  0
TEXT
  8
_1-f_
 62
    7
 10
160.18395095436824
 20
68.029547667917413
 40
4.5
 41
1
 50
0
  1
個
  0
TEXT
  8
_1-f_
 62
    7
 10
160.18395095436824
 20
61.827547667917415
 40
4.5
 41
1
 50
0
  1
個
  0
TEXT
  8
_1-f_
 62
    7
 10
160.18395095436824
 20
55.625547667917402
 40
4.5
 41
1
 50
0
  1
個
  0
TEXT
  8
_1-f_
 62
    7
 10
160.18395095436824
 20
49.423547667917404
 40
4.5
 41
1
 50
0
  1
個
  0
TEXT
  8
_1-f_
 62
    7
 10
160.18395095436824
 20
43.221547667917406
 40
4.5
 41
1
 50
0
  1
個
  0
TEXT
  8
_1-f_
 62
    7
 10
204.69392429531842
 20
74.231547667917411
 40
4.5
 41
1
 50
0
  1
[W]
  0
TEXT
  8
_1-f_
 62
    7
 10
204.69392429531842
 20
68.029547667917413
 40
4.5
 41
1
 50
0
  1
[W]
  0
TEXT
  8
_1-f_
 62
    7
 10
204.69392429531842
 20
61.827547667917415
 40
4.5
 41
1
 50
0
  1
[W]
  0
TEXT
  8
_1-f_
 62
    7
 10
204.69392429531842
 20
55.625547667917402
 40
4.5
 41
1
 50
0
  1
[W]
  0
TEXT
  8
_1-f_
 62
    7
 10
204.69392429531842
 20
49.423547667917404
 40
4.5
 41
1
 50
0
  1
[W]
  0
TEXT
  8
_1-f_
 62
    7
 10
204.69392429531842
 20
43.221547667917406
 40
4.5
 41
1
 50
0
  1
[W]
  0
TEXT
  8
_1-f_
 62
    7
 10
233.03358803233181
 20
74.231547667917411
 40
4.5
 41
1
 50
0
  1
[A]
  0
TEXT
  8
_1-f_
 62
    7
 10
233.03358803233181
 20
68.029547667917413
 40
4.5
 41
1
 50
0
  1
[A]
  0
TEXT
  8
_1-f_
 62
    7
 10
233.03358803233181
 20
61.827547667917415
 40
4.5
 41
1
 50
0
  1
[A]
  0
TEXT
  8
_1-f_
 62
    7
 10
233.03358803233181
 20
55.625547667917402
 40
4.5
 41
1
 50
0
  1
[A]
  0
TEXT
  8
_1-f_
 62
    7
 10
233.03358803233181
 20
49.423547667917404
 40
4.5
 41
1
 50
0
  1
[A]
  0
TEXT
  8
_1-f_
 62
    7
 10
233.03358803233181
 20
43.221547667917406
 40
4.5
 41
1
 50
0
  1
[A]
  0
TEXT
  8
_1-f_
 62
    7
 10
258.72790337367155
 20
68.029547667917413
 40
4.5
 41
1
 50
0
  1
[lm]
  0
TEXT
  8
_1-f_
 62
    7
 10
258.72790337367155
 20
61.827547667917415
 40
4.5
 41
1
 50
0
  1
[lm]
  0
TEXT
  8
_1-f_
 62
    7
 10
258.72790337367155
 20
55.625547667917402
 40
4.5
 41
1
 50
0
  1
[lm]
  0
TEXT
  8
_1-f_
 62
    7
 10
258.72790337367155
 20
49.423547667917404
 40
4.5
 41
1
 50
0
  1
[lm]
  0
TEXT
  8
_1-f_
 62
    7
 10
258.72790337367155
 20
43.221547667917406
 40
4.5
 41
1
 50
0
  1
[lm]
  0
TEXT
  8
_1-f_
 62
    7
 10
289.52000573236819
 20
58.725547667917397
 40
4.5
 41
1
 50
0
  1
mm
  0
TEXT
  8
_1-f_
 62
    7
 10
90.280637075454038
 20
74.231547667917411
 40
4.5
 41
1
 50
0
  1
505
  0
TEXT
  8
_1-f_
 62
    7
 10
88.030637075454038
 20
68.029547667917413
 40
4.5
 41
1
 50
0
  1
1000
  0
TEXT
  8
_1-f_
 62
    7
 10
88.030637075454038
 20
61.827547667917415
 40
4.5
 41
1
 50
0
  1
1495
  0
TEXT
  8
_1-f_
 62
    7
 10
90.280637075454038
 20
55.625547667917402
 40
4.5
 41
1
 50
0
  1
505
  0
TEXT
  8
_1-f_
 62
    7
 10
88.030637075454038
 20
49.423547667917404
 40
4.5
 41
1
 50
0
  1
1000
  0
TEXT
  8
_1-f_
 62
    7
 10
88.030637075454038
 20
43.221547667917406
 40
4.5
 41
1
 50
0
  1
1495
  0
TEXT
  8
_1-f_
 62
    7
 10
147.76351983821777
 20
74.231547667917411
 40
4.5
 41
1
 50
0
  1
108
  0
TEXT
  8
_1-f_
 62
    7
 10
147.76351983821777
 20
68.029547667917413
 40
4.5
 41
1
 50
0
  1
216
  0
TEXT
  8
_1-f_
 62
    7
 10
147.76351983821777
 20
61.827547667917415
 40
4.5
 41
1
 50
0
  1
324
  0
TEXT
  8
_1-f_
 62
    7
 10
147.76351983821777
 20
55.625547667917402
 40
4.5
 41
1
 50
0
  1
108
  0
TEXT
  8
_1-f_
 62
    7
 10
147.76351983821777
 20
49.423547667917404
 40
4.5
 41
1
 50
0
  1
216
  0
TEXT
  8
_1-f_
 62
    7
 10
147.76351983821777
 20
43.221547667917406
 40
4.5
 41
1
 50
0
  1
324
  0
TEXT
  8
_1-f_
 62
    7
 10
194.92579555047894
 20
74.231547667917411
 40
4.5
 41
1
 50
0
  1
7.7
  0
TEXT
  8
_1-f_
 62
    7
 10
192.67579555047894
 20
68.029547667917413
 40
4.5
 41
1
 50
0
  1
15.5
  0
TEXT
  8
_1-f_
 62
    7
 10
192.67579555047894
 20
61.827547667917415
 40
4.5
 41
1
 50
0
  1
23.2
  0
TEXT
  8
_1-f_
 62
    7
 10
194.92579555047894
 20
55.625547667917402
 40
4.5
 41
1
 50
0
  1
8.1
  0
TEXT
  8
_1-f_
 62
    7
 10
192.67579555047894
 20
49.423547667917404
 40
4.5
 41
1
 50
0
  1
15.9
  0
TEXT
  8
_1-f_
 62
    7
 10
220.78358803182658
 20
74.231547667917411
 40
4.5
 41
1
 50
0
  1
0.32
  0
TEXT
  8
_1-f_
 62
    7
 10
220.78358803182658
 20
68.029547667917413
 40
4.5
 41
1
 50
0
  1
0.65
  0
TEXT
  8
_1-f_
 62
    7
 10
220.78358803182658
 20
61.827547667917415
 40
4.5
 41
1
 50
0
  1
0.97
  0
TEXT
  8
_1-f_
 62
    7
 10
220.78358803182658
 20
55.625547667917402
 40
4.5
 41
1
 50
0
  1
0.34
  0
TEXT
  8
_1-f_
 62
    7
 10
220.78358803182658
 20
49.423547667917404
 40
4.5
 41
1
 50
0
  1
0.66
  0
TEXT
  8
_1-f_
 62
    7
 10
220.78358803182658
 20
43.221547667917406
 40
4.5
 41
1
 50
0
  1
0.99
  0
TEXT
  8
_1-f_
 62
    7
 10
123.05737698692539
 20
74.231547667917411
 40
4.5
 41
1
 50
0
  1
92
  0
TEXT
  8
_1-f_
 62
    7
 10
120.80737698692539
 20
68.029547667917413
 40
4.5
 41
1
 50
0
  1
182
  0
TEXT
  8
_1-f_
 62
    7
 10
120.80737698692539
 20
61.827547667917415
 40
4.5
 41
1
 50
0
  1
267
  0
TEXT
  8
_1-f_
 62
    7
 10
123.05737698692539
 20
55.625547667917402
 40
4.5
 41
1
 50
0
  1
92
  0
TEXT
  8
_1-f_
 62
    7
 10
120.80737698692539
 20
49.423547667917404
 40
4.5
 41
1
 50
0
  1
182
  0
TEXT
  8
_1-f_
 62
    7
 10
120.80737698692539
 20
43.221547667917406
 40
4.5
 41
1
 50
0
  1
267
  0
TEXT
  8
_1-f_
 62
    7
 10
248.97791342524289
 20
74.231547667917411
 40
4.5
 41
1
 50
0
  1
670
  0
TEXT
  8
_1-f_
 62
    7
 10
246.72791342524289
 20
68.029547667917413
 40
4.5
 41
1
 50
0
  1
1339
  0
TEXT
  8
_1-f_
 62
    7
 10
246.72791342524289
 20
61.827547667917415
 40
4.5
 41
1
 50
0
  1
2009
  0
TEXT
  8
_1-f_
 62
    7
 10
248.97791342524289
 20
55.625547667917402
 40
4.5
 41
1
 50
0
  1
595
  0
TEXT
  8
_1-f_
 62
    7
 10
246.72791342524289
 20
49.423547667917404
 40
4.5
 41
1
 50
0
  1
1142
  0
TEXT
  8
_1-f_
 62
    7
 10
246.72791342524289
 20
43.221547667917406
 40
4.5
 41
1
 50
0
  1
1713
  0
LINE
  8
_0-0_
  6
CONTINUOUS
 62
    7
 10
316.30997520887399
 20
270.89927962428226
 11
316.30997520887399
 21
191.4593531263065
  0
LINE
  8
_0-0_
  6
CONTINUOUS
 62
    7
 10
396.28582420887415
 20
281.29615162428229
 11
396.28582420887415
 21
24.29614462428232
  0
LINE
  8
_0-0_
  6
CONTINUOUS
 62
    7
 10
38.701512579319626
 20
273.09939465860793
 11
18.917795474056504
 21
273.09939465860793
  0
TEXT
  8
_0-0_
 62
    7
 10
19.139678455822661
 20
273.41300675785135
 40
4.9999999999999858
 41
1.0000000000000013
 50
0
  1
◆外形図
  0
LINE
  8
_0-0_
  6
CONTINUOUS
 62
    7
 10
281.2328422088741
 20
275.74344662428223
 11
278.98285020887408
 21
271.24344462428223
  0
LINE
  8
_0-0_
  6
CONTINUOUS
 62
    7
 10
281.2328422088741
 20
275.74344662428223
 11
283.4828422088741
 21
271.24344462428223
  0
LINE
  8
_0-0_
  6
CONTINUOUS
 62
    7
 10
276.30996720887413
 20
275.89925962428231
 11
276.30996720887413
 21
270.89927962428231
  0
LINE
  8
_0-0_
  6
CONTINUOUS
 62
    7
 10
286.30997520887411
 20
275.89925962428231
 11
286.30997520887411
 21
270.89927962428231
  0
LINE
  8
_0-0_
  6
CONTINUOUS
 62
    7
 10
316.30997520887411
 20
275.89925962428231
 11
316.30997520887411
 21
270.89927962428231
  0
LINE
  8
_0-0_
  6
CONTINUOUS
 62
    7
 10
276.30996720887413
 20
281.29615162428229
 11
276.30996720887413
 21
275.89925962428231
  0
LINE
  8
_0-0_
  6
CONTINUOUS
 62
    7
 10
286.30997520887411
 20
281.29615162428229
 11
286.30997520887411
 21
275.89925962428231
  0
LINE
  8
_0-0_
  6
CONTINUOUS
 62
    7
 10
316.30997520887411
 20
281.29615162428229
 11
316.30997520887411
 21
275.89925962428231
  0
LINE
  8
_0-0_
  6
CONTINUOUS
 62
    7
 10
376.30997520887411
 20
281.29615162428229
 11
376.30997520887411
 21
270.89927962428231
  0
LINE
  8
_0-0_
  6
CONTINUOUS
 62
    7
 10
386.30997520887399
 20
281.29615162428229
 11
386.30997520887399
 21
270.89927962428231
  0
LINE
  8
_0-0_
  6
CONTINUOUS
 62
    7
 10
396.28582420887415
 20
275.89925962428231
 11
276.30998320887409
 21
275.89925962428231
  0
LINE
  8
_0-0_
  6
CONTINUOUS
 62
    7
 10
276.30996720887413
 20
270.89927962428231
 11
396.28582420887415
 21
270.89927962428231
  0
TEXT
  8
_0-0_
 62
    7
 10
278.12561721922964
 20
277.05770329473376
 40
3
 41
1
 50
0
  1
Ｎｏ
  0
TEXT
  8
_0-0_
 62
    7
 10
293.47695794332435
 20
277.1070645189269
 40
3
 41
1.0000000000000007
 50
0
  1
年　月　日
  0
TEXT
  8
_0-0_
 62
    7
 10
334.19996790274001
 20
277.03302268263712
 40
3
 41
1.0000000000000011
 50
0
  1
訂　正　記　事
  0
TEXT
  8
_0-0_
 62
    7
 10
377.61316458068654
 20
276.39749692114924
 40
4.0000000000000142
 41
0.9999999999999973
 50
0
  1
担当
  0
TEXT
  8
_0-0_
 62
    7
 10
387.28796452255972
 20
276.4468581453425
 40
4
 41
1.0000000000000009
 50
0
  1
検印
  0
TEXT
  8
_0-0_
 62
    7
 10
280.25640555343307
 20
271.2642403594474
 40
4
 41
1
 50
0
  1
1
  0
LINE
  8
_0-0_
  6
CONTINUOUS
 62
    7
 10
278.98285020887408
 20
271.24344462428223
 11
283.4828422088741
 21
271.24344462428223
  0
LINE
  8
_0-0_
  6
CONTINUOUS
 62
    7
 10
351.28582420887415
 20
54.296150624282276
 11
351.28582420887415
 21
44.296148624282282
  0
LINE
  8
_0-0_
  6
CONTINUOUS
 62
    7
 10
311.30880320887411
 20
40.575352624282303
 11
311.30880320887411
 21
37.575355624282295
  0
LINE
  8
_0-0_
  6
CONTINUOUS
 62
    7
 10
311.30880320887411
 20
40.575352624282303
 11
318.30880120887412
 21
42.075351624282277
  0
LINE
  8
_0-0_
  6
CONTINUOUS
 62
    7
 10
318.30880120887412
 20
42.075351624282277
 11
318.30880120887412
 21
36.075350624282279
  0
LINE
  8
_0-0_
  6
CONTINUOUS
 62
    7
 10
311.30880320887411
 20
37.575355624282295
 11
318.30880120887412
 21
36.075350624282279
  0
LINE
  8
_0-0_
  6
CONTINUOUS
 62
    7
 10
346.28583220887413
 20
54.296150624282276
 11
346.28583220887413
 21
24.29614462428232
  0
LINE
  8
_0-0_
  6
CONTINUOUS
 62
    7
 10
376.28583220887413
 20
54.296150624282276
 11
376.28583220887413
 21
44.296148624282282
  0
LINE
  8
_0-0_
  6
CONTINUOUS
 62
    7
 10
381.28587420887413
 20
54.296150624282276
 11
381.28587420887413
 21
44.296148624282282
  0
LINE
  8
_0-0_
  6
CONTINUOUS
 62
    7
 10
321.28584920887408
 20
44.296148624282282
 11
321.28584920887408
 21
34.296145624282317
  0
LINE
  8
_0-0_
  6
CONTINUOUS
 62
    7
 10
326.2858412088741
 20
44.296148624282282
 11
326.2858412088741
 21
34.296145624282317
  0
LINE
  8
_0-0_
  6
CONTINUOUS
 62
    7
 10
336.28587420887413
 20
54.296150624282276
 11
336.28587420887413
 21
44.296148624282282
  0
LINE
  8
_0-0_
  6
CONTINUOUS
 62
    7
 10
331.28583220887413
 20
54.296150624282276
 11
331.28583220887413
 21
44.296148624282282
  0
LINE
  8
_0-0_
  6
CONTINUOUS
 62
    7
 10
321.28584920887408
 20
54.296150624282276
 11
321.28584920887408
 21
44.296148624282282
  0
LINE
  8
_0-0_
  6
CONTINUOUS
 62
    7
 10
316.28583220887413
 20
54.296150624282276
 11
316.28583220887413
 21
44.296148624282282
  0
LINE
  8
_0-0_
  6
CONTINUOUS
 62
    7
 10
306.28582420887415
 20
54.296150624282276
 11
306.28582420887415
 21
44.296148624282282
  0
CIRCLE
  8
_0-0_
  6
CONTINUOUS
 62
    7
 10
306.30878720887415
 20
39.0753536242823
 40
3
  0
CIRCLE
  8
_0-0_
  6
CONTINUOUS
 62
    7
 10
306.30878720887415
 20
39.0753536242823
 40
1.5
  0
LINE
  8
_0-0_
  6
CONTINUOUS
 62
    7
 10
321.28584920887408
 20
54.296150624282276
 11
321.28584920887408
 21
59.296150624282276
  0
TEXT
  8
_0-0_
 62
    7
 10
307.02526320887409
 20
54.692025624282294
 40
4
 41
1.0000000000000009
 50
0
  1
出図
  0
LINE
  8
_0-0_
  6
CONTINUOUS
 62
    7
 10
351.28583220887413
 20
54.296150624282276
 11
351.28583220887413
 21
59.296150624282276
  0
TEXT
  8
_0-0_
 62
    7
 10
332.94829920887412
 20
55.192235624282304
 40
3
 41
2
 50
0
  1
.   .
  0
TEXT
  8
_0-0_
 62
    7
 10
303.64708920887415
 20
52.291121624282297
 40
3
 41
1
 50
0
  1
設計
  7
TATEGAKI
  0
TEXT
  8
_0-0_
 62
    7
 10
318.59985020887416
 20
52.291121624282297
 40
3
 41
1
 50
0
  1
製図
  7
TATEGAKI
  0
TEXT
  8
_0-0_
 62
    7
 10
333.46308220887408
 20
52.291121624282297
 40
3
 41
1
 50
0
  1
検図
  7
TATEGAKI
  0
TEXT
  8
_0-0_
 62
    7
 10
348.81446320887414
 20
52.372151624282296
 40
2.9999999999999911
 41
1.0000000000000029
 50
0
  1
作図
  7
TATEGAKI
  0
TEXT
  8
_0-0_
 62
    7
 10
378.81193420887416
 20
52.309938624282282
 40
3
 41
1
 50
0
  1
尺度
  7
TATEGAKI
  0
TEXT
  8
_0-0_
 62
    7
 10
323.92244520887414
 20
42.573905624282318
 40
3
 41
1
 50
0
  1
材質
  7
TATEGAKI
  0
TEXT
  8
_0-0_
 62
    7
 10
348.7983592088741
 20
42.573905624282318
 40
3
 41
1
 50
0
  1
品名
  7
TATEGAKI
  0
TEXT
  8
_0-0_
 62
    7
 10
349.01061820887412
 20
32.422218624282308
 40
3
 41
1
 50
0
  1
図番
  7
TATEGAKI
  0
TEXT
  8
_0-0_
 62
    7
 10
334.77316365016964
 20
37.078458624282263
 40
4.0000000000000284
 41
0.9999999999999964
 50
0
  1
-
  0
TEXT
  8
_0-0_
 62
    7
 10
307.92822759502076
 20
26.677714006619894
 40
4
 41
0.9999999999999994
 50
0
  1
ＦＫＫ株式会社
  0
TEXT
  8
_0-0_
 62
    7
 10
385.38042315168639
 20
47.408528353794125
 40
3
 41
1
 50
0
  1
1：1
  0
LINE
  8
_0-0_
  6
CONTINUOUS
 62
    7
 10
16.285857208874063
 20
281.29615162428229
 11
396.28582420887415
 21
281.29615162428229
  0
LINE
  8
_0-0_
  6
CONTINUOUS
 62
    7
 10
16.289024208874054
 20
24.29614462428232
 11
16.285857208874063
 21
281.29615162428229
  0
LINE
  8
_0-0_
  6
CONTINUOUS
 62
    7
 10
396.28582420887415
 20
24.29614462428232
 11
16.289024208874054
 21
24.29614462428232
  0
LINE
  8
_0-0_
  6
CONTINUOUS
 62
    7
 10
346.28583220887413
 20
44.296148624282282
 11
346.28583220887413
 21
24.29614462428232
  0
LINE
  8
_0-0_
  6
CONTINUOUS
 62
    7
 10
351.28582420887415
 20
44.296148624282282
 11
351.28582420887415
 21
24.29614462428232
  0
LINE
  8
_0-0_
  6
CONTINUOUS
 62
    7
 10
396.28582420887415
 20
34.296145624282317
 11
301.28583220887413
 21
34.296145624282317
  0
LINE
  8
_0-0_
  6
CONTINUOUS
 62
    7
 10
396.28582420887415
 20
44.296148624282282
 11
301.28583220887413
 21
44.296148624282282
  0
LINE
  8
_0-0_
  6
CONTINUOUS
 62
    7
 10
396.28582420887415
 20
54.296150624282276
 11
301.28583220887413
 21
54.296150624282276
  0
LINE
  8
_0-0_
  6
CONTINUOUS
 62
    7
 10
396.28582420887415
 20
59.296150624282276
 11
301.28583220887413
 21
59.296150624282276
  0
LINE
  8
_0-0_
  6
CONTINUOUS
 62
    7
 10
396.28582420887415
 20
74.296150624282276
 11
301.28583220887413
 21
74.296150624282276
  0
LINE
  8
_0-0_
  6
CONTINUOUS
 62
    7
 10
396.28582420887415
 20
64.296150624282276
 11
301.28583220887413
 21
64.296150624282276
  0
LINE
  8
_0-0_
  6
CONTINUOUS
 62
    7
 10
396.28582420887415
 20
69.296150624282276
 11
301.28583220887413
 21
69.296150624282276
  0
LINE
  8
_0-0_
  6
CONTINUOUS
 62
    7
 10
396.28582420887415
 20
79.296150624282276
 11
301.28583220887413
 21
79.296150624282276
  0
LINE
  8
_0-0_
  6
CONTINUOUS
 62
    7
 10
396.28582420887415
 20
84.296150624282276
 11
301.28583220887413
 21
84.296150624282276
  0
TEXT
  8
_0-0_
 62
    7
 10
304.54077070887405
 20
79.87907797616451
 40
3.5
 41
1
 50
0
  1
⑤
  0
TEXT
  8
_0-0_
 62
    7
 10
304.54077070887405
 20
74.87907797616451
 40
3.5
 41
1
 50
0
  1
④
  0
TEXT
  8
_0-0_
 62
    7
 10
304.54077070887405
 20
69.844233108454958
 40
3.5
 41
1
 50
0
  1
③
  0
TEXT
  8
_0-0_
 62
    7
 10
304.54077070887405
 20
64.883430077035243
 40
3.5
 41
1
 50
0
  1
②
  0
TEXT
  8
_0-0_
 62
    7
 10
304.54077070887405
 20
59.848585209325691
 40
3.5
 41
1
 50
0
  1
①
  0
TEXT
  8
_0-0_
 62
    7
 10
390.28582420887409
 20
79.934553347087132
 40
4
 41
1
 50
0
  1
1
  0
TEXT
  8
_0-0_
 62
    7
 10
390.28582420887409
 20
74.934553347087132
 40
4
 41
1
 50
0
  1
1
  0
TEXT
  8
_0-0_
 62
    7
 10
390.28582420887409
 20
69.626616839150628
 40
4
 41
1
 50
0
  1
1
  0
TEXT
  8
_0-0_
 62
    7
 10
390.28582420887409
 20
64.737727950261743
 40
4
 41
1
 50
0
  1
1
  0
TEXT
  8
_0-0_
 62
    7
 10
390.28582420887409
 20
59.833318779185888
 40
4
 41
1
 50
0
  1
1
  0
LINE
  8
_0-0_
  6
CONTINUOUS
 62
    7
 10
396.28582420887415
 20
89.296150624282276
 11
301.28583220887413
 21
89.296150624282276
  0
TEXT
  8
_0-0_
 62
    7
 10
390.28582420887409
 20
89.934553347087132
 40
4
 41
1
 50
0
  1
1
  0
TEXT
  8
_0-0_
 62
    7
 10
390.28582420887409
 20
84.934553347087132
 40
4
 41
1
 50
0
  1
1
  0
LINE
  8
_0-0_
  6
CONTINUOUS
 62
    7
 10
396.28582420887415
 20
94.296150624282276
 11
301.28583220887413
 21
94.296150624282276
  0
TEXT
  8
_0-0_
 62
    7
 10
304.54077070887405
 20
84.87907797616451
 40
3.5
 41
1
 50
0
  1
⑥
  0
TEXT
  8
_0-0_
 62
    7
 10
304.54077070887405
 20
89.87907797616451
 40
3.5
 41
1
 50
0
  1
⑦
  0
TEXT
  8
_0-0_
 62
    7
 10
19.166865692585304
 20
119.25991721785768
 40
5
 41
1.0000000000000013
 50
0
  1
◆型式内容
  0
LINE
  8
_0-0_
  6
CONTINUOUS
 62
    7
 10
19.446989553003846
 20
118.85125859390412
 11
44.848305342477545
 21
118.85125859390412
  0
LINE
  8
_0-0_
  6
CONTINUOUS
 62
    7
 10
16.287915142780605
 20
125.29614266091731
 11
396.28582420887409
 21
125.29614266091731
  0
TEXT
  8
_0-0_
 62
    7
 10
313.8192182388741
 20
119.29614266091731
 40
3.5
 41
1
 50
0
  1
※本製品は入力電圧DC24V専用です。
  0
TEXT
  8
_0-0_
 62
    7
 10
313.8192182388741
 20
115.29614266091731
 40
3.5
 41
1
 50
0
  1
※電源の入力は必ず片側からだけにしてください。
  0
TEXT
  8
_0-0_
 62
    7
 10
313.8192182388741
 20
111.29614266091731
 40
3.5
 41
1
 50
0
  1
※定格表を参考にして最大連結長さを守って下さい。
  0
TEXT
  8
_0-0_
 62
    7
 10
313.8192182388741
 20
107.29614266091731
 40
3.5
 41
1
 50
0
  1
※取付箇所の下地・強度にご注意下さい。
  0
TEXT
  8
_0-0_
 62
    7
 10
313.8192182388741
 20
103.29614266091731
 40
3.5
 41
1
 50
0
  1
　落下等による破損の原因になります。
  0
TEXT
  8
_0-0_
 62
    7
 10
240.24778966887411
 20
119.29614266091731
 40
3.5
 41
1
 50
0
  1
屋内専用
  0
TEXT
  8
_0-0_
 62
    7
 10
240.24778966887411
 20
115.29614266091731
 40
3.5
 41
1
 50
0
  1
注記）使用環境　5～40℃
  0
TEXT
  8
_0-0_
 62
    7
 10
240.24778966887411
 20
111.29614266091731
 40
3.5
 41
1
 50
0
  1
　　　浴室、サウナ等 高温・高湿環境不可
  0
TEXT
  8
_0-0_
 62
    7
 10
240.24778966887411
 20
107.29614266091731
 40
3.5
 41
1
 50
0
  1
　　　海・温泉等 塩害・腐食ガス 環境不可
  0
TEXT
  8
_0-0_
 62
    7
 10
240.24778966887411
 20
103.29614266091731
 40
3.5
 41
1
 50
0
  1
　　　直射日光・水没 不可 結露の無い事
  0
TEXT
  8
_0-0_
 62
    7
 10
325.50242920887399
 20
89.890314412939247
 40
3.5000000000000142
 41
0.9999999999999954
 50
0
  1
型式シール
  0
TEXT
  8
_0-0_
 62
    7
 10
324.62742920887399
 20
84.890314412939247
 40
3.5000000000000142
 41
0.9999999999999954
 50
0
  1
樹脂端板　2
  0
TEXT
  8
_0-0_
 62
    7
 10
324.62742920887399
 20
79.890314412939247
 40
3.5000000000000142
 41
0.9999999999999954
 50
0
  1
樹脂端板　1
  0
TEXT
  8
_0-0_
 62
    7
 10
320.25242920887399
 20
64.696987209520984
 40
4
 41
1
 50
0
  1
アルミフレーム
  0
TEXT
  8
_0-0_
 62
    7
 10
324.25242920887399
 20
59.808098320632098
 40
4
 41
1
 50
0
  1
樹脂カバー
  0
TEXT
  8
_0-0_
 62
    7
 10
361.84748670887404
 20
90.191548198938307
 40
2.5
 41
0.8800000000000001
 50
0
  1
ラミネートフィルム
  0
TEXT
  8
_0-0_
 62
    7
 10
364.24748670887402
 20
74.211019926528806
 40
1.9999999999999716
 41
1.0000000000000142
 50
0
  1
リード線：AWG22
  0
TEXT
  8
_0-0_
 62
    7
 10
358.14748670887406
 20
76.832394503496829
 40
2.0000000000000142
 41
0.7999999999999938
 50
0
  1
日本圧着端子SMP-02V-NC相当（PA66）
  0
TEXT
  8
_0-0_
 62
    7
 10
358.94748670887407
 20
71.731341272640094
 40
1.9999999999999858
 41
0.8000000000000047
 50
0
  1
日本圧着端子SMR-02V-N相当（PA66)
  0
TEXT
  8
_0-0_
 62
    7
 10
364.24748670887402
 20
69.440123214704556
 40
1.9999999999999716
 41
1.0000000000000142
 50
0
  1
リード線：AWG22
  0
TEXT
  8
_0-0_
 62
    7
 10
346.29789970887407
 20
265.57686192427963
 40
4
 41
1
 50
0
  1
A-A 断面図
  0
LINE
  8
_0-0_
  6
CONTINUOUS
 62
    7
 10
44.652054966899584
 20
35.49953181187243
 11
298.28583220887413
 21
35.49953181187243
  0
LINE
  8
_0-0_
  6
CONTINUOUS
 62
    7
 10
19.288800474542455
 20
25.49953181187243
 11
298.28583220887413
 21
25.49953181187243
  0
LINE
  8
_0-0_
  6
CONTINUOUS
 62
    7
 10
44.652116581683913
 20
30.49953181187243
 11
298.28583220887407
 21
30.49953181187243
  0
LINE
  8
_0-0_
  6
CONTINUOUS
 62
    7
 10
19.288800474542455
 20
25.49953181187243
 11
19.288615630189497
 21
40.49953181187243
  0
LINE
  8
_0-0_
  6
CONTINUOUS
 62
    7
 10
19.288615630189497
 20
40.49953181187243
 11
298.28583220887413
 21
40.49953181187243
  0
LINE
  8
_0-0_
  6
CONTINUOUS
 62
    7
 10
298.28583220887413
 20
40.49953181187243
 11
298.28583220887413
 21
25.49953181187243
  0
LINE
  8
_0-0_
  6
CONTINUOUS
 62
    7
 10
44.652178192616674
 20
25.499844363681945
 11
44.651993348263716
 21
40.499844363681945
  0
TEXT
  8
_0-0_
 62
    7
 10
25.845304491152376
 20
28.935745803641964
 40
3.5
 41
1
 50
0
  1
N色基準
  0
TEXT
  8
_0-0_
 62
    7
 10
23.220304491152376
 20
33.459555327451497
 40
3.5
 41
1
 50
0
  1
全光束比率
  0
LINE
  8
_0-0_
  6
CONTINUOUS
 62
    7
 10
67.70979990086596
 20
25.500128501759633
 11
67.709615056513002
 21
40.500128501759633
  0
LINE
  8
_0-0_
  6
CONTINUOUS
 62
    7
 10
90.767421619115254
 20
25.50041263983745
 11
90.767236774762296
 21
40.50041263983745
  0
LINE
  8
_0-0_
  6
CONTINUOUS
 62
    7
 10
113.82504333736455
 20
25.500696777915266
 11
113.82485849301159
 21
40.500696777915266
  0
LINE
  8
_0-0_
  6
CONTINUOUS
 62
    7
 10
136.88266505561384
 20
25.500980915993082
 11
136.88248021126088
 21
40.500980915993082
  0
LINE
  8
_0-0_
  6
CONTINUOUS
 62
    7
 10
159.94028677386314
 20
25.501265054070899
 11
159.94010192951018
 21
40.501265054070899
  0
LINE
  8
_0-0_
  6
CONTINUOUS
 62
    7
 10
182.99790849211243
 20
25.501549192148715
 11
182.99772364775947
 21
40.501549192148715
  0
LINE
  8
_0-0_
  6
CONTINUOUS
 62
    7
 10
206.05553021036172
 20
25.501833330226532
 11
206.05534536600877
 21
40.501833330226532
  0
LINE
  8
_0-0_
  6
CONTINUOUS
 62
    7
 10
229.11315192861105
 20
25.502117468304363
 11
229.11296708425809
 21
40.502117468304363
  0
LINE
  8
_0-0_
  6
CONTINUOUS
 62
    7
 10
252.17077364686034
 20
25.502401606382179
 11
252.17058880250738
 21
40.502401606382179
  0
LINE
  8
_0-0_
  6
CONTINUOUS
 62
    7
 10
275.22839536510963
 20
25.502685744459995
 11
275.22821052075665
 21
40.502685744459995
  0
TEXT
  8
_0-0_
 62
    7
 10
50.930804212034758
 20
36.08918495708113
 40
3.5
 41
1
 50
0
  1
演色性
  0
TEXT
  8
_0-0_
 62
    7
 10
52.680804212034758
 20
31.08918495708113
 40
3.5
 41
1
 50
0
  1
Ra80
  0
TEXT
  8
_0-0_
 62
    7
 10
52.680804212034758
 20
26.08918495708113
 40
3.5
 41
1
 50
0
  1
Ra95
  0
TEXT
  8
_0-0_
 62
    7
 10
278.88202138424828
 20
36.08918495708113
 40
3.5
 41
1
 50
0
  1
L22:2200K
  0
TEXT
  8
_0-0_
 62
    7
 10
73.113425924741335
 20
36.08918495708113
 40
3.5
 41
1
 50
0
  1
D:6500K
  0
TEXT
  8
_0-0_
 62
    7
 10
95.296047668743583
 20
36.142095009991138
 40
3.5
 41
1
 50
0
  1
DN:5700K
  0
TEXT
  8
_0-0_
 62
    7
 10
119.22866940485012
 20
36.08918495708113
 40
3.5
 41
1
 50
0
  1
N:5000K
  0
TEXT
  8
_0-0_
 62
    7
 10
141.41129108999348
 20
36.08918495708113
 40
3.5
 41
1
 50
0
  1
NW:4500K
  0
TEXT
  8
_0-0_
 62
    7
 10
165.34391281174422
 20
36.08918495708113
 40
3.5
 41
1
 50
0
  1
W:4000K
  0
TEXT
  8
_0-0_
 62
    7
 10
187.52653443281162
 20
36.08918495708113
 40
3.5
 41
1
 50
0
  1
WW:3500K
  0
TEXT
  8
_0-0_
 62
    7
 10
209.70915625524566
 20
36.08918495708113
 40
3.5
 41
1
 50
0
  1
L30:3000K
  0
TEXT
  8
_0-0_
 62
    7
 10
232.76677813790417
 20
36.08918495708113
 40
3.5
 41
1
 50
0
  1
L27:2700K
  0
TEXT
  8
_0-0_
 62
    7
 10
255.8243996987471
 20
36.08918495708113
 40
3.5
 41
1
 50
0
  1
L25:2500K
  0
LINE
  8
_0-0_
  6
CONTINUOUS
 62
    7
 10
19.288590984589888
 20
42.49953181187243
 11
298.28580760577347
 21
42.49953181187243
  0
LINE
  8
_0-0_
  6
CONTINUOUS
 62
    7
 10
19.288590984589888
 20
42.49953181187243
 11
19.288154579167582
 21
85.913550310917316
  0
LINE
  8
_0-0_
  6
CONTINUOUS
 62
    7
 10
19.288154579167582
 20
85.913550310917316
 11
298.28537120035105
 21
85.913550310917316
  0
LINE
  8
_0-0_
  6
CONTINUOUS
 62
    7
 10
298.28580760577347
 20
42.49953181187243
 11
298.28537120035105
 21
85.913550310917316
  0
LINE
  8
_0-0_
  6
CONTINUOUS
 62
    7
 10
19.288154579167582
 20
79.711547667917316
 11
298.28537120035105
 21
79.711547667917316
  0
LINE
  8
_0-0_
  6
CONTINUOUS
 62
    7
 10
270.22809040752418
 20
42.499247672617997
 11
270.22765400210176
 21
85.913266171662869
  0
LINE
  8
_0-0_
  6
CONTINUOUS
 62
    7
 10
242.28377506964591
 20
42.498903316025462
 11
242.28333866422355
 21
85.912921815070348
  0
LINE
  8
_0-0_
  6
CONTINUOUS
 62
    7
 10
214.17598259178007
 20
42.498556944911186
 11
214.17554618635771
 21
85.912575443956058
  0
LINE
  8
_0-0_
  6
CONTINUOUS
 62
    7
 10
186.43727153388622
 20
42.498215121971327
 11
186.43683512846383
 21
85.912233621016213
  0
LINE
  8
_0-0_
  6
CONTINUOUS
 62
    7
 10
167.01370688536099
 20
42.497975766221998
 11
167.01327047993863
 21
85.91199426526687
  0
LINE
  8
_0-0_
  6
CONTINUOUS
 62
    7
 10
140.05756403740773
 20
42.497643586836432
 11
140.05712763198534
 21
85.911662085881318
  0
LINE
  8
_0-0_
  6
CONTINUOUS
 62
    7
 10
112.53082412949777
 20
42.497304376007904
 11
112.53038772407538
 21
85.911322875052775
  0
LINE
  8
_0-0_
  6
CONTINUOUS
 62
    7
 10
77.642243512146791
 20
42.496874445533862
 11
77.6418071067244
 21
85.910892944578734
  0
LINE
  8
_0-0_
  6
CONTINUOUS
 62
    7
 10
19.288154579167582
 20
61.105539738917315
 11
270.22790337377262
 21
61.105539738917315
  0
LINE
  8
_0-0_
  6
CONTINUOUS
 62
    7
 10
19.288154579167582
 20
73.509545024917315
 11
167.01339515156053
 21
73.509545024917315
  0
LINE
  8
_0-0_
  6
CONTINUOUS
 62
    7
 10
186.43695980249177
 20
73.509545024917315
 11
270.22777868650905
 21
73.509545024917315
  0
LINE
  8
_0-0_
  6
CONTINUOUS
 62
    7
 10
19.288154579167582
 20
67.307542381917315
 11
167.01345749519228
 21
67.307542381917315
  0
LINE
  8
_0-0_
  6
CONTINUOUS
 62
    7
 10
186.43702214612355
 20
67.307542381917315
 11
270.22784103014089
 21
67.307542381917315
  0
LINE
  8
_0-0_
  6
CONTINUOUS
 62
    7
 10
19.288154579167582
 20
54.903537095917315
 11
167.01358218245585
 21
54.903537095917315
  0
LINE
  8
_0-0_
  6
CONTINUOUS
 62
    7
 10
186.43714683338709
 20
54.903537095917315
 11
270.2279657174044
 21
54.903537095917315
  0
LINE
  8
_0-0_
  6
CONTINUOUS
 62
    7
 10
19.288154579167582
 20
48.701534452917315
 11
167.0136445260876
 21
48.701534452917315
  0
LINE
  8
_0-0_
  6
CONTINUOUS
 62
    7
 10
186.4372091770189
 20
48.701534452917315
 11
270.22802806103618
 21
48.701534452917315
  0
TEXT
  8
_0-0_
 62
    7
 10
203.91025936400479
 20
86.940931443258734
 40
3.5
 41
1
 50
0
  1
照明器具の消費電力は、JIS　C　8105-3の試験方法による。
  0
TEXT
  8
_0-0_
 62
    7
 10
19.166865692585304
 20
86.322208934870872
 40
5
 41
1.0000000000000013
 50
0
  1
◆代表特性 定格入力DC24V
  0
TEXT
  8
_0-0_
 62
    7
 10
41.464980898677538
 20
80.233550310917394
 40
4.5
 41
1
 50
0
  1
型式
  0
TEXT
  8
_0-0_
 62
    7
 10
90.586099012739055
 20
80.233550310917394
 40
4.5
 41
1
 50
0
  1
全長
  0
TEXT
  8
_0-0_
 62
    7
 10
121.7937576526718
 20
80.233550310917394
 40
4.5
 41
1
 50
0
  1
重量
  0
TEXT
  8
_0-0_
 62
    7
 10
174.47505278650092
 20
80.233550310917394
 40
4.5
 41
1
 50
0
  1
Ra
  0
TEXT
  8
_0-0_
 62
    7
 10
191.30619064329139
 20
80.233550310917394
 40
4.5
 41
1
 50
0
  1
入力電力
  0
TEXT
  8
_0-0_
 62
    7
 10
219.22944241541154
 20
80.233550310917394
 40
4.5
 41
1
 50
0
  1
入力電流
  0
TEXT
  8
_0-0_
 62
    7
 10
270.7565125997877
 20
80.233550310917394
 40
4.5
 41
1
 50
0
  1
最大連結長さ
  0
TEXT
  8
_0-0_
 62
    7
 10
143.41019903474017
 20
80.233550310917394
 40
4.5
 41
1
 50
0
  1
LED PKG数
  0
TEXT
  8
_0-0_
 62
    7
 10
347.29789970887407
 20
260.26587301587301
 40
4
 41
1
 50
0
  1
Ｓ=２：１
  0
TEXT
  8
_0-0_
 62
    7
 10
251.08520314847476
 20
82.155864197530747
 40
3.5
 41
1
 50
0
  1
全光束
  0
TEXT
  8
_0-0_
 62
    7
 10
251.33520314847476
 20
79.671051342347511
 40
2.5
 41
1
 50
0
  1
N：5000K
  0
LINE
  8
_0-0_
  6
CENTER2
 62
    7
 10
320.30878320887416
 20
39.0753536242823
 11
302.30879820887412
 21
39.0753536242823
  0
LINE
  8
_0-0_
  6
CENTER2
 62
    7
 10
306.30878720887415
 20
43.075354624282298
 11
306.30878720887415
 21
35.075351624282277
  0
TEXT
  8
_0-0_
 62
    7
 10
390.28582420887409
 20
94.934553347087132
 40
4
 41
1
 50
0
  1
1
  0
TEXT
  8
_0-0_
 62
    7
 10
304.54077070887405
 20
94.87907797616451
 40
3.5
 41
1
 50
0
  1
⑧
  0
TEXT
  8
_0-0_
 62
    7
 10
325.50242920887399
 20
94.890314412939247
 40
3.5000000000000142
 41
0.9999999999999954
 50
0
  1
両面テープ
  0
TEXT
  8
_0-0_
 62
    7
 10
364.04748670887403
 20
95.191548198938307
 40
2.5
 41
0.8800000000000001
 50
0
  1
3M Y-4630F 6mm
  0
LINE
  8
_0-0_
  6
CONTINUOUS
 62
    7
 10
301.28583220887413
 20
99.296150624282276
 11
301.28583220887413
 21
24.29614462428232
  0
LINE
  8
_0-0_
  6
CONTINUOUS
 62
    7
 10
396.28582420887415
 20
99.296150624282276
 11
301.28583220887413
 21
99.296150624282276
  0
LINE
  8
_0-0_
  6
CONTINUOUS
 62
    7
 10
311.29570920887397
 20
99.296150624282276
 11
311.29570920887397
 21
59.296150624282276
  0
LINE
  8
_0-0_
  6
CONTINUOUS
 62
    7
 10
357.20914920887401
 20
59.296150624282276
 11
357.20914920887401
 21
99.296150624282276
  0
LINE
  8
_0-0_
  6
CONTINUOUS
 62
    7
 10
386.28582420887403
 20
99.296150624282276
 11
386.28582420887403
 21
54.296150624282276
  0
LINE
  8
_1-f_
  6
CONTINUOUS
 62
    7
 10
19.46788649768996
 20
104.9562218706206
 11
34.204144620811263
 21
104.9562218706206
  0
LINE
  8
_1-f_
  6
CONTINUOUS
 62
    7
 10
40.976631393298021
 20
104.9562218706206
 11
59.283509700176353
 21
104.9562218706206
  0
LINE
  8
_1-f_
  6
CONTINUOUS
 62
    7
 10
63.622134038800681
 20
104.9562218706206
 11
68.807319223985871
 21
104.9562218706206
  0
LINE
  8
_1-f_
  6
CONTINUOUS
 62
    7
 10
69.759700176366806
 20
104.9562218706206
 11
74.098324514991162
 21
104.9562218706206
  0
TEXT
  8
_1-f_
 62
    7
 10
46.988944411783876
 20
99.233016802245615
 40
5
 41
1.0000000000000004
 50
0
  1
②
  0
TEXT
  8
_1-f_
 62
    7
 10
63.814341237180713
 20
99.233016802245615
 40
5
 41
1.0000000000000004
 50
0
  1
③
  0
TEXT
  8
_1-f_
 62
    7
 10
69.634447057286536
 20
99.233016802245615
 40
5
 41
1.0000000000000004
 50
0
  1
④
  0
LINE
  8
_1-2_
  6
CONTINUOUS
 62
   18
 10
290.94995730442116
 20
248.94956313014723
 11
290.73782242378621
 21
249.16169801078217
  0
LINE
  8
_1-2_
  6
CONTINUOUS
 62
   18
 10
289.54360004247593
 20
237.27444494014208
 11
288.94894892184749
 21
237.86909606077052
  0
LINE
  8
_1-2_
  6
CONTINUOUS
 62
   18
 10
289.23943305718632
 20
237.22505853483813
 11
289.06637805349038
 21
237.39811353853429
  0
LINE
  8
_1-2_
  6
CONTINUOUS
 62
   18
 10
295.00476057899851
 20
251.61227427684253
 11
294.78272053242046
 21
251.83431432342036
  0
LINE
  8
_1-2_
  6
CONTINUOUS
 62
   18
 10
294.78061671095639
 20
251.48286475429131
 11
294.55857666437834
 21
251.70490480086914
  0
LINE
  8
_1-2_
  6
CONTINUOUS
 62
   18
 10
294.55647284291427
 20
251.3534552317401
 11
294.33443279633622
 21
251.57549527831793
  0
LINE
  8
_1-2_
  6
CONTINUOUS
 62
   18
 10
294.33232897487215
 20
251.22404570918866
 11
294.11028892829455
 21
251.44608575576649
  0
LINE
  8
_1-2_
  6
CONTINUOUS
 62
   18
 10
294.10818510683004
 20
251.09463618663744
 11
293.88614506025243
 21
251.31667623321528
  0
LINE
  8
_1-2_
  6
CONTINUOUS
 62
   18
 10
293.88404123878792
 20
250.965226664086
 11
293.66200119221031
 21
251.18726671066383
  0
LINE
  8
_1-2_
  6
CONTINUOUS
 62
   18
 10
293.65989737074625
 20
250.83581714153479
 11
293.43785732416819
 21
251.05785718811262
  0
LINE
  8
_1-2_
  6
CONTINUOUS
 62
   18
 10
293.43575350270459
 20
250.7064076189838
 11
293.21371345612698
 21
250.92844766556163
  0
LINE
  8
_1-2_
  6
CONTINUOUS
 62
   18
 10
293.21160963466247
 20
250.57699809643259
 11
292.98956958808486
 21
250.79903814301042
  0
LINE
  8
_1-2_
  6
CONTINUOUS
 62
   18
 10
292.98746576662035
 20
250.44758857388138
 11
292.76542572004274
 21
250.66962862045898
  0
LINE
  8
_1-2_
  6
CONTINUOUS
 62
   18
 10
292.76332189857868
 20
250.31817905132993
 11
292.54128185200062
 21
250.54021909790777
  0
LINE
  8
_1-2_
  6
CONTINUOUS
 62
   18
 10
292.53917803053656
 20
250.18876952877872
 11
292.3171379839585
 21
250.41080957535655
  0
LINE
  8
_1-2_
  6
CONTINUOUS
 62
   18
 10
292.3169039959933
 20
250.05749017272842
 11
292.10046152656042
 21
250.27393264216153
  0
LINE
  8
_1-2_
  6
CONTINUOUS
 62
   18
 10
292.10631413517041
 20
249.91452664295821
 11
291.89101281948552
 21
250.12982795864286
  0
LINE
  8
_1-2_
  6
CONTINUOUS
 62
   18
 10
291.90092494834727
 20
249.76636243918801
 11
291.68658006812421
 21
249.98070731941107
  0
LINE
  8
_1-2_
  6
CONTINUOUS
 62
   18
 10
291.70066500407557
 20
249.61306899286592
 11
291.48709888155992
 21
249.82663511538181
  0
LINE
  8
_1-2_
  6
CONTINUOUS
 62
   18
 10
291.5054766512697
 20
249.45470395507891
 11
291.29251721950715
 21
249.66766338684124
  0
LINE
  8
_1-2_
  6
CONTINUOUS
 62
   18
 10
291.31531529285422
 20
249.29131192290083
 11
291.10279478117883
 21
249.50383243457622
  0
LINE
  8
_1-2_
  6
CONTINUOUS
 62
   18
 10
291.13014883622674
 20
249.12292498893521
 11
290.91790254175731
 21
249.33517128340463
  0
LINE
  8
_1-2_
  6
CONTINUOUS
 62
   18
 10
290.77473259685877
 20
248.77123444711651
 11
290.56254709471187
 21
248.98341994926341
  0
LINE
  8
_1-2_
  6
CONTINUOUS
 62
   18
 10
290.6044783929363
 20
248.58793526044542
 11
290.39207988524305
 21
248.80033376813867
  0
LINE
  8
_1-2_
  6
CONTINUOUS
 62
   18
 10
290.43921019577812
 20
248.39965006701118
 11
290.22643482640052
 21
248.612425436389
  0
LINE
  8
_1-2_
  6
CONTINUOUS
 62
   18
 10
290.27895551734883
 20
248.20635135484713
 11
290.06563680622077
 21
248.41967006597542
  0
LINE
  8
_1-2_
  6
CONTINUOUS
 62
   18
 10
290.12375421014195
 20
248.00799927146045
 11
289.90972185022093
 21
248.2220316313817
  0
LINE
  8
_1-2_
  6
CONTINUOUS
 62
   18
 10
289.97365895485001
 20
247.80454113615929
 11
289.75873753307479
 21
248.0194625579345
  0
LINE
  8
_1-2_
  6
CONTINUOUS
 62
   18
 10
289.82873591817707
 20
247.59591078223912
 11
289.61274353263281
 21
247.81190316778316
  0
LINE
  8
_1-2_
  6
CONTINUOUS
 62
   18
 10
289.68906560041643
 20
247.38202770940643
 11
289.47181234169449
 21
247.59928096812837
  0
LINE
  8
_1-2_
  6
CONTINUOUS
 62
   18
 10
289.55474389897273
 20
247.16279602025656
 11
289.33603015793852
 21
247.38150976129077
  0
LINE
  8
_1-2_
  6
CONTINUOUS
 62
   18
 10
289.42588342207165
 20
246.93810310656454
 11
289.2054979785915
 21
247.15848855004469
  0
LINE
  8
_1-2_
  6
CONTINUOUS
 62
   18
 10
289.30261509702024
 20
246.70781804102239
 11
289.08033293397131
 21
246.93010020407155
  0
LINE
  8
_1-2_
  6
CONTINUOUS
 62
   18
 10
289.18509013035901
 20
246.47178961709051
 11
288.96066990370883
 21
246.69620984374046
  0
LINE
  8
_1-2_
  6
CONTINUOUS
 62
   18
 10
289.07348239409731
 20
246.22984396275888
 11
288.84666347177227
 21
246.45666288508369
  0
LINE
  8
_1-2_
  6
CONTINUOUS
 62
   18
 10
288.96799133451606
 20
245.9817816317468
 11
288.7384902925449
 21
246.21128267371796
  0
LINE
  8
_1-2_
  6
CONTINUOUS
 62
   18
 10
288.86884552985731
 20
245.72737404581198
 11
288.63635196146589
 21
245.95986761420363
  0
LINE
  8
_1-2_
  6
CONTINUOUS
 62
   18
 10
288.77630706380734
 20
245.46635912126862
 11
288.54047851219622
 21
245.70218767287997
  0
LINE
  8
_1-2_
  6
CONTINUOUS
 62
   18
 10
288.69067693764356
 20
245.1984358568393
 11
288.45113270093071
 21
245.43798009355191
  0
LINE
  8
_1-2_
  6
CONTINUOUS
 62
   18
 10
288.61230182240553
 20
244.9232575814849
 11
288.36861529163372
 21
245.16694411225649
  0
LINE
  8
_1-2_
  6
CONTINUOUS
 62
   18
 10
288.54158256428838
 20
244.64042344900872
 11
288.29327163033332
 21
244.88873438296378
  0
LINE
  8
_1-2_
  6
CONTINUOUS
 62
   18
 10
288.47898501888932
 20
244.34946760381422
 11
288.22549990223871
 21
244.60295272046483
  0
LINE
  8
_1-2_
  6
CONTINUOUS
 62
   18
 10
288.42505403059096
 20
244.04984520151947
 11
288.16576161830773
 21
244.3091376138027
  0
LINE
  8
_1-2_
  6
CONTINUOUS
 62
   18
 10
288.38043173807938
 20
243.74091410343749
 11
288.11459510340075
 21
244.00675073811635
  0
LINE
  8
_1-2_
  6
CONTINUOUS
 62
   18
 10
288.34588195375483
 20
243.42191049716894
 11
288.07263309846877
 21
243.69515935245477
  0
LINE
  8
_1-2_
  6
CONTINUOUS
 62
   18
 10
288.32232327094454
 20
243.09191578938589
 11
288.04062611515457
 21
243.37361294517564
  0
LINE
  8
_1-2_
  6
CONTINUOUS
 62
   18
 10
288.31087504934277
 20
242.7498106203941
 11
288.01947401730541
 21
243.04121165243168
  0
LINE
  8
_1-2_
  6
CONTINUOUS
 62
   18
 10
288.31292299442777
 20
242.394209284716
 11
288.01026967522949
 21
242.69686260391404
  0
LINE
  8
_1-2_
  6
CONTINUOUS
 62
   18
 10
288.33021563959238
 20
242.02336324895782
 11
288.01436087105168
 21
242.33921801749875
  0
LINE
  8
_1-2_
  6
CONTINUOUS
 62
   18
 10
288.36501169662944
 20
241.6350138013272
 11
288.0334407712524
 21
241.96658472670447
  0
LINE
  8
_1-2_
  6
CONTINUOUS
 62
   18
 10
288.42119935702368
 20
241.22527275033985
 11
288.06968499637406
 21
241.5767871109897
  0
LINE
  8
_1-2_
  6
CONTINUOUS
 62
   18
 10
288.53289601019179
 20
240.76002270657818
 11
288.12694500034451
 21
241.1659737164257
  0
LINE
  8
_1-2_
  6
CONTINUOUS
 62
   18
 10
288.64459266336036
 20
240.29477266281651
 11
288.24437413198831
 21
240.69499119418879
  0
LINE
  8
_1-2_
  6
CONTINUOUS
 62
   18
 10
288.75628931652847
 20
239.8295226190553
 11
288.3618032636312
 21
240.22400867195256
  0
LINE
  8
_1-2_
  6
CONTINUOUS
 62
   18
 10
288.86798596969658
 20
239.36427257529476
 11
288.4792323952741
 21
239.75302614971724
  0
LINE
  8
_1-2_
  6
CONTINUOUS
 62
   18
 10
288.97968262286469
 20
238.89902253153309
 11
288.59666152691744
 21
239.28204362748056
  0
LINE
  8
_1-2_
  6
CONTINUOUS
 62
   18
 10
289.0913792760328
 20
238.43377248777165
 11
288.71409065856079
 21
238.81106110524365
  0
LINE
  8
_1-2_
  6
CONTINUOUS
 62
   18
 10
289.20307592920136
 20
237.96852244400998
 11
288.83151979020369
 21
238.34007858300743
  0
LINE
  8
_1-2_
  6
CONTINUOUS
 62
   18
 10
230.52201281427443
 20
216.7095468684667
 11
230.67809791832298
 21
216.86563197251496
  0
LINE
  8
_1-2_
  6
CONTINUOUS
 62
   18
 10
229.81490603308777
 20
216.70954686846676
 11
230.67809791832252
 21
217.57273875370157
  0
LINE
  8
_1-2_
  6
CONTINUOUS
 62
   18
 10
229.1077992519011
 20
216.70954686846682
 11
230.67809791832252
 21
218.27984553488818
  0
LINE
  8
_1-2_
  6
CONTINUOUS
 62
   18
 10
228.40069247071489
 20
216.70954686846687
 11
230.0006924707148
 21
218.30954686846684
  0
LINE
  8
_1-2_
  6
CONTINUOUS
 62
   18
 10
227.69358568952822
 20
216.70954686846687
 11
229.29358568952813
 21
218.30954686846684
  0
LINE
  8
_1-2_
  6
CONTINUOUS
 62
   18
 10
226.98647890834155
 20
216.70954686846699
 11
228.58647890834146
 21
218.30954686846701
  0
LINE
  8
_1-2_
  6
CONTINUOUS
 62
   18
 10
226.27937212715489
 20
216.70954686846704
 11
227.8793721271548
 21
218.30954686846707
  0
LINE
  8
_1-2_
  6
CONTINUOUS
 62
   18
 10
225.57226534596822
 20
216.70954686846704
 11
227.17226534596813
 21
218.30954686846712
  0
LINE
  8
_1-2_
  6
CONTINUOUS
 62
   18
 10
224.86515856478064
 20
216.70954686846613
 11
226.46515856478101
 21
218.30954686846667
  0
LINE
  8
_1-2_
  6
CONTINUOUS
 62
   18
 10
224.15805178359398
 20
216.70954686846619
 11
225.75805178359434
 21
218.30954686846667
  0
LINE
  8
_1-2_
  6
CONTINUOUS
 62
   18
 10
223.45094500240731
 20
216.70954686846625
 11
225.05094500240813
 21
218.30954686846678
  0
LINE
  8
_1-2_
  6
CONTINUOUS
 62
   18
 10
222.74383822122064
 20
216.7095468684663
 11
224.34383822122146
 21
218.30954686846684
  0
LINE
  8
_1-2_
  6
CONTINUOUS
 62
   18
 10
222.03673144003534
 20
216.70954686846648
 11
223.63673144003525
 21
218.30954686846633
  0
LINE
  8
_1-2_
  6
CONTINUOUS
 62
   18
 10
221.32962465884958
 20
216.70954686846648
 11
222.92962465884949
 21
218.30954686846655
  0
LINE
  8
_1-2_
  6
CONTINUOUS
 62
   18
 10
220.62251787766291
 20
216.70954686846653
 11
222.22251787766282
 21
218.30954686846661
  0
LINE
  8
_1-2_
  6
CONTINUOUS
 62
   18
 10
219.91541109647625
 20
216.7095468684667
 11
221.51541109647616
 21
218.30954686846667
  0
LINE
  8
_1-2_
  6
CONTINUOUS
 62
   18
 10
219.20830431528958
 20
216.7095468684667
 11
220.80830431528949
 21
218.30954686846673
  0
LINE
  8
_1-2_
  6
CONTINUOUS
 62
   18
 10
218.50119753410291
 20
216.70954686846682
 11
220.10119753410328
 21
218.30954686846678
  0
LINE
  8
_1-2_
  6
CONTINUOUS
 62
   18
 10
217.79409075291625
 20
216.70954686846682
 11
219.39409075291661
 21
218.30954686846684
  0
LINE
  8
_1-2_
  6
CONTINUOUS
 62
   18
 10
217.08698397173004
 20
216.70954686846693
 11
218.68698397172994
 21
218.3095468684669
  0
LINE
  8
_1-2_
  6
CONTINUOUS
 62
   18
 10
216.37987719054337
 20
216.70954686846693
 11
217.97987719054328
 21
218.3095468684669
  0
LINE
  8
_1-2_
  6
CONTINUOUS
 62
   18
 10
215.6727704093567
 20
216.70954686846704
 11
217.27277040935661
 21
218.30954686846695
  0
LINE
  8
_1-2_
  6
CONTINUOUS
 62
   18
 10
214.96566362817003
 20
216.70954686846699
 11
216.56566362816994
 21
218.30954686846701
  0
LINE
  8
_1-2_
  6
CONTINUOUS
 62
   18
 10
214.25855684698246
 20
216.70954686846613
 11
215.85855684698282
 21
218.30954686846661
  0
LINE
  8
_1-2_
  6
CONTINUOUS
 62
   18
 10
213.55145006579579
 20
216.70954686846619
 11
215.15145006579615
 21
218.30954686846667
  0
LINE
  8
_1-2_
  6
CONTINUOUS
 62
   18
 10
212.84434328460912
 20
216.70954686846625
 11
214.44434328460949
 21
218.30954686846673
  0
LINE
  8
_1-2_
  6
CONTINUOUS
 62
   18
 10
212.13723650342246
 20
216.70954686846636
 11
213.73723650342328
 21
218.30954686846678
  0
LINE
  8
_1-2_
  6
CONTINUOUS
 62
   18
 10
211.43012972223715
 20
216.70954686846648
 11
213.03012972223752
 21
218.30954686846695
  0
LINE
  8
_1-2_
  6
CONTINUOUS
 62
   18
 10
210.7230229410514
 20
216.70954686846653
 11
212.32302294105131
 21
218.30954686846655
  0
LINE
  8
_1-2_
  6
CONTINUOUS
 62
   18
 10
210.01591615986473
 20
216.70954686846659
 11
211.61591615986464
 21
218.3095468684665
  0
LINE
  8
_1-2_
  6
CONTINUOUS
 62
   18
 10
230.52962419286433
 20
237.22325490146636
 11
230.67809791832298
 21
237.37172862692501
  0
LINE
  8
_1-2_
  6
CONTINUOUS
 62
   18
 10
209.30880937867806
 20
216.70954686846665
 11
210.90880937867797
 21
218.30954686846667
  0
LINE
  8
_1-2_
  6
CONTINUOUS
 62
   18
 10
229.82251741167812
 20
237.22325490146653
 11
230.67809791832298
 21
238.0788354081115
  0
LINE
  8
_1-2_
  6
CONTINUOUS
 62
   18
 10
208.6017025974914
 20
216.7095468684667
 11
210.20170259749131
 21
218.30954686846661
  0
LINE
  8
_1-2_
  6
CONTINUOUS
 62
   18
 10
229.11541063049145
 20
237.22325490146648
 11
230.67809791832298
 21
238.78594218929823
  0
LINE
  8
_1-2_
  6
CONTINUOUS
 62
   18
 10
207.89459581630473
 20
216.70954686846676
 11
209.49459581630509
 21
218.30954686846678
  0
LINE
  8
_1-2_
  6
CONTINUOUS
 62
   18
 10
228.40830384930479
 20
237.22325490146653
 11
230.67809791832298
 21
239.49304897048472
  0
LINE
  8
_1-2_
  6
CONTINUOUS
 62
   18
 10
207.18748903511806
 20
216.70954686846682
 11
208.78748903511843
 21
218.30954686846678
  0
LINE
  8
_1-2_
  6
CONTINUOUS
 62
   18
 10
227.70119706811812
 20
237.22325490146659
 11
230.67809791832298
 21
240.20015575167145
  0
LINE
  8
_1-2_
  6
CONTINUOUS
 62
   18
 10
206.48038225393185
 20
216.70954686846687
 11
208.08038225393176
 21
218.30954686846684
  0
LINE
  8
_1-2_
  6
CONTINUOUS
 62
   18
 10
226.99409028693145
 20
237.22325490146665
 11
230.67809791832298
 21
240.90726253285806
  0
LINE
  8
_1-2_
  6
CONTINUOUS
 62
   18
 10
205.77327547274518
 20
216.70954686846693
 11
207.37327547274509
 21
218.3095468684669
  0
LINE
  8
_1-2_
  6
CONTINUOUS
 62
   18
 10
226.28698350574479
 20
237.2232549014667
 11
230.67809791832298
 21
241.61436931404472
  0
LINE
  8
_1-2_
  6
CONTINUOUS
 62
   18
 10
205.06616869155852
 20
216.70954686846699
 11
206.66616869155843
 21
218.30954686846695
  0
LINE
  8
_1-2_
  6
CONTINUOUS
 62
   18
 10
225.57987672455812
 20
237.22325490146682
 11
230.67809791832252
 21
242.32147609523128
  0
LINE
  8
_1-2_
  6
CONTINUOUS
 62
   18
 10
204.35906191037185
 20
216.70954686846704
 11
205.95906191037176
 21
218.30954686846701
  0
LINE
  8
_1-2_
  6
CONTINUOUS
 62
   18
 10
224.87276994337145
 20
237.22325490146676
 11
230.67809791832252
 21
243.02858287641789
  0
LINE
  8
_1-2_
  6
CONTINUOUS
 62
   18
 10
203.65195512918473
 20
216.7095468684667
 11
205.25195512918464
 21
218.30954686846667
  0
LINE
  8
_1-2_
  6
CONTINUOUS
 62
   18
 10
224.16566316218433
 20
237.22325490146636
 11
230.67809791832298
 21
243.73568965760501
  0
LINE
  8
_1-2_
  6
CONTINUOUS
 62
   18
 10
202.94484834799761
 20
216.70954686846613
 11
204.54484834799797
 21
218.30954686846667
  0
LINE
  8
_1-2_
  6
CONTINUOUS
 62
   18
 10
223.45855638099721
 20
237.22325490146591
 11
230.67809791832343
 21
244.4427964387919
  0
LINE
  8
_1-2_
  6
CONTINUOUS
 62
   18
 10
202.23774156681094
 20
216.70954686846625
 11
203.83774156681176
 21
218.30954686846678
  0
LINE
  8
_1-2_
  6
CONTINUOUS
 62
   18
 10
222.75144959981054
 20
237.22325490146596
 11
230.67809791832298
 21
245.1499032199784
  0
LINE
  8
_1-2_
  6
CONTINUOUS
 62
   18
 10
201.53063478562427
 20
216.70954686846636
 11
203.13063478562509
 21
218.30954686846678
  0
LINE
  8
_1-2_
  6
CONTINUOUS
 62
   18
 10
222.04434281862433
 20
237.22325490146602
 11
230.67809791832298
 21
245.85701000116501
  0
LINE
  8
_1-2_
  6
CONTINUOUS
 62
   18
 10
200.82352800443897
 20
216.70954686846648
 11
202.42352800443933
 21
218.30954686846695
  0
LINE
  8
_1-2_
  6
CONTINUOUS
 62
   18
 10
221.33723603743857
 20
237.22325490146613
 11
230.67809791832298
 21
246.56411678235071
  0
LINE
  8
_1-2_
  6
CONTINUOUS
 62
   18
 10
200.11642122325321
 20
216.70954686846648
 11
201.71642122325312
 21
218.30954686846644
  0
LINE
  8
_1-2_
  6
CONTINUOUS
 62
   18
 10
220.63012925625281
 20
237.22325490146631
 11
230.67809791832298
 21
247.27122356353618
  0
LINE
  8
_1-2_
  6
CONTINUOUS
 62
   18
 10
199.40931444206655
 20
216.70954686846653
 11
201.00931444206645
 21
218.3095468684665
  0
LINE
  8
_1-2_
  6
CONTINUOUS
 62
   18
 10
219.92302247506615
 20
237.22325490146636
 11
230.67809791832252
 21
247.97833034472279
  0
LINE
  8
_1-2_
  6
CONTINUOUS
 62
   18
 10
198.70220766087988
 20
216.70954686846659
 11
200.30220766087979
 21
218.30954686846655
  0
LINE
  8
_1-2_
  6
CONTINUOUS
 62
   18
 10
219.21591569387994
 20
237.22325490146648
 11
230.67809791832252
 21
248.6854371259094
  0
LINE
  8
_1-2_
  6
CONTINUOUS
 62
   18
 10
197.99510087969321
 20
216.70954686846665
 11
199.59510087969312
 21
218.30954686846661
  0
LINE
  8
_1-2_
  6
CONTINUOUS
 62
   18
 10
218.50880891269327
 20
237.22325490146648
 11
230.67809791832252
 21
249.39254390709601
  0
LINE
  8
_1-2_
  6
CONTINUOUS
 62
   18
 10
197.28799409850654
 20
216.7095468684667
 11
198.88799409850645
 21
218.30954686846667
  0
LINE
  8
_1-2_
  6
CONTINUOUS
 62
   18
 10
217.8017021315066
 20
237.22325490146653
 11
230.67809791832252
 21
250.09965068828257
  0
LINE
  8
_1-2_
  6
CONTINUOUS
 62
   18
 10
196.58088731731988
 20
216.70954686846682
 11
198.18088731731979
 21
218.30954686846673
  0
LINE
  8
_1-2_
  6
CONTINUOUS
 62
   18
 10
217.09459535031993
 20
237.2232549014667
 11
230.67809791832252
 21
250.80675746946918
  0
LINE
  8
_1-2_
  6
CONTINUOUS
 62
   18
 10
195.87378053613367
 20
216.70954686846687
 11
197.47378053613357
 21
218.30954686846678
  0
LINE
  8
_1-2_
  6
CONTINUOUS
 62
   18
 10
216.38748856913327
 20
237.22325490146665
 11
230.67809791832298
 21
251.51386425065624
  0
LINE
  8
_1-2_
  6
CONTINUOUS
 62
   18
 10
195.166673754947
 20
216.70954686846693
 11
196.76667375494691
 21
218.30954686846684
  0
LINE
  8
_1-2_
  6
CONTINUOUS
 62
   18
 10
215.6803817879466
 20
237.2232549014667
 11
230.38038178794687
 21
251.92325490146681
  0
LINE
  8
_1-2_
  6
CONTINUOUS
 62
   18
 10
194.45956697376033
 20
216.70954686846699
 11
196.05956697376024
 21
218.3095468684669
  0
LINE
  8
_1-2_
  6
CONTINUOUS
 62
   18
 10
214.97327500675993
 20
237.22325490146676
 11
229.67327500676021
 21
251.92325490146681
  0
LINE
  8
_1-2_
  6
CONTINUOUS
 62
   18
 10
193.75246019257366
 20
216.70954686846704
 11
195.35246019257357
 21
218.30954686846701
  0
LINE
  8
_1-2_
  6
CONTINUOUS
 62
   18
 10
214.26616822557372
 20
237.22325490146693
 11
228.96616822557354
 21
251.92325490146686
  0
LINE
  8
_1-2_
  6
CONTINUOUS
 62
   18
 10
193.04535341138654
 20
216.7095468684667
 11
194.64535341138645
 21
218.30954686846667
  0
LINE
  8
_1-2_
  6
CONTINUOUS
 62
   18
 10
213.5590614443866
 20
237.22325490146648
 11
228.25906144438642
 21
251.92325490146641
  0
LINE
  8
_1-2_
  6
CONTINUOUS
 62
   18
 10
192.33824663019942
 20
216.70954686846625
 11
193.93824663019979
 21
218.30954686846673
  0
LINE
  8
_1-2_
  6
CONTINUOUS
 62
   18
 10
212.85195466319902
 20
237.22325490146591
 11
227.55195466319975
 21
251.92325490146646
  0
LINE
  8
_1-2_
  6
CONTINUOUS
 62
   18
 10
191.63113984901275
 20
216.7095468684663
 11
193.23113984901357
 21
218.30954686846678
  0
LINE
  8
_1-2_
  6
CONTINUOUS
 62
   18
 10
212.14484788201236
 20
237.22325490146596
 11
226.84484788201308
 21
251.92325490146646
  0
LINE
  8
_1-2_
  6
CONTINUOUS
 62
   18
 10
190.92403306782609
 20
216.70954686846636
 11
192.52403306782691
 21
218.30954686846684
  0
LINE
  8
_1-2_
  6
CONTINUOUS
 62
   18
 10
211.43774110082614
 20
237.22325490146613
 11
226.13774110082642
 21
251.92325490146652
  0
LINE
  8
_1-2_
  6
CONTINUOUS
 62
   18
 10
190.21692628664078
 20
216.70954686846648
 11
191.81692628664115
 21
218.30954686846695
  0
LINE
  8
_1-2_
  6
CONTINUOUS
 62
   18
 10
210.73063431964039
 20
237.22325490146625
 11
225.43063431964111
 21
251.92325490146681
  0
LINE
  8
_1-2_
  6
CONTINUOUS
 62
   18
 10
189.50981950545503
 20
216.70954686846648
 11
191.10981950545494
 21
218.30954686846644
  0
LINE
  8
_1-2_
  6
CONTINUOUS
 62
   18
 10
210.02352753845463
 20
237.22325490146619
 11
224.72352753845536
 21
251.92325490146686
  0
LINE
  8
_1-2_
  6
CONTINUOUS
 62
   18
 10
188.80271272426836
 20
216.70954686846653
 11
190.40271272426827
 21
218.30954686846655
  0
LINE
  8
_1-2_
  6
CONTINUOUS
 62
   18
 10
209.31642075726796
 20
237.22325490146636
 11
224.01642075726869
 21
251.92325490146681
  0
LINE
  8
_1-2_
  6
CONTINUOUS
 62
   18
 10
188.09560594308169
 20
216.70954686846653
 11
189.6956059430816
 21
218.30954686846655
  0
LINE
  8
_1-2_
  6
CONTINUOUS
 62
   18
 10
208.6093139760813
 20
237.22325490146642
 11
223.30931397608202
 21
251.92325490146698
  0
LINE
  8
_1-2_
  6
CONTINUOUS
 62
   18
 10
187.38849916189503
 20
216.70954686846665
 11
188.98849916189494
 21
218.30954686846661
  0
LINE
  8
_1-2_
  6
CONTINUOUS
 62
   18
 10
207.90220719489463
 20
237.22325490146636
 11
222.60220719489536
 21
251.92325490146698
  0
LINE
  8
_1-2_
  6
CONTINUOUS
 62
   18
 10
186.68139238070836
 20
216.7095468684667
 11
188.28139238070827
 21
218.30954686846667
  0
LINE
  8
_1-2_
  6
CONTINUOUS
 62
   18
 10
207.19510041370796
 20
237.22325490146642
 11
221.89510041370869
 21
251.92325490146709
  0
LINE
  8
_1-2_
  6
CONTINUOUS
 62
   18
 10
185.97428559952169
 20
216.70954686846676
 11
187.5742855995216
 21
218.30954686846673
  0
LINE
  8
_1-2_
  6
CONTINUOUS
 62
   18
 10
206.48799363252175
 20
237.22325490146659
 11
221.18799363252202
 21
251.92325490146715
  0
LINE
  8
_1-2_
  6
CONTINUOUS
 62
   18
 10
185.26717881833503
 20
216.70954686846682
 11
186.86717881833539
 21
218.30954686846678
  0
LINE
  8
_1-2_
  6
CONTINUOUS
 62
   18
 10
205.78088685133508
 20
237.22325490146659
 11
220.4808868513349
 21
251.92325490146663
  0
LINE
  8
_1-2_
  6
CONTINUOUS
 62
   18
 10
184.56007203714881
 20
216.70954686846687
 11
186.16007203714872
 21
218.30954686846684
  0
LINE
  8
_1-2_
  6
CONTINUOUS
 62
   18
 10
205.07378007014842
 20
237.22325490146665
 11
219.77378007014869
 21
251.92325490146681
  0
LINE
  8
_1-2_
  6
CONTINUOUS
 62
   18
 10
183.85296525596215
 20
216.70954686846693
 11
185.45296525596206
 21
218.3095468684669
  0
LINE
  8
_1-2_
  6
CONTINUOUS
 62
   18
 10
204.36667328896175
 20
237.2232549014667
 11
219.06667328896157
 21
251.92325490146669
  0
LINE
  8
_1-2_
  6
CONTINUOUS
 62
   18
 10
183.14585847477548
 20
216.70954686846699
 11
184.74585847477539
 21
218.30954686846695
  0
LINE
  8
_1-2_
  6
CONTINUOUS
 62
   18
 10
203.65956650777508
 20
237.22325490146676
 11
218.35956650777536
 21
251.92325490146681
  0
LINE
  8
_1-2_
  6
CONTINUOUS
 62
   18
 10
182.43875169358881
 20
216.70954686846704
 11
184.03875169358872
 21
218.30954686846701
  0
LINE
  8
_1-2_
  6
CONTINUOUS
 62
   18
 10
202.95245972658842
 20
237.22325490146682
 11
217.65245972658869
 21
251.92325490146681
  0
LINE
  8
_1-2_
  6
CONTINUOUS
 62
   18
 10
181.73164491240124
 20
216.70954686846625
 11
183.33164491240206
 21
218.30954686846678
  0
LINE
  8
_1-2_
  6
CONTINUOUS
 62
   18
 10
202.24535294540175
 20
237.22325490146653
 11
216.94535294540157
 21
251.92325490146646
  0
LINE
  8
_1-2_
  6
CONTINUOUS
 62
   18
 10
181.02453813121457
 20
216.70954686846625
 11
182.62453813121539
 21
218.30954686846684
  0
LINE
  8
_1-2_
  6
CONTINUOUS
 62
   18
 10
201.53824616421463
 20
237.22325490146602
 11
216.2382461642149
 21
251.92325490146646
  0
LINE
  8
_1-2_
  6
CONTINUOUS
 62
   18
 10
180.3174313500279
 20
216.70954686846636
 11
181.91743135002872
 21
218.3095468684669
  0
LINE
  8
_1-2_
  6
CONTINUOUS
 62
   18
 10
200.83113938302796
 20
237.22325490146608
 11
215.53113938302823
 21
251.92325490146658
  0
LINE
  8
_1-2_
  6
CONTINUOUS
 62
   18
 10
179.6103245688426
 20
216.70954686846642
 11
181.21032456884296
 21
218.30954686846695
  0
LINE
  8
_1-2_
  6
CONTINUOUS
 62
   18
 10
200.1240326018422
 20
237.22325490146619
 11
214.82403260184293
 21
251.92325490146681
  0
LINE
  8
_1-2_
  6
CONTINUOUS
 62
   18
 10
178.90321778765684
 20
216.70954686846648
 11
180.50321778765675
 21
218.30954686846644
  0
LINE
  8
_1-2_
  6
CONTINUOUS
 62
   18
 10
199.41692582065645
 20
237.22325490146625
 11
214.11692582065717
 21
251.92325490146686
  0
LINE
  8
_1-2_
  6
CONTINUOUS
 62
   18
 10
178.19611100647018
 20
216.70954686846648
 11
179.79611100647008
 21
218.3095468684665
  0
LINE
  8
_1-2_
  6
CONTINUOUS
 62
   18
 10
198.70981903946978
 20
237.22325490146631
 11
213.40981903947051
 21
251.92325490146692
  0
LINE
  8
_1-2_
  6
CONTINUOUS
 62
   18
 10
177.48900422528351
 20
216.70954686846659
 11
179.08900422528342
 21
218.30954686846655
  0
LINE
  8
_1-2_
  6
CONTINUOUS
 62
   18
 10
198.00271225828311
 20
237.22325490146636
 11
212.70271225828384
 21
251.92325490146698
  0
LINE
  8
_1-2_
  6
CONTINUOUS
 62
   18
 10
176.78189744409684
 20
216.70954686846665
 11
178.38189744409675
 21
218.30954686846661
  0
LINE
  8
_1-2_
  6
CONTINUOUS
 62
   18
 10
197.2956054770969
 20
237.22325490146648
 11
211.99560547709717
 21
251.92325490146703
  0
LINE
  8
_1-2_
  6
CONTINUOUS
 62
   18
 10
176.07479066291017
 20
216.7095468684667
 11
177.67479066291008
 21
218.30954686846667
  0
LINE
  8
_1-2_
  6
CONTINUOUS
 62
   18
 10
196.58849869591023
 20
237.22325490146653
 11
211.2884986959105
 21
251.92325490146698
  0
LINE
  8
_1-2_
  6
CONTINUOUS
 62
   18
 10
175.36768388172351
 20
216.70954686846676
 11
176.96768388172342
 21
218.30954686846667
  0
LINE
  8
_1-2_
  6
CONTINUOUS
 62
   18
 10
195.88139191472357
 20
237.22325490146659
 11
210.58139191472384
 21
251.92325490146715
  0
LINE
  8
_1-2_
  6
CONTINUOUS
 62
   18
 10
174.66057710053684
 20
216.70954686846682
 11
176.2605771005372
 21
218.30954686846678
  0
LINE
  8
_1-2_
  6
CONTINUOUS
 62
   18
 10
195.1742851335369
 20
237.22325490146665
 11
209.87428513353672
 21
251.92325490146663
  0
LINE
  8
_1-2_
  6
CONTINUOUS
 62
   18
 10
173.95347031935017
 20
216.70954686846682
 11
175.55347031935054
 21
218.30954686846678
  0
LINE
  8
_1-2_
  6
CONTINUOUS
 62
   18
 10
194.46717835235023
 20
237.2232549014667
 11
209.16717835235005
 21
251.92325490146669
  0
LINE
  8
_1-2_
  6
CONTINUOUS
 62
   18
 10
173.24636353816396
 20
216.70954686846693
 11
174.84636353816387
 21
218.30954686846684
  0
LINE
  8
_1-2_
  6
CONTINUOUS
 62
   18
 10
193.76007157116356
 20
237.22325490146676
 11
208.46007157116338
 21
251.92325490146669
  0
LINE
  8
_1-2_
  6
CONTINUOUS
 62
   18
 10
172.5392567569773
 20
216.70954686846699
 11
174.1392567569772
 21
218.3095468684669
  0
LINE
  8
_1-2_
  6
CONTINUOUS
 62
   18
 10
193.0529647899769
 20
237.22325490146682
 11
207.75296478997717
 21
251.92325490146681
  0
LINE
  8
_1-2_
  6
CONTINUOUS
 62
   18
 10
171.83214997579063
 20
216.70954686846704
 11
173.43214997579054
 21
218.30954686846695
  0
LINE
  8
_1-2_
  6
CONTINUOUS
 62
   18
 10
192.34585800879023
 20
237.22325490146682
 11
207.0458580087905
 21
251.92325490146686
  0
LINE
  8
_1-2_
  6
CONTINUOUS
 62
   18
 10
171.12504319460305
 20
216.70954686846625
 11
172.72504319460342
 21
218.30954686846678
  0
LINE
  8
_1-2_
  6
CONTINUOUS
 62
   18
 10
191.63875122760356
 20
237.22325490146653
 11
206.33875122760338
 21
251.92325490146646
  0
LINE
  8
_1-2_
  6
CONTINUOUS
 62
   18
 10
170.41793641341638
 20
216.70954686846636
 11
172.0179364134172
 21
218.30954686846684
  0
LINE
  8
_1-2_
  6
CONTINUOUS
 62
   18
 10
190.93164444641644
 20
237.22325490146602
 11
205.63164444641671
 21
251.92325490146652
  0
LINE
  8
_1-2_
  6
CONTINUOUS
 62
   18
 10
169.71082963222972
 20
216.70954686846636
 11
171.31082963223054
 21
218.3095468684669
  0
LINE
  8
_1-2_
  6
CONTINUOUS
 62
   18
 10
190.22453766522978
 20
237.22325490146608
 11
204.92453766523005
 21
251.92325490146658
  0
LINE
  8
_1-2_
  6
CONTINUOUS
 62
   18
 10
169.00372285104442
 20
216.70954686846648
 11
170.60372285104478
 21
218.30954686846701
  0
LINE
  8
_1-2_
  6
CONTINUOUS
 62
   18
 10
189.51743088404402
 20
237.22325490146619
 11
204.21743088404475
 21
251.92325490146675
  0
LINE
  8
_1-2_
  6
CONTINUOUS
 62
   18
 10
168.29661606985866
 20
216.70954686846642
 11
169.89661606985857
 21
218.30954686846638
  0
LINE
  8
_1-2_
  6
CONTINUOUS
 62
   18
 10
188.81032410285826
 20
237.22325490146619
 11
203.51032410285899
 21
251.92325490146675
  0
LINE
  8
_1-2_
  6
CONTINUOUS
 62
   18
 10
167.58950928867199
 20
216.70954686846648
 11
169.1895092886719
 21
218.30954686846644
  0
LINE
  8
_1-2_
  6
CONTINUOUS
 62
   18
 10
188.10321732167159
 20
237.22325490146631
 11
202.80321732167232
 21
251.92325490146686
  0
LINE
  8
_1-2_
  6
CONTINUOUS
 62
   18
 10
166.88240250748532
 20
216.70954686846653
 11
168.48240250748523
 21
218.3095468684665
  0
LINE
  8
_1-2_
  6
CONTINUOUS
 62
   18
 10
187.39611054048493
 20
237.22325490146636
 11
202.09611054048565
 21
251.92325490146686
  0
LINE
  8
_1-2_
  6
CONTINUOUS
 62
   18
 10
166.17529572629866
 20
216.70954686846659
 11
167.77529572629857
 21
218.30954686846661
  0
LINE
  8
_1-2_
  6
CONTINUOUS
 62
   18
 10
186.68900375929826
 20
237.22325490146636
 11
201.38900375929899
 21
251.92325490146698
  0
LINE
  8
_1-2_
  6
CONTINUOUS
 62
   18
 10
165.46818894511199
 20
216.70954686846665
 11
167.0681889451119
 21
218.30954686846667
  0
LINE
  8
_1-2_
  6
CONTINUOUS
 62
   18
 10
185.98189697811205
 20
237.22325490146648
 11
200.68189697811232
 21
251.92325490146709
  0
LINE
  8
_1-2_
  6
CONTINUOUS
 62
   18
 10
164.76108216392532
 20
216.7095468684667
 11
166.36108216392523
 21
218.30954686846673
  0
LINE
  8
_1-2_
  6
CONTINUOUS
 62
   18
 10
185.27479019692538
 20
237.22325490146648
 11
199.97479019692565
 21
251.92325490146715
  0
LINE
  8
_1-2_
  6
CONTINUOUS
 62
   18
 10
164.05397538273866
 20
216.70954686846676
 11
165.65397538273902
 21
218.30954686846678
  0
LINE
  8
_1-2_
  6
CONTINUOUS
 62
   18
 10
184.56768341573871
 20
237.22325490146653
 11
199.26768341573853
 21
251.92325490146663
  0
LINE
  8
_1-2_
  6
CONTINUOUS
 62
   18
 10
163.34686860155199
 20
216.70954686846682
 11
164.94686860155235
 21
218.30954686846684
  0
LINE
  8
_1-2_
  6
CONTINUOUS
 62
   18
 10
183.86057663455205
 20
237.22325490146659
 11
198.56057663455186
 21
251.92325490146658
  0
LINE
  8
_1-2_
  6
CONTINUOUS
 62
   18
 10
162.63976182036578
 20
216.70954686846687
 11
164.23976182036569
 21
218.3095468684669
  0
LINE
  8
_1-2_
  6
CONTINUOUS
 62
   18
 10
183.15346985336538
 20
237.22325490146665
 11
197.85346985336565
 21
251.92325490146675
  0
LINE
  8
_1-2_
  6
CONTINUOUS
 62
   18
 10
161.93265503917911
 20
216.70954686846693
 11
163.53265503917902
 21
218.30954686846695
  0
LINE
  8
_1-2_
  6
CONTINUOUS
 62
   18
 10
182.44636307217871
 20
237.2232549014667
 11
197.14636307217899
 21
251.92325490146669
  0
LINE
  8
_1-2_
  6
CONTINUOUS
 62
   18
 10
161.22554825799244
 20
216.70954686846699
 11
162.82554825799235
 21
218.30954686846695
  0
LINE
  8
_1-2_
  6
CONTINUOUS
 62
   18
 10
181.73925629099205
 20
237.22325490146676
 11
196.43925629099232
 21
251.92325490146686
  0
LINE
  8
_1-2_
  6
CONTINUOUS
 62
   18
 10
160.51844147680532
 20
216.70954686846682
 11
162.11844147680523
 21
218.30954686846673
  0
LINE
  8
_1-2_
  6
CONTINUOUS
 62
   18
 10
181.03214950980538
 20
237.22325490146653
 11
195.7321495098052
 21
251.92325490146652
  0
LINE
  8
_1-2_
  6
CONTINUOUS
 62
   18
 10
159.8113346956182
 20
216.7095468684663
 11
161.41133469561902
 21
218.30954686846678
  0
LINE
  8
_1-2_
  6
CONTINUOUS
 62
   18
 10
180.32504272861826
 20
237.22325490146608
 11
195.02504272861853
 21
251.92325490146658
  0
LINE
  8
_1-2_
  6
CONTINUOUS
 62
   18
 10
159.10422791443153
 20
216.70954686846636
 11
160.70422791443235
 21
218.30954686846684
  0
LINE
  8
_1-2_
  6
CONTINUOUS
 62
   18
 10
179.61793594743159
 20
237.22325490146608
 11
194.31793594743186
 21
251.92325490146663
  0
LINE
  8
_1-2_
  6
CONTINUOUS
 62
   18
 10
158.39712113324623
 20
216.70954686846653
 11
159.99712113324659
 21
218.30954686846695
  0
LINE
  8
_1-2_
  6
CONTINUOUS
 62
   18
 10
178.91082916624583
 20
237.22325490146625
 11
193.61082916624656
 21
251.92325490146675
  0
LINE
  8
_1-2_
  6
CONTINUOUS
 62
   18
 10
157.69001435206002
 20
216.70954686846636
 11
159.29001435206084
 21
218.3095468684669
  0
LINE
  8
_1-2_
  6
CONTINUOUS
 62
   18
 10
178.20372238506008
 20
237.22325490146625
 11
192.9037223850608
 21
251.92325490146681
  0
LINE
  8
_1-2_
  6
CONTINUOUS
 62
   18
 10
156.98290757087381
 20
216.70954686846648
 11
158.58290757087372
 21
218.30954686846638
  0
LINE
  8
_1-2_
  6
CONTINUOUS
 62
   18
 10
177.49661560387341
 20
237.22325490146625
 11
192.19661560387414
 21
251.92325490146681
  0
LINE
  8
_1-2_
  6
CONTINUOUS
 62
   18
 10
156.27580078968714
 20
216.70954686846653
 11
157.87580078968705
 21
218.30954686846644
  0
LINE
  8
_1-2_
  6
CONTINUOUS
 62
   18
 10
176.78950882268674
 20
237.22325490146631
 11
191.48950882268747
 21
251.92325490146686
  0
LINE
  8
_1-2_
  6
CONTINUOUS
 62
   18
 10
155.56869400850047
 20
216.70954686846659
 11
157.16869400850038
 21
218.30954686846655
  0
LINE
  8
_1-2_
  6
CONTINUOUS
 62
   18
 10
176.08240204150007
 20
237.22325490146636
 11
190.7824020415008
 21
251.92325490146692
  0
LINE
  8
_1-2_
  6
CONTINUOUS
 62
   18
 10
175.37529526031341
 20
237.22325490146642
 11
190.07529526031414
 21
251.92325490146698
  0
LINE
  8
_1-2_
  6
CONTINUOUS
 62
   18
 10
174.6681884791272
 20
237.22325490146648
 11
189.36818847912747
 21
251.92325490146703
  0
LINE
  8
_1-2_
  6
CONTINUOUS
 62
   18
 10
173.96108169794053
 20
237.22325490146659
 11
188.6610816979408
 21
251.92325490146709
  0
LINE
  8
_1-2_
  6
CONTINUOUS
 62
   18
 10
173.25397491675386
 20
237.22325490146659
 11
187.95397491675368
 21
251.92325490146669
  0
LINE
  8
_1-2_
  6
CONTINUOUS
 62
   18
 10
152.03316010256759
 20
216.70954686846687
 11
153.6331601025675
 21
218.30954686846678
  0
LINE
  8
_1-2_
  6
CONTINUOUS
 62
   18
 10
172.54686813556719
 20
237.22325490146665
 11
187.24686813556701
 21
251.92325490146663
  0
LINE
  8
_1-2_
  6
CONTINUOUS
 62
   18
 10
151.32605332138093
 20
216.70954686846693
 11
152.92605332138083
 21
218.30954686846684
  0
LINE
  8
_1-2_
  6
CONTINUOUS
 62
   18
 10
171.83976135438053
 20
237.22325490146676
 11
186.53976135438035
 21
251.92325490146669
  0
LINE
  8
_1-2_
  6
CONTINUOUS
 62
   18
 10
150.61894654019426
 20
216.70954686846699
 11
152.21894654019417
 21
218.30954686846701
  0
LINE
  8
_1-2_
  6
CONTINUOUS
 62
   18
 10
171.13265457319386
 20
237.22325490146676
 11
185.83265457319413
 21
251.92325490146675
  0
LINE
  8
_1-2_
  6
CONTINUOUS
 62
   18
 10
149.91183975900714
 20
216.70954686846682
 11
151.51183975900705
 21
218.30954686846673
  0
LINE
  8
_1-2_
  6
CONTINUOUS
 62
   18
 10
170.42554779200719
 20
237.22325490146659
 11
185.12554779200701
 21
251.92325490146652
  0
LINE
  8
_1-2_
  6
CONTINUOUS
 62
   18
 10
149.20473297782002
 20
216.70954686846636
 11
150.80473297782083
 21
218.30954686846678
  0
LINE
  8
_1-2_
  6
CONTINUOUS
 62
   18
 10
169.71844101082007
 20
237.22325490146602
 11
184.41844101082035
 21
251.92325490146658
  0
LINE
  8
_1-2_
  6
CONTINUOUS
 62
   18
 10
148.49762619663335
 20
216.70954686846636
 11
150.09762619663417
 21
218.30954686846684
  0
LINE
  8
_1-2_
  6
CONTINUOUS
 62
   18
 10
169.01133422963341
 20
237.22325490146613
 11
183.71133422963368
 21
251.92325490146663
  0
LINE
  8
_1-2_
  6
CONTINUOUS
 62
   18
 10
147.79051941544714
 20
216.70954686846648
 11
149.3905194154475
 21
218.3095468684669
  0
LINE
  8
_1-2_
  6
CONTINUOUS
 62
   18
 10
168.30422744844674
 20
237.22325490146613
 11
183.00422744844701
 21
251.92325490146669
  0
LINE
  8
_1-2_
  6
CONTINUOUS
 62
   18
 10
147.08341263426047
 20
216.70954686846653
 11
148.68341263426083
 21
218.30954686846695
  0
LINE
  8
_1-2_
  6
CONTINUOUS
 62
   18
 10
167.59712066726007
 20
237.22325490146625
 11
182.2971206672608
 21
251.92325490146675
  0
LINE
  8
_1-2_
  6
CONTINUOUS
 62
   18
 10
146.37630585307471
 20
216.70954686846665
 11
147.97630585307462
 21
218.30954686846661
  0
LINE
  8
_1-2_
  6
CONTINUOUS
 62
   18
 10
166.89001388607431
 20
237.22325490146636
 11
181.59001388607504
 21
251.92325490146686
  0
LINE
  8
_1-2_
  6
CONTINUOUS
 62
   18
 10
145.66919907188895
 20
216.70954686846648
 11
147.26919907188886
 21
218.3095468684665
  0
LINE
  8
_1-2_
  6
CONTINUOUS
 62
   18
 10
166.18290710488856
 20
237.22325490146625
 11
180.88290710488928
 21
251.92325490146686
  0
LINE
  8
_1-2_
  6
CONTINUOUS
 62
   18
 10
144.96209229070229
 20
216.70954686846653
 11
146.5620922907022
 21
218.3095468684665
  0
LINE
  8
_1-2_
  6
CONTINUOUS
 62
   18
 10
165.47580032370189
 20
237.22325490146631
 11
180.17580032370262
 21
251.92325490146692
  0
LINE
  8
_1-2_
  6
CONTINUOUS
 62
   18
 10
144.25498550951562
 20
216.70954686846665
 11
145.85498550951553
 21
218.30954686846655
  0
LINE
  8
_1-2_
  6
CONTINUOUS
 62
   18
 10
164.76869354251522
 20
237.22325490146636
 11
179.46869354251595
 21
251.92325490146698
  0
LINE
  8
_1-2_
  6
CONTINUOUS
 62
   18
 10
143.54787872832895
 20
216.70954686846665
 11
145.14787872832886
 21
218.30954686846661
  0
LINE
  8
_1-2_
  6
CONTINUOUS
 62
   18
 10
164.06158676132856
 20
237.22325490146648
 11
178.76158676132928
 21
251.92325490146703
  0
LINE
  8
_1-2_
  6
CONTINUOUS
 62
   18
 10
142.84077194714229
 20
216.7095468684667
 11
144.4407719471422
 21
218.30954686846667
  0
LINE
  8
_1-2_
  6
CONTINUOUS
 62
   18
 10
163.35447998014234
 20
237.22325490146653
 11
178.05447998014262
 21
251.92325490146709
  0
LINE
  8
_1-2_
  6
CONTINUOUS
 62
   18
 10
142.13366516595562
 20
216.70954686846676
 11
143.73366516595553
 21
218.30954686846673
  0
LINE
  8
_1-2_
  6
CONTINUOUS
 62
   18
 10
162.64737319895568
 20
237.22325490146659
 11
177.34737319895549
 21
251.92325490146663
  0
LINE
  8
_1-2_
  6
CONTINUOUS
 62
   18
 10
141.42655838476895
 20
216.70954686846682
 11
143.02655838476932
 21
218.30954686846684
  0
LINE
  8
_1-2_
  6
CONTINUOUS
 62
   18
 10
161.94026641776901
 20
237.22325490146665
 11
176.64026641776883
 21
251.92325490146669
  0
LINE
  8
_1-2_
  6
CONTINUOUS
 62
   18
 10
140.71945160358229
 20
216.70954686846682
 11
142.31945160358265
 21
218.30954686846684
  0
LINE
  8
_1-2_
  6
CONTINUOUS
 62
   18
 10
161.23315963658234
 20
237.2232549014667
 11
175.93315963658262
 21
251.92325490146675
  0
LINE
  8
_1-2_
  6
CONTINUOUS
 62
   18
 10
140.01234482239607
 20
216.70954686846693
 11
141.61234482239598
 21
218.3095468684669
  0
LINE
  8
_1-2_
  6
CONTINUOUS
 62
   18
 10
160.52605285539568
 20
237.22325490146676
 11
175.22605285539595
 21
251.92325490146681
  0
LINE
  8
_1-2_
  6
CONTINUOUS
 62
   18
 10
139.30523804120941
 20
216.70954686846704
 11
140.90523804120932
 21
218.30954686846695
  0
LINE
  8
_1-2_
  6
CONTINUOUS
 62
   18
 10
159.81894607420901
 20
237.22325490146687
 11
174.51894607420928
 21
251.92325490146686
  0
LINE
  8
_1-2_
  6
CONTINUOUS
 62
   18
 10
138.59813126002183
 20
216.70954686846636
 11
140.19813126002265
 21
218.30954686846684
  0
LINE
  8
_1-2_
  6
CONTINUOUS
 62
   18
 10
159.11183929302234
 20
237.22325490146665
 11
173.81183929302216
 21
251.92325490146658
  0
LINE
  8
_1-2_
  6
CONTINUOUS
 62
   18
 10
137.89102447883562
 20
216.70954686846642
 11
139.49102447883598
 21
218.30954686846684
  0
LINE
  8
_1-2_
  6
CONTINUOUS
 62
   18
 10
158.40473251183522
 20
237.22325490146613
 11
173.10473251183549
 21
251.92325490146663
  0
LINE
  8
_1-2_
  6
CONTINUOUS
 62
   18
 10
137.18391769764895
 20
216.70954686846648
 11
138.78391769764931
 21
218.30954686846695
  0
LINE
  8
_1-2_
  6
CONTINUOUS
 62
   18
 10
136.47681091646228
 20
216.70954686846653
 11
138.07681091646265
 21
218.30954686846701
  0
LINE
  8
_1-2_
  6
CONTINUOUS
 62
   18
 10
135.76970413527653
 20
216.70954686846665
 11
137.36970413527644
 21
218.30954686846667
  0
LINE
  8
_1-2_
  6
CONTINUOUS
 62
   18
 10
135.06259735409077
 20
216.70954686846648
 11
136.66259735409068
 21
218.30954686846638
  0
LINE
  8
_1-2_
  6
CONTINUOUS
 62
   18
 10
134.3554905729041
 20
216.70954686846653
 11
135.95549057290401
 21
218.30954686846644
  0
LINE
  8
_1-2_
  6
CONTINUOUS
 62
   18
 10
133.64838379171744
 20
216.70954686846659
 11
135.24838379171734
 21
218.3095468684665
  0
LINE
  8
_1-2_
  6
CONTINUOUS
 62
   18
 10
132.94127701053077
 20
216.70954686846665
 11
134.54127701053068
 21
218.30954686846655
  0
LINE
  8
_1-2_
  6
CONTINUOUS
 62
   18
 10
132.2341702293441
 20
216.7095468684667
 11
133.83417022934401
 21
218.30954686846667
  0
LINE
  8
_1-2_
  6
CONTINUOUS
 62
   18
 10
131.52706344815743
 20
216.70954686846676
 11
133.1270634481578
 21
218.30954686846678
  0
LINE
  8
_1-2_
  6
CONTINUOUS
 62
   18
 10
130.81995666697077
 20
216.70954686846682
 11
132.41995666697113
 21
218.30954686846678
  0
LINE
  8
_1-2_
  6
CONTINUOUS
 62
   18
 10
130.11284988578456
 20
216.70954686846693
 11
131.71284988578446
 21
218.30954686846684
  0
LINE
  8
_1-2_
  6
CONTINUOUS
 62
   18
 10
129.40574310459789
 20
216.70954686846693
 11
131.0057431045978
 21
218.3095468684669
  0
LINE
  8
_1-2_
  6
CONTINUOUS
 62
   18
 10
128.69863632341122
 20
216.70954686846699
 11
130.29863632341113
 21
218.30954686846701
  0
LINE
  8
_1-2_
  6
CONTINUOUS
 62
   18
 10
127.99152954222365
 20
216.70954686846636
 11
129.59152954222446
 21
218.30954686846684
  0
LINE
  8
_1-2_
  6
CONTINUOUS
 62
   18
 10
127.28442276103743
 20
216.70954686846642
 11
128.8844227610378
 21
218.3095468684669
  0
LINE
  8
_1-2_
  6
CONTINUOUS
 62
   18
 10
126.57731597985077
 20
216.70954686846648
 11
128.17731597985113
 21
218.30954686846695
  0
LINE
  8
_1-2_
  6
CONTINUOUS
 62
   18
 10
125.8702091986641
 20
216.70954686846653
 11
127.47020919866446
 21
218.30954686846701
  0
LINE
  8
_1-2_
  6
CONTINUOUS
 62
   18
 10
125.16310241747834
 20
216.70954686846665
 11
126.76310241747825
 21
218.30954686846667
  0
LINE
  8
_1-2_
  6
CONTINUOUS
 62
   18
 10
124.45599563629213
 20
216.70954686846642
 11
126.05599563629249
 21
218.30954686846638
  0
LINE
  8
_1-2_
  6
CONTINUOUS
 62
   18
 10
123.74888885510592
 20
216.70954686846648
 11
125.34888885510583
 21
218.30954686846644
  0
LINE
  8
_1-2_
  6
CONTINUOUS
 62
   18
 10
123.04178207391925
 20
216.70954686846653
 11
124.64178207391916
 21
218.3095468684665
  0
LINE
  8
_1-2_
  6
CONTINUOUS
 62
   18
 10
122.33467529273258
 20
216.70954686846659
 11
123.93467529273249
 21
218.30954686846655
  0
LINE
  8
_1-2_
  6
CONTINUOUS
 62
   18
 10
121.62756851154592
 20
216.70954686846665
 11
123.22756851154583
 21
218.30954686846661
  0
LINE
  8
_1-2_
  6
CONTINUOUS
 62
   18
 10
120.92046173035925
 20
216.7095468684667
 11
122.52046173035916
 21
218.30954686846667
  0
LINE
  8
_1-2_
  6
CONTINUOUS
 62
   18
 10
120.21335494917258
 20
216.70954686846676
 11
121.81335494917249
 21
218.30954686846673
  0
LINE
  8
_1-2_
  6
CONTINUOUS
 62
   18
 10
119.50624816798592
 20
216.70954686846682
 11
121.10624816798628
 21
218.30954686846678
  0
LINE
  8
_1-2_
  6
CONTINUOUS
 62
   18
 10
118.7991413867997
 20
216.70954686846693
 11
120.39914138679961
 21
218.3095468684669
  0
LINE
  8
_1-2_
  6
CONTINUOUS
 62
   18
 10
118.09203460561304
 20
216.70954686846693
 11
119.69203460561295
 21
218.30954686846695
  0
LINE
  8
_1-2_
  6
CONTINUOUS
 62
   18
 10
138.60574263861264
 20
237.22325490146676
 11
153.30574263861291
 21
251.92325490146681
  0
LINE
  8
_1-2_
  6
CONTINUOUS
 62
   18
 10
117.38492782442546
 20
216.70954686846636
 11
118.98492782442628
 21
218.30954686846684
  0
LINE
  8
_1-2_
  6
CONTINUOUS
 62
   18
 10
137.89863585742597
 20
237.22325490146659
 11
152.59863585742579
 21
251.92325490146658
  0
LINE
  8
_1-2_
  6
CONTINUOUS
 62
   18
 10
116.67782104323925
 20
216.70954686846642
 11
118.27782104323961
 21
218.30954686846695
  0
LINE
  8
_1-2_
  6
CONTINUOUS
 62
   18
 10
137.19152907623885
 20
237.22325490146619
 11
151.89152907623912
 21
251.92325490146663
  0
LINE
  8
_1-2_
  6
CONTINUOUS
 62
   18
 10
115.97071426205258
 20
216.70954686846648
 11
117.57071426205295
 21
218.30954686846701
  0
LINE
  8
_1-2_
  6
CONTINUOUS
 62
   18
 10
136.48442229505218
 20
237.22325490146625
 11
151.18442229505246
 21
251.92325490146675
  0
LINE
  8
_1-2_
  6
CONTINUOUS
 62
   18
 10
115.26360748086591
 20
216.70954686846653
 11
116.86360748086628
 21
218.30954686846701
  0
LINE
  8
_1-2_
  6
CONTINUOUS
 62
   18
 10
135.77731551386552
 20
237.22325490146631
 11
150.47731551386624
 21
251.92325490146681
  0
LINE
  8
_1-2_
  6
CONTINUOUS
 62
   18
 10
114.55650069968016
 20
216.7095468684667
 11
116.15650069968052
 21
218.30954686846712
  0
LINE
  8
_1-2_
  6
CONTINUOUS
 62
   18
 10
135.07020873267976
 20
237.22325490146642
 11
149.77020873268049
 21
251.92325490146692
  0
LINE
  8
_1-2_
  6
CONTINUOUS
 62
   18
 10
113.8493939184944
 20
216.70954686846642
 11
115.44939391849431
 21
218.30954686846638
  0
LINE
  8
_1-2_
  6
CONTINUOUS
 62
   18
 10
134.363101951494
 20
237.22325490146625
 11
149.06310195149427
 21
251.92325490146669
  0
LINE
  8
_1-2_
  6
CONTINUOUS
 62
   18
 10
113.14228713730773
 20
216.70954686846642
 11
114.74228713730764
 21
218.30954686846638
  0
LINE
  8
_1-2_
  6
CONTINUOUS
 62
   18
 10
133.65599517030734
 20
237.22325490146631
 11
148.35599517030806
 21
251.92325490146675
  0
LINE
  8
_1-2_
  6
CONTINUOUS
 62
   18
 10
112.43518035612107
 20
216.70954686846653
 11
114.03518035612097
 21
218.3095468684665
  0
LINE
  8
_1-2_
  6
CONTINUOUS
 62
   18
 10
132.94888838912067
 20
237.22325490146636
 11
147.6488883891214
 21
251.92325490146686
  0
LINE
  8
_1-2_
  6
CONTINUOUS
 62
   18
 10
111.7280735749344
 20
216.70954686846653
 11
113.32807357493431
 21
218.3095468684665
  0
LINE
  8
_1-2_
  6
CONTINUOUS
 62
   18
 10
132.241781607934
 20
237.22325490146642
 11
146.94178160793473
 21
251.92325490146692
  0
LINE
  8
_1-2_
  6
CONTINUOUS
 62
   18
 10
111.02096679374773
 20
216.70954686846665
 11
112.62096679374764
 21
218.30954686846661
  0
LINE
  8
_1-2_
  6
CONTINUOUS
 62
   18
 10
131.53467482674733
 20
237.22325490146642
 11
146.23467482674806
 21
251.92325490146698
  0
LINE
  8
_1-2_
  6
CONTINUOUS
 62
   18
 10
110.31386001256107
 20
216.7095468684667
 11
111.91386001256097
 21
218.30954686846667
  0
LINE
  8
_1-2_
  6
CONTINUOUS
 62
   18
 10
130.82756804556112
 20
237.22325490146653
 11
145.52756804556094
 21
251.92325490146652
  0
LINE
  8
_1-2_
  6
CONTINUOUS
 62
   18
 10
109.6067532313744
 20
216.70954686846676
 11
111.20675323137431
 21
218.30954686846673
  0
LINE
  8
_1-2_
  6
CONTINUOUS
 62
   18
 10
130.12046126437446
 20
237.22325490146653
 11
144.82046126437427
 21
251.92325490146658
  0
LINE
  8
_1-2_
  6
CONTINUOUS
 62
   18
 10
108.89964645018773
 20
216.70954686846682
 11
110.4996464501881
 21
218.30954686846678
  0
LINE
  8
_1-2_
  6
CONTINUOUS
 62
   18
 10
129.41335448318779
 20
237.22325490146659
 11
144.11335448318761
 21
251.92325490146663
  0
LINE
  8
_1-2_
  6
CONTINUOUS
 62
   18
 10
108.19253966900152
 20
216.70954686846687
 11
109.79253966900143
 21
218.30954686846684
  0
LINE
  8
_1-2_
  6
CONTINUOUS
 62
   18
 10
128.70624770200112
 20
237.22325490146665
 11
143.40624770200094
 21
251.92325490146669
  0
LINE
  8
_1-2_
  6
CONTINUOUS
 62
   18
 10
107.48543288781485
 20
216.70954686846693
 11
109.08543288781476
 21
218.3095468684669
  0
LINE
  8
_1-2_
  6
CONTINUOUS
 62
   18
 10
127.99914092081445
 20
237.2232549014667
 11
142.69914092081473
 21
251.92325490146675
  0
LINE
  8
_1-2_
  6
CONTINUOUS
 62
   18
 10
106.77832610662819
 20
216.70954686846693
 11
108.37832610662809
 21
218.3095468684669
  0
LINE
  8
_1-2_
  6
CONTINUOUS
 62
   18
 10
127.29203413962779
 20
237.22325490146665
 11
141.99203413962761
 21
251.92325490146663
  0
LINE
  8
_1-2_
  6
CONTINUOUS
 62
   18
 10
106.07121932544061
 20
216.70954686846642
 11
107.67121932544143
 21
218.30954686846695
  0
LINE
  8
_1-2_
  6
CONTINUOUS
 62
   18
 10
126.58492735844067
 20
237.22325490146613
 11
141.28492735844094
 21
251.92325490146669
  0
LINE
  8
_1-2_
  6
CONTINUOUS
 62
   18
 10
105.3641125442544
 20
216.70954686846648
 11
106.96411254425476
 21
218.30954686846695
  0
LINE
  8
_1-2_
  6
CONTINUOUS
 62
   18
 10
125.877820577254
 20
237.22325490146625
 11
140.57782057725473
 21
251.92325490146675
  0
LINE
  8
_1-2_
  6
CONTINUOUS
 62
   18
 10
104.65700576306773
 20
216.70954686846653
 11
106.25700576306809
 21
218.30954686846707
  0
LINE
  8
_1-2_
  6
CONTINUOUS
 62
   18
 10
125.17071379606733
 20
237.22325490146631
 11
139.87071379606806
 21
251.92325490146681
  0
LINE
  8
_1-2_
  6
CONTINUOUS
 62
   18
 10
103.94989898188197
 20
216.7095468684667
 11
105.54989898188234
 21
218.30954686846718
  0
LINE
  8
_1-2_
  6
CONTINUOUS
 62
   18
 10
124.46360701488157
 20
237.22325490146642
 11
139.1636070148823
 21
251.92325490146692
  0
LINE
  8
_1-2_
  6
CONTINUOUS
 62
   18
 10
103.24279220069576
 20
216.70954686846636
 11
104.84279220069612
 21
218.30954686846638
  0
LINE
  8
_1-2_
  6
CONTINUOUS
 62
   18
 10
123.75650023369582
 20
237.22325490146619
 11
138.45650023369654
 21
251.92325490146675
  0
LINE
  8
_1-2_
  6
CONTINUOUS
 62
   18
 10
102.53568541950955
 20
216.70954686846642
 11
104.13568541950946
 21
218.30954686846644
  0
LINE
  8
_1-2_
  6
CONTINUOUS
 62
   18
 10
123.04939345250915
 20
237.22325490146625
 11
137.74939345250988
 21
251.92325490146681
  0
LINE
  8
_1-2_
  6
CONTINUOUS
 62
   18
 10
101.82857863832288
 20
216.70954686846648
 11
103.42857863832279
 21
218.3095468684665
  0
LINE
  8
_1-2_
  6
CONTINUOUS
 62
   18
 10
122.34228667132248
 20
237.22325490146625
 11
137.04228667132321
 21
251.92325490146681
  0
LINE
  8
_1-2_
  6
CONTINUOUS
 62
   18
 10
101.12147185713621
 20
216.70954686846653
 11
102.72147185713612
 21
218.30954686846655
  0
LINE
  8
_1-2_
  6
CONTINUOUS
 62
   18
 10
121.63517989013582
 20
237.22325490146642
 11
136.33517989013654
 21
251.92325490146692
  0
LINE
  8
_1-2_
  6
CONTINUOUS
 62
   18
 10
100.41436507594955
 20
216.70954686846659
 11
102.01436507594946
 21
218.30954686846661
  0
LINE
  8
_1-2_
  6
CONTINUOUS
 62
   18
 10
120.9280731089496
 20
237.22325490146648
 11
135.62807310894988
 21
251.92325490146692
  0
LINE
  8
_1-2_
  6
CONTINUOUS
 62
   18
 10
99.70725829476288
 20
216.7095468684667
 11
101.30725829476279
 21
218.30954686846667
  0
LINE
  8
_1-2_
  6
CONTINUOUS
 62
   18
 10
120.22096632776294
 20
237.22325490146653
 11
134.92096632776321
 21
251.92325490146703
  0
LINE
  8
_1-2_
  6
CONTINUOUS
 62
   18
 10
99.000151513576213
 20
216.7095468684667
 11
100.60015151357612
 21
218.30954686846667
  0
LINE
  8
_1-2_
  6
CONTINUOUS
 62
   18
 10
119.51385954657627
 20
237.22325490146659
 11
134.21385954657609
 21
251.92325490146658
  0
LINE
  8
_1-2_
  6
CONTINUOUS
 62
   18
 10
98.293044732389546
 20
216.70954686846682
 11
99.89304473238991
 21
218.30954686846678
  0
LINE
  8
_1-2_
  6
CONTINUOUS
 62
   18
 10
118.8067527653896
 20
237.22325490146665
 11
133.50675276538942
 21
251.92325490146663
  0
LINE
  8
_1-2_
  6
CONTINUOUS
 62
   18
 10
97.58593795120288
 20
216.70954686846682
 11
99.185937951203243
 21
218.30954686846678
  0
LINE
  8
_1-2_
  6
CONTINUOUS
 62
   18
 10
118.09964598420294
 20
237.2232549014667
 11
132.79964598420275
 21
251.92325490146669
  0
LINE
  8
_1-2_
  6
CONTINUOUS
 62
   18
 10
96.878831170016667
 20
216.70954686846693
 11
98.478831170016576
 21
218.30954686846684
  0
LINE
  8
_1-2_
  6
CONTINUOUS
 62
   18
 10
117.39253920301627
 20
237.2232549014667
 11
132.09253920301654
 21
251.92325490146675
  0
LINE
  8
_1-2_
  6
CONTINUOUS
 62
   18
 10
96.17172438883
 20
216.70954686846699
 11
97.771724388829909
 21
218.3095468684669
  0
LINE
  8
_1-2_
  6
CONTINUOUS
 62
   18
 10
116.6854324218296
 20
237.22325490146682
 11
131.38543242182988
 21
251.92325490146681
  0
LINE
  8
_1-2_
  6
CONTINUOUS
 62
   18
 10
95.464617607642879
 20
216.70954686846648
 11
97.064617607643243
 21
218.30954686846695
  0
LINE
  8
_1-2_
  6
CONTINUOUS
 62
   18
 10
115.97832564064248
 20
237.22325490146613
 11
130.67832564064275
 21
251.92325490146669
  0
LINE
  8
_1-2_
  6
CONTINUOUS
 62
   18
 10
94.757510826456212
 20
216.70954686846653
 11
96.357510826456576
 21
218.30954686846701
  0
LINE
  8
_1-2_
  6
CONTINUOUS
 62
   18
 10
115.27121885945581
 20
237.22325490146631
 11
129.97121885945654
 21
251.92325490146675
  0
LINE
  8
_1-2_
  6
CONTINUOUS
 62
   18
 10
94.050404045269545
 20
216.70954686846659
 11
95.650404045269909
 21
218.30954686846707
  0
LINE
  8
_1-2_
  6
CONTINUOUS
 62
   18
 10
114.56411207826915
 20
237.22325490146625
 11
129.26411207826987
 21
251.92325490146681
  0
LINE
  8
_1-2_
  6
CONTINUOUS
 62
   18
 10
93.343297264083787
 20
216.7095468684667
 11
94.943297264084151
 21
218.30954686846724
  0
LINE
  8
_1-2_
  6
CONTINUOUS
 62
   18
 10
113.85700529708384
 20
237.22325490146648
 11
128.55700529708412
 21
251.92325490146692
  0
LINE
  8
_1-2_
  6
CONTINUOUS
 62
   18
 10
92.636190482897575
 20
216.70954686846636
 11
94.236190482897939
 21
218.30954686846633
  0
LINE
  8
_1-2_
  6
CONTINUOUS
 62
   18
 10
113.14989851589763
 20
237.22325490146613
 11
127.84989851589791
 21
251.92325490146669
  0
LINE
  8
_1-2_
  6
CONTINUOUS
 62
   18
 10
91.929083701711363
 20
216.70954686846642
 11
93.529083701711272
 21
218.30954686846633
  0
LINE
  8
_1-2_
  6
CONTINUOUS
 62
   18
 10
112.44279173471097
 20
237.22325490146625
 11
127.14279173471169
 21
251.92325490146675
  0
LINE
  8
_1-2_
  6
CONTINUOUS
 62
   18
 10
91.221976920524696
 20
216.70954686846648
 11
92.821976920524605
 21
218.30954686846644
  0
LINE
  8
_1-2_
  6
CONTINUOUS
 62
   18
 10
111.7356849535243
 20
237.22325490146631
 11
126.43568495352503
 21
251.92325490146681
  0
LINE
  8
_1-2_
  6
CONTINUOUS
 62
   18
 10
90.514870139338029
 20
216.70954686846653
 11
92.114870139337938
 21
218.30954686846655
  0
LINE
  8
_1-2_
  6
CONTINUOUS
 62
   18
 10
111.02857817233763
 20
237.22325490146636
 11
125.72857817233836
 21
251.92325490146686
  0
LINE
  8
_1-2_
  6
CONTINUOUS
 62
   18
 10
89.807763358151362
 20
216.70954686846659
 11
91.407763358151271
 21
218.30954686846661
  0
LINE
  8
_1-2_
  6
CONTINUOUS
 62
   18
 10
110.32147139115096
 20
237.22325490146636
 11
125.02147139115169
 21
251.92325490146703
  0
LINE
  8
_1-2_
  6
CONTINUOUS
 62
   18
 10
89.100656576964695
 20
216.70954686846665
 11
90.700656576964604
 21
218.30954686846667
  0
LINE
  8
_1-2_
  6
CONTINUOUS
 62
   18
 10
109.61436460996475
 20
237.22325490146648
 11
124.31436460996503
 21
251.92325490146703
  0
LINE
  8
_1-2_
  6
CONTINUOUS
 62
   18
 10
88.393549795778029
 20
216.7095468684667
 11
89.993549795777938
 21
218.30954686846673
  0
LINE
  8
_1-2_
  6
CONTINUOUS
 62
   18
 10
108.90725782877809
 20
237.22325490146648
 11
123.6072578287779
 21
251.92325490146652
  0
LINE
  8
_1-2_
  6
CONTINUOUS
 62
   18
 10
87.686443014591362
 20
216.70954686846676
 11
89.286443014591725
 21
218.30954686846678
  0
LINE
  8
_1-2_
  6
CONTINUOUS
 62
   18
 10
108.20015104759142
 20
237.22325490146653
 11
122.90015104759124
 21
251.92325490146652
  0
LINE
  8
_1-2_
  6
CONTINUOUS
 62
   18
 10
86.979336233404695
 20
216.70954686846682
 11
88.579336233405058
 21
218.30954686846684
  0
LINE
  8
_1-2_
  6
CONTINUOUS
 62
   18
 10
107.49304426640475
 20
237.22325490146659
 11
122.19304426640457
 21
251.92325490146663
  0
LINE
  8
_1-2_
  6
CONTINUOUS
 62
   18
 10
86.272229452218482
 20
216.70954686846687
 11
87.872229452218392
 21
218.3095468684669
  0
LINE
  8
_1-2_
  6
CONTINUOUS
 62
   18
 10
106.78593748521808
 20
237.22325490146665
 11
121.4859374852179
 21
251.92325490146669
  0
LINE
  8
_1-2_
  6
CONTINUOUS
 62
   18
 10
85.565122671031816
 20
216.70954686846693
 11
87.165122671031725
 21
218.30954686846695
  0
LINE
  8
_1-2_
  6
CONTINUOUS
 62
   18
 10
106.07883070403142
 20
237.2232549014667
 11
120.77883070403124
 21
251.92325490146675
  0
LINE
  8
_1-2_
  6
CONTINUOUS
 62
   18
 10
84.858015889844694
 20
216.70954686846648
 11
86.458015889845058
 21
218.30954686846695
  0
LINE
  8
_1-2_
  6
CONTINUOUS
 62
   18
 10
105.37172392284475
 20
237.22325490146676
 11
120.07172392284457
 21
251.92325490146669
  0
LINE
  8
_1-2_
  6
CONTINUOUS
 62
   18
 10
84.150909108658027
 20
216.70954686846653
 11
85.750909108658391
 21
218.30954686846707
  0
LINE
  8
_1-2_
  6
CONTINUOUS
 62
   18
 10
104.66461714165763
 20
237.22325490146625
 11
119.36461714165836
 21
251.92325490146675
  0
LINE
  8
_1-2_
  6
CONTINUOUS
 62
   18
 10
83.44380232747136
 20
216.70954686846659
 11
85.043802327471724
 21
218.30954686846707
  0
LINE
  8
_1-2_
  6
CONTINUOUS
 62
   18
 10
103.95751036047096
 20
237.22325490146636
 11
118.65751036047169
 21
251.92325490146681
  0
LINE
  8
_1-2_
  6
CONTINUOUS
 62
   18
 10
82.736695546285603
 20
216.7095468684667
 11
84.336695546285966
 21
218.30954686846718
  0
LINE
  8
_1-2_
  6
CONTINUOUS
 62
   18
 10
103.25040357928521
 20
237.22325490146648
 11
117.95040357928593
 21
251.92325490146692
  0
LINE
  8
_1-2_
  6
CONTINUOUS
 62
   18
 10
82.02958876509939
 20
216.70954686846636
 11
83.6295887650993
 21
218.30954686846627
  0
LINE
  8
_1-2_
  6
CONTINUOUS
 62
   18
 10
102.54329679809945
 20
237.22325490146613
 11
117.24329679809972
 21
251.92325490146669
  0
LINE
  8
_1-2_
  6
CONTINUOUS
 62
   18
 10
81.322481983912724
 20
216.70954686846636
 11
82.922481983913087
 21
218.30954686846633
  0
LINE
  8
_1-2_
  6
CONTINUOUS
 62
   18
 10
101.83619001691278
 20
237.22325490146619
 11
116.53619001691351
 21
251.92325490146675
  0
LINE
  8
_1-2_
  6
CONTINUOUS
 62
   18
 10
80.678097918322976
 20
216.77226958406322
 11
82.21537520272642
 21
218.30954686846644
  0
LINE
  8
_1-2_
  6
CONTINUOUS
 62
   18
 10
101.12908323572611
 20
237.22325490146625
 11
115.82908323572684
 21
251.92325490146681
  0
LINE
  8
_1-2_
  6
CONTINUOUS
 62
   18
 10
80.678097918322976
 20
217.47937636524983
 11
81.508268421539753
 21
218.3095468684665
  0
LINE
  8
_1-2_
  6
CONTINUOUS
 62
   18
 10
100.42197645453945
 20
237.22325490146631
 11
115.12197645454017
 21
251.92325490146686
  0
LINE
  8
_1-2_
  6
CONTINUOUS
 62
   18
 10
80.678097918322976
 20
218.18648314643644
 11
80.801161640353087
 21
218.30954686846655
  0
LINE
  8
_1-2_
  6
CONTINUOUS
 62
   18
 10
99.71486967335278
 20
237.22325490146636
 11
114.41486967335351
 21
251.92325490146692
  0
LINE
  8
_1-2_
  6
CONTINUOUS
 62
   18
 10
99.007762892166113
 20
237.22325490146642
 11
113.70776289216684
 21
251.92325490146698
  0
LINE
  8
_1-2_
  6
CONTINUOUS
 62
   18
 10
98.300656110979901
 20
237.22325490146653
 11
113.00065611097972
 21
251.92325490146652
  0
LINE
  8
_1-2_
  6
CONTINUOUS
 62
   18
 10
97.593549329793234
 20
237.22325490146659
 11
112.29354932979305
 21
251.92325490146663
  0
LINE
  8
_1-2_
  6
CONTINUOUS
 62
   18
 10
96.886442548606567
 20
237.22325490146665
 11
111.58644254860639
 21
251.92325490146663
  0
LINE
  8
_1-2_
  6
CONTINUOUS
 62
   18
 10
96.1793357674199
 20
237.22325490146665
 11
110.87933576741972
 21
251.92325490146669
  0
LINE
  8
_1-2_
  6
CONTINUOUS
 62
   18
 10
95.472228986233233
 20
237.22325490146676
 11
110.17222898623351
 21
251.92325490146675
  0
LINE
  8
_1-2_
  6
CONTINUOUS
 62
   18
 10
94.765122205046566
 20
237.2232549014667
 11
109.46512220504638
 21
251.92325490146669
  0
LINE
  8
_1-2_
  6
CONTINUOUS
 62
   18
 10
94.058015423859445
 20
237.22325490146625
 11
108.75801542386017
 21
251.92325490146675
  0
LINE
  8
_1-2_
  6
CONTINUOUS
 62
   18
 10
93.350908642672778
 20
237.22325490146631
 11
108.05090864267351
 21
251.92325490146681
  0
LINE
  8
_1-2_
  6
CONTINUOUS
 62
   18
 10
92.64380186148702
 20
237.22325490146642
 11
107.34380186148775
 21
251.92325490146698
  0
LINE
  8
_1-2_
  6
CONTINUOUS
 62
   18
 10
91.936695080301263
 20
237.22325490146608
 11
106.63669508030154
 21
251.92325490146663
  0
LINE
  8
_1-2_
  6
CONTINUOUS
 62
   18
 10
91.229588299114596
 20
237.22325490146613
 11
105.92958829911487
 21
251.92325490146675
  0
LINE
  8
_1-2_
  6
CONTINUOUS
 62
   18
 10
90.522481517927929
 20
237.22325490146619
 11
105.22248151792866
 21
251.92325490146675
  0
LINE
  8
_1-2_
  6
CONTINUOUS
 62
   18
 10
89.815374736741262
 20
237.22325490146625
 11
104.51537473674199
 21
251.92325490146686
  0
LINE
  8
_1-2_
  6
CONTINUOUS
 62
   18
 10
89.108267955554595
 20
237.22325490146631
 11
103.80826795555532
 21
251.92325490146692
  0
LINE
  8
_1-2_
  6
CONTINUOUS
 62
   18
 10
88.401161174367928
 20
237.22325490146642
 11
103.10116117436866
 21
251.92325490146698
  0
LINE
  8
_1-2_
  6
CONTINUOUS
 62
   18
 10
87.694054393181261
 20
237.22325490146648
 11
102.39405439318153
 21
251.92325490146646
  0
LINE
  8
_1-2_
  6
CONTINUOUS
 62
   18
 10
86.986947611995049
 20
237.22325490146653
 11
101.68694761199487
 21
251.92325490146652
  0
LINE
  8
_1-2_
  6
CONTINUOUS
 62
   18
 10
86.279840830808382
 20
237.22325490146659
 11
100.9798408308082
 21
251.92325490146658
  0
LINE
  8
_1-2_
  6
CONTINUOUS
 62
   18
 10
85.572734049621715
 20
237.22325490146665
 11
100.27273404962153
 21
251.92325490146663
  0
LINE
  8
_1-2_
  6
CONTINUOUS
 62
   18
 10
84.865627268435048
 20
237.22325490146676
 11
99.565627268435321
 21
251.92325490146675
  0
LINE
  8
_1-2_
  6
CONTINUOUS
 62
   18
 10
84.158520487248381
 20
237.2232549014667
 11
98.8585204872482
 21
251.92325490146669
  0
LINE
  8
_1-2_
  6
CONTINUOUS
 62
   18
 10
83.45141370606126
 20
237.22325490146625
 11
98.151413706061987
 21
251.92325490146675
  0
LINE
  8
_1-2_
  6
CONTINUOUS
 62
   18
 10
82.744306924874593
 20
237.22325490146631
 11
97.44430692487532
 21
251.92325490146686
  0
LINE
  8
_1-2_
  6
CONTINUOUS
 62
   18
 10
82.037200143687926
 20
237.22325490146636
 11
96.737200143688653
 21
251.92325490146692
  0
LINE
  8
_1-2_
  6
CONTINUOUS
 62
   18
 10
81.330093362502168
 20
237.22325490146602
 11
96.030093362502441
 21
251.92325490146658
  0
LINE
  8
_1-2_
  6
CONTINUOUS
 62
   18
 10
80.678097918323431
 20
237.27836623847315
 11
95.322986581316684
 21
251.92325490146669
  0
LINE
  8
_1-2_
  6
CONTINUOUS
 62
   18
 10
80.678097918323431
 20
237.98547301965976
 11
94.615879800130472
 21
251.92325490146675
  0
LINE
  8
_1-2_
  6
CONTINUOUS
 62
   18
 10
80.678097918322976
 20
238.69257980084632
 11
93.908773018943805
 21
251.92325490146681
  0
LINE
  8
_1-2_
  6
CONTINUOUS
 62
   18
 10
80.678097918322976
 20
239.39968658203293
 11
93.201666237757138
 21
251.92325490146686
  0
LINE
  8
_1-2_
  6
CONTINUOUS
 62
   18
 10
80.678097918322976
 20
240.10679336321954
 11
92.494559456570471
 21
251.92325490146692
  0
LINE
  8
_1-2_
  6
CONTINUOUS
 62
   18
 10
80.678097918322976
 20
240.81390014440609
 11
91.787452675383804
 21
251.92325490146703
  0
LINE
  8
_1-2_
  6
CONTINUOUS
 62
   18
 10
80.678097918322976
 20
241.52100692559287
 11
91.080345894196682
 21
251.92325490146652
  0
LINE
  8
_1-2_
  6
CONTINUOUS
 62
   18
 10
80.678097918322976
 20
242.22811370677948
 11
90.373239113010015
 21
251.92325490146658
  0
LINE
  8
_1-2_
  6
CONTINUOUS
 62
   18
 10
80.678097918322976
 20
242.93522048796603
 11
89.666132331823349
 21
251.92325490146663
  0
LINE
  8
_1-2_
  6
CONTINUOUS
 62
   18
 10
80.678097918322976
 20
243.64232726915264
 11
88.959025550636682
 21
251.92325490146669
  0
LINE
  8
_1-2_
  6
CONTINUOUS
 62
   18
 10
80.678097918322521
 20
244.34943405033926
 11
88.251918769450469
 21
251.92325490146675
  0
LINE
  8
_1-2_
  6
CONTINUOUS
 62
   18
 10
80.678097918322976
 20
245.05654083152615
 11
87.544811988263803
 21
251.92325490146681
  0
LINE
  8
_1-2_
  6
CONTINUOUS
 62
   18
 10
80.678097918322976
 20
245.7636476127127
 11
86.837705207077136
 21
251.92325490146686
  0
LINE
  8
_1-2_
  6
CONTINUOUS
 62
   18
 10
80.678097918322976
 20
246.47075439389931
 11
86.130598425890469
 21
251.92325490146692
  0
LINE
  8
_1-2_
  6
CONTINUOUS
 62
   18
 10
80.678097918322521
 20
247.17786117508587
 11
85.423491644703802
 21
251.92325490146698
  0
LINE
  8
_1-2_
  6
CONTINUOUS
 62
   18
 10
80.678097918322521
 20
247.88496795627145
 11
84.716384863518044
 21
251.92325490146709
  0
LINE
  8
_1-2_
  6
CONTINUOUS
 62
   18
 10
80.678097918322976
 20
248.59207473745755
 11
84.009278082332287
 21
251.92325490146675
  0
LINE
  8
_1-2_
  6
CONTINUOUS
 62
   18
 10
80.678097918322976
 20
249.29918151864416
 11
83.30217130114562
 21
251.92325490146681
  0
LINE
  8
_1-2_
  6
CONTINUOUS
 62
   18
 10
80.678097918322521
 20
250.00628829983071
 11
82.595064519958953
 21
251.92325490146686
  0
LINE
  8
_1-2_
  6
CONTINUOUS
 62
   18
 10
80.678097918322521
 20
250.71339508101732
 11
81.887957738772286
 21
251.92325490146692
  0
LINE
  8
_1-2_
  6
CONTINUOUS
 62
   18
 10
80.678097918322521
 20
251.42050186220393
 11
81.180850957585619
 21
251.92325490146698
  0
LINE
  8
_1-2_
  6
CONTINUOUS
 62
   18
 10
139.31284941979931
 20
237.2232549014667
 11
153.18819235011534
 21
251.09859783178251
  0
LINE
  8
_1-2_
  6
CONTINUOUS
 62
   18
 10
140.01995620098597
 20
237.22325490146665
 11
153.00549958447465
 21
250.20879828495555
  0
LINE
  8
_1-2_
  6
CONTINUOUS
 62
   18
 10
140.72706298217264
 20
237.22325490146659
 11
152.94177975776967
 21
249.43797167706396
  0
LINE
  8
_1-2_
  6
CONTINUOUS
 62
   18
 10
155.13692085646409
 20
251.63311277575838
 11
155.42706298217246
 21
251.92325490146663
  0
LINE
  8
_1-2_
  6
CONTINUOUS
 62
   18
 10
141.43416976335931
 20
237.22325490146648
 11
152.95706677973914
 21
248.74615191784642
  0
LINE
  8
_1-2_
  6
CONTINUOUS
 62
   18
 10
154.85992259108644
 20
250.64900772919384
 11
156.13416976335913
 21
251.92325490146652
  0
LINE
  8
_1-2_
  6
CONTINUOUS
 62
   18
 10
142.14127654454597
 20
237.22325490146648
 11
153.03139500100025
 21
248.11337335792081
  0
LINE
  8
_1-2_
  6
CONTINUOUS
 62
   18
 10
154.74205201475144
 20
249.82403037167234
 11
156.84127654454625
 21
251.92325490146703
  0
LINE
  8
_1-2_
  6
CONTINUOUS
 62
   18
 10
142.84838332573219
 20
237.22325490146642
 11
153.15313200346537
 21
247.52800357919921
  0
LINE
  8
_1-2_
  6
CONTINUOUS
 62
   18
 10
154.71988923771806
 20
249.09476081345213
 11
157.54838332573291
 21
251.92325490146698
  0
LINE
  8
_1-2_
  6
CONTINUOUS
 62
   18
 10
143.55549010691885
 20
237.22325490146636
 11
153.31486140282715
 21
246.9826261973746
  0
LINE
  8
_1-2_
  6
CONTINUOUS
 62
   18
 10
154.76558937674628
 20
248.4333541712935
 11
158.25549010691958
 21
251.92325490146692
  0
LINE
  8
_1-2_
  6
CONTINUOUS
 62
   18
 10
144.26259688810552
 20
237.22325490146631
 11
153.51158401879758
 21
246.47224203215831
  0
LINE
  8
_1-2_
  6
CONTINUOUS
 62
   18
 10
154.86399768945722
 20
247.82465570281795
 11
158.96259688810625
 21
251.92325490146686
  0
LINE
  8
_1-2_
  6
CONTINUOUS
 62
   18
 10
144.96970366929219
 20
237.22325490146625
 11
153.73981888542659
 21
245.9933701176007
  0
LINE
  8
_1-2_
  6
CONTINUOUS
 62
   18
 10
155.00584028111081
 20
247.25939151328498
 11
159.66970366929291
 21
251.92325490146681
  0
LINE
  8
_1-2_
  6
CONTINUOUS
 62
   18
 10
145.67681045047794
 20
237.22325490146636
 11
153.99711138991262
 21
245.54355584090104
  0
LINE
  8
_1-2_
  6
CONTINUOUS
 62
   18
 10
155.18502245000792
 20
246.73146690099611
 11
160.37681045047867
 21
251.92325490146692
  0
LINE
  8
_1-2_
  6
CONTINUOUS
 62
   18
 10
146.3839172316637
 20
237.22325490146625
 11
154.28174754250932
 21
245.12108521231175
  0
LINE
  8
_1-2_
  6
CONTINUOUS
 62
   18
 10
155.39736021481241
 20
246.2366978846149
 11
161.08391723166397
 21
251.92325490146669
  0
LINE
  8
_1-2_
  6
CONTINUOUS
 62
   18
 10
147.09102401285037
 20
237.22325490146619
 11
154.59258266255694
 21
244.72481355117304
  0
LINE
  8
_1-2_
  6
CONTINUOUS
 62
   18
 10
155.63991509013869
 20
245.77214597875468
 11
161.79102401285064
 21
251.92325490146663
  0
LINE
  8
_1-2_
  6
CONTINUOUS
 62
   18
 10
147.79813079403704
 20
237.22325490146613
 11
154.92000707932931
 21
244.34513118675864
  0
LINE
  8
_1-2_
  6
CONTINUOUS
 62
   18
 10
155.91061811467108
 20
245.33574222210052
 11
162.49813079403731
 21
251.92325490146663
  0
LINE
  8
_1-2_
  6
CONTINUOUS
 62
   18
 10
148.50523757522416
 20
237.22325490146659
 11
155.22571268453413
 21
243.94373001077673
  0
LINE
  8
_1-2_
  6
CONTINUOUS
 62
   18
 10
156.20804723842531
 20
244.9260645646678
 11
163.20523757522398
 21
251.92325490146652
  0
LINE
  8
_1-2_
  6
CONTINUOUS
 62
   18
 10
149.21234435641082
 20
237.22325490146682
 11
155.5050318784991
 21
243.51594242355492
  0
LINE
  8
_1-2_
  6
CONTINUOUS
 62
   18
 10
156.53128577540275
 20
244.54219632045886
 11
163.9123443564111
 21
251.92325490146681
  0
LINE
  8
_1-2_
  6
CONTINUOUS
 62
   18
 10
149.91945113759749
 20
237.22325490146676
 11
155.75671693218266
 21
243.06052069605164
  0
LINE
  8
_1-2_
  6
CONTINUOUS
 62
   18
 10
156.85027992571787
 20
244.15408368958703
 11
164.61945113759776
 21
251.92325490146675
  0
LINE
  8
_1-2_
  6
CONTINUOUS
 62
   18
 10
150.62655791878416
 20
237.22325490146665
 11
155.9789233525965
 21
242.5756203352791
  0
LINE
  8
_1-2_
  6
CONTINUOUS
 62
   18
 10
157.14333746207768
 20
243.74003444476006
 11
165.32655791878398
 21
251.92325490146669
  0
LINE
  8
_1-2_
  6
CONTINUOUS
 62
   18
 10
151.33366469997083
 20
237.22325490146659
 11
156.16902045652552
 21
242.05861065802162
  0
LINE
  8
_1-2_
  6
CONTINUOUS
 62
   18
 10
157.40947064374842
 20
243.29906084524453
 11
166.03366469997064
 21
251.92325490146663
  0
LINE
  8
_1-2_
  6
CONTINUOUS
 62
   18
 10
152.04077148115749
 20
237.22325490146653
 11
156.32327423244516
 21
241.5057576527542
  0
LINE
  8
_1-2_
  6
CONTINUOUS
 62
   18
 10
157.64716093279668
 20
242.82964435310583
 11
166.74077148115731
 21
251.92325490146658
  0
LINE
  8
_1-2_
  6
CONTINUOUS
 62
   18
 10
152.74787826234416
 20
237.22325490146648
 11
156.43629609222745
 21
240.91167273135
  0
LINE
  8
_1-2_
  6
CONTINUOUS
 62
   18
 10
157.85421321212772
 20
242.32958985125026
 11
167.44787826234443
 21
251.92325490146703
  0
LINE
  8
_1-2_
  6
CONTINUOUS
 62
   18
 10
153.45498504353037
 20
237.22325490146642
 11
156.50001981636643
 21
240.26828967430237
  0
LINE
  8
_1-2_
  6
CONTINUOUS
 62
   18
 10
158.02751337933825
 20
241.79578323727407
 11
168.1549850435311
 21
251.92325490146698
  0
LINE
  8
_1-2_
  6
CONTINUOUS
 62
   18
 10
154.16209182471704
 20
237.22325490146636
 11
156.50160789360126
 21
239.56277097035047
  0
LINE
  8
_1-2_
  6
CONTINUOUS
 62
   18
 10
158.16261656326407
 20
241.22377964001339
 11
168.86209182471777
 21
251.92325490146692
  0
LINE
  8
_1-2_
  6
CONTINUOUS
 62
   18
 10
154.8691986059037
 20
237.22325490146631
 11
156.41849245006534
 21
238.77254874562772
  0
LINE
  8
_1-2_
  6
CONTINUOUS
 62
   18
 10
158.2530109106022
 20
240.60706720616469
 11
169.56919860590443
 21
251.92325490146686
  0
LINE
  8
_1-2_
  6
CONTINUOUS
 62
   18
 10
155.57630538709037
 20
237.22325490146625
 11
156.20347401809823
 21
237.85042353247411
  0
LINE
  8
_1-2_
  6
CONTINUOUS
 62
   18
 10
158.28869172854667
 20
239.93564124292243
 11
170.2763053870911
 21
251.92325490146681
  0
LINE
  8
_1-2_
  6
CONTINUOUS
 62
   18
 10
158.25305370088182
 20
239.19289643407183
 11
170.98341216827686
 21
251.92325490146686
  0
LINE
  8
_1-2_
  6
CONTINUOUS
 62
   18
 10
158.11476443541625
 20
238.34750038742078
 11
171.69051894946261
 21
251.92325490146675
  0
LINE
  8
_1-2_
  6
CONTINUOUS
 62
   18
 10
157.79846055412355
 20
237.32408972494119
 11
172.39762573064883
 21
251.92325490146669
  0
LINE
  8
_1-2_
  6
CONTINUOUS
 62
   18
 10
152.7402668837538
 20
216.70954686846682
 11
153.71539211894952
 21
217.68467210366231
  0
LINE
  8
_1-2_
  6
CONTINUOUS
 62
   18
 10
155.30337741479599
 20
217.15133705594872
 11
156.46158722731371
 21
218.30954686846655
  0
LINE
  8
_1-3_
  6
CONTINUOUS
 62
   18
 10
45.039326208206887
 20
225.43961610084932
 11
78.678097918322976
 21
225.43961610084932
  0
LINE
  8
_1-3_
  6
CONTINUOUS
 62
   18
 10
45.039326208206887
 20
225.43961610084932
 11
46.005252034495982
 21
225.69843514595181
  0
LINE
  8
_1-3_
  6
CONTINUOUS
 62
   18
 10
45.039326208206887
 20
225.43961610084932
 11
46.005252034495982
 21
225.18079705574678
  0
LINE
  8
_1-3_
  6
CONTINUOUS
 62
   18
 10
78.678097918322976
 20
225.43961610084932
 11
77.712172092033882
 21
225.18079705574678
  0
LINE
  8
_1-3_
  6
CONTINUOUS
 62
   18
 10
78.678097918322976
 20
225.43961610084932
 11
77.712172092033882
 21
225.69843514595181
  0
LINE
  8
_1-3_
  6
CONTINUOUS
 62
   18
 10
45.039326208206887
 20
224.93961610084932
 11
45.039326208206887
 21
240.82325489896431
  0
LINE
  8
_1-3_
  6
CONTINUOUS
 62
   18
 10
78.678097918322976
 20
224.93961610084932
 11
78.678097918322976
 21
236.52325489896447
  0
LINE
  8
_1-3_
  6
CONTINUOUS
 62
   18
 10
78.678097918322976
 20
225.43961610084932
 11
232.67809791832298
 21
225.43961610084932
  0
LINE
  8
_1-3_
  6
CONTINUOUS
 62
   18
 10
78.678097918322976
 20
225.43961610084932
 11
79.64402374461207
 21
225.69843514595181
  0
LINE
  8
_1-3_
  6
CONTINUOUS
 62
   18
 10
78.678097918322976
 20
225.43961610084932
 11
79.64402374461207
 21
225.18079705574678
  0
LINE
  8
_1-3_
  6
CONTINUOUS
 62
   18
 10
232.67809791832298
 20
225.43961610084932
 11
231.71217209203388
 21
225.18079705574678
  0
LINE
  8
_1-3_
  6
CONTINUOUS
 62
   18
 10
232.67809791832298
 20
225.43961610084932
 11
231.71217209203388
 21
225.69843514595181
  0
LINE
  8
_1-3_
  6
CONTINUOUS
 62
   18
 10
232.67809791832298
 20
224.93961610084932
 11
232.67809791832298
 21
236.52325489896447
  0
LINE
  8
_1-3_
  6
CONTINUOUS
 62
   18
 10
232.67809791832298
 20
225.43961610084932
 11
259.72583293334247
 21
225.43961610084932
  0
LINE
  8
_1-3_
  6
CONTINUOUS
 62
   18
 10
232.67809791832298
 20
225.43961610084932
 11
233.64402374461207
 21
225.69843514595181
  0
LINE
  8
_1-3_
  6
CONTINUOUS
 62
   18
 10
232.67809791832298
 20
225.43961610084932
 11
233.64402374461207
 21
225.18079705574678
  0
LINE
  8
_1-3_
  6
CONTINUOUS
 62
   18
 10
259.72583293334247
 20
225.43961610084932
 11
258.75990710705338
 21
225.18079705574678
  0
LINE
  8
_1-3_
  6
CONTINUOUS
 62
   18
 10
259.72583293334247
 20
225.43961610084932
 11
258.75990710705338
 21
225.69843514595181
  0
LINE
  8
_1-3_
  6
CONTINUOUS
 62
   18
 10
259.72583293334247
 20
224.93961610084932
 11
259.72583293334247
 21
240.57325489896436
  0
TEXT
  8
_1-3_
 62
    7
 10
152.42809791334258
 20
225.93961610084932
 40
3
 41
1
 50
0
  1
全長
  0
TEXT
  8
_1-3_
 62
    7
 10
58.001774269505916
 20
225.93961610084932
 40
3
 41
1
 50
0
  1
(50)
  0
TEXT
  8
_1-3_
 62
    7
 10
242.82696542334253
 20
225.93961610084932
 40
3
 41
1
 50
0
  1
(50)
  0
LINE
  8
_1-3_
  6
CONTINUOUS
 62
   18
 10
282.30997520887405
 20
237.22325489896457
 11
282.30997520887405
 21
251.92325489896467
  0
LINE
  8
_1-3_
  6
CONTINUOUS
 62
   18
 10
282.30997520887405
 20
237.22325489896457
 11
282.05115616377162
 21
238.18918072525366
  0
LINE
  8
_1-3_
  6
CONTINUOUS
 62
   18
 10
282.30997520887405
 20
237.22325489896457
 11
282.56879425397693
 21
238.18918072525366
  0
LINE
  8
_1-3_
  6
CONTINUOUS
 62
   18
 10
282.30997520887405
 20
251.92325489896467
 11
282.56879425397693
 21
250.95732907267558
  0
LINE
  8
_1-3_
  6
CONTINUOUS
 62
   18
 10
282.30997520887405
 20
251.92325489896467
 11
282.05115616377162
 21
250.95732907267558
  0
LINE
  8
_1-3_
  6
CONTINUOUS
 62
   18
 10
281.80997520887405
 20
237.22325489896457
 11
288.26623233417587
 21
237.22325489896457
  0
LINE
  8
_1-3_
  6
CONTINUOUS
 62
   18
 10
281.80997520887405
 20
251.92325489896467
 11
294.40997520887441
 21
251.92325489896467
  0
TEXT
  8
_1-3_
 62
    7
 10
281.80997520887405
 20
241.19825489896459
 40
3
 41
1
 50
90
  1
14.7
  0
LINE
  8
_1-3_
  6
CONTINUOUS
 62
   18
 10
288.00997520887432
 20
255.89927962428214
 11
301.3099752088745
 21
255.89927962428214
  0
LINE
  8
_1-3_
  6
CONTINUOUS
 62
   18
 10
288.00997520887432
 20
255.89927962428214
 11
288.97590103516342
 21
256.15809866938469
  0
LINE
  8
_1-3_
  6
CONTINUOUS
 62
   18
 10
288.00997520887432
 20
255.89927962428214
 11
288.97590103516342
 21
255.6404605791796
  0
LINE
  8
_1-3_
  6
CONTINUOUS
 62
   18
 10
301.3099752088745
 20
255.89927962428214
 11
300.34404938258541
 21
255.6404605791796
  0
LINE
  8
_1-3_
  6
CONTINUOUS
 62
   18
 10
301.3099752088745
 20
255.89927962428214
 11
300.34404938258541
 21
256.15809866938469
  0
LINE
  8
_1-3_
  6
CONTINUOUS
 62
   18
 10
288.00997520887432
 20
256.39927962428214
 11
288.00997520887432
 21
243.62325489896455
  0
LINE
  8
_1-3_
  6
CONTINUOUS
 62
   18
 10
301.3099752088745
 20
256.39927962428214
 11
301.3099752088745
 21
251.87325489896466
  0
TEXT
  8
_1-3_
 62
    7
 10
291.28497520887441
 20
256.39927962428214
 40
3
 41
1
 50
0
  1
13.3
  0
ARC
  8
_1-7_
  6
CONTINUOUS
 62
    7
 10
159.94939711579929
 20
249.24673901295523
 40
7.0102261709862415
 50
138.18998718261719
 51
221.80999755859375
  0
ARC
  8
_1-7_
  6
CONTINUOUS
 62
    7
 10
149.49948663691595
 20
239.89977078497373
 40
7.0102261709862415
 50
318.18998718261713
 51
41.809997558593693
  0
ARC
  8
_1-7_
  6
CONTINUOUS
 62
    7
 10
151.27855733050347
 20
239.89977078497373
 40
7.0102261709862415
 50
318.18998718261713
 51
41.809997558593693
  0
ARC
  8
_1-7_
  6
CONTINUOUS
 62
    7
 10
161.72846780938681
 20
249.24673901295523
 40
7.0102261709862415
 50
138.18998718261719
 51
221.80999755859375
  0
LINE
  8
_1-a_
  6
CONTINUOUS
 62
    7
 10
51.702310897255131
 20
242.48198049211419
 11
63.702310897255131
 21
242.48198049211419
  0
LINE
  8
_1-a_
  6
CONTINUOUS
 62
    7
 10
63.702310897255131
 20
242.48198049211419
 11
63.702310897255131
 21
275.48198049211419
  0
LINE
  8
_1-a_
  6
CONTINUOUS
 62
    7
 10
51.702310897255131
 20
275.48198049211419
 11
51.702310897255131
 21
242.48198049211419
  0
ARC
  8
_1-2_
  6
CONTINUOUS
 62
    7
 10
297.2099752088746
 20
242.62325489896443
 40
9.2000000000000011
 50
122.58491587331582
 51
189.05622224613447
  0
LINE
  8
_1-2_
  6
CONTINUOUS
 62
    7
 10
289.07217318892054
 20
237.37487051984454
 11
288.12465908116411
 21
241.17514203749033
  0
ARC
  8
_1-2_
  6
CONTINUOUS
 62
    7
 10
289.40997520887441
 20
237.42325489896461
 40
0.2
 50
270
 51
0
  0
LINE
  8
_1-2_
  6
CONTINUOUS
 62
    7
 10
289.26623233417587
 20
237.22325489896457
 11
289.40997520887441
 21
237.22325489896457
  0
ARC
  8
_1-2_
  6
CONTINUOUS
 62
    7
 10
289.26623233417587
 20
237.42325489896461
 40
0.2
 50
193.99999999999991
 51
270
  0
ARC
  8
_1-2_
  6
CONTINUOUS
 62
    7
 10
294.90997520887441
 20
251.67684473745066
 40
0.2
 50
0
 51
120.00000000000047
  0
LINE
  8
_1-2_
  6
CONTINUOUS
 62
    7
 10
294.8099752088745
 20
251.85004981820771
 11
292.25532463101609
 21
250.37512161939571
  0
ARC
  8
_1-1_
  6
CONTINUOUS
 62
    7
 10
289.8099752088745
 20
237.42325489896461
 40
0.2
 50
180
 51
270
  0
ARC
  8
_1-1_
  6
CONTINUOUS
 62
    7
 10
298.00997520887432
 20
238.17325489896461
 40
0.2
 50
270
 51
323.13010235415436
  0
ARC
  8
_1-1_
  6
CONTINUOUS
 62
    7
 10
299.46308809628937
 20
238.17325489896461
 40
0.2
 50
240.25511870306053
 51
270
  0
LINE
  8
_1-1_
  6
CONTINUOUS
 62
    7
 10
301.00997520887432
 20
237.97325489896457
 11
299.46308809628937
 21
237.97325489896457
  0
ARC
  8
_1-1_
  6
CONTINUOUS
 62
    7
 10
301.00997520887432
 20
238.27325489896452
 40
0.3
 50
270
 51
0
  0
LINE
  8
_1-1_
  6
CONTINUOUS
 62
    7
 10
301.3099752088745
 20
238.27325489896452
 11
301.3099752088745
 21
239.17325489896461
  0
LINE
  8
_1-1_
  6
CONTINUOUS
 62
    7
 10
301.3099752088745
 20
242.07325489896448
 11
301.3099752088745
 21
241.37325489896466
  0
LINE
  8
_1-1_
  6
CONTINUOUS
 62
    7
 10
301.3099752088745
 20
247.07325489896448
 11
301.3099752088745
 21
247.77325489896452
  0
LINE
  8
_1-1_
  6
CONTINUOUS
 62
    7
 10
301.3099752088745
 20
250.87325489896466
 11
301.3099752088745
 21
249.97325489896457
  0
ARC
  8
_1-1_
  6
CONTINUOUS
 62
    7
 10
301.00997520887432
 20
250.87325489896466
 40
0.3
 50
0
 51
90
  0
LINE
  8
_1-1_
  6
CONTINUOUS
 62
    7
 10
301.00997520887432
 20
251.17325489896461
 11
299.46308809628937
 21
251.17325489896461
  0
ARC
  8
_1-1_
  6
CONTINUOUS
 62
    7
 10
299.46308809628937
 20
250.97325489896457
 40
0.2
 50
90
 51
119.74488129693945
  0
LINE
  8
_1-1_
  6
CONTINUOUS
 62
    7
 10
296.3099752088745
 20
251.17325489896461
 11
295.5599752088745
 21
251.92325489896461
  0
LINE
  8
_1-1_
  6
CONTINUOUS
 62
    7
 10
295.40997520887441
 20
251.92325489896461
 11
295.5599752088745
 21
251.92325489896461
  0
ARC
  8
_1-1_
  6
CONTINUOUS
 62
    7
 10
294.78677012811733
 20
239.27325489896452
 40
0.3
 50
269.99999999999926
 51
329.99999999999892
  0
LINE
  8
_1-1_
  6
CONTINUOUS
 62
    7
 10
298.00997520887432
 20
251.17325489896461
 11
296.3099752088745
 21
251.17325489896461
  0
ARC
  8
_1-1_
  6
CONTINUOUS
 62
    7
 10
298.00997520887432
 20
250.97325489896457
 40
0.2
 50
36.869897645845647
 51
90
  0
LINE
  8
_1-1_
  6
CONTINUOUS
 62
    7
 10
292.98571114016232
 20
237.22325489896457
 11
289.8099752088745
 21
237.22325489896457
  0
ARC
  8
_1-1_
  6
CONTINUOUS
 62
    7
 10
292.98571114016232
 20
237.52325489896452
 40
0.3
 50
270
 51
315.00000000000097
  0
LINE
  8
_1-1_
  6
CONTINUOUS
 62
    7
 10
293.77210724323032
 20
237.88538693332066
 11
293.1978431745186
 21
237.31112286460871
  0
ARC
  8
_1-1_
  6
CONTINUOUS
 62
    7
 10
293.98423927758614
 20
237.67325489896461
 40
0.3
 50
90
 51
135.00000000000097
  0
ARC
  8
_1-1_
  6
CONTINUOUS
 62
    7
 10
293.57002571521326
 20
238.67325489896461
 40
0.3
 50
90
 51
135.00000000000097
  0
LINE
  8
_1-1_
  6
CONTINUOUS
 62
    7
 10
294.78677012811733
 20
238.97325489896457
 11
293.57002571521326
 21
238.97325489896457
  0
LINE
  8
_1-1_
  6
CONTINUOUS
 62
    7
 10
293.98423927758614
 20
237.97325489896457
 11
298.00997520887432
 21
237.97325489896457
  0
LINE
  8
_1-1_
  6
CONTINUOUS
 62
    7
 10
293.35789368085744
 20
238.88538693332043
 11
293.2099752088746
 21
238.73746846133758
  0
LINE
  8
_1-1_
  6
CONTINUOUS
 62
    7
 10
298.00997520887432
 20
244.25600986204972
 11
295.046577749253
 21
239.12325489896466
  0
ARC
  8
_1-1_
  6
CONTINUOUS
 62
    7
 10
298.0599752088745
 20
240.27325489896452
 40
0.85
 50
93.372286683434723
 51
266.62771331656529
  0
LINE
  8
_1-1_
  6
CONTINUOUS
 62
    7
 10
298.16997520887418
 20
238.0532548989645
 11
298.33497520887414
 21
238.27325489896452
  0
LINE
  8
_1-1_
  6
CONTINUOUS
 62
    7
 10
299.36386030861814
 20
237.99960627053974
 11
298.88497520887432
 21
238.27325489896452
  0
ARC
  8
_1-1_
  6
CONTINUOUS
 62
    7
 10
301.10997520887423
 20
239.17325489896461
 40
0.2
 50
0
 51
119.99999999999261
  0
ARC
  8
_1-1_
  6
CONTINUOUS
 62
    7
 10
301.10997520887423
 20
241.37325489896466
 40
0.2
 50
240.00000000000736
 51
359.99999999999994
  0
ARC
  8
_1-1_
  6
CONTINUOUS
 62
    7
 10
300.8099752088745
 20
242.07325489896448
 40
0.5
 50
0
 51
66.421821521798819
  0
ARC
  8
_1-1_
  6
CONTINUOUS
 62
    7
 10
300.8099752088745
 20
247.07325489896448
 40
0.5
 50
293.57817847820417
 51
0
  0
ARC
  8
_1-1_
  6
CONTINUOUS
 62
    7
 10
301.10997520887423
 20
247.77325489896452
 40
0.2
 50
0
 51
119.99999999998556
  0
ARC
  8
_1-1_
  6
CONTINUOUS
 62
    7
 10
301.10997520887423
 20
249.97325489896457
 40
0.2
 50
240.00000000001444
 51
0
  0
LINE
  8
_1-1_
  6
CONTINUOUS
 62
    7
 10
299.36386030861814
 20
251.14690352738944
 11
298.88497520887432
 21
250.87325489896466
  0
LINE
  8
_1-1_
  6
CONTINUOUS
 62
    7
 10
298.16997520887418
 20
251.09325489896446
 11
298.33497520887414
 21
250.87325489896466
  0
ARC
  8
_1-1_
  6
CONTINUOUS
 62
    7
 10
295.40997520887441
 20
251.62325489896466
 40
0.3
 50
90.000000000002032
 51
174.19500627821284
  0
LINE
  8
_1-2_
  6
CONTINUOUS
 62
    7
 10
289.60997520887423
 20
237.42325489896461
 11
289.60997520887423
 21
237.52325489896452
  0
LINE
  8
_1-2_
  6
CONTINUOUS
 62
    7
 10
295.10997520887423
 20
251.65331455469163
 11
295.10997520887423
 21
251.67684473745066
  0
LINE
  8
_1-4_
  6
CONTINUOUS
 62
    7
 10
297.77044191650458
 20
245.44112602956102
 11
294.77044191650458
 21
240.24497360685427
  0
LINE
  8
_1-4_
  6
CONTINUOUS
 62
    7
 10
294.77044191650458
 20
240.24497360685427
 11
295.4632622395323
 21
239.84497360685441
  0
LINE
  8
_1-4_
  6
CONTINUOUS
 62
    7
 10
297.95485710128861
 20
245.33465387298315
 11
297.77044191650458
 21
245.44112602956102
  0
LINE
  8
_1-4_
  6
CONTINUOUS
 62
    7
 10
295.4632622395323
 20
239.84497360685441
 11
298.00997520887432
 21
244.25600986204972
  0
LINE
  8
_1-b_
  6
CONTINUOUS
 62
    7
 10
298.2474752088745
 20
250.23575489896461
 11
298.2474752088745
 21
249.24825489896466
  0
LINE
  8
_1-b_
  6
CONTINUOUS
 62
    7
 10
297.8724752088745
 20
250.23575489896461
 11
297.8724752088745
 21
249.24825489896466
  0
LINE
  8
_1-b_
  6
CONTINUOUS
 62
    7
 10
297.8724752088745
 20
250.23575489896461
 11
298.2474752088745
 21
250.23575489896461
  0
LINE
  8
_1-b_
  6
CONTINUOUS
 62
    7
 10
297.8724752088745
 20
247.51075489896471
 11
297.8724752088745
 21
248.49825489896466
  0
LINE
  8
_1-b_
  6
CONTINUOUS
 62
    7
 10
298.2474752088745
 20
247.51075489896471
 11
298.2474752088745
 21
248.49825489896466
  0
LINE
  8
_1-b_
  6
CONTINUOUS
 62
    7
 10
298.2474752088745
 20
247.51075489896471
 11
297.8724752088745
 21
247.51075489896471
  0
LINE
  8
_1-b_
  6
CONTINUOUS
 62
    7
 10
296.69747520887432
 20
248.68575489896466
 11
297.6849752088745
 21
248.68575489896466
  0
LINE
  8
_1-b_
  6
CONTINUOUS
 62
    7
 10
296.69747520887432
 20
249.06075489896466
 11
297.6849752088745
 21
249.06075489896466
  0
LINE
  8
_1-b_
  6
CONTINUOUS
 62
    7
 10
296.69747520887432
 20
248.68575489896466
 11
296.69747520887432
 21
249.06075489896466
  0
LINE
  8
_1-b_
  6
CONTINUOUS
 62
    7
 10
299.42247520887423
 20
248.68575489896466
 11
298.4349752088745
 21
248.68575489896466
  0
LINE
  8
_1-b_
  6
CONTINUOUS
 62
    7
 10
299.42247520887423
 20
249.06075489896466
 11
298.4349752088745
 21
249.06075489896466
  0
LINE
  8
_1-b_
  6
CONTINUOUS
 62
    7
 10
299.42247520887423
 20
249.06075489896466
 11
299.42247520887423
 21
248.68575489896466
  0
ARC
  8
_1-b_
  6
CONTINUOUS
 62
    7
 10
297.6849752088745
 20
248.49825489896466
 40
0.1875
 50
0
 51
90
  0
ARC
  8
_1-b_
  6
CONTINUOUS
 62
    7
 10
298.4349752088745
 20
248.49825489896466
 40
0.1875
 50
90
 51
180
  0
ARC
  8
_1-b_
  6
CONTINUOUS
 62
    7
 10
298.4349752088745
 20
249.24825489896466
 40
0.1875
 50
180
 51
270
  0
ARC
  8
_1-b_
  6
CONTINUOUS
 62
    7
 10
297.6849752088745
 20
249.24825489896466
 40
0.1875
 50
270
 51
0
  0
CIRCLE
  8
_1-b_
  6
CONTINUOUS
 62
    7
 10
298.0599752088745
 20
248.87325489896466
 40
2
  0
LINE
  8
_1-6_
  6
CONTINUOUS
 62
    7
 10
301.00997520887432
 20
238.57325489896448
 11
301.00997520887432
 21
250.57325489896448
  0
LINE
  8
_1-6_
  6
CONTINUOUS
 62
    7
 10
300.70997520887414
 20
238.27325489896452
 11
298.3099752088745
 21
238.27325489896452
  0
LINE
  8
_1-6_
  6
CONTINUOUS
 62
    7
 10
293.20997520887414
 20
244.82325489896448
 11
293.20997520887414
 21
237.82325489896448
  0
LINE
  8
_1-6_
  6
CONTINUOUS
 62
    7
 10
298.00997520887432
 20
238.57325489896448
 11
298.00997520887432
 21
244.82325489896448
  0
ARC
  8
_1-6_
  6
CONTINUOUS
 62
    7
 10
298.0599752088745
 20
248.87325489896455
 40
2.2000000000000002
 50
114.61997732865743
 51
65.380022671342488
  0
ARC
  8
_1-6_
  6
CONTINUOUS
 62
    7
 10
295.60997520887423
 20
244.82325489896448
 40
2.4000000000000004
 50
90
 51
180.00000000000003
  0
ARC
  8
_1-6_
  6
CONTINUOUS
 62
    7
 10
295.60997520887423
 20
244.82325489896448
 40
2.4000000000000004
 50
0
 51
90
  0
ARC
  8
_1-6_
  6
CONTINUOUS
 62
    7
 10
289.54647226265416
 20
237.82325489896448
 40
0.3
 50
193.50091321810294
 51
270
  0
ARC
  8
_1-6_
  6
CONTINUOUS
 62
    7
 10
292.90997520887441
 20
237.82325489896448
 40
0.3
 50
270
 51
0
  0
ARC
  8
_1-6_
  6
CONTINUOUS
 62
    7
 10
300.70997520887414
 20
250.57325489896448
 40
0.3
 50
0
 51
90
  0
ARC
  8
_1-6_
  6
CONTINUOUS
 62
    7
 10
298.3099752088745
 20
238.57325489896448
 40
0.3
 50
180
 51
270
  0
ARC
  8
_1-6_
  6
CONTINUOUS
 62
    7
 10
300.70997520887414
 20
238.57325489896448
 40
0.3
 50
270
 51
0
  0
LINE
  8
_1-6_
  6
CONTINUOUS
 62
    7
 10
289.25511602736407
 20
237.75175983509712
 11
288.41901153651708
 21
241.23438567859307
  0
LINE
  8
_1-6_
  6
CONTINUOUS
 62
    7
 10
292.90997520887441
 20
237.52325489896452
 11
289.54647226265416
 21
237.52325489896452
  0
ARC
  8
_1-6_
  6
CONTINUOUS
 62
    7
 10
297.20997520887414
 20
242.62325489896455
 40
8.8999999999999986
 50
123.05804094217984
 51
188.97785573623676
  0
ARC
  8
_1-6_
  6
CONTINUOUS
 62
    7
 10
295.1650654003659
 20
251.35841614709784
 40
0.3
 50
49.999999999999993
 51
119.99999999999999
  0
LINE
  8
_1-6_
  6
CONTINUOUS
 62
    7
 10
296.31916627915399
 20
250.87325489896455
 11
300.70997520887414
 21
250.87325489896455
  0
ARC
  8
_1-6_
  6
CONTINUOUS
 62
    7
 10
296.31916627915399
 20
251.17325489896461
 40
0.3
 50
230
 51
270
  0
LINE
  8
_1-1_
  6
CONTINUOUS
 62
    7
 10
230.67809791832298
 20
251.92325490146669
 11
230.67809791832298
 21
237.2232549014667
  0
LINE
  8
_1-1_
  6
CONTINUOUS
 62
    7
 10
80.678097918322976
 20
251.92325490146669
 11
80.678097918322976
 21
237.2232549014667
  0
LINE
  8
_1-1_
  6
CONTINUOUS
 62
    7
 10
230.67809791832298
 20
216.70954687146667
 11
230.67809791832298
 21
205.00954687146668
  0
LINE
  8
_1-1_
  6
CONTINUOUS
 62
    7
 10
80.678097918322976
 20
216.70954687146667
 11
80.678097918322976
 21
205.00954687146668
  0
LINE
  8
_1-2_
  6
CONTINUOUS
 62
    7
 10
230.67809791832298
 20
251.92325490146669
 11
230.67809791832298
 21
237.2232549014667
  0
LINE
  8
_1-2_
  6
CONTINUOUS
 62
    7
 10
80.678097918322976
 20
237.2232549014667
 11
80.678097918322976
 21
251.92325490146669
  0
LINE
  8
_1-2_
  6
CONTINUOUS
 62
    7
 10
80.678097918322976
 20
218.30954686846667
 11
80.678097918322976
 21
216.7095468684667
  0
LINE
  8
_1-2_
  6
CONTINUOUS
 62
    7
 10
230.67809791832298
 20
218.30954686846667
 11
230.67809791832298
 21
216.7095468684667
  0
LINE
  8
_1-2_
  6
CONTINUOUS
 62
    7
 10
80.678097918322976
 20
251.92325490146669
 11
153.47023562167652
 21
251.92325490146669
  0
LINE
  8
_1-2_
  6
CONTINUOUS
 62
    7
 10
155.24930631526405
 20
251.92325490146669
 11
230.67809791832298
 21
251.92325490146669
  0
LINE
  8
_1-2_
  6
CONTINUOUS
 62
    7
 10
230.67809791832298
 20
237.2232549014667
 11
157.75771882669397
 21
237.2232549014667
  0
LINE
  8
_1-2_
  6
CONTINUOUS
 62
    7
 10
155.97864813310599
 20
237.2232549014667
 11
80.678097918322976
 21
237.2232549014667
  0
ARC
  8
_1-7_
  6
CONTINUOUS
 62
    7
 10
150.45195245582573
 20
207.80660156123724
 40
5.7509826617700037
 50
318.18998718261719
 51
41.80999755859375
  0
ARC
  8
_1-7_
  6
CONTINUOUS
 62
    7
 10
159.02475061030401
 20
215.47457844359724
 40
5.7509826617700037
 50
138.18998718261719
 51
221.80999755859372
  0
ARC
  8
_1-7_
  6
CONTINUOUS
 62
    7
 10
152.23169570444799
 20
207.80660156123724
 40
5.7509826617700037
 50
318.18998718261719
 51
41.80999755859375
  0
ARC
  8
_1-7_
  6
CONTINUOUS
 62
    7
 10
160.80449385892672
 20
215.47457844359724
 40
5.7509826617700037
 50
138.18998718261719
 51
221.80999755859372
  0
LINE
  8
_1-2_
  6
CONTINUOUS
 62
    7
 10
80.678097918322976
 20
218.30954686846667
 11
154.02107639968909
 21
218.30954686846667
  0
LINE
  8
_1-2_
  6
CONTINUOUS
 62
    7
 10
155.8008196483118
 20
218.30954686846667
 11
230.67809791832298
 21
218.30954686846667
  0
LINE
  8
_1-2_
  6
CONTINUOUS
 62
    7
 10
80.678097918322976
 20
216.7095468684667
 11
153.40793170939997
 21
216.7095468684667
  0
LINE
  8
_1-2_
  6
CONTINUOUS
 62
    7
 10
155.18767495802223
 20
216.7095468684667
 11
230.67809791832298
 21
216.7095468684667
  0
LINE
  8
_1-6_
  6
CONTINUOUS
 62
    7
 10
295.01506540036627
 20
251.61822376823312
 11
292.35512904202307
 21
250.08250879571642
  0
LINE
  8
_1-6_
  6
CONTINUOUS
 62
    7
 10
296.12632999624822
 20
250.94344156602892
 11
295.35790168327213
 21
251.58822948003353
  0
LINE
  8
_1-6_
  6
CONTINUOUS
 62
    7
 10
232.67809791832298
 20
251.72325489896446
 11
232.67809791832298
 21
237.52325489896447
  0
LINE
  8
_1-6_
  6
CONTINUOUS
 62
    7
 10
232.67809791832298
 20
237.52325489896447
 11
230.67809791832298
 21
237.52325489896447
  0
LINE
  8
_1-6_
  6
CONTINUOUS
 62
    7
 10
230.67809791832298
 20
251.72325489896446
 11
230.67809791832298
 21
237.52325489896447
  0
LINE
  8
_1-6_
  6
CONTINUOUS
 62
    7
 10
232.67809791832298
 20
251.72325489896446
 11
230.67809791832298
 21
251.72325489896446
  0
LINE
  8
_1-6_
  6
CONTINUOUS
 62
    7
 10
80.678097918322976
 20
251.72325489896446
 11
80.678097918322976
 21
237.52325489896447
  0
LINE
  8
_1-6_
  6
CONTINUOUS
 62
    7
 10
80.678097918322976
 20
237.52325489896447
 11
78.678097918322976
 21
237.52325489896447
  0
LINE
  8
_1-6_
  6
CONTINUOUS
 62
    7
 10
78.678097918322976
 20
251.72325489896446
 11
78.678097918322976
 21
237.52325489896447
  0
LINE
  8
_1-6_
  6
CONTINUOUS
 62
    7
 10
80.678097918322976
 20
251.72325489896446
 11
78.678097918322976
 21
251.72325489896446
  0
LINE
  8
_1-6_
  6
CONTINUOUS
 62
    7
 10
232.67809791832298
 20
218.00448925263316
 11
232.67809791832298
 21
205.30954687363317
  0
LINE
  8
_1-6_
  6
CONTINUOUS
 62
    7
 10
230.67809791832298
 20
218.00448925263316
 11
232.67809791832298
 21
218.00448925263316
  0
LINE
  8
_1-6_
  6
CONTINUOUS
 62
    7
 10
230.67809791832298
 20
218.00448925263316
 11
230.67809791832298
 21
205.30954687363317
  0
LINE
  8
_1-6_
  6
CONTINUOUS
 62
    7
 10
230.67809791832298
 20
205.30954687363317
 11
232.67809791832298
 21
205.30954687363317
  0
LINE
  8
_1-6_
  6
CONTINUOUS
 62
    7
 10
80.678097918322976
 20
218.00448925263316
 11
80.678097918322976
 21
205.30954687363317
  0
LINE
  8
_1-6_
  6
CONTINUOUS
 62
    7
 10
78.678097918322976
 20
218.00448925263316
 11
80.678097918322976
 21
218.00448925263316
  0
LINE
  8
_1-6_
  6
CONTINUOUS
 62
    7
 10
78.678097918322976
 20
218.00448925263316
 11
78.678097918322976
 21
205.30954687363317
  0
LINE
  8
_1-6_
  6
CONTINUOUS
 62
    7
 10
78.678097918322976
 20
205.30954687363317
 11
80.678097918322976
 21
205.30954687363317
  0
LINE
  8
_1-1_
  6
CONTINUOUS
 62
    7
 10
80.678097918322976
 20
251.92325490146669
 11
153.47023562167652
 21
251.92325490146669
  0
LINE
  8
_1-1_
  6
CONTINUOUS
 62
    7
 10
155.24930631526405
 20
251.92325490146669
 11
230.67809791832298
 21
251.92325490146669
  0
LINE
  8
_1-1_
  6
CONTINUOUS
 62
    7
 10
80.678097918322976
 20
237.2232549014667
 11
155.97864813310599
 21
237.2232549014667
  0
LINE
  8
_1-1_
  6
CONTINUOUS
 62
    7
 10
157.75771882669397
 20
237.2232549014667
 11
230.67809791832298
 21
237.2232549014667
  0
LINE
  8
_1-1_
  6
CONTINUOUS
 62
    7
 10
80.678097918322976
 20
216.70954687146667
 11
153.40793171005936
 21
216.70954687146667
  0
LINE
  8
_1-1_
  6
CONTINUOUS
 62
    7
 10
155.18767495868207
 20
216.70954687146667
 11
230.67809791832298
 21
216.70954687146667
  0
LINE
  8
_1-1_
  6
CONTINUOUS
 62
    7
 10
80.678097918322976
 20
213.2095468684667
 11
153.73859571854774
 21
213.2095468684667
  0
LINE
  8
_1-1_
  6
CONTINUOUS
 62
    7
 10
155.51833896717
 20
213.2095468684667
 11
230.67809791832298
 21
213.2095468684667
  0
LINE
  8
_1-1_
  6
CONTINUOUS
 62
    7
 10
80.678097918322976
 20
212.4595468689667
 11
154.12746705919545
 21
212.4595468689667
  0
LINE
  8
_1-1_
  6
CONTINUOUS
 62
    7
 10
155.90721030781771
 20
212.4595468689667
 11
230.67809791832298
 21
212.4595468689667
  0
LINE
  8
_1-1_
  6
CONTINUOUS
 62
    7
 10
80.678097918322976
 20
208.2095468689667
 11
156.18880147379315
 21
208.2095468689667
  0
LINE
  8
_1-1_
  6
CONTINUOUS
 62
    7
 10
157.96854472241586
 20
208.2095468689667
 11
230.67809791832298
 21
208.2095468689667
  0
LINE
  8
_1-1_
  6
CONTINUOUS
 62
    7
 10
80.678097918322976
 20
207.90954686896669
 11
156.20201365894292
 21
207.90954686896669
  0
LINE
  8
_1-1_
  6
CONTINUOUS
 62
    7
 10
157.98175690756563
 20
207.90954686896669
 11
230.67809791832298
 21
207.90954686896669
  0
LINE
  8
_1-1_
  6
CONTINUOUS
 62
    7
 10
80.678097918322976
 20
207.60954686896667
 11
156.19955813334337
 21
207.60954686896667
  0
LINE
  8
_1-1_
  6
CONTINUOUS
 62
    7
 10
157.97930138196563
 20
207.60954686896667
 11
230.67809791832298
 21
207.60954686896667
  0
LINE
  8
_1-1_
  6
CONTINUOUS
 62
    7
 10
80.678097918322976
 20
206.90954686896669
 11
156.13254172587978
 21
206.90954686896669
  0
LINE
  8
_1-1_
  6
CONTINUOUS
 62
    7
 10
157.91228497450248
 20
206.90954686896669
 11
230.67809791832298
 21
206.90954686896669
  0
LINE
  8
_1-1_
  6
CONTINUOUS
 62
    7
 10
80.678097918322976
 20
205.00954687146668
 11
155.47691878789311
 21
205.00954687146668
  0
LINE
  8
_1-1_
  6
CONTINUOUS
 62
    7
 10
157.25666203651582
 20
205.00954687146668
 11
230.67809791832298
 21
205.00954687146668
  0
LINE
  8
_1-5_
  6
CONTINUOUS
 62
    7
 10
294.78528004317405
 20
244.97068620316622
 11
295.43479909601257
 21
244.59568620316622
  0
LINE
  8
_1-5_
  6
CONTINUOUS
 62
    7
 10
295.43479909601257
 20
244.59568620316622
 11
294.33480062189147
 21
242.69043295774031
  0
LINE
  8
_1-5_
  6
CONTINUOUS
 62
    7
 10
294.33480062189147
 20
242.69043295774031
 11
293.68528156905296
 21
243.06543295774031
  0
LINE
  8
_1-5_
  6
CONTINUOUS
 62
    7
 10
293.68528156905296
 20
243.06543295774031
 11
294.78528004317405
 21
244.97068620316622
  0
LINE
  8
_1-5_
  6
CONTINUOUS
 62
    7
 10
296.63479604425476
 20
246.67414188644921
 11
297.6494976086945
 21
246.08830366507277
  0
LINE
  8
_1-5_
  6
CONTINUOUS
 62
    7
 10
297.87380816757451
 20
245.62016162820169
 11
294.52044185689994
 21
239.8119608017239
  0
LINE
  8
_1-5_
  6
CONTINUOUS
 62
    7
 10
294.52044185689994
 20
239.8119608017239
 11
293.20997520887414
 21
240.56855907372551
  0
LINE
  8
_1-5_
  6
CONTINUOUS
 62
    7
 10
293.20997520887414
 20
240.74217819275032
 11
296.63479604425476
 21
246.67414188644921
  0
LINE
  8
_1-9_
  6
DASHED3
 62
    7
 10
51.702310897255131
 20
212.40953937063318
 11
63.702310897255131
 21
212.40953937063318
  0
LINE
  8
_1-9_
  6
DASHED3
 62
    7
 10
51.702310897255131
 20
210.40953937063318
 11
63.702310897255131
 21
210.40953937063318
  0
LINE
  8
_1-9_
  6
DASHED3
 62
    7
 10
51.702310897255131
 20
246.57325489896448
 11
63.702310897255131
 21
246.57325489896448
  0
LINE
  8
_1-9_
  6
DASHED3
 62
    7
 10
51.702310897255131
 20
242.57325489896448
 11
63.702310897255131
 21
242.57325489896448
  0
LINE
  8
_1-9_
  6
DASHED3
 62
    7
 10
51.702310897255131
 20
244.57325489896448
 11
63.702310897255131
 21
244.57325489896448
  0
ARC
  8
_1-9_
  6
CONTINUOUS
 62
    7
 10
34.339326208206842
 20
214.86928338789988
 40
0.5
 50
0.0000000000065137
 51
90.000000000004917
  0
LINE
  8
_1-9_
  6
CONTINUOUS
 62
    7
 10
34.339326208206842
 20
215.36928338789966
 11
26.839326208206842
 21
215.36928338789966
  0
LINE
  8
_1-9_
  6
CONTINUOUS
 62
    7
 10
34.839326208206842
 20
208.36928338789971
 11
34.839326208206842
 21
214.86928338789988
  0
ARC
  8
_1-9_
  6
CONTINUOUS
 62
    7
 10
34.339326208206842
 20
208.36928338789971
 40
0.5
 50
269.99999999999801
 51
0.0000000000061448
  0
LINE
  8
_1-9_
  6
CONTINUOUS
 62
    7
 10
26.839326208206842
 20
207.86928338789971
 11
34.339326208206842
 21
207.86928338789971
  0
LINE
  8
_1-9_
  6
CONTINUOUS
 62
    7
 10
30.839326208206842
 20
206.6240093554909
 11
41.039326208206887
 21
206.6240093554909
  0
ARC
  8
_1-9_
  6
CONTINUOUS
 62
    7
 10
34.953168558370464
 20
207.94708821404174
 40
0.2999999999999993
 50
269.9999999999942
 51
0.0000000000104703
  0
LINE
  8
_1-9_
  6
CONTINUOUS
 62
    7
 10
35.253168558370419
 20
207.94708821404174
 11
35.253168558370419
 21
209.3192833878997
  0
LINE
  8
_1-9_
  6
CONTINUOUS
 62
    7
 10
30.839326208206842
 20
207.64708821404179
 11
34.953168558370464
 21
207.64708821404179
  0
ARC
  8
_1-9_
  6
CONTINUOUS
 62
    7
 10
37.053168558370373
 20
208.5192833878998
 40
0.8
 50
89.999999999999915
 51
179.99999999999983
  0
LINE
  8
_1-9_
  6
CONTINUOUS
 62
    7
 10
36.253168558370419
 20
208.44708821404174
 11
36.253168558370419
 21
208.5192833878998
  0
LINE
  8
_1-9_
  6
CONTINUOUS
 62
    7
 10
34.839326208206842
 20
209.3192833878997
 11
45.039326208206887
 21
209.3192833878997
  0
ARC
  8
_1-9_
  6
CONTINUOUS
 62
    7
 10
37.053168558370373
 20
208.44708821404174
 40
0.8
 50
179.99999999999983
 51
269.99999999999977
  0
LINE
  8
_1-9_
  6
CONTINUOUS
 62
    7
 10
37.053168558370373
 20
207.64708821404179
 11
37.932796635283751
 21
207.64708821404179
  0
LINE
  8
_1-9_
  6
CONTINUOUS
 62
    7
 10
41.039326208206887
 20
206.6240093554909
 11
37.932796635283751
 21
207.64708821404179
  0
LINE
  8
_1-9_
  6
CONTINUOUS
 62
    7
 10
45.039326208206887
 20
209.3192833878997
 11
45.039326208206887
 21
214.36928338789966
  0
ARC
  8
_1-9_
  6
CONTINUOUS
 62
    7
 10
27.220548280450259
 20
211.36928338789966
 40
0.2499999999999998
 50
89.999999999999915
 51
180.00000000001268
  0
LINE
  8
_1-9_
  6
CONTINUOUS
 62
    7
 10
30.139326208206796
 20
211.61928338789966
 11
27.220548280450259
 21
211.61928338789966
  0
ARC
  8
_1-9_
  6
CONTINUOUS
 62
    7
 10
27.220548280450259
 20
211.36928338789966
 40
0.2499999999999998
 50
179.99999999999983
 51
269.99999999999977
  0
LINE
  8
_1-9_
  6
CONTINUOUS
 62
    7
 10
27.220548280450259
 20
211.11928338789966
 11
30.139326208206796
 21
211.11928338789988
  0
LINE
  8
_1-9_
  6
CONTINUOUS
 62
    7
 10
43.939326208206978
 20
214.36928338789966
 11
45.039326208206887
 21
214.36928338789966
  0
LINE
  8
_1-9_
  6
CONTINUOUS
 62
    7
 10
43.939326208206978
 20
213.91928338789984
 11
43.939326208206978
 21
214.36928338789966
  0
LINE
  8
_1-9_
  6
CONTINUOUS
 62
    7
 10
34.839326208206842
 20
213.91928338789984
 11
43.939326208206978
 21
213.91928338789984
  0
LINE
  8
_1-9_
  6
CONTINUOUS
 62
    7
 10
26.839326208206842
 20
213.91928338789984
 11
26.839326208206842
 21
215.36928338789966
  0
LINE
  8
_1-9_
  6
CONTINUOUS
 62
    7
 10
26.839326208206842
 20
207.86928338789971
 11
26.839326208206842
 21
209.3192833878997
  0
LINE
  8
_1-9_
  6
CONTINUOUS
 62
    7
 10
30.139326208206796
 20
213.91928338789984
 11
26.839326208206842
 21
213.91928338789984
  0
LINE
  8
_1-9_
  6
CONTINUOUS
 62
    7
 10
30.139326208206796
 20
209.3192833878997
 11
30.139326208206796
 21
213.91928338789984
  0
LINE
  8
_1-9_
  6
CONTINUOUS
 62
    7
 10
26.839326208206842
 20
209.3192833878997
 11
30.139326208206796
 21
209.3192833878997
  0
LINE
  8
_1-9_
  6
CONTINUOUS
 62
    7
 10
30.839326208206842
 20
206.16928338789967
 11
30.839326208206842
 21
207.64708821404179
  0
LINE
  8
_1-9_
  6
CONTINUOUS
 62
    7
 10
30.839326208206842
 20
206.16928338789967
 11
41.039326208206887
 21
206.16928338789967
  0
LINE
  8
_1-9_
  6
CONTINUOUS
 62
    7
 10
261.2256549333427
 20
215.36928338790131
 11
261.2256549333427
 21
214.01928338790117
  0
LINE
  8
_1-9_
  6
CONTINUOUS
 62
    7
 10
259.7256549333427
 20
215.36928338790131
 11
261.2256549333427
 21
215.36928338790131
  0
LINE
  8
_1-9_
  6
CONTINUOUS
 62
    7
 10
259.7256549333427
 20
215.36928338790131
 11
259.7256549333427
 21
207.86928338790131
  0
LINE
  8
_1-9_
  6
CONTINUOUS
 62
    7
 10
270.43231196592143
 20
208.11928338790131
 11
271.42565493334251
 21
209.21928338790121
  0
LINE
  8
_1-9_
  6
CONTINUOUS
 62
    7
 10
269.92565493334251
 20
209.21928338790121
 11
269.92565493334251
 21
208.11928338790131
  0
LINE
  8
_1-9_
  6
CONTINUOUS
 62
    7
 10
261.2256549333427
 20
209.21928338790121
 11
271.42565493334251
 21
209.21928338790121
  0
LINE
  8
_1-9_
  6
CONTINUOUS
 62
    7
 10
261.2256549333427
 20
207.86928338790131
 11
261.2256549333427
 21
209.21928338790121
  0
LINE
  8
_1-9_
  6
CONTINUOUS
 62
    7
 10
261.2256549333427
 20
214.01928338790117
 11
271.42565493334251
 21
214.01928338790117
  0
LINE
  8
_1-9_
  6
CONTINUOUS
 62
    7
 10
271.42565493334251
 20
214.01928338790117
 11
271.42565493334251
 21
209.21928338790121
  0
LINE
  8
_1-9_
  6
CONTINUOUS
 62
    7
 10
269.92565493334251
 20
208.11928338790131
 11
270.43231196592143
 21
208.11928338790131
  0
LINE
  8
_1-9_
  6
CONTINUOUS
 62
    7
 10
259.7256549333427
 20
207.86928338790131
 11
261.2256549333427
 21
207.86928338790131
  0
LINE
  8
_1-9_
  6
CONTINUOUS
 62
    7
 10
268.32417293334248
 20
213.56928338790112
 11
268.32417293334248
 21
209.66928338790126
  0
LINE
  8
_1-9_
  6
CONTINUOUS
 62
    7
 10
262.83742393334279
 20
213.56928338790112
 11
262.83742393334279
 21
209.66928338790126
  0
LINE
  8
_1-9_
  6
CONTINUOUS
 62
    7
 10
263.13742393334252
 20
213.56928338790112
 11
263.13742393334252
 21
209.66928338790126
  0
LINE
  8
_1-9_
  6
CONTINUOUS
 62
    7
 10
263.4374239333427
 20
213.56928338790112
 11
263.4374239333427
 21
209.66928338790126
  0
LINE
  8
_1-9_
  6
CONTINUOUS
 62
    7
 10
263.73742393334243
 20
213.56928338790112
 11
263.73742393334243
 21
209.66928338790126
  0
LINE
  8
_1-9_
  6
CONTINUOUS
 62
    7
 10
264.03742393334261
 20
213.56928338790112
 11
264.03742393334261
 21
209.66928338790126
  0
LINE
  8
_1-9_
  6
CONTINUOUS
 62
    7
 10
264.33742393334234
 20
213.56928338790112
 11
264.33742393334234
 21
209.66928338790126
  0
LINE
  8
_1-9_
  6
CONTINUOUS
 62
    7
 10
264.63742393334252
 20
213.56928338790112
 11
264.63742393334252
 21
209.66928338790126
  0
LINE
  8
_1-9_
  6
CONTINUOUS
 62
    7
 10
264.93742393334225
 20
213.56928338790112
 11
264.93742393334225
 21
209.66928338790126
  0
LINE
  8
_1-9_
  6
CONTINUOUS
 62
    7
 10
265.23742393334243
 20
213.56928338790112
 11
265.23742393334243
 21
209.66928338790126
  0
LINE
  8
_1-9_
  6
CONTINUOUS
 62
    7
 10
265.53742393334215
 20
213.56928338790112
 11
265.53742393334215
 21
209.66928338790126
  0
LINE
  8
_1-9_
  6
CONTINUOUS
 62
    7
 10
265.83742393334234
 20
213.56928338790112
 11
265.83742393334234
 21
209.66928338790126
  0
LINE
  8
_1-9_
  6
CONTINUOUS
 62
    7
 10
266.13742393334206
 20
213.56928338790112
 11
266.13742393334206
 21
209.66928338790126
  0
LINE
  8
_1-9_
  6
CONTINUOUS
 62
    7
 10
262.63742393334206
 20
209.66928338790126
 11
262.63742393334206
 21
213.56928338790112
  0
LINE
  8
_1-9_
  6
CONTINUOUS
 62
    7
 10
268.32417293334248
 20
209.66928338790126
 11
262.42157993334223
 21
209.66928338790126
  0
LINE
  8
_1-9_
  6
CONTINUOUS
 62
    7
 10
262.42157993334223
 20
213.56928338790112
 11
268.32417293334248
 21
213.56928338790112
  0
ARC
  8
_1-9_
  6
CONTINUOUS
 62
    7
 10
33.839326208206614
 20
247.57325489896431
 40
1
 50
0.0000000000032568
 51
89.999999999999929
  0
LINE
  8
_1-9_
  6
CONTINUOUS
 62
    7
 10
34.839326208206614
 20
241.57325489896431
 11
34.839326208206614
 21
247.57325489896431
  0
ARC
  8
_1-9_
  6
CONTINUOUS
 62
    7
 10
33.839326208206614
 20
241.57325489896431
 40
1
 50
269.99999999999977
 51
359.99999999999636
  0
LINE
  8
_1-9_
  6
CONTINUOUS
 62
    7
 10
33.839326208206614
 20
248.57325489896408
 11
26.839326208206614
 21
248.57325489896408
  0
LINE
  8
_1-9_
  6
CONTINUOUS
 62
    7
 10
26.839326208206614
 20
240.57325489896431
 11
26.839326208206614
 21
248.57325489896408
  0
LINE
  8
_1-9_
  6
CONTINUOUS
 62
    7
 10
26.839326208206614
 20
240.57325489896431
 11
33.839326208206614
 21
240.57325489896431
  0
LINE
  8
_1-9_
  6
CONTINUOUS
 62
    7
 10
45.039326208206887
 20
247.32325489896431
 11
34.839326208206614
 21
247.32325489896431
  0
LINE
  8
_1-9_
  6
CONTINUOUS
 62
    7
 10
34.839326208206614
 20
241.82325489896431
 11
45.039326208206887
 21
241.82325489896431
  0
LINE
  8
_1-9_
  6
CONTINUOUS
 62
    7
 10
43.939326208206978
 20
241.82325489896431
 11
43.939326208206978
 21
247.32325489896431
  0
LINE
  8
_1-9_
  6
CONTINUOUS
 62
    7
 10
45.039326208206887
 20
241.82325489896431
 11
45.039326208206887
 21
247.32325489896431
  0
LINE
  8
_1-9_
  6
CONTINUOUS
 62
    7
 10
271.42583293334229
 20
241.57325489896436
 11
271.42583293334229
 21
247.57325489896442
  0
LINE
  8
_1-9_
  6
CONTINUOUS
 62
    7
 10
267.22583293334202
 20
245.17325489896433
 11
267.22583293334202
 21
246.37325489896415
  0
LINE
  8
_1-9_
  6
CONTINUOUS
 62
    7
 10
267.22583293334202
 20
242.77325489896447
 11
267.22583293334202
 21
243.97325489896429
  0
LINE
  8
_1-9_
  6
CONTINUOUS
 62
    7
 10
267.22583293334202
 20
242.77325489896447
 11
271.42583293334229
 21
242.77325489896447
  0
LINE
  8
_1-9_
  6
CONTINUOUS
 62
    7
 10
267.22583293334202
 20
243.97325489896429
 11
271.42583293334229
 21
243.97325489896429
  0
LINE
  8
_1-9_
  6
CONTINUOUS
 62
    7
 10
267.22583293334202
 20
245.17325489896433
 11
271.42583293334229
 21
245.17325489896433
  0
LINE
  8
_1-9_
  6
CONTINUOUS
 62
    7
 10
267.22583293334202
 20
246.37325489896415
 11
271.42583293334229
 21
246.37325489896415
  0
LINE
  8
_1-9_
  6
CONTINUOUS
 62
    7
 10
265.84269393334199
 20
248.76901889896425
 11
262.42175793334201
 21
248.59207389896432
  0
LINE
  8
_1-9_
  6
CONTINUOUS
 62
    7
 10
262.42175793334201
 20
248.59207389896432
 11
266.1376019333423
 21
249.91916089896444
  0
LINE
  8
_1-9_
  6
CONTINUOUS
 62
    7
 10
267.55611393334203
 20
247.57325489896442
 11
265.84269393334199
 21
248.76901889896425
  0
LINE
  8
_1-9_
  6
CONTINUOUS
 62
    7
 10
266.1376019333423
 20
249.91916089896444
 11
268.32435093334226
 21
247.57325489896442
  0
LINE
  8
_1-9_
  6
CONTINUOUS
 62
    7
 10
266.1376019333423
 20
239.22734889896435
 11
268.32435093334226
 21
241.57325489896436
  0
LINE
  8
_1-9_
  6
CONTINUOUS
 62
    7
 10
262.42175793334201
 20
240.55443689896435
 11
266.1376019333423
 21
239.22734889896435
  0
LINE
  8
_1-9_
  6
CONTINUOUS
 62
    7
 10
265.84269393334199
 20
240.37749189896419
 11
262.42175793334201
 21
240.55443689896435
  0
LINE
  8
_1-9_
  6
CONTINUOUS
 62
    7
 10
267.55611393334203
 20
241.57325489896436
 11
265.84269393334199
 21
240.37749189896419
  0
LINE
  8
_1-9_
  6
CONTINUOUS
 62
    7
 10
259.72583293334247
 20
243.37325489896415
 11
259.72583293334247
 21
244.57325489896442
  0
LINE
  8
_1-9_
  6
CONTINUOUS
 62
    7
 10
259.72583293334247
 20
241.57325489896436
 11
259.72583293334247
 21
247.57325489896442
  0
LINE
  8
_1-9_
  6
CONTINUOUS
 62
    7
 10
259.72583293334247
 20
247.57325489896442
 11
271.42583293334229
 21
247.57325489896442
  0
LINE
  8
_1-9_
  6
CONTINUOUS
 62
    7
 10
271.42583293334229
 20
241.57325489896436
 11
259.72583293334247
 21
241.57325489896436
  0
LINE
  8
_1-9_
  6
CONTINUOUS
 62
    7
 10
261.22583293334293
 20
241.57325489896436
 11
261.22583293334293
 21
247.57325489896442
  0
LINE
  8
_1-9_
  6
CONTINUOUS
 62
    7
 10
45.039326208206887
 20
210.40953937063318
 11
51.702310897255131
 21
210.40953937063318
  0
LINE
  8
_1-9_
  6
CONTINUOUS
 62
    7
 10
45.039326208206887
 20
212.40953937063318
 11
51.702310897255131
 21
212.40953937063318
  0
LINE
  8
_1-9_
  6
CONTINUOUS
 62
    7
 10
51.702310897255131
 20
212.40953937063318
 11
51.702310897255131
 21
210.40953937063318
  0
LINE
  8
_1-9_
  6
CONTINUOUS
 62
    7
 10
63.702310897255131
 20
212.40953937063318
 11
63.702310897255131
 21
210.40953937063318
  0
ARC
  8
_1-9_
  6
CONTINUOUS
 62
    7
 10
73.540060144969459
 20
212.32756514539346
 40
1.8389692227722536
 50
138.18998718261719
 51
221.80999755859375
  0
ARC
  8
_1-9_
  6
CONTINUOUS
 62
    7
 10
70.798770023556983
 20
209.87560618169709
 40
1.8389692227722536
 50
318.18998718261713
 51
41.809997558593693
  0
ARC
  8
_1-9_
  6
CONTINUOUS
 62
    7
 10
72.31408066312116
 20
212.32756514539346
 40
1.8389692227722536
 50
138.18998718261719
 51
221.80999755859375
  0
ARC
  8
_1-9_
  6
CONTINUOUS
 62
    7
 10
69.572790541708684
 20
209.87560618169709
 40
1.8389692227722536
 50
318.18998718261713
 51
41.809997558593693
  0
LINE
  8
_1-9_
  6
CONTINUOUS
 62
    7
 10
63.702310897255131
 20
212.40953937063318
 11
70.476939397812487
 21
212.40953937063318
  0
LINE
  8
_1-9_
  6
CONTINUOUS
 62
    7
 10
71.702918879660785
 20
212.40953937063318
 11
78.678097918322521
 21
212.40953937063318
  0
LINE
  8
_1-9_
  6
CONTINUOUS
 62
    7
 10
63.702310897255131
 20
210.40953937063318
 11
71.332541419547681
 21
210.40953937063318
  0
LINE
  8
_1-9_
  6
CONTINUOUS
 62
    7
 10
72.55852090139598
 20
210.40953937063318
 11
78.678097918322521
 21
210.40953937063318
  0
ARC
  8
_1-9_
  6
CONTINUOUS
 62
    7
 10
248.98086766789203
 20
212.32756514539346
 40
1.8389692227722536
 50
138.18998718261719
 51
221.80999755859375
  0
ARC
  8
_1-9_
  6
CONTINUOUS
 62
    7
 10
246.23957754647955
 20
209.87560618169709
 40
1.8389692227722536
 50
318.18998718261713
 51
41.809997558593693
  0
ARC
  8
_1-9_
  6
CONTINUOUS
 62
    7
 10
247.75488818604373
 20
212.32756514539346
 40
1.8389692227722536
 50
138.18998718261719
 51
221.80999755859375
  0
ARC
  8
_1-9_
  6
CONTINUOUS
 62
    7
 10
245.01359806463125
 20
209.87560618169709
 40
1.8389692227722536
 50
318.18998718261713
 51
41.809997558593693
  0
LINE
  8
_1-9_
  6
CONTINUOUS
 62
    7
 10
232.67809791832298
 20
212.40953937063318
 11
245.91774692073506
 21
212.40953937063318
  0
LINE
  8
_1-9_
  6
CONTINUOUS
 62
    7
 10
247.14372640258335
 20
212.40953937063318
 11
259.72583293334247
 21
212.40953937063318
  0
LINE
  8
_1-9_
  6
CONTINUOUS
 62
    7
 10
232.67809791832298
 20
210.40953937063318
 11
246.77334894247025
 21
210.40953937063318
  0
LINE
  8
_1-9_
  6
CONTINUOUS
 62
    7
 10
247.99932842431855
 20
210.40953937063318
 11
259.72583293334247
 21
210.40953937063318
  0
LINE
  8
_1-9_
  6
CONTINUOUS
 62
    7
 10
45.039326208206887
 20
246.57325489896448
 11
51.702310897255131
 21
246.57325489896448
  0
LINE
  8
_1-9_
  6
CONTINUOUS
 62
    7
 10
45.039326208206887
 20
244.57325489896448
 11
51.702310897255131
 21
244.57325489896448
  0
LINE
  8
_1-9_
  6
CONTINUOUS
 62
    7
 10
45.039326208206887
 20
242.57325489896448
 11
51.702310897255131
 21
242.57325489896448
  0
ARC
  8
_1-9_
  6
CONTINUOUS
 62
    7
 10
248.98086766789203
 20
245.79923438081255
 40
1.8389692227722536
 50
138.18998718261719
 51
221.80999755859375
  0
ARC
  8
_1-9_
  6
CONTINUOUS
 62
    7
 10
246.23957754647955
 20
243.34727541711641
 40
1.8389692227722536
 50
318.18998718261713
 51
41.809997558593693
  0
ARC
  8
_1-9_
  6
CONTINUOUS
 62
    7
 10
247.75488818604373
 20
245.79923438081255
 40
1.8389692227722536
 50
138.18998718261719
 51
221.80999755859375
  0
ARC
  8
_1-9_
  6
CONTINUOUS
 62
    7
 10
245.01359806463125
 20
243.34727541711641
 40
1.8389692227722536
 50
318.18998718261713
 51
41.809997558593693
  0
LINE
  8
_1-9_
  6
CONTINUOUS
 62
    7
 10
247.31272497621859
 20
246.57325489896448
 11
259.72583293334247
 21
246.57325489896448
  0
LINE
  8
_1-9_
  6
CONTINUOUS
 62
    7
 10
247.61017414751296
 20
244.57325489896448
 11
259.72583293334247
 21
244.57325489896448
  0
LINE
  8
_1-9_
  6
CONTINUOUS
 62
    7
 10
247.90772023815299
 20
242.57325489896448
 11
259.72583293334247
 21
242.57325489896448
  0
ARC
  8
_1-9_
  6
CONTINUOUS
 62
    7
 10
69.548390703835878
 20
245.79923438081255
 40
1.8389692227722536
 50
138.18998718261719
 51
221.80999755859375
  0
ARC
  8
_1-9_
  6
CONTINUOUS
 62
    7
 10
66.807100582423402
 20
243.34727541711641
 40
1.8389692227722536
 50
318.18998718261713
 51
41.809997558593693
  0
ARC
  8
_1-9_
  6
CONTINUOUS
 62
    7
 10
68.322411221987807
 20
245.79923438081255
 40
1.8389692227722536
 50
138.18998718261719
 51
221.80999755859375
  0
ARC
  8
_1-9_
  6
CONTINUOUS
 62
    7
 10
65.581121100575331
 20
243.34727541711641
 40
1.8389692227722536
 50
318.18998718261713
 51
41.809997558593693
  0
LINE
  8
_1-9_
  6
CONTINUOUS
 62
    7
 10
63.702310897255131
 20
246.57325489896448
 11
66.654268530314368
 21
246.57325489896448
  0
LINE
  8
_1-9_
  6
CONTINUOUS
 62
    7
 10
66.951717701608743
 20
244.57325489896448
 11
63.702310897255131
 21
244.57325489896448
  0
LINE
  8
_1-9_
  6
CONTINUOUS
 62
    7
 10
63.702310897255131
 20
242.57325489896448
 11
67.249263792248769
 21
242.57325489896448
  0
LINE
  8
_1-9_
  6
CONTINUOUS
 62
    7
 10
68.177794102802466
 20
244.57324730728942
 11
73.794024070087119
 21
244.57324730728942
  0
LINE
  8
_1-9_
  6
CONTINUOUS
 62
    7
 10
68.177794102802693
 20
244.57326249063954
 11
73.794024070087119
 21
244.57326249063954
  0
LINE
  8
_1-9_
  6
CONTINUOUS
 62
    7
 10
68.47524327409684
 20
242.57325489896448
 11
71.896474325594056
 21
242.57325489896448
  0
LINE
  8
_1-9_
  6
CONTINUOUS
 62
    7
 10
67.88024801216244
 20
246.57325489896448
 11
71.896474325593601
 21
246.57325489896448
  0
LINE
  8
_1-9_
  6
CONTINUOUS
 62
    7
 10
76.019579951211483
 20
247.57325489896448
 11
78.678097918322976
 21
247.57325489896448
  0
ARC
  8
_1-9_
  6
CONTINUOUS
 62
    7
 10
71.896474325593601
 20
250.57325489896448
 40
4
 50
270
 51
297.26604445073281
  0
ARC
  8
_1-9_
  6
CONTINUOUS
 62
    7
 10
76.019579951211483
 20
242.57325489896448
 40
5
 50
90
 51
117.26604445073281
  0
LINE
  8
_1-9_
  6
CONTINUOUS
 62
    7
 10
76.019579951211483
 20
241.57325489896448
 11
78.678097918322976
 21
241.57325489896448
  0
ARC
  8
_1-9_
  6
CONTINUOUS
 62
    7
 10
71.896474325594056
 20
238.57325489896448
 40
4
 50
62.733955549267179
 51
90
  0
ARC
  8
_1-9_
  6
CONTINUOUS
 62
    7
 10
76.019579951211483
 20
246.57325489896448
 40
5
 50
242.73395554926719
 51
270
  0
LINE
  8
_1-9_
  6
CONTINUOUS
 62
    7
 10
74.365833988978295
 20
244.90338191788669
 11
73.794024070087119
 21
244.57324730728942
  0
LINE
  8
_1-9_
  6
CONTINUOUS
 62
    7
 10
76.865833988978295
 20
245.57325489896448
 11
78.678097918322976
 21
245.57325489896448
  0
ARC
  8
_1-9_
  6
CONTINUOUS
 62
    7
 10
76.865833988978295
 20
240.57325489896448
 40
5
 50
90
 51
120.0000000000001
  0
LINE
  8
_1-9_
  6
CONTINUOUS
 62
    7
 10
74.36583398897875
 20
244.24312788004227
 11
73.794024070087119
 21
244.57326249063954
  0
LINE
  8
_1-9_
  6
CONTINUOUS
 62
    7
 10
76.86583398897875
 20
243.57325489896448
 11
78.678097918322976
 21
243.57325489896448
  0
ARC
  8
_1-9_
  6
CONTINUOUS
 62
    7
 10
76.86583398897875
 20
248.57325489896448
 40
5
 50
239.99999999999994
 51
270
  0
LINE
  8
_1-9_
  6
CONTINUOUS
 62
    7
 10
235.33661588543401
 20
247.57325489896448
 11
232.67809791832252
 21
247.57325489896448
  0
ARC
  8
_1-9_
  6
CONTINUOUS
 62
    7
 10
239.45972151105144
 20
250.57325489896448
 40
4
 50
242.73395554926719
 51
270
  0
ARC
  8
_1-9_
  6
CONTINUOUS
 62
    7
 10
235.33661588543401
 20
242.57325489896448
 40
5
 50
62.733955549267193
 51
90
  0
LINE
  8
_1-9_
  6
CONTINUOUS
 62
    7
 10
235.33661588543401
 20
241.57325489896448
 11
232.67809791832252
 21
241.57325489896448
  0
ARC
  8
_1-9_
  6
CONTINUOUS
 62
    7
 10
239.45972151105144
 20
238.57325489896448
 40
4
 50
90
 51
117.26604445073281
  0
ARC
  8
_1-9_
  6
CONTINUOUS
 62
    7
 10
235.33661588543401
 20
246.57325489896448
 40
5
 50
270
 51
297.26604445073281
  0
LINE
  8
_1-9_
  6
CONTINUOUS
 62
    7
 10
236.99036184766675
 20
244.90338191788669
 11
237.56217176655838
 21
244.57324730728942
  0
LINE
  8
_1-9_
  6
CONTINUOUS
 62
    7
 10
234.49036184766675
 20
245.57325489896448
 11
232.67809791832252
 21
245.57325489896448
  0
ARC
  8
_1-9_
  6
CONTINUOUS
 62
    7
 10
234.49036184766675
 20
240.57325489896448
 40
5
 50
59.999999999999908
 51
90
  0
LINE
  8
_1-9_
  6
CONTINUOUS
 62
    7
 10
236.99036184766675
 20
244.24312788004227
 11
237.56217176655838
 21
244.57326249063954
  0
LINE
  8
_1-9_
  6
CONTINUOUS
 62
    7
 10
234.49036184766675
 20
243.57325489896448
 11
232.67809791832252
 21
243.57325489896448
  0
ARC
  8
_1-9_
  6
CONTINUOUS
 62
    7
 10
234.49036184766675
 20
248.57325489896448
 40
5
 50
270
 51
300.00000000000006
  0
LINE
  8
_1-9_
  6
CONTINUOUS
 62
    7
 10
246.53173932138253
 20
246.57325489896448
 11
239.45972151105144
 21
246.57325489896448
  0
LINE
  8
_1-9_
  6
CONTINUOUS
 62
    7
 10
246.38419466566467
 20
244.57324730728942
 11
237.56217176655838
 21
244.57324730728942
  0
LINE
  8
_1-9_
  6
CONTINUOUS
 62
    7
 10
246.38419466566467
 20
244.57326249063954
 11
237.56217176655838
 21
244.57326249063954
  0
LINE
  8
_1-9_
  6
CONTINUOUS
 62
    7
 10
246.68174075630469
 20
242.57325489896448
 11
239.45972151105144
 21
242.57325489896448
  0
LINE
  8
_1-9_
  6
CONTINUOUS
 62
    7
 10
41.039326208206887
 20
206.6240093554909
 11
41.039326208206887
 21
206.16928338789967
  0
LINE
  8
_1-9_
  6
CONTINUOUS
 62
    7
 10
262.42157993334223
 20
213.56928338790112
 11
262.42157993334223
 21
209.66928338790126
  0
TEXT
  8
_1-a_
 62
    7
 10
60.202310897255131
 20
250.48198049211419
 40
2.5
 41
1
 50
90
  1
FKK(株)
  0
TEXT
  8
_1-a_
 62
    7
 10
62.702310897255131
 20
250.48198049211419
 40
2.5
 41
1
 50
90
  1
DC24V　15.5W
  0
LINE
  8
_1-a_
  6
CONTINUOUS
 62
    7
 10
63.702310897255131
 20
275.48198049211419
 11
51.702310897255131
 21
275.48198049211419
  0
TEXT
  8
_1-a_
 62
    7
 10
57.702310897255131
 20
250.48198049211419
 40
2.5
 41
1
 50
90
  1
210517A1
  0
LINE
  8
_1-d_
  6
CONTINUOUS
 62
   18
 10
148.35079281389
 20
250.09139005991256
 11
154.9798796233602
 21
261.77120967659812
  0
LINE
  8
_1-d_
  6
CONTINUOUS
 62
   18
 10
263.14974057788851
 20
246.54886218818524
 11
257.67811337007225
 21
257.77271287088593
  0
LINE
  8
_1-d_
  6
CONTINUOUS
 62
   18
 10
32.797742582147578
 20
246.75054075514004
 11
36.585792187559321
 21
256.64155916927007
  0
LINE
  8
_1-d_
  6
CONTINUOUS
 62
   18
 10
163.59067756899486
 20
207.08124349846958
 11
171.79811838071947
 21
201.39916909035242
  0
TEXT
  8
_1-d_
 62
    7
 10
153.59368395757048
 20
261.84428162114705
 40
4
 41
1
 50
0
  1
①
  0
TEXT
  8
_1-d_
 62
    7
 10
171.70968045011733
 20
198.28630425257211
 40
4
 41
1
 50
0
  1
②
  0
TEXT
  8
_1-d_
 62
    7
 10
34.708553054401193
 20
256.36973153554845
 40
4
 41
1
 50
0
  1
③
  0
TEXT
  8
_1-d_
 62
    7
 10
255.73072517014708
 20
257.97439143784072
 40
4
 41
1
 50
0
  1
④
  0
LINE
  8
_1-d_
  6
CONTINUOUS
 62
   18
 10
62.014828890553019
 20
268.55813188629372
 11
68.608841166639706
 21
274.31035536117793
  0
LINE
  8
_1-d_
  6
CENTER2
 62
   18
 10
197.79508178945008
 20
255.76665427162538
 11
197.79508178945008
 21
233.37985552630357
  0
TEXT
  8
_1-d_
 62
    7
 10
199.01424133655956
 20
254.42737700885959
 40
4
 41
1
 50
0
  1
A
  0
TEXT
  8
_1-d_
 62
    7
 10
199.01424133655956
 20
230.6702263971431
 40
4
 41
1
 50
0
  1
A
  0
TEXT
  8
_1-d_
 62
    7
 10
68.2924187690449
 20
273.32826842644158
 40
4
 41
1
 50
0
  1
⑦
  0
LINE
  8
_1-d_
  6
CONTINUOUS
 62
   18
 10
79.92037818279897
 20
249.39537874887554
 11
75.290539776184971
 21
260.22793020772679
  0
LINE
  8
_1-d_
  6
CONTINUOUS
 62
   18
 10
231.24945246565022
 20
249.71969648766697
 11
236.01958900579785
 21
257.64995200404405
  0
TEXT
  8
_1-d_
 62
    7
 10
235.10689954068476
 20
257.76394423754004
 40
4
 41
1
 50
0
  1
⑤
  0
TEXT
  8
_1-d_
 62
    7
 10
73.641285110019282
 20
260.5786755415611
 40
4
 41
1
 50
0
  1
⑥
  0
LINE
  8
_1-d_
  6
CONTINUOUS
 62
    7
 10
198.96664024138846
 20
232.21626653353019
 11
197.79508178945008
 21
232.21626653353019
  0
LINE
  8
_1-d_
  6
CONTINUOUS
 62
    7
 10
197.79508178945008
 20
233.37985552630357
 11
197.79508178945008
 21
232.21626653353019
  0
LINE
  8
_1-d_
  6
CONTINUOUS
 62
    7
 10
198.96664024138846
 20
256.93024326439877
 11
197.79508178945008
 21
256.93024326439877
  0
LINE
  8
_1-d_
  6
CONTINUOUS
 62
    7
 10
197.79508178945008
 20
255.76665427162538
 11
197.79508178945008
 21
256.93024326439877
  0
TEXT
  8
_1-d_
 62
    7
 10
293.65761810862097
 20
230.62218603543187
 40
4
 41
1
 50
0
  1
⑧
  0
LINE
  8
_1-d_
  6
CONTINUOUS
 62
   18
 10
296.25519634418782
 20
241.9241662652841
 11
296.10626434340401
 21
234.71272201680284
  0
TEXT
  8
_1-f_
 62
    7
 10
116.49778966887411
 20
118.29614266091731
 40
4.5
 41
1
 50
0
  1
①本体フレーム
  0
TEXT
  8
_1-f_
 62
    7
 10
116.49778966887411
 20
112.79614266091731
 40
4.5
 41
1
 50
0
  1
②全長
  0
TEXT
  8
_1-f_
 62
    7
 10
116.49778966887411
 20
107.29614266091731
 40
4.5
 41
1
 50
0
  1
③LED発光色
  0
TEXT
  8
_1-f_
 62
    7
 10
116.49778966887411
 20
101.79614266091731
 40
4.5
 41
1
 50
0
  1
④演色性
  0
TEXT
  8
_1-f_
 62
    7
 10
116.49778966887411
 20
96.296142660917312
 40
4.5
 41
1
 50
0
  1
　記載なし：Ra80以上
  0
TEXT
  8
_1-f_
 62
    7
 10
116.49778966887411
 20
90.796142660917312
 40
4.5
 41
1
 50
0
  1
　　　　 Z：Ra95以上
  0
TEXT
  8
_1-f_
 62
    7
 10
29.788403953694626
 20
74.231547667917411
 40
4.5
 41
1
 50
0
  1
FGB-505-N-□A
  0
TEXT
  8
_1-f_
 62
    7
 10
29.788403953694626
 20
68.029547667917413
 40
4.5
 41
1
 50
0
  1
FGB-1000-N-□A
  0
TEXT
  8
_1-f_
 62
    7
 10
29.788403953694626
 20
61.827547667917415
 40
4.5
 41
1
 50
0
  1
FGB-1495-N-□A
  0
TEXT
  8
_1-f_
 62
    7
 10
29.788403953694626
 20
55.625547667917402
 40
4.5
 41
1
 50
0
  1
FGB-505-NZ-□A
  0
TEXT
  8
_1-f_
 62
    7
 10
29.788403953694626
 20
49.423547667917404
 40
4.5
 41
1
 50
0
  1
FGB-1000-NZ-□A
  0
TEXT
  8
_1-f_
 62
    7
 10
29.788403953694626
 20
43.221547667917406
 40
4.5
 41
1
 50
0
  1
FGB-1495-NZ-□A
  0
TEXT
  8
_0-0_
 62
    7
 10
313.25242920887405
 20
74.890314412939247
 40
3.5000000000000142
 41
0.9999999999999954
 50
0
  1
接続コネクター（出力側）
  0
TEXT
  8
_0-0_
 62
    7
 10
313.25242920887399
 20
69.89553312439206
 40
3.4999999999999289
 41
1.0000000000000202
 50
0
  1
接続コネクター（入力側）
  0
TEXT
  8
_0-0_
 62
    7
 10
322.28584070887405
 20
47.501616696061134
 40
4
 41
1.0000000000000009
 50
0
  1
難波
  0
TEXT
  8
_0-0_
 62
    7
 10
307.28582820887414
 20
47.501616696061134
 40
4
 41
1.0000000000000009
 50
0
  1
難波
  0
TEXT
  8
_0-0_
 62
    7
 10
353.65928081994718
 20
47.408528353794125
 40
3
 41
1
 50
0
  1
2021年5月17日
  0
LINE
  8
_1-0_
  6
CENTER2
 62
   18
 10
287.25349467633413
 20
244.57325489896465
 11
301.64502906786851
 21
244.57325489896465
  0
TEXT
  8
_0-0_
 62
    7
 10
366.24748670887402
 20
85.241548198938304
 40
2.5
 41
0.8800000000000001
 50
0
  1
PC　乳半色
  0
TEXT
  8
_0-0_
 62
    7
 10
366.24748670887402
 20
80.344732922450831
 40
2.5
 41
0.8800000000000001
 50
0
  1
PC　乳半色
  0
TEXT
  8
_0-0_
 62
    7
 10
362.74748670887402
 20
66.696923155201745
 40
2
 41
1
 50
0
  1
普通アルマイト加工
  0
TEXT
  8
_0-0_
 62
    7
 10
362.24748670887402
 20
64.430961955907208
 40
2
 41
1
 50
0
  1
アルミ : A6063SS-T5
  0
TEXT
  8
_1-f_
 62
    7
 10
353.53582420887415
 20
39.521550390733182
 40
4
 41
0.75
 50
0
  1
LEDラインモジュールシリーズ
  0
TEXT
  8
_1-f_
 62
    7
 10
362.78582420887415
 20
34.976310231454178
 40
4
 41
1
 50
0
  1
FGB-A仕様図
  0
TEXT
  8
_0-0_
 62
    7
 10
366.24748670887402
 20
60.232813036877275
 40
2.5
 41
0.8800000000000001
 50
0
  1
PC　乳半色
  0
TEXT
  8
_1-f_
 62
    7
 10
192.67579555047894
 20
43.221547667917406
 40
4.5
 41
1
 50
0
  1
23.8
  0
INSERT
  2
-000-MG
  8
_1-2_
 10
243.06031301741842
 20
159.18196854706076
 41
0.5
 42
0.5
 50
0
  0
INSERT
  2
-000-MG
  8
_1-2_
 10
243.06031301741842
 20
153.80005512877059
 41
0.5
 42
0.5
 50
0
  0
INSERT
  2
-000-MG
  8
_1-2_
 10
253.06031301741842
 20
159.18196854706076
 41
0.5
 42
0.5
 50
0
  0
INSERT
  2
-000-MG
  8
_1-2_
 10
253.06031301741842
 20
153.80005512877059
 41
0.5
 42
0.5
 50
0
  0
ARC
  8
_1-1_
  6
CONTINUOUS
 62
    7
 10
261.15511768265952
 20
154.04347998687803
 40
3.6712977765564734
 50
318.18998718261719
 51
41.80999755859375
  0
ARC
  8
_1-1_
  6
CONTINUOUS
 62
    7
 10
266.62779890157975
 20
158.93854368895333
 40
3.6712977765564734
 50
138.18998718261719
 51
221.80999755859372
  0
ARC
  8
_1-1_
  6
CONTINUOUS
 62
    7
 10
267.34778276764035
 20
158.93854368895333
 40
3.6712977765564734
 50
138.18998718261719
 51
221.80999755859372
  0
ARC
  8
_1-1_
  6
CONTINUOUS
 62
    7
 10
261.87510154872012
 20
154.04347998687803
 40
3.6712977765564734
 50
318.18998718261719
 51
41.80999755859375
  0
LINE
  8
_1-1_
  6
CONTINUOUS
 62
    7
 10
297.16923071378784
 20
160.72351293047086
 11
297.16923071378784
 21
152.2585107453605
  0
INSERT
  2
-000-MG
  8
_1-2_
 10
274.66923071378784
 20
159.18196854706076
 41
0.5
 42
0.5
 50
0
  0
INSERT
  2
-000-MG
  8
_1-2_
 10
274.66923071378784
 20
153.80005512877059
 41
0.5
 42
0.5
 50
0
  0
INSERT
  2
-000-MG
  8
_1-2_
 10
284.66923071378784
 20
159.18196854706076
 41
0.5
 42
0.5
 50
0
  0
INSERT
  2
-000-MG
  8
_1-2_
 10
284.66923071378784
 20
153.80005512877059
 41
0.5
 42
0.5
 50
0
  0
LINE
  8
_1-1_
  6
CONTINUOUS
 62
    7
 10
263.74256580741354
 20
159.63196854706075
 11
297.16923071378784
 21
159.63196854706075
  0
LINE
  8
_1-1_
  6
CONTINUOUS
 62
    7
 10
263.68230134292941
 20
158.73196854706075
 11
297.16923071378784
 21
158.73196854706075
  0
LINE
  8
_1-1_
  6
CONTINUOUS
 62
    7
 10
265.54058297343096
 20
154.25005512877061
 11
297.16923071378784
 21
154.25005512877061
  0
LINE
  8
_1-1_
  6
CONTINUOUS
 62
    7
 10
265.48031850894694
 20
153.35005512877061
 11
297.16923071378784
 21
153.35005512877061
  0
LINE
  8
_1-1_
  6
CONTINUOUS
 62
    7
 10
297.16923071378784
 20
152.2585107453605
 11
265.08326491285612
 21
152.2585107453605
  0
LINE
  8
_1-1_
  6
CONTINUOUS
 62
    7
 10
264.13961940350424
 20
160.72351293047086
 11
297.16923071378784
 21
160.72351293047086
  0
LINE
  8
_1-1_
  6
CONTINUOUS
 62
    7
 10
197.32190456081338
 20
152.2585107453605
 11
197.32190456081338
 21
160.72351293047086
  0
INSERT
  2
-000-MG
  8
_1-2_
 10
209.82190456081338
 20
159.18196854706076
 41
0.5
 42
0.5
 50
0
  0
INSERT
  2
-000-MG
  8
_1-2_
 10
209.82190456081338
 20
153.80005512877059
 41
0.5
 42
0.5
 50
0
  0
INSERT
  2
-000-MG
  8
_1-2_
 10
219.82190456081338
 20
159.18196854706076
 41
0.5
 42
0.5
 50
0
  0
INSERT
  2
-000-MG
  8
_1-2_
 10
219.82190456081338
 20
153.80005512877059
 41
0.5
 42
0.5
 50
0
  0
ARC
  8
_1-1_
  6
CONTINUOUS
 62
    7
 10
228.0140318060956
 20
154.04347998687803
 40
3.6712977765564734
 50
318.18998718261719
 51
41.80999755859375
  0
ARC
  8
_1-1_
  6
CONTINUOUS
 62
    7
 10
233.48671302501572
 20
158.93854368895333
 40
3.6712977765564734
 50
138.18998718261719
 51
221.80999755859372
  0
ARC
  8
_1-1_
  6
CONTINUOUS
 62
    7
 10
234.20669689107632
 20
158.93854368895333
 40
3.6712977765564734
 50
138.18998718261719
 51
221.80999755859372
  0
ARC
  8
_1-1_
  6
CONTINUOUS
 62
    7
 10
228.73401567215609
 20
154.04347998687803
 40
3.6712977765564734
 50
318.18998718261719
 51
41.80999755859375
  0
LINE
  8
_1-1_
  6
CONTINUOUS
 62
    7
 10
230.60147993084939
 20
159.63196854706075
 11
263.02258194135294
 21
159.63196854706075
  0
LINE
  8
_1-1_
  6
CONTINUOUS
 62
    7
 10
230.54121546636537
 20
158.73196854706075
 11
262.9623174768688
 21
158.73196854706075
  0
LINE
  8
_1-1_
  6
CONTINUOUS
 62
    7
 10
232.40136293716597
 20
154.25005512877061
 11
264.82059910737047
 21
154.25005512877061
  0
LINE
  8
_1-1_
  6
CONTINUOUS
 62
    7
 10
232.3392326323829
 20
153.35005512877061
 11
264.76033464288633
 21
153.35005512877061
  0
LINE
  8
_1-1_
  6
CONTINUOUS
 62
    7
 10
264.36328104679563
 20
152.2585107453605
 11
231.9421790362922
 21
152.2585107453605
  0
LINE
  8
_1-1_
  6
CONTINUOUS
 62
    7
 10
230.99853352694021
 20
160.72351293047086
 11
263.41963553744364
 21
160.72351293047086
  0
LINE
  8
_1-1_
  6
CONTINUOUS
 62
    7
 10
197.32190456081338
 20
159.63196854706075
 11
229.88149606478891
 21
159.63196854706075
  0
LINE
  8
_1-1_
  6
CONTINUOUS
 62
    7
 10
197.32190456081338
 20
158.73196854706075
 11
229.82123160030488
 21
158.73196854706075
  0
LINE
  8
_1-1_
  6
CONTINUOUS
 62
    7
 10
197.32190456081338
 20
154.25005512877061
 11
231.67951323080644
 21
154.25005512877061
  0
LINE
  8
_1-1_
  6
CONTINUOUS
 62
    7
 10
197.32190456081338
 20
153.35005512877061
 11
231.61924876632241
 21
153.35005512877061
  0
LINE
  8
_1-1_
  6
CONTINUOUS
 62
    7
 10
231.2221951702316
 20
152.2585107453605
 11
197.32190456081338
 21
152.2585107453605
  0
LINE
  8
_1-1_
  6
CONTINUOUS
 62
    7
 10
197.32190456081338
 20
160.72351293047086
 11
230.27854966087972
 21
160.72351293047086
  0
LINE
  8
_1-3_
  6
CONTINUOUS
 62
   18
 10
197.32190456081338
 20
166.30947544592399
 11
204.82190456081338
 21
166.30947544592399
  0
LINE
  8
_1-3_
  6
CONTINUOUS
 62
   18
 10
197.32190456081338
 20
166.30947544592399
 11
198.28783038710247
 21
166.56829449102651
  0
LINE
  8
_1-3_
  6
CONTINUOUS
 62
   18
 10
197.32190456081338
 20
166.30947544592399
 11
198.28783038710247
 21
166.05065640082148
  0
LINE
  8
_1-3_
  6
CONTINUOUS
 62
   18
 10
204.82190456081338
 20
166.30947544592399
 11
203.8559787345244
 21
166.05065640082148
  0
LINE
  8
_1-3_
  6
CONTINUOUS
 62
   18
 10
204.82190456081338
 20
166.30947544592399
 11
203.8559787345244
 21
166.56829449102651
  0
LINE
  8
_1-3_
  6
CONTINUOUS
 62
   18
 10
197.32190456081338
 20
166.80947544592399
 11
197.32190456081338
 21
161.72351293047086
  0
LINE
  8
_1-3_
  6
CONTINUOUS
 62
   18
 10
204.82190456081338
 20
166.80947544592399
 11
204.82190456081338
 21
160.63196854706075
  0
LINE
  8
_1-3_
  6
CONTINUOUS
 62
   18
 10
204.82190456081338
 20
166.30947544592399
 11
224.82190456081338
 21
166.30947544592399
  0
LINE
  8
_1-3_
  6
CONTINUOUS
 62
   18
 10
204.82190456081338
 20
166.30947544592399
 11
205.78783038710247
 21
166.56829449102651
  0
LINE
  8
_1-3_
  6
CONTINUOUS
 62
   18
 10
204.82190456081338
 20
166.30947544592399
 11
205.78783038710247
 21
166.05065640082148
  0
LINE
  8
_1-3_
  6
CONTINUOUS
 62
   18
 10
224.82190456081338
 20
166.30947544592399
 11
223.8559787345244
 21
166.05065640082148
  0
LINE
  8
_1-3_
  6
CONTINUOUS
 62
   18
 10
224.82190456081338
 20
166.30947544592399
 11
223.8559787345244
 21
166.56829449102651
  0
LINE
  8
_1-3_
  6
CONTINUOUS
 62
   18
 10
224.82190456081338
 20
166.80947544592399
 11
224.82190456081338
 21
160.63196854706075
  0
LINE
  8
_1-3_
  6
CONTINUOUS
 62
   18
 10
224.82190456081338
 20
166.30947544592399
 11
238.06031301741842
 21
166.30947544592399
  0
LINE
  8
_1-3_
  6
CONTINUOUS
 62
   18
 10
224.82190456081338
 20
166.30947544592399
 11
225.78783038710247
 21
166.56829449102651
  0
LINE
  8
_1-3_
  6
CONTINUOUS
 62
   18
 10
224.82190456081338
 20
166.30947544592399
 11
225.78783038710247
 21
166.05065640082148
  0
LINE
  8
_1-3_
  6
CONTINUOUS
 62
   18
 10
238.06031301741842
 20
166.30947544592399
 11
237.09438719112933
 21
166.05065640082148
  0
LINE
  8
_1-3_
  6
CONTINUOUS
 62
   18
 10
238.06031301741842
 20
166.30947544592399
 11
237.09438719112933
 21
166.56829449102651
  0
LINE
  8
_1-3_
  6
CONTINUOUS
 62
   18
 10
238.06031301741842
 20
166.80947544592399
 11
238.06031301741842
 21
160.63196854706075
  0
LINE
  8
_1-3_
  6
CONTINUOUS
 62
   18
 10
238.06031301741842
 20
166.30947544592399
 11
258.06031301741842
 21
166.30947544592399
  0
LINE
  8
_1-3_
  6
CONTINUOUS
 62
   18
 10
238.06031301741842
 20
166.30947544592399
 11
239.02623884370752
 21
166.56829449102651
  0
LINE
  8
_1-3_
  6
CONTINUOUS
 62
   18
 10
238.06031301741842
 20
166.30947544592399
 11
239.02623884370752
 21
166.05065640082148
  0
LINE
  8
_1-3_
  6
CONTINUOUS
 62
   18
 10
258.06031301741842
 20
166.30947544592399
 11
257.09438719112933
 21
166.05065640082148
  0
LINE
  8
_1-3_
  6
CONTINUOUS
 62
   18
 10
258.06031301741842
 20
166.30947544592399
 11
257.09438719112933
 21
166.56829449102651
  0
LINE
  8
_1-3_
  6
CONTINUOUS
 62
   18
 10
258.06031301741842
 20
166.80947544592399
 11
258.06031301741842
 21
160.63196854706075
  0
LINE
  8
_1-3_
  6
CONTINUOUS
 62
   18
 10
258.06031301741842
 20
166.30947544592399
 11
269.66923071378784
 21
166.30947544592399
  0
LINE
  8
_1-3_
  6
CONTINUOUS
 62
   18
 10
258.06031301741842
 20
166.30947544592399
 11
259.02623884370752
 21
166.56829449102651
  0
LINE
  8
_1-3_
  6
CONTINUOUS
 62
   18
 10
258.06031301741842
 20
166.30947544592399
 11
259.02623884370752
 21
166.05065640082148
  0
LINE
  8
_1-3_
  6
CONTINUOUS
 62
   18
 10
269.66923071378784
 20
166.30947544592399
 11
268.70330488749875
 21
166.05065640082148
  0
LINE
  8
_1-3_
  6
CONTINUOUS
 62
   18
 10
269.66923071378784
 20
166.30947544592399
 11
268.70330488749875
 21
166.56829449102651
  0
LINE
  8
_1-3_
  6
CONTINUOUS
 62
   18
 10
269.66923071378784
 20
166.80947544592399
 11
269.66923071378784
 21
160.48526940595991
  0
LINE
  8
_1-3_
  6
CONTINUOUS
 62
   18
 10
269.66923071378784
 20
166.30947544592399
 11
289.66923071378784
 21
166.30947544592399
  0
LINE
  8
_1-3_
  6
CONTINUOUS
 62
   18
 10
269.66923071378784
 20
166.30947544592399
 11
270.63515654007693
 21
166.56829449102651
  0
LINE
  8
_1-3_
  6
CONTINUOUS
 62
   18
 10
269.66923071378784
 20
166.30947544592399
 11
270.63515654007693
 21
166.05065640082148
  0
LINE
  8
_1-3_
  6
CONTINUOUS
 62
   18
 10
289.66923071378784
 20
166.30947544592399
 11
288.70330488749875
 21
166.05065640082148
  0
LINE
  8
_1-3_
  6
CONTINUOUS
 62
   18
 10
289.66923071378784
 20
166.30947544592399
 11
288.70330488749875
 21
166.56829449102651
  0
LINE
  8
_1-3_
  6
CONTINUOUS
 62
   18
 10
289.66923071378784
 20
166.80947544592399
 11
289.66923071378784
 21
160.63196854706075
  0
LINE
  8
_1-3_
  6
CONTINUOUS
 62
   18
 10
197.32190456081338
 20
171.18307920841664
 11
297.16923071378784
 21
171.18307920841664
  0
LINE
  8
_1-3_
  6
CONTINUOUS
 62
   18
 10
197.32190456081338
 20
171.18307920841664
 11
198.28783038710247
 21
171.44189825351916
  0
LINE
  8
_1-3_
  6
CONTINUOUS
 62
   18
 10
197.32190456081338
 20
171.18307920841664
 11
198.28783038710247
 21
170.9242601633141
  0
LINE
  8
_1-3_
  6
CONTINUOUS
 62
   18
 10
297.16923071378784
 20
171.18307920841664
 11
296.20330488749875
 21
170.9242601633141
  0
LINE
  8
_1-3_
  6
CONTINUOUS
 62
   18
 10
297.16923071378784
 20
171.18307920841664
 11
296.20330488749875
 21
171.44189825351916
  0
LINE
  8
_1-3_
  6
CONTINUOUS
 62
   18
 10
197.32190456081338
 20
171.68307920841664
 11
197.32190456081338
 21
161.72351293047086
  0
LINE
  8
_1-3_
  6
CONTINUOUS
 62
   18
 10
297.16923071378784
 20
171.68307920841664
 11
297.16923071378784
 21
161.72351293047086
  0
TEXT
  8
_1-3_
 62
    7
 10
235.24556763730055
 20
171.68307920841664
 40
3
 41
1
 50
0
  1
アルミフレーム
  0
TEXT
  8
_1-3_
 62
    7
 10
225.19110878911596
 20
166.80947544592399
 40
3
 41
0.8333333333333333
 50
0
  1
スペーサー
  0
TEXT
  8
_1-3_
 62
    7
 10
199.44690456081338
 20
166.30947544592399
 40
3
 41
1
 50
0
  1
15
  0
TEXT
  8
_1-3_
 62
    7
 10
213.19690456081338
 20
166.80947544592399
 40
3
 41
1
 50
0
  1
40
  0
TEXT
  8
_1-3_
 62
    7
 10
246.43531301741842
 20
166.80947544592399
 40
3
 41
1
 50
0
  1
40
  0
TEXT
  8
_1-3_
 62
    7
 10
278.04423071378784
 20
166.80947544592399
 40
3
 41
1
 50
0
  1
40
  0
LINE
  8
_1-3_
  6
CONTINUOUS
 62
   18
 10
204.82190456081338
 20
162.37355539889282
 11
214.82190456081338
 21
162.37355539889282
  0
LINE
  8
_1-3_
  6
CONTINUOUS
 62
   18
 10
204.82190456081338
 20
162.37355539889282
 11
205.78783038710247
 21
162.63237444399533
  0
LINE
  8
_1-3_
  6
CONTINUOUS
 62
   18
 10
204.82190456081338
 20
162.37355539889282
 11
205.78783038710247
 21
162.11473635379031
  0
LINE
  8
_1-3_
  6
CONTINUOUS
 62
   18
 10
214.82190456081338
 20
162.37355539889282
 11
213.8559787345244
 21
162.11473635379031
  0
LINE
  8
_1-3_
  6
CONTINUOUS
 62
   18
 10
214.82190456081338
 20
162.37355539889282
 11
213.8559787345244
 21
162.63237444399533
  0
LINE
  8
_1-3_
  6
CONTINUOUS
 62
   18
 10
204.82190456081338
 20
162.87355539889282
 11
204.82190456081338
 21
160.63196854706075
  0
LINE
  8
_1-3_
  6
CONTINUOUS
 62
   18
 10
214.82190456081338
 20
162.87355539889282
 11
214.82190456081338
 21
160.63196854706075
  0
TEXT
  8
_1-3_
 62
    7
 10
261.36477186560313
 20
166.80947544592399
 40
3
 41
1
 50
0
  1
(A)
  0
LINE
  8
_1-0_
  6
CONTINUOUS
 62
   18
 10
138.00824060928409
 20
147.18157032079196
 11
174.48592456585817
 21
147.18157032079196
  0
LINE
  8
_1-0_
  6
CONTINUOUS
 62
   18
 10
138.00824060928409
 20
143.68157032079196
 11
174.48592456585817
 21
143.68157032079196
  0
LINE
  8
_1-0_
  6
CONTINUOUS
 62
   18
 10
138.00824060928409
 20
140.18157032079196
 11
174.48592456585817
 21
140.18157032079196
  0
LINE
  8
_1-0_
  6
CONTINUOUS
 62
   18
 10
138.00824060928409
 20
136.68157032079196
 11
174.48592456585817
 21
136.68157032079196
  0
LINE
  8
_1-0_
  6
CONTINUOUS
 62
   18
 10
138.00824060928409
 20
133.18157032079196
 11
174.48592456585817
 21
133.18157032079196
  0
LINE
  8
_1-0_
  6
CONTINUOUS
 62
   18
 10
138.00824060928409
 20
129.68157032079196
 11
138.00824060928409
 21
147.18157032079196
  0
LINE
  8
_1-0_
  6
CONTINUOUS
 62
   18
 10
138.00824060928409
 20
129.68157032079196
 11
174.48592456585817
 21
129.68157032079196
  0
LINE
  8
_1-0_
  6
CONTINUOUS
 62
   18
 10
174.48592456585817
 20
147.18157032079196
 11
174.48592456585817
 21
129.68157032079196
  0
LINE
  8
_1-0_
  6
CONTINUOUS
 62
   18
 10
163.07726620928412
 20
129.68157032079196
 11
163.07726620928412
 21
147.18157032079196
  0
TEXT
  8
_1-0_
 62
    7
 10
165.78159538757114
 20
143.68157032079196
 40
3
 41
1
 50
0
  1
個数
  0
TEXT
  8
_1-0_
 62
    7
 10
166.53159538757114
 20
140.18157032079196
 40
3
 41
1
 50
0
  1
2個
  0
TEXT
  8
_1-0_
 62
    7
 10
166.53159538757114
 20
136.68157032079196
 40
3
 41
1
 50
0
  1
3個
  0
TEXT
  8
_1-0_
 62
    7
 10
166.53159538757114
 20
133.18157032079196
 40
3
 41
1
 50
0
  1
4個
  0
TEXT
  8
_1-0_
 62
    7
 10
166.53159538757114
 20
129.68157032079196
 40
3
 41
1
 50
0
  1
5個
  0
TEXT
  8
_1-0_
 62
    7
 10
140.04275340928399
 20
143.68157032079196
 40
3
 41
1
 50
0
  1
器具全長［㎜］
  0
TEXT
  8
_1-0_
 62
    7
 10
140.04275340928399
 20
136.68157032079196
 40
3
 41
1
 50
0
  1
1001～1500以下
  0
TEXT
  8
_1-0_
 62
    7
 10
144.54275340928399
 20
133.18157032079196
 40
3
 41
1
 50
0
  1
1501以上
  0
TEXT
  8
_1-0_
 62
    7
 10
144.54275340928399
 20
129.68157032079196
 40
3
 41
1
 50
0
  1
2000以上
  0
TEXT
  8
_1-0_
 62
    7
 10
144.54275340928399
 20
140.18157032079196
 40
3
 41
1
 50
0
  1
1000以下
  0
TEXT
  8
_1-0_
 62
    7
 10
310.4926529159348
 20
133.97565125221115
 40
3
 41
1
 50
0
  1
※各アルミフレーム寸法によりマグネット配置は異なります。
  0
TEXT
  8
_1-0_
 62
    7
 10
310.4926529159348
 20
130.07365913545394
 40
3
 41
1
 50
0
  1
　詳細図必要な場合はお問い合わせ下さい。
  0
TEXT
  8
_1-3_
 62
    7
 10
208.19690456081338
 20
162.87355539889282
 40
3
 41
1
 50
0
  1
20
  0
LINE
  8
_1-0_
  6
CONTINUOUS
 62
   18
 10
195.2811591857988
 20
138.11872491315259
 11
301.35243096785752
 21
138.11872491315259
  0
LINE
  8
_1-0_
  6
CONTINUOUS
 62
   18
 10
195.2811591857988
 20
134.61872491315262
 11
301.35243096785752
 21
134.61872491315262
  0
TEXT
  8
_1-0_
 62
    7
 10
258.05956358303632
 20
138.11872491315259
 40
3
 41
1
 50
0
  1
12
  0
TEXT
  8
_1-0_
 62
    7
 10
258.05956358303632
 20
134.61872491315262
 40
3
 41
1
 50
0
  1
16
  0
TEXT
  8
_1-0_
 62
    7
 10
258.05956358303632
 20
131.11872491315262
 40
3
 41
1
 50
0
  1
20
  0
TEXT
  8
_1-0_
 62
    7
 10
277.34701945094963
 20
131.11872491315262
 40
3
 41
1
 50
0
  1
(300㎜)
  0
TEXT
  8
_1-0_
 62
    7
 10
277.34701945094963
 20
134.61872491315262
 40
3
 41
1
 50
0
  1
(300㎜)
  0
TEXT
  8
_1-0_
 62
    7
 10
277.34701945094963
 20
138.11872491315259
 40
3
 41
1
 50
0
  1
(200㎜)
  0
TEXT
  8
_1-0_
 62
    7
 10
274.122151726082
 20
138.11872491315259
 40
3
 41
1
 50
0
  1
1
  0
TEXT
  8
_1-0_
 62
    7
 10
274.122151726082
 20
134.61872491315262
 40
3
 41
1
 50
0
  1
2
  0
TEXT
  8
_1-0_
 62
    7
 10
274.122151726082
 20
131.11872491315262
 40
3
 41
1
 50
0
  1
5
  0
TEXT
  8
_1-0_
 62
    7
 10
291.4777081608442
 20
138.11872491315259
 40
3
 41
1
 50
0
  1
178.5
  0
TEXT
  8
_1-0_
 62
    7
 10
292.9777081608442
 20
134.61872491315262
 40
3
 41
1
 50
0
  1
206
  0
TEXT
  8
_1-0_
 62
    7
 10
292.9777081608442
 20
131.11872491315262
 40
3
 41
1
 50
0
  1
361
  0
TEXT
  8
_1-0_
 62
    7
 10
233.21604196871277
 20
138.11872491315259
 40
3
 41
1
 50
0
  1
501
  0
TEXT
  8
_1-0_
 62
    7
 10
233.21604196871277
 20
134.61872491315262
 40
3
 41
1
 50
0
  1
996
  0
TEXT
  8
_1-0_
 62
    7
 10
232.46604196871277
 20
131.11872491315262
 40
3
 41
1
 50
0
  1
1491
  0
LINE
  8
_1-0_
  6
CONTINUOUS
 62
   18
 10
195.2811591857988
 20
141.61872491315259
 11
301.35243096785752
 21
141.61872491315259
  0
TEXT
  8
_1-0_
 62
    7
 10
205.29346133534744
 20
141.86883296206295
 40
3
 41
1
 50
0
  1
型式
  0
TEXT
  8
_1-0_
 62
    7
 10
221.96604196871277
 20
141.77617912495782
 40
3
 41
1
 50
0
  1
アルミフレーム寸法
  0
TEXT
  8
_1-0_
 62
    7
 10
250.55956358303632
 20
141.77617912495782
 40
3
 41
1
 50
0
  1
マグネット数
  0
TEXT
  8
_1-0_
 62
    7
 10
270.29789603368698
 20
141.86883296206295
 40
3
 41
1
 50
0
  1
スペーサー数
  0
TEXT
  8
_1-0_
 62
    7
 10
289.9777081608442
 20
141.86883296206295
 40
3
 41
1
 50
0
  1
(A)寸法
  0
LINE
  8
_1-0_
  6
CONTINUOUS
 62
   18
 10
195.2811591857988
 20
145.11872491315259
 11
301.35243096785752
 21
145.11872491315259
  0
LINE
  8
_1-0_
  6
CONTINUOUS
 62
   18
 10
221.30576348489598
 20
145.11872491315259
 11
221.30576348489598
 21
131.11872491315262
  0
LINE
  8
_1-0_
  6
CONTINUOUS
 62
   18
 10
249.62632045252946
 20
145.11872491315259
 11
249.62632045252946
 21
131.11872491315262
  0
LINE
  8
_1-0_
  6
CONTINUOUS
 62
   18
 10
269.49280671354308
 20
145.11872491315259
 11
269.49280671354308
 21
131.11872491315262
  0
LINE
  8
_1-0_
  6
CONTINUOUS
 62
   18
 10
289.10298535383077
 20
145.11872491315259
 11
289.10298535383077
 21
131.11872491315262
  0
LINE
  8
_1-0_
  6
CONTINUOUS
 62
   18
 10
195.2811591857988
 20
131.11872491315262
 11
301.35243096785752
 21
131.11872491315262
  0
LINE
  8
_1-0_
  6
CONTINUOUS
 62
   18
 10
195.2811591857988
 20
145.11872491315259
 11
195.2811591857988
 21
131.11872491315262
  0
LINE
  8
_1-0_
  6
CONTINUOUS
 62
   18
 10
301.35243096785752
 20
145.11872491315259
 11
301.35243096785752
 21
131.11872491315262
  0
TEXT
  8
_1-3_
 62
    7
 10
286.56645751377386
 20
149.39018078510551
 40
2
 41
1
 50
0
  1
(Ｓ=１：２)
  0
LINE
  8
_1-2_
  6
CONTINUOUS
 62
    7
 10
389.1942027691212
 20
152.28879026010048
 11
389.1942027691212
 21
154.38879026010048
  0
LINE
  8
_1-2_
  6
CONTINUOUS
 62
    7
 10
358.15061223162803
 20
152.28879026010048
 11
389.1942027691212
 21
152.28879026010048
  0
LINE
  8
_1-2_
  6
CONTINUOUS
 62
    7
 10
389.1942027691212
 20
154.38879026010048
 11
357.76064216767264
 21
154.38879026010048
  0
LINE
  8
_1-3_
  6
CONTINUOUS
 62
   18
 10
389.1942027691212
 20
158.51581031366374
 11
388.22827694283211
 21
158.25699126856122
  0
LINE
  8
_1-3_
  6
CONTINUOUS
 62
   18
 10
389.1942027691212
 20
158.51581031366374
 11
388.22827694283211
 21
158.77462935876628
  0
LINE
  8
_1-3_
  6
CONTINUOUS
 62
   18
 10
389.1942027691212
 20
159.01581031366374
 11
389.1942027691212
 21
155.38879026010048
  0
LINE
  8
_1-2_
  6
CONTINUOUS
 62
    7
 10
339.86311647307895
 20
169.79909401024906
 11
359.86311647307895
 21
169.79909401024906
  0
LINE
  8
_1-2_
  6
CONTINUOUS
 62
    7
 10
359.86311647307895
 20
169.79909401024906
 11
359.86311647307895
 21
172.09909401024908
  0
LINE
  8
_1-2_
  6
CONTINUOUS
 62
    7
 10
359.86311647307895
 20
172.09909401024908
 11
339.86311647307895
 21
172.09909401024908
  0
LINE
  8
_1-2_
  6
CONTINUOUS
 62
    7
 10
339.86311647307895
 20
172.09909401024908
 11
339.86311647307895
 21
169.79909401024906
  0
LINE
  8
_1-2_
  6
CONTINUOUS
 62
   18
 10
359.55514996259268
 20
169.79909401024887
 11
359.86311647307917
 21
170.1070605207353
  0
LINE
  8
_1-2_
  6
CONTINUOUS
 62
   18
 10
358.84804318140601
 20
169.79909401024892
 11
359.86311647307917
 21
170.81416730192191
  0
LINE
  8
_1-2_
  6
CONTINUOUS
 62
   18
 10
358.14093640021957
 20
169.79909401024898
 11
359.86311647307895
 21
171.52127408310841
  0
LINE
  8
_1-2_
  6
CONTINUOUS
 62
   18
 10
357.43382961903291
 20
169.79909401024904
 11
359.73382961903309
 21
172.09909401024916
  0
LINE
  8
_1-2_
  6
CONTINUOUS
 62
   18
 10
356.72672283784624
 20
169.79909401024909
 11
359.02672283784642
 21
172.09909401024922
  0
LINE
  8
_1-2_
  6
CONTINUOUS
 62
   18
 10
356.01961605665957
 20
169.79909401024915
 11
358.31961605665975
 21
172.09909401024927
  0
LINE
  8
_1-2_
  6
CONTINUOUS
 62
   18
 10
355.31250927547404
 20
169.79909401024926
 11
357.61250927547422
 21
172.09909401024939
  0
LINE
  8
_1-2_
  6
CONTINUOUS
 62
   18
 10
354.60540249428828
 20
169.79909401024932
 11
356.90540249428847
 21
172.09909401024944
  0
LINE
  8
_1-2_
  6
CONTINUOUS
 62
   18
 10
353.89829571310185
 20
169.79909401024949
 11
356.1982957131018
 21
172.0990940102495
  0
LINE
  8
_1-2_
  6
CONTINUOUS
 62
   18
 10
353.19118893191518
 20
169.79909401024955
 11
355.49118893191468
 21
172.0990940102491
  0
LINE
  8
_1-2_
  6
CONTINUOUS
 62
   18
 10
352.48408215072806
 20
169.79909401024904
 11
354.78408215072824
 21
172.09909401024916
  0
LINE
  8
_1-2_
  6
CONTINUOUS
 62
   18
 10
351.77697536954139
 20
169.79909401024909
 11
354.07697536954157
 21
172.09909401024922
  0
LINE
  8
_1-2_
  6
CONTINUOUS
 62
   18
 10
351.0698685883545
 20
169.79909401024881
 11
353.36986858835468
 21
172.09909401024893
  0
LINE
  8
_1-2_
  6
CONTINUOUS
 62
   18
 10
350.36276180716783
 20
169.79909401024887
 11
352.66276180716801
 21
172.09909401024899
  0
LINE
  8
_1-2_
  6
CONTINUOUS
 62
   18
 10
349.65565502598139
 20
169.79909401024892
 11
351.95565502598134
 21
172.09909401024905
  0
LINE
  8
_1-2_
  6
CONTINUOUS
 62
   18
 10
348.94854824479472
 20
169.79909401024898
 11
351.2485482447949
 21
172.0990940102491
  0
LINE
  8
_1-2_
  6
CONTINUOUS
 62
   18
 10
348.24144146360806
 20
169.79909401024904
 11
350.54144146360824
 21
172.09909401024916
  0
LINE
  8
_1-2_
  6
CONTINUOUS
 62
   18
 10
347.53433468242116
 20
169.79909401024887
 11
349.83433468242134
 21
172.09909401024899
  0
LINE
  8
_1-2_
  6
CONTINUOUS
 62
   18
 10
346.82722790123449
 20
169.79909401024892
 11
349.12722790123468
 21
172.09909401024899
  0
LINE
  8
_1-2_
  6
CONTINUOUS
 62
   18
 10
346.12012112004783
 20
169.79909401024892
 11
348.42012112004801
 21
172.09909401024905
  0
LINE
  8
_1-2_
  6
CONTINUOUS
 62
   18
 10
345.41301433886139
 20
169.79909401024898
 11
347.71301433886134
 21
172.0990940102491
  0
LINE
  8
_1-2_
  6
CONTINUOUS
 62
   18
 10
344.70590755767563
 20
169.79909401024909
 11
347.00590755767581
 21
172.09909401024922
  0
LINE
  8
_1-2_
  6
CONTINUOUS
 62
   18
 10
343.9988007764901
 20
169.79909401024932
 11
346.29880077649028
 21
172.09909401024944
  0
LINE
  8
_1-2_
  6
CONTINUOUS
 62
   18
 10
343.29169399530343
 20
169.79909401024938
 11
345.59169399530361
 21
172.0990940102495
  0
LINE
  8
_1-2_
  6
CONTINUOUS
 62
   18
 10
342.58458721411699
 20
169.79909401024943
 11
344.88458721411649
 21
172.09909401024899
  0
LINE
  8
_1-2_
  6
CONTINUOUS
 62
   18
 10
341.87748043292964
 20
169.79909401024887
 11
344.17748043292983
 21
172.09909401024899
  0
LINE
  8
_1-2_
  6
CONTINUOUS
 62
   18
 10
341.17037365174298
 20
169.79909401024892
 11
343.47037365174316
 21
172.09909401024905
  0
LINE
  8
_1-2_
  6
CONTINUOUS
 62
   18
 10
340.46326687055654
 20
169.79909401024898
 11
342.76326687055649
 21
172.0990940102491
  0
LINE
  8
_1-2_
  6
CONTINUOUS
 62
   18
 10
339.86311647307895
 20
169.90605039395817
 11
342.05616008937005
 21
172.09909401024916
  0
LINE
  8
_1-2_
  6
CONTINUOUS
 62
   18
 10
339.86311647307872
 20
170.61315717514461
 11
341.34905330818339
 21
172.09909401024922
  0
LINE
  8
_1-2_
  6
CONTINUOUS
 62
   18
 10
339.86311647307872
 20
171.32026395633122
 11
340.64194652699672
 21
172.09909401024927
  0
LINE
  8
_1-2_
  6
CONTINUOUS
 62
   18
 10
339.86311647307872
 20
172.02737073751783
 11
339.93483974581005
 21
172.09909401024933
  0
LINE
  8
_1-2_
  6
CONTINUOUS
 62
    7
 10
339.86311647307895
 20
154.38879026010048
 11
339.86311647307895
 21
152.28879026010048
  0
LINE
  8
_1-2_
  6
CONTINUOUS
 62
    7
 10
339.86311647307895
 20
152.28879026010048
 11
357.46523108328398
 21
152.28879026010048
  0
LINE
  8
_1-2_
  6
CONTINUOUS
 62
    7
 10
357.07526101932859
 20
154.38879026010048
 11
339.86311647307895
 21
154.38879026010048
  0
LINE
  8
_1-3_
  6
CONTINUOUS
 62
   18
 10
334.84881353145585
 20
169.79909401024906
 11
334.84881353145585
 21
166.79909401024906
  0
LINE
  8
_1-3_
  6
CONTINUOUS
 62
   18
 10
334.84881353145585
 20
172.09909401024908
 11
334.84881353145585
 21
175.09909401024908
  0
LINE
  8
_1-3_
  6
CONTINUOUS
 62
   18
 10
334.84881353145585
 20
169.79909401024906
 11
334.84881353145585
 21
172.09909401024908
  0
LINE
  8
_1-3_
  6
CONTINUOUS
 62
   18
 10
334.84881353145585
 20
169.79909401024906
 11
335.10763257655827
 21
168.83316818396
  0
LINE
  8
_1-3_
  6
CONTINUOUS
 62
   18
 10
334.84881353145585
 20
169.79909401024906
 11
334.58999448635319
 21
168.83316818396
  0
LINE
  8
_1-3_
  6
CONTINUOUS
 62
   18
 10
334.84881353145585
 20
172.09909401024908
 11
334.58999448635319
 21
173.06501983653811
  0
LINE
  8
_1-3_
  6
CONTINUOUS
 62
   18
 10
334.84881353145585
 20
172.09909401024908
 11
335.10763257655827
 21
173.06501983653811
  0
LINE
  8
_1-3_
  6
CONTINUOUS
 62
   18
 10
334.34881353145585
 20
169.79909401024906
 11
338.86311647307895
 21
169.79909401024906
  0
LINE
  8
_1-3_
  6
CONTINUOUS
 62
   18
 10
334.34881353145585
 20
172.09909401024908
 11
338.86311647307895
 21
172.09909401024908
  0
LINE
  8
_1-3_
  6
CONTINUOUS
 62
   18
 10
339.86311647307895
 20
176.54095718441675
 11
359.86311647307895
 21
176.54095718441675
  0
LINE
  8
_1-3_
  6
CONTINUOUS
 62
   18
 10
339.86311647307895
 20
176.54095718441675
 11
340.82904229936804
 21
176.7997762295193
  0
LINE
  8
_1-3_
  6
CONTINUOUS
 62
   18
 10
339.86311647307895
 20
176.54095718441675
 11
340.82904229936804
 21
176.28213813931424
  0
LINE
  8
_1-3_
  6
CONTINUOUS
 62
   18
 10
359.86311647307895
 20
176.54095718441675
 11
358.89719064678985
 21
176.28213813931424
  0
LINE
  8
_1-3_
  6
CONTINUOUS
 62
   18
 10
359.86311647307895
 20
176.54095718441675
 11
358.89719064678985
 21
176.7997762295193
  0
LINE
  8
_1-3_
  6
CONTINUOUS
 62
   18
 10
339.86311647307895
 20
177.04095718441675
 11
339.86311647307895
 21
173.09909401024908
  0
LINE
  8
_1-3_
  6
CONTINUOUS
 62
   18
 10
359.86311647307895
 20
177.04095718441675
 11
359.86311647307895
 21
173.09909401024908
  0
TEXT
  8
_1-3_
 62
    7
 10
348.23811647307895
 20
177.04095718441675
 40
3
 41
1
 50
0
  1
20
  0
TEXT
  8
_1-3_
 62
    7
 10
334.34881353145585
 20
166.69909401024907
 40
3
 41
1
 50
90
  1
φ2.3
  0
LINE
  8
_1-3_
  6
CONTINUOUS
 62
   18
 10
334.84881353145585
 20
152.28879026010048
 11
334.84881353145585
 21
149.28879026010048
  0
LINE
  8
_1-3_
  6
CONTINUOUS
 62
   18
 10
334.84881353145585
 20
154.38879026010048
 11
334.84881353145585
 21
157.38879026010048
  0
LINE
  8
_1-3_
  6
CONTINUOUS
 62
   18
 10
334.84881353145585
 20
152.28879026010048
 11
334.84881353145585
 21
154.38879026010048
  0
LINE
  8
_1-3_
  6
CONTINUOUS
 62
   18
 10
334.84881353145585
 20
152.28879026010048
 11
335.10763257655827
 21
151.32286443381139
  0
LINE
  8
_1-3_
  6
CONTINUOUS
 62
   18
 10
334.84881353145585
 20
152.28879026010048
 11
334.58999448635319
 21
151.32286443381139
  0
LINE
  8
_1-3_
  6
CONTINUOUS
 62
   18
 10
334.84881353145585
 20
154.38879026010048
 11
334.58999448635319
 21
155.35471608638954
  0
LINE
  8
_1-3_
  6
CONTINUOUS
 62
   18
 10
334.84881353145585
 20
154.38879026010048
 11
335.10763257655827
 21
155.35471608638954
  0
LINE
  8
_1-3_
  6
CONTINUOUS
 62
   18
 10
334.34881353145585
 20
152.28879026010048
 11
338.86311647307895
 21
152.28879026010048
  0
LINE
  8
_1-3_
  6
CONTINUOUS
 62
   18
 10
334.34881353145585
 20
154.38879026010048
 11
338.86311647307895
 21
154.38879026010048
  0
LINE
  8
_1-3_
  6
CONTINUOUS
 62
   18
 10
339.86311647307895
 20
158.51581031366374
 11
389.1942027691212
 21
158.51581031366374
  0
LINE
  8
_1-3_
  6
CONTINUOUS
 62
   18
 10
339.86311647307895
 20
158.51581031366374
 11
340.82904229936804
 21
158.77462935876628
  0
LINE
  8
_1-3_
  6
CONTINUOUS
 62
   18
 10
339.86311647307895
 20
158.51581031366374
 11
340.82904229936804
 21
158.25699126856122
  0
LINE
  8
_1-3_
  6
CONTINUOUS
 62
   18
 10
339.86311647307895
 20
159.01581031366374
 11
339.86311647307895
 21
155.38879026010048
  0
TEXT
  8
_1-3_
 62
    7
 10
334.34881353145585
 20
149.08879026010047
 40
3
 41
1
 50
90
  1
φ2.1
  0
TEXT
  8
_1-0_
 62
    7
 10
322.12164108815733
 20
160.49594209888812
 40
3
 41
1
 50
0
  1
スペーサー
  0
TEXT
  8
_1-0_
 62
    7
 10
322.12164108815733
 20
178.43245003539604
 40
3
 41
1
 50
0
  1
マグネット
  0
ARC
  8
_1-2_
  6
CONTINUOUS
 62
    7
 10
363.41971834133409
 20
152.65340911175636
 40
1.0280717225161649
 50
318.18998718261719
 51
41.80999755859375
  0
ARC
  8
_1-2_
  6
CONTINUOUS
 62
    7
 10
364.95223058903156
 20
154.0241714084446
 40
1.0280717225161649
 50
138.18998718261719
 51
221.80999755859372
  0
ARC
  8
_1-2_
  6
CONTINUOUS
 62
    7
 10
364.10509948967814
 20
152.65340911175636
 40
1.0280717225161649
 50
318.18998718261719
 51
41.80999755859375
  0
ARC
  8
_1-2_
  6
CONTINUOUS
 62
    7
 10
365.63761173737561
 20
154.0241714084446
 40
1.0280717225161649
 50
138.18998718261719
 51
221.80999755859372
  0
TEXT
  8
_1-3_
 62
    7
 10
358.52863794808076
 20
159.01581031366374
 40
3
 41
1
 50
0
  1
200/300
  0
LINE
  8
_1-7_
  6
CONTINUOUS
 62
    7
 10
108.44799009822788
 20
147.28745654803924
 11
128.44799010430205
 21
147.28745654803924
  0
LINE
  8
_1-7_
  6
CONTINUOUS
 62
   18
 10
127.06742037383384
 20
136.50132040803905
 11
128.44822190736755
 21
137.88212194157271
  0
LINE
  8
_1-7_
  6
CONTINUOUS
 62
   18
 10
125.65320681146062
 20
136.50132040803916
 11
128.44818705364099
 21
139.29630065021951
  0
LINE
  8
_1-7_
  6
CONTINUOUS
 62
   18
 10
124.23899324908729
 20
136.50132040803916
 11
128.44815219991443
 21
140.71047935886634
  0
LINE
  8
_1-7_
  6
CONTINUOUS
 62
   18
 10
122.824779686716
 20
136.50132040803939
 11
128.44811734618776
 21
142.12465806751118
  0
LINE
  8
_1-7_
  6
CONTINUOUS
 62
   18
 10
121.41056612434244
 20
136.50132040803913
 11
128.44808249246177
 21
143.53883677615852
  0
LINE
  8
_1-7_
  6
CONTINUOUS
 62
   18
 10
119.99635256196865
 20
136.50132040803874
 11
128.44804763873577
 21
144.95301548480586
  0
LINE
  8
_1-7_
  6
CONTINUOUS
 62
   18
 10
118.58213899959543
 20
136.50132040803885
 11
128.44801278500933
 21
146.36719419345266
  0
LINE
  8
_1-7_
  6
CONTINUOUS
 62
   18
 10
117.16792543722221
 20
136.50132040803896
 11
127.95406157722203
 21
147.28745654803879
  0
LINE
  8
_1-7_
  6
CONTINUOUS
 62
   18
 10
115.75371187484899
 20
136.50132040803908
 11
126.53984801484881
 21
147.2874565480389
  0
LINE
  8
_1-7_
  6
CONTINUOUS
 62
   18
 10
114.33949831247543
 20
136.50132040803885
 11
125.12563445247559
 21
147.28745654803902
  0
LINE
  8
_1-7_
  6
CONTINUOUS
 62
   18
 10
112.92528475010414
 20
136.50132040803908
 11
123.71142089010431
 21
147.28745654803924
  0
LINE
  8
_1-7_
  6
CONTINUOUS
 62
   18
 10
111.51107118773092
 20
136.50132040803916
 11
122.29720732773109
 21
147.28745654803936
  0
LINE
  8
_1-7_
  6
CONTINUOUS
 62
   18
 10
110.09685762535759
 20
136.50132040803919
 11
120.88299376535707
 21
147.28745654803862
  0
LINE
  8
_1-7_
  6
CONTINUOUS
 62
   18
 10
108.68264406298391
 20
136.50132040803879
 11
119.46878020298385
 21
147.28745654803879
  0
LINE
  8
_1-7_
  6
CONTINUOUS
 62
   18
 10
108.44822685524974
 20
137.68111676267804
 11
118.05456664061063
 21
147.28745654803893
  0
LINE
  8
_1-7_
  6
CONTINUOUS
 62
   18
 10
108.44819200152318
 20
139.09529547132476
 11
116.64035307823752
 21
147.2874565480391
  0
LINE
  8
_1-7_
  6
CONTINUOUS
 62
   18
 10
108.44815714779685
 20
140.5094741799717
 11
115.22613951586396
 21
147.2874565480389
  0
LINE
  8
_1-7_
  6
CONTINUOUS
 62
   18
 10
108.44812229407052
 20
141.92365288861876
 11
113.81192595349074
 21
147.28745654803902
  0
LINE
  8
_1-7_
  6
CONTINUOUS
 62
   18
 10
108.44808744034373
 20
143.33783159726352
 11
112.39771239111957
 21
147.28745654803927
  0
LINE
  8
_1-7_
  6
CONTINUOUS
 62
   18
 10
108.44805258661751
 20
144.75201030591066
 11
110.98349882874578
 21
147.28745654803885
  0
LINE
  8
_1-7_
  6
CONTINUOUS
 62
   18
 10
108.44801773289106
 20
146.16618901455746
 11
109.56928526637245
 21
147.28745654803893
  0
TEXT
  8
_1-0_
 62
    7
 10
197.8564456541057
 20
138.11872491315259
 40
3
 41
1
 50
0
  1
FGB-505-MG
  0
TEXT
  8
_1-0_
 62
    7
 10
197.8564456541057
 20
134.61872491315262
 40
3
 41
1
 50
0
  1
FGB-1000-MG
  0
TEXT
  8
_1-0_
 62
    7
 10
197.8564456541057
 20
131.11872491315262
 40
3
 41
1
 50
0
  1
FGB-1495-MG
  0
LINE
  8
_1-9_
  6
CONTINUOUS
 62
    7
 10
111.29800682909257
 20
156.38745655715542
 11
111.59800682900146
 21
156.38746395092952
  0
LINE
  8
_1-9_
  6
CONTINUOUS
 62
    7
 10
124.54812512545408
 20
151.58778311696969
 11
124.76026238793344
 21
151.37565631086596
  0
LINE
  8
_1-9_
  6
CONTINUOUS
 62
    7
 10
124.54812512545408
 20
151.58778311696969
 11
125.2981066407911
 21
152.33780160117718
  0
LINE
  8
_1-9_
  6
CONTINUOUS
 62
    7
 10
124.76026238793344
 20
151.37565631086596
 11
125.29811709716665
 21
151.91353753259423
  0
LINE
  8
_1-9_
  6
CONTINUOUS
 62
    7
 10
112.34812512915943
 20
151.58748243682243
 11
112.13599832305562
 21
151.37534517434324
  0
LINE
  8
_1-9_
  6
CONTINUOUS
 62
    7
 10
112.34812512915943
 20
151.58748243682243
 11
111.598106644952
 21
152.33746395215942
  0
LINE
  8
_1-9_
  6
CONTINUOUS
 62
    7
 10
112.13599832305562
 20
151.37534517434324
 11
111.59811710132755
 21
151.91319988357648
  0
LINE
  8
_1-9_
  6
CONTINUOUS
 62
    7
 10
125.59807336871648
 20
153.68780899454134
 11
125.29807336880759
 21
153.68780160076724
  0
LINE
  8
_1-9_
  6
DASHED3
 62
    3
 10
125.29811709716665
 20
151.91353753259423
 11
125.59810970330165
 21
152.21354492627711
  0
LINE
  8
_1-9_
  6
DASHED3
 62
    3
 10
111.59811710132755
 20
151.91319988357648
 11
111.29810970764453
 21
152.21319248971116
  0
LINE
  8
_1-9_
  6
CONTINUOUS
 62
    7
 10
111.29821823417859
 20
147.80976337379644
 11
111.29800682909257
 21
156.38745655715542
  0
LINE
  8
_1-9_
  6
CONTINUOUS
 62
    7
 10
111.82004023893086
 20
147.31025212363386
 11
118.44822341087928
 21
147.59980851990318
  0
ARC
  8
_1-9_
  6
CONTINUOUS
 62
    7
 10
111.79821823402682
 20
147.80977569675326
 40
0.5
 50
180.00141210683773
 51
272.50141210683779
  0
ARC
  8
_1-9_
  6
CONTINUOUS
 62
    7
 10
125.09821822998748
 20
147.81010348740557
 40
0.5
 50
267.50141210683773
 51
0.0014121068377431
  0
LINE
  8
_1-9_
  6
CONTINUOUS
 62
    7
 10
111.5982182340876
 20
147.80977076757051
 11
111.59800682900146
 21
156.38746395092952
  0
LINE
  8
_1-9_
  6
CONTINUOUS
 62
    7
 10
111.80694703598846
 20
147.60996626750551
 11
118.44821601006123
 21
147.90009432536093
  0
ARC
  8
_1-9_
  6
CONTINUOUS
 62
    7
 10
111.79821823402682
 20
147.80977569675326
 40
0.1999999999999999
 50
180.00141210683773
 51
272.50141210683779
  0
LINE
  8
_1-9_
  6
CONTINUOUS
 62
    7
 10
125.0894992770082
 20
147.6102936281419
 11
118.44821601006123
 21
147.90009432536093
  0
LINE
  8
_1-9_
  6
CONTINUOUS
 62
    7
 10
125.2982182299267
 20
147.81010841658829
 11
125.29807336880759
 21
153.68780160076724
  0
ARC
  8
_1-9_
  6
CONTINUOUS
 62
    7
 10
125.09821822998748
 20
147.81010348740557
 40
0.1999999999999999
 50
267.50141210683779
 51
0.0014121068377685
  0
LINE
  8
_1-9_
  6
CONTINUOUS
 62
    7
 10
125.5982182298356
 20
147.81011581036242
 11
125.59807336871648
 21
153.68780899454134
  0
LINE
  8
_1-9_
  6
CONTINUOUS
 62
    7
 10
125.07642084753951
 20
147.31057883924646
 11
118.44822341087928
 21
147.59980851990318
  0
LINE
  8
_1-b_
  6
CONTINUOUS
 62
    7
 10
147.31009739275231
 20
162.58345840516662
 11
147.31009739275231
 21
161.71176869350606
  0
LINE
  8
_1-b_
  6
CONTINUOUS
 62
    7
 10
147.73840742914734
 20
161.28345840516667
 11
147.31009739275231
 21
161.71176869350606
  0
LINE
  8
_1-b_
  6
CONTINUOUS
 62
    7
 10
147.73840742914734
 20
161.28345840516667
 11
148.61009739275227
 21
161.28345840516667
  0
LINE
  8
_1-b_
  6
CONTINUOUS
 62
    7
 10
147.73840742914734
 20
160.28345840516667
 11
148.61009739275227
 21
160.28345840516667
  0
LINE
  8
_1-b_
  6
CONTINUOUS
 62
    7
 10
147.73840742914734
 20
160.28345840516667
 11
147.31009739275231
 21
159.85514811682728
  0
LINE
  8
_1-b_
  6
CONTINUOUS
 62
    7
 10
147.31009739275231
 20
158.98345840516672
 11
147.31009739275231
 21
159.85514811682728
  0
LINE
  8
_1-b_
  6
CONTINUOUS
 62
    7
 10
146.31009739275231
 20
158.98345840516672
 11
146.31009739275231
 21
159.85514811682728
  0
LINE
  8
_1-b_
  6
CONTINUOUS
 62
    7
 10
145.88178735635728
 20
160.28345840516667
 11
146.31009739275231
 21
159.85514811682728
  0
LINE
  8
_1-b_
  6
CONTINUOUS
 62
    7
 10
145.88178735635728
 20
160.28345840516667
 11
145.01009739275236
 21
160.28345840516667
  0
LINE
  8
_1-b_
  6
CONTINUOUS
 62
    7
 10
146.31009739275231
 20
162.58345840516662
 11
146.31009739275231
 21
161.71176869350606
  0
LINE
  8
_1-b_
  6
CONTINUOUS
 62
    7
 10
145.88178735635728
 20
161.28345840516667
 11
146.31009739275231
 21
161.71176869350606
  0
LINE
  8
_1-b_
  6
CONTINUOUS
 62
    7
 10
145.88178735635728
 20
161.28345840516667
 11
145.01009739275236
 21
161.28345840516667
  0
LINE
  8
_1-b_
  6
CONTINUOUS
 62
    7
 10
146.31009739275231
 20
158.98345840516672
 11
147.31009739275231
 21
158.98345840516672
  0
LINE
  8
_1-b_
  6
CONTINUOUS
 62
    7
 10
148.61009739275227
 20
161.28345840516667
 11
148.61009739275227
 21
160.28345840516667
  0
LINE
  8
_1-b_
  6
CONTINUOUS
 62
    7
 10
146.31009739275231
 20
162.58345840516662
 11
147.31009739275231
 21
162.58345840516662
  0
LINE
  8
_1-b_
  6
CONTINUOUS
 62
    7
 10
145.01009739275236
 20
161.28345840516667
 11
145.01009739275236
 21
160.28345840516667
  0
CIRCLE
  8
_1-b_
  6
CONTINUOUS
 62
    7
 10
146.81009739275231
 20
160.78345840516667
 40
4
  0
LINE
  8
_1-b_
  6
CONTINUOUS
 62
    7
 10
170.66302870661656
 20
159.369335997864
 11
170.46296447946469
 21
159.16609752713211
  0
LINE
  8
_1-b_
  6
CONTINUOUS
 62
    7
 10
172.05506489689441
 20
160.78345840516667
 11
170.95595766700779
 21
159.66691260508887
  0
LINE
  8
_1-b_
  6
CONTINUOUS
 62
    7
 10
170.80218469786081
 20
159.12318430138643
 11
170.67695278703098
 21
159.31709279522042
  0
LINE
  8
_1-b_
  6
CONTINUOUS
 62
    7
 10
171.50218500402246
 20
161.61309010602403
 11
171.56325098854626
 21
161.28307549333985
  0
LINE
  8
_1-b_
  6
CONTINUOUS
 62
    7
 10
171.50218469786063
 20
161.61309010602403
 11
171.39767918945489
 21
161.45127427491454
  0
LINE
  8
_1-b_
  6
CONTINUOUS
 62
    7
 10
171.82015945677534
 20
161.12073997894865
 11
171.84621123875576
 21
160.9956257610755
  0
LINE
  8
_1-b_
  6
CONTINUOUS
 62
    7
 10
171.50218500402246
 20
161.61309010602403
 11
171.82015945677534
 21
161.12073997894865
  0
LINE
  8
_1-b_
  6
CONTINUOUS
 62
    7
 10
172.05506489689441
 20
160.78345840516667
 11
170.46296447946469
 21
162.40081928320123
  0
LINE
  8
_1-b_
  6
CONTINUOUS
 62
    7
 10
170.34930480498923
 20
162.40081928320123
 11
171.0064334072419
 21
159.43944155541882
  0
LINE
  8
_1-b_
  6
CONTINUOUS
 62
    7
 10
170.80218500402242
 20
159.12318430138643
 11
171.0064334072419
 21
159.43944155541882
  0
LINE
  8
_1-b_
  6
CONTINUOUS
 62
    7
 10
169.85506489689413
 20
162.40081928320123
 11
170.67695278703098
 21
159.3170927952203
  0
LINE
  8
_1-b_
  6
CONTINUOUS
 62
    7
 10
170.10218469786076
 20
162.78345840516667
 11
170.87187101237254
 21
159.23108578457001
  0
LINE
  8
_1-b_
  6
CONTINUOUS
 62
    7
 10
168.7021846978609
 20
162.78345840516667
 11
169.40218500402256
 21
158.78345840516667
  0
LINE
  8
_1-b_
  6
CONTINUOUS
 62
    7
 10
169.64930480498919
 20
159.16609752713211
 11
170.46296447946469
 21
159.16609752713211
  0
LINE
  8
_1-b_
  6
CONTINUOUS
 62
    7
 10
168.24930480498909
 20
159.16609752713211
 11
169.15506489689432
 21
159.16609752713211
  0
LINE
  8
_1-b_
  6
CONTINUOUS
 62
    7
 10
166.84930480498923
 20
159.16609752713211
 11
167.75506489689423
 21
159.16609752713211
  0
LINE
  8
_1-b_
  6
CONTINUOUS
 62
    7
 10
165.44930480498937
 20
159.16609752713211
 11
166.35506489689413
 21
159.16609752713211
  0
LINE
  8
_1-b_
  6
CONTINUOUS
 62
    7
 10
164.04930480498928
 20
159.16609752713211
 11
164.95506489689427
 21
159.16609752713211
  0
LINE
  8
_1-b_
  6
CONTINUOUS
 62
    7
 10
162.64930480498941
 20
159.16609752713211
 11
163.55506489689441
 21
159.16609752713211
  0
LINE
  8
_1-b_
  6
CONTINUOUS
 62
    7
 10
160.75506489689445
 20
159.16609752713211
 11
162.15506489689432
 21
159.16609752713211
  0
LINE
  8
_1-b_
  6
CONTINUOUS
 62
    7
 10
170.34930480498923
 20
162.40081928320123
 11
170.46296447946469
 21
162.40081928320123
  0
LINE
  8
_1-b_
  6
CONTINUOUS
 62
    7
 10
168.94930480498914
 20
162.40081928320123
 11
169.85506489689413
 21
162.40081928320123
  0
LINE
  8
_1-b_
  6
CONTINUOUS
 62
    7
 10
167.54930480498905
 20
162.40081928320123
 11
168.45506489689427
 21
162.40081928320123
  0
LINE
  8
_1-b_
  6
CONTINUOUS
 62
    7
 10
166.14930480498919
 20
162.40081928320123
 11
167.05506489689418
 21
162.40081928320123
  0
LINE
  8
_1-b_
  6
CONTINUOUS
 62
    7
 10
164.76336838870265
 20
162.40081928320123
 11
165.65506489689409
 21
162.40081928320123
  0
LINE
  8
_1-b_
  6
CONTINUOUS
 62
    7
 10
163.34930480498923
 20
162.40081928320123
 11
164.25506489689423
 21
162.40081928320123
  0
LINE
  8
_1-b_
  6
CONTINUOUS
 62
    7
 10
161.96336838870292
 20
162.40081928320123
 11
162.86912848060769
 21
162.40081928320123
  0
LINE
  8
_1-b_
  6
CONTINUOUS
 62
    7
 10
160.75506489689445
 20
162.40081928320123
 11
161.46912848060782
 21
162.40081928320123
  0
LINE
  8
_1-b_
  6
CONTINUOUS
 62
    7
 10
160.94592608735223
 20
158.87056896953183
 11
160.75506489689445
 21
160.03261519391478
  0
LINE
  8
_1-b_
  6
CONTINUOUS
 62
    7
 10
170.10218469786076
 20
162.78345840516667
 11
169.85506489689413
 21
162.40081928320123
  0
LINE
  8
_1-b_
  6
CONTINUOUS
 62
    7
 10
170.10218500402237
 20
162.78345840516667
 11
170.34930480498923
 21
162.40081928320123
  0
LINE
  8
_1-b_
  6
CONTINUOUS
 62
    7
 10
168.94930480498914
 20
162.40081928320123
 11
169.64930480498919
 21
159.16609752713211
  0
LINE
  8
_1-b_
  6
CONTINUOUS
 62
    7
 10
169.15506489689432
 20
159.16609752713211
 11
168.45506489689427
 21
162.40081928320123
  0
LINE
  8
_1-b_
  6
CONTINUOUS
 62
    7
 10
169.40218469786095
 20
158.78345840516667
 11
169.15506489689432
 21
159.16609752713211
  0
LINE
  8
_1-b_
  6
CONTINUOUS
 62
    7
 10
169.40218500402256
 20
158.78345840516667
 11
169.64930480498919
 21
159.16609752713211
  0
LINE
  8
_1-b_
  6
CONTINUOUS
 62
    7
 10
167.54930480498905
 20
162.40081928320123
 11
168.24930480498909
 21
159.16609752713211
  0
LINE
  8
_1-b_
  6
CONTINUOUS
 62
    7
 10
167.30218500402265
 20
162.78345840516667
 11
168.00218500402269
 21
158.78345840516667
  0
LINE
  8
_1-b_
  6
CONTINUOUS
 62
    7
 10
167.05506489689418
 20
162.40081928320123
 11
167.75506489689423
 21
159.16609752713211
  0
LINE
  8
_1-b_
  6
CONTINUOUS
 62
    7
 10
166.14930480498919
 20
162.40081928320123
 11
166.84930480498923
 21
159.16609752713211
  0
LINE
  8
_1-b_
  6
CONTINUOUS
 62
    7
 10
165.90218469786095
 20
162.78345840516667
 11
166.6021850040226
 21
158.78345840516667
  0
LINE
  8
_1-b_
  6
CONTINUOUS
 62
    7
 10
165.65506489689409
 20
162.40081928320123
 11
166.35506489689413
 21
159.16609752713211
  0
LINE
  8
_1-b_
  6
CONTINUOUS
 62
    7
 10
164.74930480498932
 20
162.40081928320123
 11
165.44930480498937
 21
159.16609752713211
  0
LINE
  8
_1-b_
  6
CONTINUOUS
 62
    7
 10
164.50218469786086
 20
162.78345840516667
 11
165.20218500402274
 21
158.78345840516667
  0
LINE
  8
_1-b_
  6
CONTINUOUS
 62
    7
 10
164.25506489689423
 20
162.40081928320123
 11
164.95506489689427
 21
159.16609752713211
  0
LINE
  8
_1-b_
  6
CONTINUOUS
 62
    7
 10
163.34930480498923
 20
162.40081928320123
 11
164.04930480498928
 21
159.16609752713211
  0
LINE
  8
_1-b_
  6
CONTINUOUS
 62
    7
 10
163.1021850040226
 20
162.78345840516667
 11
163.80218469786081
 21
158.78345840516667
  0
LINE
  8
_1-b_
  6
CONTINUOUS
 62
    7
 10
162.85506489689436
 20
162.40081928320123
 11
163.55506489689441
 21
159.16609752713211
  0
LINE
  8
_1-b_
  6
CONTINUOUS
 62
    7
 10
161.7021846978609
 20
162.78345840516667
 11
162.40218500402256
 21
158.78345840516667
  0
LINE
  8
_1-b_
  6
CONTINUOUS
 62
    7
 10
161.94930480498937
 20
162.40081928320123
 11
162.64930480498941
 21
159.16609752713211
  0
LINE
  8
_1-b_
  6
CONTINUOUS
 62
    7
 10
161.45506489689427
 20
162.40081928320123
 11
162.15506489689432
 21
159.16609752713211
  0
LINE
  8
_1-b_
  6
CONTINUOUS
 62
    7
 10
168.00218469786086
 20
158.78345840516667
 11
167.75506489689423
 21
159.16609752713211
  0
LINE
  8
_1-b_
  6
CONTINUOUS
 62
    7
 10
168.00218500402269
 20
158.78345840516667
 11
168.24930480498909
 21
159.16609752713211
  0
LINE
  8
_1-b_
  6
CONTINUOUS
 62
    7
 10
166.60218469786099
 20
158.78345840516667
 11
166.35506489689413
 21
159.16609752713211
  0
LINE
  8
_1-b_
  6
CONTINUOUS
 62
    7
 10
166.6021850040226
 20
158.78345840516667
 11
166.84930480498923
 21
159.16609752713211
  0
LINE
  8
_1-b_
  6
CONTINUOUS
 62
    7
 10
165.2021846978609
 20
158.78345840516667
 11
164.95506489689427
 21
159.16609752713211
  0
LINE
  8
_1-b_
  6
CONTINUOUS
 62
    7
 10
165.20218500402274
 20
158.78345840516667
 11
165.44930480498937
 21
159.16609752713211
  0
LINE
  8
_1-b_
  6
CONTINUOUS
 62
    7
 10
163.80218469786081
 20
158.78345840516667
 11
163.55506489689441
 21
159.16609752713211
  0
LINE
  8
_1-b_
  6
CONTINUOUS
 62
    7
 10
163.80218500402265
 20
158.78345840516667
 11
164.04930480498928
 21
159.16609752713211
  0
LINE
  8
_1-b_
  6
CONTINUOUS
 62
    7
 10
162.40218469786095
 20
158.78345840516667
 11
162.15506489689432
 21
159.16609752713211
  0
LINE
  8
_1-b_
  6
CONTINUOUS
 62
    7
 10
162.40218500402256
 20
158.78345840516667
 11
162.64930480498941
 21
159.16609752713211
  0
LINE
  8
_1-b_
  6
CONTINUOUS
 62
    7
 10
161.00218469786108
 20
158.78345840516667
 11
160.75506489689445
 21
159.16609752713211
  0
LINE
  8
_1-b_
  6
CONTINUOUS
 62
    7
 10
161.00218500402269
 20
158.78345840516667
 11
161.24930480498932
 21
159.16609752713211
  0
LINE
  8
_1-b_
  6
CONTINUOUS
 62
    7
 10
168.7021846978609
 20
162.78345840516667
 11
168.45506489689427
 21
162.40081928320123
  0
LINE
  8
_1-b_
  6
CONTINUOUS
 62
    7
 10
168.70218500402251
 20
162.78345840516667
 11
168.94930480498914
 21
162.40081928320123
  0
LINE
  8
_1-b_
  6
CONTINUOUS
 62
    7
 10
167.30218469786081
 20
162.78345840516667
 11
167.05506489689418
 21
162.40081928320123
  0
LINE
  8
_1-b_
  6
CONTINUOUS
 62
    7
 10
167.30218500402265
 20
162.78345840516667
 11
167.54930480498905
 21
162.40081928320123
  0
LINE
  8
_1-b_
  6
CONTINUOUS
 62
    7
 10
165.90218469786095
 20
162.78345840516667
 11
165.65506489689409
 21
162.40081928320123
  0
LINE
  8
_1-b_
  6
CONTINUOUS
 62
    7
 10
165.90218500402256
 20
162.78345840516667
 11
166.14930480498919
 21
162.40081928320123
  0
LINE
  8
_1-b_
  6
CONTINUOUS
 62
    7
 10
164.50218469786086
 20
162.78345840516667
 11
164.25506489689423
 21
162.40081928320123
  0
LINE
  8
_1-b_
  6
CONTINUOUS
 62
    7
 10
164.50218500402269
 20
162.78345840516667
 11
164.74930480498932
 21
162.40081928320123
  0
LINE
  8
_1-b_
  6
CONTINUOUS
 62
    7
 10
163.10218469786076
 20
162.78345840516667
 11
162.85506489689436
 21
162.40081928320123
  0
LINE
  8
_1-b_
  6
CONTINUOUS
 62
    7
 10
163.1021850040226
 20
162.78345840516667
 11
163.34930480498923
 21
162.40081928320123
  0
LINE
  8
_1-b_
  6
CONTINUOUS
 62
    7
 10
161.7021846978609
 20
162.78345840516667
 11
161.45506489689427
 21
162.40081928320123
  0
LINE
  8
_1-b_
  6
CONTINUOUS
 62
    7
 10
161.70218500402251
 20
162.78345840516667
 11
161.94930480498937
 21
162.40081928320123
  0
LINE
  8
_1-b_
  6
CONTINUOUS
 62
    7
 10
160.75506489689445
 20
159.16609752713211
 11
160.75506489689445
 21
160.78345840516667
  0
LINE
  8
_1-b_
  6
CONTINUOUS
 62
    7
 10
160.05506489689441
 20
158.78345840516667
 11
160.75506489689445
 21
159.16609752713211
  0
LINE
  8
_1-b_
  6
CONTINUOUS
 62
    7
 10
160.75506489689445
 20
162.40081928320123
 11
160.75506489689445
 21
160.78345840516667
  0
LINE
  8
_1-b_
  6
CONTINUOUS
 62
    7
 10
160.05506489689441
 20
162.78345840516667
 11
160.75506489689445
 21
162.40081928320123
  0
ARC
  8
_1-b_
  6
CONTINUOUS
 62
    7
 10
175.26524495138523
 20
160.77736078277709
 40
16.110181208450566
 50
166.42592116371753
 51
193.58068433675962
  0
ARC
  8
_1-b_
  6
CONTINUOUS
 62
    7
 10
159.83006489689359
 20
157.00845840516658
 40
0.2249999999999658
 50
179.99999999999983
 51
359.99999999999966
  0
LINE
  8
_1-b_
  6
CONTINUOUS
 62
    7
 10
160.05506489689441
 20
164.55845840516676
 11
160.05506489689441
 21
157.00845840516658
  0
LINE
  8
_1-b_
  6
CONTINUOUS
 62
    7
 10
159.60506489689436
 20
157.00845840516658
 11
159.60506489689436
 21
164.55845840516676
  0
ARC
  8
_1-b_
  6
CONTINUOUS
 62
    7
 10
159.83006489689404
 20
164.55845840516676
 40
0.2249999999999658
 50
0
 51
179.99999999999983
  0
LINE
  8
_1-3_
  6
CONTINUOUS
 62
   18
 10
142.81009739275231
 20
166.30947544592399
 11
150.81009739275231
 21
166.30947544592399
  0
LINE
  8
_1-3_
  6
CONTINUOUS
 62
   18
 10
142.81009739275231
 20
166.30947544592399
 11
143.77602321904141
 21
166.56829449102651
  0
LINE
  8
_1-3_
  6
CONTINUOUS
 62
   18
 10
142.81009739275231
 20
166.30947544592399
 11
143.77602321904141
 21
166.05065640082148
  0
LINE
  8
_1-3_
  6
CONTINUOUS
 62
   18
 10
150.81009739275231
 20
166.30947544592399
 11
149.84417156646322
 21
166.05065640082148
  0
LINE
  8
_1-3_
  6
CONTINUOUS
 62
   18
 10
150.81009739275231
 20
166.30947544592399
 11
149.84417156646322
 21
166.56829449102651
  0
TEXT
  8
_1-3_
 62
    7
 10
146.06009739275231
 20
166.80947544592399
 40
3
 41
1
 50
0
  1
8
  0
LINE
  8
_1-3_
  6
CONTINUOUS
 62
   18
 10
160.05506489689441
 20
166.30947544592399
 11
163.05506489689441
 21
166.30947544592399
  0
LINE
  8
_1-3_
  6
CONTINUOUS
 62
   18
 10
159.15506489689443
 20
166.30947544592399
 11
160.05506489689441
 21
166.30947544592399
  0
LINE
  8
_1-3_
  6
CONTINUOUS
 62
   18
 10
159.15506489689443
 20
166.30947544592399
 11
158.18913907060534
 21
166.05065640082148
  0
LINE
  8
_1-3_
  6
CONTINUOUS
 62
   18
 10
159.15506489689443
 20
166.30947544592399
 11
158.18913907060534
 21
166.56829449102651
  0
LINE
  8
_1-3_
  6
CONTINUOUS
 62
   18
 10
160.05506489689441
 20
166.30947544592399
 11
161.0209907231835
 21
166.56829449102651
  0
LINE
  8
_1-3_
  6
CONTINUOUS
 62
   18
 10
160.05506489689441
 20
166.30947544592399
 11
161.0209907231835
 21
166.05065640082148
  0
LINE
  8
_1-3_
  6
CONTINUOUS
 62
   18
 10
160.05506489689441
 20
166.30947544592399
 11
172.05506489689441
 21
166.30947544592399
  0
LINE
  8
_1-3_
  6
CONTINUOUS
 62
   18
 10
160.05506489689441
 20
166.30947544592399
 11
161.0209907231835
 21
166.56829449102651
  0
LINE
  8
_1-3_
  6
CONTINUOUS
 62
   18
 10
160.05506489689441
 20
166.30947544592399
 11
161.0209907231835
 21
166.05065640082148
  0
LINE
  8
_1-3_
  6
CONTINUOUS
 62
   18
 10
172.05506489689441
 20
166.30947544592399
 11
171.08913907060531
 21
166.05065640082148
  0
LINE
  8
_1-3_
  6
CONTINUOUS
 62
   18
 10
172.05506489689441
 20
166.30947544592399
 11
171.08913907060531
 21
166.56829449102651
  0
TEXT
  8
_1-3_
 62
    7
 10
164.43006489689441
 20
166.80947544592399
 40
3
 41
1
 50
0
  1
12
  0
TEXT
  8
_1-3_
 62
    7
 10
153.50529389975753
 20
166.80947544592399
 40
3
 41
1
 50
0
  1
0.9
  0
LINE
  8
_1-3_
  6
CONTINUOUS
 62
   18
 10
159.15506489689443
 20
166.30947544592399
 11
153.70076715078636
 21
166.30947544592399
  0
LINE
  8
_1-3_
  6
CONTINUOUS
 62
   18
 10
142.81009739275231
 20
166.80947544592399
 11
142.81009739275231
 21
161.78345840516667
  0
LINE
  8
_1-3_
  6
CONTINUOUS
 62
   18
 10
150.81009739275231
 20
166.80947544592399
 11
150.81009739275231
 21
161.78345840516667
  0
LINE
  8
_1-3_
  6
CONTINUOUS
 62
   18
 10
159.15506489689443
 20
166.80947544592399
 11
159.15506489689443
 21
161.78345840516667
  0
LINE
  8
_1-3_
  6
CONTINUOUS
 62
   18
 10
160.05506489689441
 20
166.80947544592399
 11
160.05506489689441
 21
165.55845840516676
  0
LINE
  8
_1-3_
  6
CONTINUOUS
 62
   18
 10
172.05506489689441
 20
166.80947544592399
 11
172.05506489689441
 21
161.78345840516667
  0
TEXT
  8
_1-8_
 62
    7
 10
143.81104910790106
 20
171.43366391356091
 40
3
 41
0.8333333333333333
 50
0
  1
ラミメイト タッピン1種
  0
LINE
  8
_1-0_
  6
CENTER2
 62
   18
 10
142.27208937902202
 20
160.78345840516667
 11
151.2315250051243
 21
160.78345840516667
  0
LINE
  8
_1-0_
  6
CENTER2
 62
   18
 10
146.81009739275231
 20
156.29095337039897
 11
146.81009739275231
 21
165.27800167888205
  0
LINE
  8
_1-0_
  6
CENTER2
 62
   18
 10
158.44120189574625
 20
160.78345840516667
 11
172.76218955006726
 21
160.78345840516667
  0
LINE
  8
_1-3_
  6
CONTINUOUS
 62
   18
 10
119.16125568688523
 20
146.37189287048659
 11
141.05402184793996
 21
160.75281004638578
  0
LINE
  8
_1-b_
  6
CONTINUOUS
 62
    7
 10
117.03445201724168
 20
137.00665689400668
 11
116.83121354650967
 21
137.20672112115855
  0
LINE
  8
_1-b_
  6
CONTINUOUS
 62
    7
 10
118.44857442454423
 20
135.61462070372883
 11
117.33202862446643
 21
136.71372793361544
  0
LINE
  8
_1-b_
  6
CONTINUOUS
 62
    7
 10
116.78830032076399
 20
136.86750090276243
 11
116.98220881459798
 21
136.99273281359226
  0
LINE
  8
_1-b_
  6
CONTINUOUS
 62
    7
 10
119.2782061254016
 20
136.16750059660077
 11
118.94819151271741
 21
136.10643461207698
  0
LINE
  8
_1-b_
  6
CONTINUOUS
 62
    7
 10
119.2782061254016
 20
136.16750090276261
 11
119.11639029429222
 21
136.27200641116835
  0
LINE
  8
_1-b_
  6
CONTINUOUS
 62
    7
 10
118.78585599832633
 20
135.8495261438479
 11
118.66074178045307
 21
135.82347436186748
  0
LINE
  8
_1-b_
  6
CONTINUOUS
 62
    7
 10
119.2782061254016
 20
136.16750059660077
 11
118.78585599832633
 21
135.8495261438479
  0
LINE
  8
_1-b_
  6
CONTINUOUS
 62
    7
 10
118.44857442454423
 20
135.61462070372883
 11
120.06593530257879
 21
137.20672112115855
  0
LINE
  8
_1-b_
  6
CONTINUOUS
 62
    7
 10
120.06593530257879
 20
137.32038079563401
 11
117.1045575747965
 21
136.66325219338134
  0
LINE
  8
_1-b_
  6
CONTINUOUS
 62
    7
 10
116.78830032076399
 20
136.86750059660082
 11
117.1045575747965
 21
136.66325219338134
  0
LINE
  8
_1-b_
  6
CONTINUOUS
 62
    7
 10
120.06593530257879
 20
137.8146207037291
 11
116.98220881459798
 21
136.99273281359226
  0
LINE
  8
_1-b_
  6
CONTINUOUS
 62
    7
 10
120.44857442454423
 20
137.56750090276248
 11
116.89620180394769
 21
136.7978145882507
  0
LINE
  8
_1-b_
  6
CONTINUOUS
 62
    7
 10
120.44857442454423
 20
138.96750090276234
 11
116.44857442454423
 21
138.26750059660068
  0
LINE
  8
_1-b_
  6
CONTINUOUS
 62
    7
 10
116.83121354650967
 20
138.02038079563405
 11
116.83121354650967
 21
137.20672112115855
  0
LINE
  8
_1-b_
  6
CONTINUOUS
 62
    7
 10
116.83121354650967
 20
139.42038079563414
 11
116.83121354650967
 21
138.51462070372892
  0
LINE
  8
_1-b_
  6
CONTINUOUS
 62
    7
 10
116.83121354650967
 20
140.82038079563401
 11
116.83121354650967
 21
139.91462070372901
  0
LINE
  8
_1-b_
  6
CONTINUOUS
 62
    7
 10
116.83121354650967
 20
142.22038079563387
 11
116.83121354650967
 21
141.3146207037291
  0
LINE
  8
_1-b_
  6
CONTINUOUS
 62
    7
 10
116.83121354650967
 20
143.62038079563396
 11
116.83121354650967
 21
142.71462070372897
  0
LINE
  8
_1-b_
  6
CONTINUOUS
 62
    7
 10
116.83121354650967
 20
145.02038079563383
 11
116.83121354650967
 21
144.11462070372883
  0
LINE
  8
_1-b_
  6
CONTINUOUS
 62
    7
 10
116.83121354650967
 20
146.91462070372879
 11
116.83121354650967
 21
145.51462070372892
  0
LINE
  8
_1-b_
  6
CONTINUOUS
 62
    7
 10
120.06593530257879
 20
137.32038079563401
 11
120.06593530257879
 21
137.20672112115855
  0
LINE
  8
_1-b_
  6
CONTINUOUS
 62
    7
 10
120.06593530257879
 20
138.7203807956341
 11
120.06593530257879
 21
137.8146207037291
  0
LINE
  8
_1-b_
  6
CONTINUOUS
 62
    7
 10
120.06593530257879
 20
140.12038079563419
 11
120.06593530257879
 21
139.21462070372897
  0
LINE
  8
_1-b_
  6
CONTINUOUS
 62
    7
 10
120.06593530257879
 20
141.52038079563405
 11
120.06593530257879
 21
140.61462070372906
  0
LINE
  8
_1-b_
  6
CONTINUOUS
 62
    7
 10
120.06593530257879
 20
142.90631721192059
 11
120.06593530257879
 21
142.01462070372915
  0
LINE
  8
_1-b_
  6
CONTINUOUS
 62
    7
 10
120.06593530257879
 20
144.32038079563401
 11
120.06593530257879
 21
143.41462070372901
  0
LINE
  8
_1-b_
  6
CONTINUOUS
 62
    7
 10
120.06593530257879
 20
145.70631721192032
 11
120.06593530257879
 21
144.80055712001555
  0
LINE
  8
_1-b_
  6
CONTINUOUS
 62
    7
 10
120.06593530257879
 20
146.91462070372879
 11
120.06593530257879
 21
146.20055712001542
  0
LINE
  8
_1-b_
  6
CONTINUOUS
 62
    7
 10
116.53568498890951
 20
146.72375951327101
 11
117.69773121329246
 21
146.91462070372879
  0
LINE
  8
_1-b_
  6
CONTINUOUS
 62
    7
 10
120.44857442454423
 20
137.56750090276248
 11
120.06593530257879
 21
137.8146207037291
  0
LINE
  8
_1-b_
  6
CONTINUOUS
 62
    7
 10
120.44857442454423
 20
137.56750059660087
 11
120.06593530257879
 21
137.32038079563401
  0
LINE
  8
_1-b_
  6
CONTINUOUS
 62
    7
 10
120.06593530257879
 20
138.7203807956341
 11
116.83121354650967
 21
138.02038079563405
  0
LINE
  8
_1-b_
  6
CONTINUOUS
 62
    7
 10
116.83121354650967
 20
138.51462070372892
 11
120.06593530257879
 21
139.21462070372897
  0
LINE
  8
_1-b_
  6
CONTINUOUS
 62
    7
 10
116.44857442454423
 20
138.26750090276229
 11
116.83121354650967
 21
138.51462070372892
  0
LINE
  8
_1-b_
  6
CONTINUOUS
 62
    7
 10
116.44857442454423
 20
138.26750059660068
 11
116.83121354650967
 21
138.02038079563405
  0
LINE
  8
_1-b_
  6
CONTINUOUS
 62
    7
 10
120.06593530257879
 20
140.12038079563419
 11
116.83121354650967
 21
139.42038079563414
  0
LINE
  8
_1-b_
  6
CONTINUOUS
 62
    7
 10
120.44857442454423
 20
140.36750059660059
 11
116.44857442454423
 21
139.66750059660055
  0
LINE
  8
_1-b_
  6
CONTINUOUS
 62
    7
 10
120.06593530257879
 20
140.61462070372906
 11
116.83121354650967
 21
139.91462070372901
  0
LINE
  8
_1-b_
  6
CONTINUOUS
 62
    7
 10
120.06593530257879
 20
141.52038079563405
 11
116.83121354650967
 21
140.82038079563401
  0
LINE
  8
_1-b_
  6
CONTINUOUS
 62
    7
 10
120.44857442454423
 20
141.76750090276229
 11
116.44857442454423
 21
141.06750059660064
  0
LINE
  8
_1-b_
  6
CONTINUOUS
 62
    7
 10
120.06593530257879
 20
142.01462070372915
 11
116.83121354650967
 21
141.3146207037291
  0
LINE
  8
_1-b_
  6
CONTINUOUS
 62
    7
 10
120.06593530257879
 20
142.92038079563392
 11
116.83121354650967
 21
142.22038079563387
  0
LINE
  8
_1-b_
  6
CONTINUOUS
 62
    7
 10
120.44857442454423
 20
143.16750090276238
 11
116.44857442454423
 21
142.4675005966005
  0
LINE
  8
_1-b_
  6
CONTINUOUS
 62
    7
 10
120.06593530257879
 20
143.41462070372901
 11
116.83121354650967
 21
142.71462070372897
  0
LINE
  8
_1-b_
  6
CONTINUOUS
 62
    7
 10
120.06593530257879
 20
144.32038079563401
 11
116.83121354650967
 21
143.62038079563396
  0
LINE
  8
_1-b_
  6
CONTINUOUS
 62
    7
 10
120.44857442454423
 20
144.56750059660064
 11
116.44857442454423
 21
143.86750090276243
  0
LINE
  8
_1-b_
  6
CONTINUOUS
 62
    7
 10
120.06593530257879
 20
144.81462070372888
 11
116.83121354650967
 21
144.11462070372883
  0
LINE
  8
_1-b_
  6
CONTINUOUS
 62
    7
 10
120.44857442454423
 20
145.96750090276234
 11
116.44857442454423
 21
145.26750059660068
  0
LINE
  8
_1-b_
  6
CONTINUOUS
 62
    7
 10
120.06593530257879
 20
145.72038079563387
 11
116.83121354650967
 21
145.02038079563383
  0
LINE
  8
_1-b_
  6
CONTINUOUS
 62
    7
 10
120.06593530257879
 20
146.21462070372897
 11
116.83121354650967
 21
145.51462070372892
  0
LINE
  8
_1-b_
  6
CONTINUOUS
 62
    7
 10
116.44857442454423
 20
139.66750090276238
 11
116.83121354650967
 21
139.91462070372901
  0
LINE
  8
_1-b_
  6
CONTINUOUS
 62
    7
 10
116.44857442454423
 20
139.66750059660055
 11
116.83121354650967
 21
139.42038079563414
  0
LINE
  8
_1-b_
  6
CONTINUOUS
 62
    7
 10
116.44857442454423
 20
141.06750090276225
 11
116.83121354650967
 21
141.3146207037291
  0
LINE
  8
_1-b_
  6
CONTINUOUS
 62
    7
 10
116.44857442454423
 20
141.06750059660064
 11
116.83121354650967
 21
140.82038079563401
  0
LINE
  8
_1-b_
  6
CONTINUOUS
 62
    7
 10
116.44857442454423
 20
142.46750090276234
 11
116.83121354650967
 21
142.71462070372897
  0
LINE
  8
_1-b_
  6
CONTINUOUS
 62
    7
 10
116.44857442454423
 20
142.4675005966005
 11
116.83121354650967
 21
142.22038079563387
  0
LINE
  8
_1-b_
  6
CONTINUOUS
 62
    7
 10
116.44857442454423
 20
143.86750090276243
 11
116.83121354650967
 21
144.11462070372883
  0
LINE
  8
_1-b_
  6
CONTINUOUS
 62
    7
 10
116.44857442454423
 20
143.86750059660059
 11
116.83121354650967
 21
143.62038079563396
  0
LINE
  8
_1-b_
  6
CONTINUOUS
 62
    7
 10
116.44857442454423
 20
145.26750090276229
 11
116.83121354650967
 21
145.51462070372892
  0
LINE
  8
_1-b_
  6
CONTINUOUS
 62
    7
 10
116.44857442454423
 20
145.26750059660068
 11
116.83121354650967
 21
145.02038079563383
  0
LINE
  8
_1-b_
  6
CONTINUOUS
 62
    7
 10
116.44857442454423
 20
146.66750090276216
 11
116.83121354650967
 21
146.91462070372879
  0
LINE
  8
_1-b_
  6
CONTINUOUS
 62
    7
 10
116.44857442454423
 20
146.66750059660055
 11
116.83121354650967
 21
146.42038079563392
  0
LINE
  8
_1-b_
  6
CONTINUOUS
 62
    7
 10
120.44857442454423
 20
138.96750090276234
 11
120.06593530257879
 21
139.21462070372897
  0
LINE
  8
_1-b_
  6
CONTINUOUS
 62
    7
 10
120.44857442454423
 20
138.96750059660073
 11
120.06593530257879
 21
138.7203807956341
  0
LINE
  8
_1-b_
  6
CONTINUOUS
 62
    7
 10
120.44857442454423
 20
140.36750090276243
 11
120.06593530257879
 21
140.61462070372906
  0
LINE
  8
_1-b_
  6
CONTINUOUS
 62
    7
 10
120.44857442454423
 20
140.36750059660059
 11
120.06593530257879
 21
140.12038079563419
  0
LINE
  8
_1-b_
  6
CONTINUOUS
 62
    7
 10
120.44857442454423
 20
141.76750090276229
 11
120.06593530257879
 21
142.01462070372915
  0
LINE
  8
_1-b_
  6
CONTINUOUS
 62
    7
 10
120.44857442454423
 20
141.76750059660068
 11
120.06593530257879
 21
141.52038079563405
  0
LINE
  8
_1-b_
  6
CONTINUOUS
 62
    7
 10
120.44857442454423
 20
143.16750090276238
 11
120.06593530257879
 21
143.41462070372901
  0
LINE
  8
_1-b_
  6
CONTINUOUS
 62
    7
 10
120.44857442454423
 20
143.16750059660055
 11
120.06593530257879
 21
142.92038079563392
  0
LINE
  8
_1-b_
  6
CONTINUOUS
 62
    7
 10
120.44857442454423
 20
144.56750090276248
 11
120.06593530257879
 21
144.81462070372888
  0
LINE
  8
_1-b_
  6
CONTINUOUS
 62
    7
 10
120.44857442454423
 20
144.56750059660064
 11
120.06593530257879
 21
144.32038079563401
  0
LINE
  8
_1-b_
  6
CONTINUOUS
 62
    7
 10
120.44857442454423
 20
145.96750090276234
 11
120.06593530257879
 21
146.21462070372897
  0
LINE
  8
_1-b_
  6
CONTINUOUS
 62
    7
 10
120.44857442454423
 20
145.96750059660073
 11
120.06593530257879
 21
145.72038079563387
  0
LINE
  8
_1-b_
  6
CONTINUOUS
 62
    7
 10
116.83121354650967
 20
146.91462070372879
 11
118.44857442454423
 21
146.91462070372879
  0
LINE
  8
_1-b_
  6
CONTINUOUS
 62
    7
 10
116.44857442454423
 20
147.61462070372883
 11
116.83121354650967
 21
146.91462070372879
  0
LINE
  8
_1-b_
  6
CONTINUOUS
 62
    7
 10
120.06593530257879
 20
146.91462070372879
 11
118.44857442454423
 21
146.91462070372879
  0
LINE
  8
_1-b_
  6
CONTINUOUS
 62
    7
 10
120.44857442454423
 20
147.61462070372883
 11
120.06593530257879
 21
146.91462070372879
  0
ARC
  8
_1-b_
  6
CONTINUOUS
 62
    7
 10
118.44247680215477
 20
132.40444064923801
 40
16.110181208450566
 50
76.425921163717533
 51
103.58068433675963
  0
ARC
  8
_1-b_
  6
CONTINUOUS
 62
    7
 10
114.67357442454414
 20
147.83962070372965
 40
0.2249999999999658
 50
89.999999999999815
 51
269.99999999999966
  0
LINE
  8
_1-b_
  6
CONTINUOUS
 62
    7
 10
122.22357442454432
 20
147.61462070372883
 11
114.67357442454414
 21
147.61462070372883
  0
LINE
  8
_1-b_
  6
CONTINUOUS
 62
    7
 10
114.67357442454414
 20
148.06462070372888
 11
122.22357442454432
 21
148.06462070372888
  0
ARC
  8
_1-b_
  6
CONTINUOUS
 62
    7
 10
122.22357442454432
 20
147.8396207037292
 40
0.2249999999999658
 50
270
 51
89.999999999999815
  0
LINE
  8
_1-b_
  6
CONTINUOUS
 62
    7
 10
124.11008115960482
 20
151.87977097374761
 11
123.12258115960464
 21
151.87977097374761
  0
LINE
  8
_1-b_
  6
CONTINUOUS
 62
    7
 10
124.11008115960482
 20
152.25477097374761
 11
123.12258115960464
 21
152.25477097374761
  0
LINE
  8
_1-b_
  6
CONTINUOUS
 62
    7
 10
124.11008115960482
 20
152.25477097374761
 11
124.11008115960482
 21
151.87977097374761
  0
LINE
  8
_1-b_
  6
CONTINUOUS
 62
    7
 10
121.38508115960468
 20
152.25477097374761
 11
122.37258115960464
 21
152.25477097374761
  0
LINE
  8
_1-b_
  6
CONTINUOUS
 62
    7
 10
121.38508115960468
 20
151.87977097374761
 11
122.37258115960464
 21
151.87977097374761
  0
LINE
  8
_1-b_
  6
CONTINUOUS
 62
    7
 10
121.38508115960468
 20
151.87977097374761
 11
121.38508115960468
 21
152.25477097374761
  0
LINE
  8
_1-b_
  6
CONTINUOUS
 62
    7
 10
122.56008115960464
 20
153.42977097374757
 11
122.56008115960464
 21
152.44227097374761
  0
LINE
  8
_1-b_
  6
CONTINUOUS
 62
    7
 10
122.93508115960464
 20
153.42977097374757
 11
122.93508115960464
 21
152.44227097374761
  0
LINE
  8
_1-b_
  6
CONTINUOUS
 62
    7
 10
122.56008115960464
 20
153.42977097374757
 11
122.93508115960464
 21
153.42977097374757
  0
LINE
  8
_1-b_
  6
CONTINUOUS
 62
    7
 10
122.56008115960464
 20
150.70477097374754
 11
122.56008115960464
 21
151.69227097374761
  0
LINE
  8
_1-b_
  6
CONTINUOUS
 62
    7
 10
122.93508115960464
 20
150.70477097374754
 11
122.93508115960464
 21
151.69227097374761
  0
LINE
  8
_1-b_
  6
CONTINUOUS
 62
    7
 10
122.93508115960464
 20
150.70477097374754
 11
122.56008115960464
 21
150.70477097374754
  0
ARC
  8
_1-b_
  6
CONTINUOUS
 62
    7
 10
122.37258115960464
 20
152.44227097374761
 40
0.1875
 50
270
 51
0
  0
ARC
  8
_1-b_
  6
CONTINUOUS
 62
    7
 10
122.37258115960464
 20
151.69227097374761
 40
0.1875
 50
0
 51
90
  0
ARC
  8
_1-b_
  6
CONTINUOUS
 62
    7
 10
123.12258115960464
 20
151.69227097374761
 40
0.1875
 50
90
 51
180
  0
ARC
  8
_1-b_
  6
CONTINUOUS
 62
    7
 10
123.12258115960464
 20
152.44227097374761
 40
0.1875
 50
180
 51
270
  0
CIRCLE
  8
_1-b_
  6
CONTINUOUS
 62
    7
 10
122.74758115960464
 20
152.06727097374761
 40
2
  0
LINE
  8
_1-2_
  6
CONTINUOUS
 62
   18
 10
122.8238893907872
 20
159.22802358196049
 11
123.03602427142215
 21
159.44015846259543
  0
LINE
  8
_1-2_
  6
CONTINUOUS
 62
   18
 10
111.14877120078228
 20
160.63438084390603
 11
111.74342232141049
 21
161.22903196453436
  0
LINE
  8
_1-2_
  6
CONTINUOUS
 62
   18
 10
111.09938479547833
 20
160.93854782919553
 11
111.27243979917449
 21
161.11160283289158
  0
LINE
  8
_1-2_
  6
CONTINUOUS
 62
   18
 10
125.48660053748273
 20
155.17322030738347
 11
125.70864058406033
 21
155.39526035396131
  0
LINE
  8
_1-2_
  6
CONTINUOUS
 62
   18
 10
125.35719101493129
 20
155.39736417542548
 11
125.57923106150912
 21
155.61940422200331
  0
LINE
  8
_1-2_
  6
CONTINUOUS
 62
   18
 10
125.22778149238007
 20
155.6215080434676
 11
125.44982153895791
 21
155.84354809004543
  0
LINE
  8
_1-2_
  6
CONTINUOUS
 62
   18
 10
125.09837196982886
 20
155.84565191150961
 11
125.32041201640669
 21
156.06769195808744
  0
LINE
  8
_1-2_
  6
CONTINUOUS
 62
   18
 10
124.96896244727742
 20
156.06979577955161
 11
125.19100249385525
 21
156.29183582612944
  0
LINE
  8
_1-2_
  6
CONTINUOUS
 62
   18
 10
124.83955292472621
 20
156.29393964759373
 11
125.06159297130404
 21
156.51597969417156
  0
LINE
  8
_1-2_
  6
CONTINUOUS
 62
   18
 10
124.71014340217499
 20
156.51808351563574
 11
124.93218344875282
 21
156.74012356221357
  0
LINE
  8
_1-2_
  6
CONTINUOUS
 62
   18
 10
124.58073387962401
 20
156.74222738367718
 11
124.80277392620184
 21
156.96426743025501
  0
LINE
  8
_1-2_
  6
CONTINUOUS
 62
   18
 10
124.45132435707279
 20
156.96637125171929
 11
124.6733644036504
 21
157.18841129829701
  0
LINE
  8
_1-2_
  6
CONTINUOUS
 62
   18
 10
124.32191483452135
 20
157.1905151197613
 11
124.54395488109918
 21
157.41255516633913
  0
LINE
  8
_1-2_
  6
CONTINUOUS
 62
   18
 10
124.19250531197014
 20
157.41465898780331
 11
124.41454535854797
 21
157.63669903438114
  0
LINE
  8
_1-2_
  6
CONTINUOUS
 62
   18
 10
124.06309578941892
 20
157.63880285584543
 11
124.28513583599653
 21
157.86084290242314
  0
LINE
  8
_1-2_
  6
CONTINUOUS
 62
   18
 10
123.93181643336862
 20
157.86107689038846
 11
124.1482589028015
 21
158.07751935982145
  0
LINE
  8
_1-2_
  6
CONTINUOUS
 62
   18
 10
123.78885290359818
 20
158.07166675121147
 11
124.00415421928284
 21
158.28696806689612
  0
LINE
  8
_1-2_
  6
CONTINUOUS
 62
   18
 10
123.64068869982799
 20
158.27705593803461
 11
123.85503358005104
 21
158.49140081825766
  0
LINE
  8
_1-2_
  6
CONTINUOUS
 62
   18
 10
123.48739525350612
 20
158.47731588230607
 11
123.70096137602178
 21
158.69088200482173
  0
LINE
  8
_1-2_
  6
CONTINUOUS
 62
   18
 10
123.32903021571889
 20
158.67250423511217
 11
123.54198964748122
 21
158.8854636668745
  0
LINE
  8
_1-2_
  6
CONTINUOUS
 62
   18
 10
123.16563818354103
 20
158.86266559352754
 11
123.3781586952162
 21
159.07518610520282
  0
LINE
  8
_1-2_
  6
CONTINUOUS
 62
   18
 10
122.99725124957519
 20
159.04783205015514
 11
123.20949754404461
 21
159.26007834462456
  0
LINE
  8
_1-2_
  6
CONTINUOUS
 62
   18
 10
122.64556070775672
 20
159.40324828952322
 11
122.85774620990338
 21
159.61543379166997
  0
LINE
  8
_1-2_
  6
CONTINUOUS
 62
   18
 10
122.4622615210854
 20
159.57350249344532
 11
122.67466002877865
 21
159.78590100113857
  0
LINE
  8
_1-2_
  6
CONTINUOUS
 62
   18
 10
122.27397632765138
 20
159.73877069060362
 11
122.48675169702898
 21
159.95154605998133
  0
LINE
  8
_1-2_
  6
CONTINUOUS
 62
   18
 10
122.0806776154871
 20
159.89902536903278
 11
122.2939963266154
 21
160.11234408016108
  0
LINE
  8
_1-2_
  6
CONTINUOUS
 62
   18
 10
121.88232553210065
 20
160.05422667623967
 11
122.09635789202167
 21
160.26825903616069
  0
LINE
  8
_1-2_
  6
CONTINUOUS
 62
   18
 10
121.67886739679949
 20
160.20432193153172
 11
121.89378881857448
 21
160.41924335330683
  0
LINE
  8
_1-2_
  6
CONTINUOUS
 62
   18
 10
121.47023704287909
 20
160.34924496820477
 11
121.68622942842313
 21
160.56523735374881
  0
LINE
  8
_1-2_
  6
CONTINUOUS
 62
   18
 10
121.25635397004663
 20
160.48891528596553
 11
121.47360722876834
 21
160.70616854468736
  0
LINE
  8
_1-2_
  6
CONTINUOUS
 62
   18
 10
121.03712228089677
 20
160.62323698740911
 11
121.25583602193075
 21
160.84195072844309
  0
LINE
  8
_1-2_
  6
CONTINUOUS
 62
   18
 10
120.81242936720452
 20
160.7520974643102
 11
121.03281481068467
 21
160.97248290779035
  0
LINE
  8
_1-2_
  6
CONTINUOUS
 62
   18
 10
120.58214430166259
 20
160.8753657893615
 11
120.80442646471153
 21
161.09764795241054
  0
LINE
  8
_1-2_
  6
CONTINUOUS
 62
   18
 10
120.34611587773048
 20
160.99289075602283
 11
120.57053610438044
 21
161.21731098267279
  0
LINE
  8
_1-2_
  6
CONTINUOUS
 62
   18
 10
120.10417022339885
 20
161.10449849228453
 11
120.33098914572366
 21
161.33131741460934
  0
LINE
  8
_1-2_
  6
CONTINUOUS
 62
   18
 10
119.856107892387
 20
161.2099895518659
 11
120.08560893435794
 21
161.43949059383695
  0
LINE
  8
_1-2_
  6
CONTINUOUS
 62
   18
 10
119.60170030645196
 20
161.30913535652431
 11
119.83419387484361
 21
161.54162892491595
  0
LINE
  8
_1-2_
  6
CONTINUOUS
 62
   18
 10
119.34068538190883
 20
161.40167382257439
 11
119.57651393351995
 21
161.63750237418563
  0
LINE
  8
_1-2_
  6
CONTINUOUS
 62
   18
 10
119.0727621174795
 20
161.4873039487384
 11
119.31230635419189
 21
161.7268481854509
  0
LINE
  8
_1-2_
  6
CONTINUOUS
 62
   18
 10
118.79758384212511
 20
161.56567906397643
 11
119.04127037289646
 21
161.8093655947479
  0
LINE
  8
_1-2_
  6
CONTINUOUS
 62
   18
 10
118.5147497096487
 20
161.63639832209347
 11
118.76306064360375
 21
161.88470925604852
  0
LINE
  8
_1-2_
  6
CONTINUOUS
 62
   18
 10
118.22379386445442
 20
161.69899586749253
 11
118.4772789811048
 21
161.95248098414291
  0
LINE
  8
_1-2_
  6
CONTINUOUS
 62
   18
 10
117.92417146215968
 20
161.752926855791
 11
118.18346387444268
 21
162.01221926807412
  0
LINE
  8
_1-2_
  6
CONTINUOUS
 62
   18
 10
117.61524036407769
 20
161.79754914830235
 11
117.88107699875633
 21
162.0633857829811
  0
LINE
  8
_1-2_
  6
CONTINUOUS
 62
   18
 10
117.29623675780891
 20
161.83209893262702
 11
117.56948561309474
 21
162.10534778791285
  0
LINE
  8
_1-2_
  6
CONTINUOUS
 62
   18
 10
116.96624205002587
 20
161.85565761543731
 11
117.24793920581561
 21
162.13735477122705
  0
LINE
  8
_1-2_
  6
CONTINUOUS
 62
   18
 10
116.62413688103408
 20
161.86710583703885
 11
116.91553791307166
 21
162.15850686907643
  0
LINE
  8
_1-2_
  6
CONTINUOUS
 62
   18
 10
116.2685355453562
 20
161.86505789195419
 11
116.57118886455402
 21
162.16771121115212
  0
LINE
  8
_1-2_
  6
CONTINUOUS
 62
   18
 10
115.8976895095978
 20
161.84776524678924
 11
116.21354427813873
 21
162.16362001533017
  0
LINE
  8
_1-2_
  6
CONTINUOUS
 62
   18
 10
115.50934006196741
 20
161.81296918975218
 11
115.84091098734444
 21
162.14454011512922
  0
LINE
  8
_1-2_
  6
CONTINUOUS
 62
   18
 10
115.09959901098006
 20
161.75678152935805
 11
115.45111337162967
 21
162.10829589000778
  0
LINE
  8
_1-2_
  6
CONTINUOUS
 62
   18
 10
114.63434896721839
 20
161.64508487618983
 11
115.0402999770659
 21
162.05103588603734
  0
LINE
  8
_1-2_
  6
CONTINUOUS
 62
   18
 10
114.16909892345672
 20
161.53338822302149
 11
114.56931745482876
 21
161.93360675439365
  0
LINE
  8
_1-2_
  6
CONTINUOUS
 62
   18
 10
113.70384887969527
 20
161.42169156985338
 11
114.09833493259254
 21
161.81617762275064
  0
LINE
  8
_1-2_
  6
CONTINUOUS
 62
   18
 10
113.23859883593497
 20
161.30999491668538
 11
113.62735241035722
 21
161.69874849110775
  0
LINE
  8
_1-2_
  6
CONTINUOUS
 62
   18
 10
112.77334879217329
 20
161.19829826351705
 11
113.15636988812054
 21
161.5813193594644
  0
LINE
  8
_1-2_
  6
CONTINUOUS
 62
   18
 10
112.30809874841162
 20
161.08660161034882
 11
112.68538736588386
 21
161.46389022782094
  0
LINE
  8
_1-2_
  6
CONTINUOUS
 62
   18
 10
111.84284870464995
 20
160.9749049571806
 11
112.2144048436474
 21
161.34646109617793
  0
LINE
  8
_1-4_
  6
CONTINUOUS
 62
    7
 10
119.31545229020122
 20
152.40753896987718
 11
114.11929986749448
 21
155.40753896987718
  0
LINE
  8
_1-4_
  6
CONTINUOUS
 62
    7
 10
114.11929986749448
 20
155.40753896987718
 11
113.71929986749439
 21
154.71471864684969
  0
LINE
  8
_1-5_
  6
CONTINUOUS
 62
    7
 10
118.84501246380643
 20
155.39270084320782
 11
118.47001246380643
 21
154.74318179036942
  0
LINE
  8
_1-5_
  6
CONTINUOUS
 62
    7
 10
118.47001246380643
 20
154.74318179036942
 11
116.56475921838029
 21
155.84318026449051
  0
LINE
  8
_1-5_
  6
CONTINUOUS
 62
    7
 10
116.56475921838029
 20
155.84318026449051
 11
116.93975921838029
 21
156.49269931732891
  0
LINE
  8
_1-5_
  6
CONTINUOUS
 62
    7
 10
116.93975921838029
 20
156.49269931732891
 11
118.84501246380643
 21
155.39270084320782
  0
LINE
  8
_1-5_
  6
CONTINUOUS
 62
    7
 10
120.54846814708941
 20
153.54318484212723
 11
119.96262992571297
 21
152.52848327768737
  0
LINE
  8
_1-5_
  6
CONTINUOUS
 62
    7
 10
119.49448788884189
 20
152.30417271880748
 11
113.6862870623641
 21
155.65753902948182
  0
LINE
  8
_1-4_
  6
CONTINUOUS
 62
    7
 10
119.20898013362336
 20
152.22312378509304
 11
119.31545229020122
 21
152.40753896987718
  0
LINE
  8
_1-4_
  6
CONTINUOUS
 62
    7
 10
113.71929986749439
 20
154.71471864684969
 11
118.1303361226897
 21
152.16800567750744
  0
LINE
  8
_1-5_
  6
CONTINUOUS
 62
    7
 10
113.6862870623641
 20
155.65753902948182
 11
114.44288533436571
 21
156.96800567750751
  0
LINE
  8
_1-5_
  6
CONTINUOUS
 62
    7
 10
114.61650445339052
 20
156.96800567750751
 11
120.54846814708941
 21
153.54318484212723
  0
LINE
  8
_1-6_
  6
CONTINUOUS
 62
    7
 10
112.44758115960468
 20
149.16800567750744
 11
124.44758115960468
 21
149.16800567750744
  0
LINE
  8
_1-6_
  6
CONTINUOUS
 62
    7
 10
112.14758115960473
 20
149.46800567750751
 11
112.14758115960473
 21
151.86800567750748
  0
LINE
  8
_1-6_
  6
CONTINUOUS
 62
    7
 10
118.69758115960468
 20
156.96800567750751
 11
111.69758115960468
 21
156.96800567750751
  0
LINE
  8
_1-6_
  6
CONTINUOUS
 62
    7
 10
112.44758115960468
 20
152.16800567750744
 11
118.69758115960468
 21
152.16800567750744
  0
ARC
  8
_1-6_
  6
CONTINUOUS
 62
    7
 10
122.74758115960464
 20
152.11800567750748
 40
2.2000000000000002
 50
24.619977328657441
 51
335.38002267134249
  0
ARC
  8
_1-6_
  6
CONTINUOUS
 62
    7
 10
118.69758115960468
 20
154.56800567750741
 40
2.4000000000000004
 50
0
 51
90.000000000000028
  0
ARC
  8
_1-6_
  6
CONTINUOUS
 62
    7
 10
118.69758115960468
 20
154.56800567750741
 40
2.4000000000000004
 50
270
 51
0
  0
ARC
  8
_1-6_
  6
CONTINUOUS
 62
    7
 10
111.69758115960468
 20
160.63150862372746
 40
0.3
 50
103.50091321810294
 51
180
  0
ARC
  8
_1-6_
  6
CONTINUOUS
 62
    7
 10
111.69758115960468
 20
157.26800567750746
 40
0.3
 50
180
 51
270
  0
ARC
  8
_1-6_
  6
CONTINUOUS
 62
    7
 10
124.44758115960468
 20
149.46800567750751
 40
0.3
 50
270
 51
0
  0
ARC
  8
_1-6_
  6
CONTINUOUS
 62
    7
 10
112.44758115960468
 20
151.86800567750748
 40
0.3
 50
90
 51
180
  0
ARC
  8
_1-6_
  6
CONTINUOUS
 62
    7
 10
112.44758115960468
 20
149.46800567750751
 40
0.3
 50
180
 51
270
  0
LINE
  8
_1-6_
  6
CONTINUOUS
 62
    7
 10
111.62608609573709
 20
160.92286485901778
 11
115.10871193923327
 21
161.75896934986466
  0
LINE
  8
_1-6_
  6
CONTINUOUS
 62
    7
 10
111.39758115960473
 20
157.26800567750746
 11
111.39758115960473
 21
160.63150862372746
  0
ARC
  8
_1-6_
  6
CONTINUOUS
 62
    7
 10
116.49758115960464
 20
152.96800567750751
 40
8.8999999999999986
 50
33.058040942179865
 51
98.977855736236762
  0
LINE
  8
_1-6_
  6
CONTINUOUS
 62
    7
 10
125.49255002887327
 20
155.16291548601583
 11
123.95683505635662
 21
157.82285184435881
  0
ARC
  8
_1-6_
  6
CONTINUOUS
 62
    7
 10
125.23274240773782
 20
155.01291548601574
 40
0.3
 50
320
 51
29.999999999999993
  0
LINE
  8
_1-6_
  6
CONTINUOUS
 62
    7
 10
124.8177678266689
 20
154.05165089013354
 11
125.46255574067351
 21
154.82007920310986
  0
LINE
  8
_1-6_
  6
CONTINUOUS
 62
    7
 10
124.74758115960464
 20
153.85881460722766
 11
124.74758115960464
 21
149.46800567750751
  0
ARC
  8
_1-6_
  6
CONTINUOUS
 62
    7
 10
125.04758115960459
 20
153.85881460722766
 40
0.3
 50
140
 51
180.00000000000003
  0
ARC
  8
_1-1_
  6
CONTINUOUS
 62
    7
 10
111.29758115960459
 20
160.36800567750745
 40
0.2
 50
90
 51
180
  0
ARC
  8
_1-1_
  6
CONTINUOUS
 62
    7
 10
112.04758115960459
 20
152.16800567750744
 40
0.2
 50
180
 51
233.13010235415436
  0
ARC
  8
_1-1_
  6
CONTINUOUS
 62
    7
 10
112.04758115960459
 20
150.71489279009251
 40
0.2
 50
150.25511870306053
 51
180
  0
LINE
  8
_1-1_
  6
CONTINUOUS
 62
    7
 10
111.84758115960477
 20
149.16800567750744
 11
111.84758115960477
 21
150.71489279009251
  0
ARC
  8
_1-1_
  6
CONTINUOUS
 62
    7
 10
112.14758115960473
 20
149.16800567750744
 40
0.3
 50
180
 51
270
  0
LINE
  8
_1-1_
  6
CONTINUOUS
 62
    7
 10
112.14758115960473
 20
148.86800567750748
 11
113.04758115960459
 21
148.86800567750748
  0
LINE
  8
_1-1_
  6
CONTINUOUS
 62
    7
 10
115.94758115960468
 20
148.86800567750748
 11
115.24758115960464
 21
148.86800567750748
  0
LINE
  8
_1-1_
  6
CONTINUOUS
 62
    7
 10
120.94758115960468
 20
148.86800567750748
 11
121.64758115960473
 21
148.86800567750748
  0
LINE
  8
_1-1_
  6
CONTINUOUS
 62
    7
 10
124.74758115960464
 20
148.86800567750748
 11
123.84758115960477
 21
148.86800567750748
  0
ARC
  8
_1-1_
  6
CONTINUOUS
 62
    7
 10
124.74758115960464
 20
149.16800567750744
 40
0.3
 50
270
 51
0
  0
LINE
  8
_1-1_
  6
CONTINUOUS
 62
    7
 10
125.04758115960459
 20
149.16800567750744
 11
125.04758115960459
 21
150.71489279009251
  0
ARC
  8
_1-1_
  6
CONTINUOUS
 62
    7
 10
124.84758115960477
 20
150.71489279009251
 40
0.2
 50
0
 51
29.74488129693945
  0
LINE
  8
_1-1_
  6
CONTINUOUS
 62
    7
 10
125.04758115960459
 20
153.86800567750748
 11
125.79758115960459
 21
154.61800567750748
  0
LINE
  8
_1-1_
  6
CONTINUOUS
 62
    7
 10
125.79758115960459
 20
154.76800567750746
 11
125.79758115960459
 21
154.61800567750748
  0
ARC
  8
_1-1_
  6
CONTINUOUS
 62
    7
 10
113.14758115960473
 20
155.39121075826432
 40
0.3
 50
179.99999999999932
 51
239.99999999999892
  0
LINE
  8
_1-1_
  6
CONTINUOUS
 62
    7
 10
125.04758115960459
 20
152.16800567750744
 11
125.04758115960459
 21
153.86800567750748
  0
ARC
  8
_1-1_
  6
CONTINUOUS
 62
    7
 10
124.84758115960454
 20
152.16800567750744
 40
0.2
 50
306.86989764584564
 51
0
  0
LINE
  8
_1-1_
  6
CONTINUOUS
 62
    7
 10
111.09758115960477
 20
157.19226974621932
 11
111.09758115960477
 21
160.36800567750745
  0
ARC
  8
_1-1_
  6
CONTINUOUS
 62
    7
 10
111.39758115960473
 20
157.19226974621932
 40
0.3
 50
180
 51
225.00000000000094
  0
LINE
  8
_1-1_
  6
CONTINUOUS
 62
    7
 10
111.75971319396064
 20
156.40587364315144
 11
111.18544912524868
 21
156.98013771186339
  0
ARC
  8
_1-1_
  6
CONTINUOUS
 62
    7
 10
111.54758115960459
 20
156.19374160879551
 40
0.3
 50
0
 51
45.000000000000952
  0
ARC
  8
_1-1_
  6
CONTINUOUS
 62
    7
 10
112.54758115960459
 20
156.60795517116861
 40
0.3
 50
0
 51
45.000000000000952
  0
LINE
  8
_1-1_
  6
CONTINUOUS
 62
    7
 10
112.84758115960477
 20
155.39121075826432
 11
112.84758115960477
 21
156.60795517116861
  0
LINE
  8
_1-1_
  6
CONTINUOUS
 62
    7
 10
111.84758115960477
 20
156.19374160879551
 11
111.84758115960477
 21
152.16800567750744
  0
LINE
  8
_1-1_
  6
CONTINUOUS
 62
    7
 10
112.75971319396064
 20
156.82008720552454
 11
112.61179472197779
 21
156.96800567750739
  0
LINE
  8
_1-1_
  6
CONTINUOUS
 62
    7
 10
118.1303361226897
 20
152.16800567750744
 11
112.99758115960464
 21
155.13140313712898
  0
ARC
  8
_1-1_
  6
CONTINUOUS
 62
    7
 10
114.14758115960473
 20
152.11800567750748
 40
0.85
 50
3.372286683434726
 51
176.62771331656529
  0
LINE
  8
_1-1_
  6
CONTINUOUS
 62
    7
 10
111.9275811596047
 20
152.00800567750747
 11
112.14758115960473
 21
151.84300567750751
  0
LINE
  8
_1-1_
  6
CONTINUOUS
 62
    7
 10
111.87393253117972
 20
150.81412057776384
 11
112.14758115960473
 21
151.29300567750744
  0
ARC
  8
_1-1_
  6
CONTINUOUS
 62
    7
 10
113.04758115960459
 20
149.06800567750741
 40
0.2
 50
270
 51
29.999999999992614
  0
ARC
  8
_1-1_
  6
CONTINUOUS
 62
    7
 10
115.24758115960464
 20
149.06800567750741
 40
0.2
 50
150.00000000000739
 51
270
  0
ARC
  8
_1-1_
  6
CONTINUOUS
 62
    7
 10
115.94758115960468
 20
149.36800567750748
 40
0.5
 50
270
 51
336.42182152179879
  0
ARC
  8
_1-1_
  6
CONTINUOUS
 62
    7
 10
120.94758115960468
 20
149.36800567750748
 40
0.5
 50
203.57817847820417
 51
270
  0
ARC
  8
_1-1_
  6
CONTINUOUS
 62
    7
 10
121.64758115960473
 20
149.06800567750741
 40
0.2
 50
270
 51
29.999999999985565
  0
ARC
  8
_1-1_
  6
CONTINUOUS
 62
    7
 10
123.84758115960477
 20
149.06800567750741
 40
0.2
 50
150.00000000001444
 51
270
  0
LINE
  8
_1-1_
  6
CONTINUOUS
 62
    7
 10
125.02122978802964
 20
150.81412057776384
 11
124.74758115960464
 21
151.29300567750744
  0
LINE
  8
_1-1_
  6
CONTINUOUS
 62
    7
 10
124.96758115960466
 20
152.00800567750747
 11
124.74758115960464
 21
151.84300567750751
  0
ARC
  8
_1-1_
  6
CONTINUOUS
 62
    7
 10
125.49758115960464
 20
154.76800567750746
 40
0.3
 50
0.0000000000020355
 51
84.195006278212844
  0
ARC
  8
_1-2_
  6
CONTINUOUS
 62
    7
 10
116.49758115960464
 20
152.96800567750739
 40
9.2000000000000011
 50
32.584915873315815
 51
99.056222246134467
  0
LINE
  8
_1-2_
  6
CONTINUOUS
 62
    7
 10
111.24919678048474
 20
161.1058076974613
 11
115.04946829813053
 21
162.05332180521773
  0
ARC
  8
_1-2_
  6
CONTINUOUS
 62
    7
 10
111.29758115960459
 20
160.76800567750743
 40
0.2
 50
180
 51
270
  0
LINE
  8
_1-2_
  6
CONTINUOUS
 62
    7
 10
111.09758115960454
 20
160.91174855220609
 11
111.09758115960454
 21
160.76800567750743
  0
ARC
  8
_1-2_
  6
CONTINUOUS
 62
    7
 10
111.29758115960459
 20
160.91174855220609
 40
0.2
 50
103.99999999999991
 51
180
  0
ARC
  8
_1-2_
  6
CONTINUOUS
 62
    7
 10
125.55117099809087
 20
155.26800567750746
 40
0.2
 50
270
 51
30.000000000000476
  0
LINE
  8
_1-2_
  6
CONTINUOUS
 62
    7
 10
125.72437607884768
 20
155.36800567750737
 11
124.24944788003592
 21
157.92265625536555
  0
LINE
  8
_1-2_
  6
CONTINUOUS
 62
    7
 10
111.29758115960459
 20
160.56800567750739
 11
111.39758115960473
 21
160.56800567750739
  0
LINE
  8
_1-2_
  6
CONTINUOUS
 62
    7
 10
125.52764081533184
 20
155.06800567750741
 11
125.55117099809087
 21
155.06800567750741
  0
LINE
  8
_1-3_
  6
CONTINUOUS
 62
   18
 10
111.09758115960454
 20
166.68085309185764
 11
125.79758115960459
 21
166.68085309185764
  0
LINE
  8
_1-3_
  6
CONTINUOUS
 62
   18
 10
111.09758115960454
 20
166.68085309185764
 11
112.06350698589364
 21
166.93967213696018
  0
LINE
  8
_1-3_
  6
CONTINUOUS
 62
   18
 10
111.09758115960454
 20
166.68085309185764
 11
112.06350698589364
 21
166.42203404675513
  0
LINE
  8
_1-3_
  6
CONTINUOUS
 62
   18
 10
125.79758115960459
 20
166.68085309185764
 11
124.8316553333155
 21
166.42203404675513
  0
LINE
  8
_1-3_
  6
CONTINUOUS
 62
   18
 10
125.79758115960459
 20
166.68085309185764
 11
124.8316553333155
 21
166.93967213696018
  0
LINE
  8
_1-3_
  6
CONTINUOUS
 62
   18
 10
125.79758115960459
 20
167.18085309185764
 11
125.79758115960459
 21
155.76800567750746
  0
TEXT
  8
_1-3_
 62
    7
 10
115.07258115960457
 20
167.18085309185764
 40
3
 41
1
 50
0
  1
14.7
  0
LINE
  8
_1-3_
  6
CONTINUOUS
 62
   18
 10
103.52018550368729
 20
147.28745654803924
 11
103.52018550368729
 21
162.16800567750738
  0
LINE
  8
_1-3_
  6
CONTINUOUS
 62
   18
 10
103.52018550368729
 20
147.28745654803924
 11
103.26136645858475
 21
148.25338237432834
  0
LINE
  8
_1-3_
  6
CONTINUOUS
 62
   18
 10
103.52018550368729
 20
147.28745654803924
 11
103.77900454878983
 21
148.25338237432834
  0
LINE
  8
_1-3_
  6
CONTINUOUS
 62
   18
 10
103.52018550368729
 20
162.16800567750738
 11
103.77900454878983
 21
161.20207985121831
  0
LINE
  8
_1-3_
  6
CONTINUOUS
 62
   18
 10
103.52018550368729
 20
162.16800567750738
 11
103.26136645858475
 21
161.20207985121831
  0
LINE
  8
_1-3_
  6
CONTINUOUS
 62
   18
 10
103.02018550368729
 20
147.28745654803924
 11
107.44799009822788
 21
147.28745654803924
  0
LINE
  8
_1-3_
  6
CONTINUOUS
 62
   18
 10
103.02018550368729
 20
162.16800567750738
 11
115.49758115960475
 21
162.16800567750738
  0
TEXT
  8
_1-3_
 62
    7
 10
103.02018550368729
 20
149.60273111277331
 40
3
 41
1
 50
90
  1
（15）
  0
LINE
  8
_1-3_
  6
CONTINUOUS
 62
   18
 10
111.09758115960454
 20
167.18085309185764
 11
111.09758115960454
 21
161.63527828294036
  0
LINE
  8
_1-0_
  6
CENTER2
 62
   18
 10
62.389251280044903
 20
136.35385861743919
 11
62.389251280044903
 21
126.38834348072045
  0
LINE
  8
_1-0_
  6
CENTER2
 62
   18
 10
57.389251280044903
 20
132.44227518085108
 11
57.389251280044903
 21
129.34874096867281
  0
LINE
  8
_1-0_
  6
CENTER2
 62
   18
 10
67.389251280044903
 20
132.44227518085108
 11
67.389251280044903
 21
129.34874096867281
  0
LINE
  8
_1-9_
  6
CONTINUOUS
 62
    7
 10
52.389251280044903
 20
126.67592493260456
 11
72.389251280044903
 21
126.67592493260456
  0
ARC
  8
_1-9_
  6
CONTINUOUS
 62
    7
 10
55.889251280044903
 20
130.47592493260453
 40
1
 50
180
 51
270
  0
LINE
  8
_1-9_
  6
CONTINUOUS
 62
    7
 10
58.889251280044903
 20
129.47592493260453
 11
55.889251280044903
 21
129.47592493260453
  0
ARC
  8
_1-9_
  6
CONTINUOUS
 62
    7
 10
58.889251280044903
 20
130.47592493260453
 40
1
 50
270
 51
0
  0
LINE
  8
_1-9_
  6
CONTINUOUS
 62
    7
 10
54.889251280044903
 20
131.62592493260451
 11
54.889251280044903
 21
130.47592493260453
  0
ARC
  8
_1-9_
  6
CONTINUOUS
 62
    7
 10
55.389251280044903
 20
131.62592493260451
 40
0.5
 50
90
 51
180
  0
ARC
  8
_1-9_
  6
CONTINUOUS
 62
    7
 10
55.389251280044903
 20
131.62592493260451
 40
0.5
 50
0
 51
90
  0
LINE
  8
_1-9_
  6
CONTINUOUS
 62
    7
 10
55.889251280044903
 20
131.0259249326046
 11
55.889251280044903
 21
131.62592493260451
  0
ARC
  8
_1-9_
  6
CONTINUOUS
 62
    7
 10
56.389251280044903
 20
131.0259249326046
 40
0.5
 50
180
 51
270
  0
LINE
  8
_1-9_
  6
CONTINUOUS
 62
    7
 10
58.389251280044903
 20
130.5259249326046
 11
56.389251280044903
 21
130.5259249326046
  0
ARC
  8
_1-9_
  6
CONTINUOUS
 62
    7
 10
58.389251280044903
 20
131.0259249326046
 40
0.5
 50
270
 51
0
  0
LINE
  8
_1-9_
  6
CONTINUOUS
 62
    7
 10
58.889251280044903
 20
131.62592493260451
 11
58.889251280044903
 21
131.0259249326046
  0
ARC
  8
_1-9_
  6
CONTINUOUS
 62
    7
 10
59.389251280044903
 20
131.62592493260451
 40
0.5
 50
90
 51
180
  0
LINE
  8
_1-9_
  6
CONTINUOUS
 62
    7
 10
59.889251280044903
 20
131.62592493260451
 11
59.889251280044903
 21
130.47592493260453
  0
ARC
  8
_1-9_
  6
CONTINUOUS
 62
    7
 10
59.389251280044903
 20
131.62592493260451
 40
0.5
 50
0
 51
90
  0
ARC
  8
_1-9_
  6
CONTINUOUS
 62
    7
 10
68.889251280044903
 20
130.47592493260453
 40
1
 50
270
 51
0
  0
LINE
  8
_1-9_
  6
CONTINUOUS
 62
    7
 10
65.889251280044903
 20
129.47592493260453
 11
68.889251280044903
 21
129.47592493260453
  0
ARC
  8
_1-9_
  6
CONTINUOUS
 62
    7
 10
65.889251280044903
 20
130.47592493260453
 40
1
 50
180
 51
270
  0
LINE
  8
_1-9_
  6
CONTINUOUS
 62
    7
 10
69.889251280044903
 20
131.62592493260451
 11
69.889251280044903
 21
130.47592493260453
  0
ARC
  8
_1-9_
  6
CONTINUOUS
 62
    7
 10
69.389251280044903
 20
131.62592493260451
 40
0.5
 50
0
 51
90
  0
ARC
  8
_1-9_
  6
CONTINUOUS
 62
    7
 10
69.389251280044903
 20
131.62592493260451
 40
0.5
 50
90
 51
180
  0
LINE
  8
_1-9_
  6
CONTINUOUS
 62
    7
 10
68.889251280044903
 20
131.0259249326046
 11
68.889251280044903
 21
131.62592493260451
  0
ARC
  8
_1-9_
  6
CONTINUOUS
 62
    7
 10
68.389251280044903
 20
131.0259249326046
 40
0.5
 50
270
 51
0
  0
LINE
  8
_1-9_
  6
CONTINUOUS
 62
    7
 10
66.389251280044903
 20
130.5259249326046
 11
68.389251280044903
 21
130.5259249326046
  0
ARC
  8
_1-9_
  6
CONTINUOUS
 62
    7
 10
66.389251280044903
 20
131.0259249326046
 40
0.5
 50
180
 51
270
  0
LINE
  8
_1-9_
  6
CONTINUOUS
 62
    7
 10
65.889251280044903
 20
131.62592493260451
 11
65.889251280044903
 21
131.0259249326046
  0
ARC
  8
_1-9_
  6
CONTINUOUS
 62
    7
 10
65.389251280044903
 20
131.62592493260451
 40
0.5
 50
0
 51
90
  0
LINE
  8
_1-9_
  6
CONTINUOUS
 62
    7
 10
64.889251280044903
 20
131.62592493260451
 11
64.889251280044903
 21
130.47592493260453
  0
ARC
  8
_1-9_
  6
CONTINUOUS
 62
    7
 10
65.389251280044903
 20
131.62592493260451
 40
0.5
 50
90
 51
180
  0
LINE
  8
_1-9_
  6
DASHED3
 62
    3
 10
52.389251280044903
 20
126.98930902100453
 11
72.389251280044903
 21
126.98930902100453
  0
ARC
  8
_1-9_
  6
CONTINUOUS
 62
    7
 10
53.889251280044903
 20
134.2759249326046
 40
1.4999999999999996
 50
90
 51
180
  0
LINE
  8
_1-9_
  6
CONTINUOUS
 62
    7
 10
70.889251280044903
 20
135.7759249326046
 11
53.889251280044903
 21
135.7759249326046
  0
ARC
  8
_1-9_
  6
CONTINUOUS
 62
    7
 10
70.889251280044903
 20
134.2759249326046
 40
1.4999999999999996
 50
0
 51
90
  0
ARC
  8
_1-9_
  6
CONTINUOUS
 62
    7
 10
70.889251280044903
 20
131.5759249330045
 40
1.4999999999999996
 50
0
 51
90
  0
LINE
  8
_1-9_
  6
CONTINUOUS
 62
    7
 10
53.889251280044903
 20
133.0759249330045
 11
70.889251280044903
 21
133.0759249330045
  0
ARC
  8
_1-9_
  6
CONTINUOUS
 62
    7
 10
53.889251280044903
 20
131.5759249330045
 40
1.4999999999999996
 50
90
 51
180
  0
LINE
  8
_1-9_
  6
CONTINUOUS
 62
    7
 10
52.389251280044903
 20
134.2759249326046
 11
52.389251280044903
 21
126.67592493260456
  0
LINE
  8
_1-9_
  6
CONTINUOUS
 62
    7
 10
72.389251280044903
 20
134.2759249326046
 11
72.389251280044903
 21
126.67592493260456
  0
LINE
  8
_1-0_
  6
CENTER2
 62
   18
 10
40.954028623825536
 20
146.98454624269959
 11
29.348917604404448
 21
146.9842602241346
  0
CIRCLE
  8
_1-9_
  6
CONTINUOUS
 62
    7
 10
62.389251280044903
 20
146.98440323341708
 40
2.25
  0
CIRCLE
  8
_1-9_
  6
CONTINUOUS
 62
    7
 10
55.389251280044903
 20
146.98440323341708
 40
1.25
  0
CIRCLE
  8
_1-9_
  6
CONTINUOUS
 62
    7
 10
69.389251280044903
 20
146.98440323341708
 40
1.25
  0
LINE
  8
_1-9_
  6
CONTINUOUS
 62
    7
 10
52.389251280044903
 20
139.83440323341711
 11
52.389251280044903
 21
154.13440323341717
  0
LINE
  8
_1-9_
  6
CONTINUOUS
 62
    7
 10
52.389251280044903
 20
154.13440323341717
 11
72.389251280044903
 21
154.13440323341717
  0
LINE
  8
_1-9_
  6
CONTINUOUS
 62
    7
 10
72.389251280044903
 20
139.83440323341711
 11
72.389251280044903
 21
154.13440323341717
  0
LINE
  8
_1-9_
  6
CONTINUOUS
 62
    7
 10
52.389251280044903
 20
139.83440323341711
 11
72.389251280044903
 21
139.83440323341711
  0
LINE
  8
_1-9_
  6
DASHED3
 62
    3
 10
55.889251280044903
 20
140.67227119901713
 11
58.889251280044903
 21
140.67227119901713
  0
LINE
  8
_1-9_
  6
DASHED3
 62
    3
 10
54.889251280044903
 20
139.83440323341711
 11
54.889251280044903
 21
140.13440323341717
  0
LINE
  8
_1-9_
  6
DASHED3
 62
    3
 10
59.889251280044903
 20
139.83440323341711
 11
59.889251280044903
 21
140.13440323341717
  0
LINE
  8
_1-9_
  6
DASHED3
 62
    3
 10
55.889251280044903
 20
153.29653526781715
 11
58.889251280044903
 21
153.29653526781715
  0
LINE
  8
_1-9_
  6
DASHED3
 62
    3
 10
54.889251280044903
 20
154.13440323341717
 11
54.889251280044903
 21
153.83440323341711
  0
LINE
  8
_1-9_
  6
DASHED3
 62
    3
 10
59.889251280044903
 20
154.13440323341717
 11
59.889251280044903
 21
153.83440323341711
  0
LINE
  8
_1-9_
  6
DASHED3
 62
    3
 10
68.889251280044903
 20
140.67227119901713
 11
65.889251280044903
 21
140.67227119901713
  0
LINE
  8
_1-9_
  6
DASHED3
 62
    3
 10
69.889251280044903
 20
139.83440323341711
 11
69.889251280044903
 21
140.13440323341717
  0
LINE
  8
_1-9_
  6
DASHED3
 62
    3
 10
64.889251280044903
 20
139.83440323341711
 11
64.889251280044903
 21
140.13440323341717
  0
LINE
  8
_1-9_
  6
DASHED3
 62
    3
 10
68.889251280044903
 20
153.29653526781715
 11
65.889251280044903
 21
153.29653526781715
  0
LINE
  8
_1-9_
  6
DASHED3
 62
    3
 10
69.889251280044903
 20
154.13440323341717
 11
69.889251280044903
 21
153.83440323341711
  0
LINE
  8
_1-9_
  6
DASHED3
 62
    3
 10
64.889251280044903
 20
154.13440323341717
 11
64.889251280044903
 21
153.83440323341711
  0
LINE
  8
_1-0_
  6
CENTER2
 62
   18
 10
55.389251280044903
 20
145.03069586512481
 11
55.389251280044903
 21
148.68669084315366
  0
LINE
  8
_1-0_
  6
CENTER2
 62
   18
 10
51.820498284801204
 20
146.98440323341708
 11
72.857027825816715
 21
146.98440323341708
  0
LINE
  8
_1-0_
  6
CENTER2
 62
   18
 10
62.389251280044903
 20
139.30025106504911
 11
62.389251280044903
 21
155.09767538145536
  0
LINE
  8
_1-0_
  6
CENTER2
 62
   18
 10
69.389251280044903
 20
145.03069586512481
 11
69.389251280044903
 21
148.68669084315366
  0
LINE
  8
_1-0_
  6
CENTER2
 62
   18
 10
67.389251280044903
 20
155.12406477675449
 11
67.389251280044903
 21
152.03053056457622
  0
LINE
  8
_1-0_
  6
CENTER2
 62
   18
 10
57.389251280044903
 20
155.12406477675449
 11
57.389251280044903
 21
152.03053056457622
  0
LINE
  8
_1-0_
  6
CENTER2
 62
   18
 10
57.389251280044903
 20
138.84474169007979
 11
57.389251280044903
 21
141.93827590225806
  0
LINE
  8
_1-0_
  6
CENTER2
 62
   18
 10
67.389251280044903
 20
138.84474169007979
 11
67.389251280044903
 21
141.93827590225806
  0
LINE
  8
_1-9_
  6
CONTINUOUS
 62
    7
 10
58.889251280044903
 20
153.83440323341711
 11
58.889251280044903
 21
153.08440323341711
  0
LINE
  8
_1-9_
  6
CONTINUOUS
 62
    7
 10
52.389251280044903
 20
153.83440323341711
 11
72.389251280044903
 21
153.83440323341711
  0
LINE
  8
_1-9_
  6
CONTINUOUS
 62
    7
 10
55.889251280044903
 20
153.83440323341711
 11
55.889251280044903
 21
153.08440323341711
  0
LINE
  8
_1-9_
  6
CONTINUOUS
 62
    7
 10
55.889251280044903
 20
153.08440323341711
 11
58.889251280044903
 21
153.08440323341711
  0
LINE
  8
_1-9_
  6
CONTINUOUS
 62
    7
 10
65.889251280044903
 20
153.83440323341711
 11
65.889251280044903
 21
153.08440323341711
  0
LINE
  8
_1-9_
  6
CONTINUOUS
 62
    7
 10
68.889251280044903
 20
153.08440323341711
 11
65.889251280044903
 21
153.08440323341711
  0
LINE
  8
_1-9_
  6
CONTINUOUS
 62
    7
 10
68.889251280044903
 20
153.83440323341711
 11
68.889251280044903
 21
153.08440323341711
  0
LINE
  8
_1-9_
  6
CONTINUOUS
 62
    7
 10
52.389251280044903
 20
140.13440323341717
 11
72.389251280044903
 21
140.13440323341717
  0
LINE
  8
_1-9_
  6
CONTINUOUS
 62
    7
 10
58.889251280044903
 20
139.83440323341711
 11
58.889251280044903
 21
140.88440323341717
  0
LINE
  8
_1-9_
  6
CONTINUOUS
 62
    7
 10
55.889251280044903
 20
139.83440323341711
 11
55.889251280044903
 21
140.88440323341717
  0
LINE
  8
_1-9_
  6
CONTINUOUS
 62
    7
 10
65.889251280044903
 20
139.83440323341711
 11
65.889251280044903
 21
140.88440323341717
  0
LINE
  8
_1-9_
  6
CONTINUOUS
 62
    7
 10
68.889251280044903
 20
139.83440323341711
 11
68.889251280044903
 21
140.88440323341717
  0
LINE
  8
_1-9_
  6
CONTINUOUS
 62
    7
 10
55.889251280044903
 20
140.88440323341717
 11
58.889251280044903
 21
140.88440323341717
  0
LINE
  8
_1-9_
  6
CONTINUOUS
 62
    7
 10
68.889251280044903
 20
140.88440323341717
 11
65.889251280044903
 21
140.88440323341717
  0
LINE
  8
_1-3_
  6
CONTINUOUS
 62
   18
 10
46.908759381923176
 20
139.83440323341711
 11
46.908759381923176
 21
154.13440323341717
  0
LINE
  8
_1-3_
  6
CONTINUOUS
 62
   18
 10
46.908759381923176
 20
139.83440323341711
 11
46.649940336820634
 21
140.8003290597062
  0
LINE
  8
_1-3_
  6
CONTINUOUS
 62
   18
 10
46.908759381923176
 20
139.83440323341711
 11
47.167578427025717
 21
140.8003290597062
  0
LINE
  8
_1-3_
  6
CONTINUOUS
 62
   18
 10
46.908759381923176
 20
154.13440323341717
 11
47.167578427025717
 21
153.16847740712814
  0
LINE
  8
_1-3_
  6
CONTINUOUS
 62
   18
 10
46.908759381923176
 20
154.13440323341717
 11
46.649940336820634
 21
153.16847740712814
  0
LINE
  8
_1-3_
  6
CONTINUOUS
 62
   18
 10
46.408759381923176
 20
139.83440323341711
 11
51.389251280044903
 21
139.83440323341711
  0
LINE
  8
_1-3_
  6
CONTINUOUS
 62
   18
 10
46.408759381923176
 20
154.13440323341717
 11
51.389251280044903
 21
154.13440323341717
  0
TEXT
  8
_1-3_
 62
    7
 10
46.408759381923176
 20
143.60940323341714
 40
3
 41
1
 50
90
  1
14.3
  0
LINE
  8
_1-3_
  6
CONTINUOUS
 62
   18
 10
52.389251280044903
 20
161.58080413181366
 11
72.389251280044903
 21
161.58080413181366
  0
LINE
  8
_1-3_
  6
CONTINUOUS
 62
   18
 10
52.389251280044903
 20
161.58080413181366
 11
53.355177106333997
 21
161.83962317691618
  0
LINE
  8
_1-3_
  6
CONTINUOUS
 62
   18
 10
52.389251280044903
 20
161.58080413181366
 11
53.355177106333997
 21
161.32198508671115
  0
LINE
  8
_1-3_
  6
CONTINUOUS
 62
   18
 10
72.389251280044903
 20
161.58080413181366
 11
71.423325453755808
 21
161.32198508671115
  0
LINE
  8
_1-3_
  6
CONTINUOUS
 62
   18
 10
72.389251280044903
 20
161.58080413181366
 11
71.423325453755808
 21
161.83962317691618
  0
LINE
  8
_1-3_
  6
CONTINUOUS
 62
   18
 10
52.389251280044903
 20
162.08080413181366
 11
52.389251280044903
 21
155.13440323341717
  0
LINE
  8
_1-3_
  6
CONTINUOUS
 62
   18
 10
72.389251280044903
 20
162.08080413181366
 11
72.389251280044903
 21
155.13440323341717
  0
TEXT
  8
_1-3_
 62
    7
 10
60.764251280044903
 20
162.08080413181366
 40
3
 41
1
 50
0
  1
20
  0
LINE
  8
_1-3_
  6
CONTINUOUS
 62
   18
 10
52.389251280044903
 20
157.5860092770495
 11
62.389251280044903
 21
157.5860092770495
  0
LINE
  8
_1-3_
  6
CONTINUOUS
 62
   18
 10
52.389251280044903
 20
157.5860092770495
 11
53.355177106333997
 21
157.84482832215201
  0
LINE
  8
_1-3_
  6
CONTINUOUS
 62
   18
 10
52.389251280044903
 20
157.5860092770495
 11
53.355177106333997
 21
157.32719023194699
  0
LINE
  8
_1-3_
  6
CONTINUOUS
 62
   18
 10
62.389251280044903
 20
157.5860092770495
 11
61.423325453755808
 21
157.32719023194699
  0
LINE
  8
_1-3_
  6
CONTINUOUS
 62
   18
 10
62.389251280044903
 20
157.5860092770495
 11
61.423325453755808
 21
157.84482832215201
  0
LINE
  8
_1-3_
  6
CONTINUOUS
 62
   18
 10
52.389251280044903
 20
158.0860092770495
 11
52.389251280044903
 21
155.13440323341717
  0
LINE
  8
_1-3_
  6
CONTINUOUS
 62
   18
 10
62.389251280044903
 20
158.0860092770495
 11
62.389251280044903
 21
156.09767538145536
  0
TEXT
  8
_1-3_
 62
    7
 10
55.764251280044903
 20
158.0860092770495
 40
3
 41
1
 50
0
  1
10
  0
LINE
  8
_1-3_
  6
CONTINUOUS
 62
   18
 10
64.337808438559875
 20
148.10940323341708
 11
65.044915219746429
 21
148.81651001460364
  0
LINE
  8
_1-3_
  6
CONTINUOUS
 62
   18
 10
64.337808438559875
 20
148.10940323341708
 11
65.30373426484897
 21
148.36822227851962
  0
LINE
  8
_1-3_
  6
CONTINUOUS
 62
   18
 10
64.337808438559875
 20
148.10940323341708
 11
74.073752203434481
 21
153.73045298688265
  0
LINE
  8
_1-9_
  6
CONTINUOUS
 62
    7
 10
38.615155988014465
 20
154.13450742505171
 11
38.615163381788591
 21
153.83450742514273
  0
LINE
  8
_1-9_
  6
CONTINUOUS
 62
    7
 10
33.815482547828935
 20
140.88438912869
 11
33.603355741725238
 21
140.67225186621067
  0
LINE
  8
_1-9_
  6
CONTINUOUS
 62
    7
 10
33.815482547828935
 20
140.88438912869
 11
34.56550103203648
 21
140.13440761335306
  0
LINE
  8
_1-9_
  6
CONTINUOUS
 62
    7
 10
33.603355741725238
 20
140.67225186621067
 11
34.141236963453537
 21
140.13439715697743
  0
LINE
  8
_1-9_
  6
CONTINUOUS
 62
    7
 10
33.815181867681588
 20
153.08438912498468
 11
33.603044605202342
 21
153.29651593108846
  0
LINE
  8
_1-9_
  6
CONTINUOUS
 62
    7
 10
33.815181867681588
 20
153.08438912498468
 11
34.565163383018501
 21
153.83440760919217
  0
LINE
  8
_1-9_
  6
CONTINUOUS
 62
    7
 10
33.603044605202342
 20
153.29651593108846
 11
34.140899314435558
 21
153.83439715281654
  0
LINE
  8
_1-9_
  6
CONTINUOUS
 62
    7
 10
35.915508425400674
 20
139.83444088542763
 11
35.915501031626548
 21
140.1344408853366
  0
LINE
  8
_1-9_
  6
DASHED3
 62
    3
 10
34.141236963453537
 20
140.13439715697743
 11
34.441244357136441
 21
139.83440455084261
  0
LINE
  8
_1-9_
  6
DASHED3
 62
    3
 10
34.140899314435558
 20
153.83439715281654
 11
34.440891920570209
 21
154.13440454649961
  0
ARC
  8
_1-9_
  6
CONTINUOUS
 62
    7
 10
30.037475127612367
 20
153.63429602011735
 40
0.5000000000000001
 50
90.001412106838544
 51
182.50141210683856
  0
ARC
  8
_1-9_
  6
CONTINUOUS
 62
    7
 10
30.037802918264845
 20
140.33429602415666
 40
0.5000000000000001
 50
177.50141210683856
 51
270.00141210683853
  0
LINE
  8
_1-9_
  6
CONTINUOUS
 62
    7
 10
30.037470198429617
 20
153.83429602005657
 11
38.615163381788591
 21
153.83450742514273
  0
LINE
  8
_1-9_
  6
CONTINUOUS
 62
    7
 10
29.837665698364674
 20
153.62556721815565
 11
30.127793756220115
 21
146.98429824408285
  0
ARC
  8
_1-9_
  6
CONTINUOUS
 62
    7
 10
30.037475127612367
 20
153.63429602011735
 40
0.2
 50
90.001412106838558
 51
182.50141210683856
  0
LINE
  8
_1-9_
  6
CONTINUOUS
 62
    7
 10
29.837993059001121
 20
140.34301497713588
 11
30.127793756220115
 21
146.98429824408285
  0
LINE
  8
_1-9_
  6
CONTINUOUS
 62
    7
 10
30.037807847447596
 20
140.13429602421746
 11
35.915501031626548
 21
140.1344408853366
  0
ARC
  8
_1-9_
  6
CONTINUOUS
 62
    7
 10
30.037802918264845
 20
140.33429602415666
 40
0.2
 50
177.50141210683861
 51
270.00141210683859
  0
LINE
  8
_1-9_
  6
CONTINUOUS
 62
    7
 10
30.037815241221722
 20
139.83429602430851
 11
35.915508425400674
 21
139.83444088542763
  0
LINE
  8
_1-9_
  6
CONTINUOUS
 62
    7
 10
29.538278270105764
 20
140.35609340660457
 11
29.827507950762367
 21
146.98429084326477
  0
LINE
  8
_1-3_
  6
CONTINUOUS
 62
   18
 10
29.515155990778169
 20
161.58080413181366
 11
38.615155988014465
 21
161.58080413181366
  0
LINE
  8
_1-3_
  6
CONTINUOUS
 62
   18
 10
29.515155990778169
 20
161.58080413181366
 11
30.481081817067263
 21
161.83962317691618
  0
LINE
  8
_1-3_
  6
CONTINUOUS
 62
   18
 10
29.515155990778169
 20
161.58080413181366
 11
30.481081817067263
 21
161.32198508671115
  0
LINE
  8
_1-3_
  6
CONTINUOUS
 62
   18
 10
38.615155988014465
 20
161.58080413181366
 11
37.64923016172537
 21
161.32198508671115
  0
LINE
  8
_1-3_
  6
CONTINUOUS
 62
   18
 10
38.615155988014465
 20
161.58080413181366
 11
37.64923016172537
 21
161.83962317691618
  0
LINE
  8
_1-3_
  6
CONTINUOUS
 62
   18
 10
29.515155990778169
 20
162.08080413181366
 11
29.515155990778169
 21
155.13428314723683
  0
LINE
  8
_1-3_
  6
CONTINUOUS
 62
   18
 10
38.615155988014465
 20
162.08080413181366
 11
38.615155988014465
 21
155.13450742505171
  0
TEXT
  8
_1-3_
 62
    7
 10
31.565155989396374
 20
162.08080413181366
 40
3
 41
1
 50
0
  1
9.1
  0
LINE
  8
_1-3_
  6
CONTINUOUS
 62
   18
 10
29.515155990778169
 20
134.47361887767119
 11
35.915508425400674
 21
134.47361887767119
  0
LINE
  8
_1-3_
  6
CONTINUOUS
 62
   18
 10
29.515155990778169
 20
134.47361887767119
 11
30.481081817067263
 21
134.7324379227737
  0
LINE
  8
_1-3_
  6
CONTINUOUS
 62
   18
 10
29.515155990778169
 20
134.47361887767119
 11
30.481081817067263
 21
134.21479983256864
  0
LINE
  8
_1-3_
  6
CONTINUOUS
 62
   18
 10
35.915508425400674
 20
134.47361887767119
 11
34.949582599111579
 21
134.21479983256864
  0
LINE
  8
_1-3_
  6
CONTINUOUS
 62
   18
 10
35.915508425400674
 20
134.47361887767119
 11
34.949582599111579
 21
134.7324379227737
  0
LINE
  8
_1-3_
  6
CONTINUOUS
 62
   18
 10
35.915508425400674
 20
133.97361887767119
 11
35.915508425400674
 21
138.83444088542763
  0
TEXT
  8
_1-3_
 62
    7
 10
30.215332208089478
 20
134.97361887767119
 40
3
 41
1
 50
0
  1
6.4
  0
LINE
  8
_1-3_
  6
CONTINUOUS
 62
   18
 10
29.515155990778169
 20
133.97361887767119
 11
29.515155990778169
 21
138.83444088542763
  0
LINE
  8
_1-9_
  6
CONTINUOUS
 62
    7
 10
30.03746280465549
 20
154.13429601996552
 11
38.615155988014465
 21
154.13450742505171
  0
LINE
  8
_1-9_
  6
CONTINUOUS
 62
    7
 10
29.537951554492963
 20
153.61247401521319
 11
29.827507950762367
 21
146.98429084326477
  0
LINE
  8
_1-0_
  6
CENTER2
 62
   18
 10
62.389251280044903
 20
166.01070476177142
 11
62.389251280044903
 21
175.97621989849017
  0
LINE
  8
_1-0_
  6
CENTER2
 62
   18
 10
57.389251280044903
 20
169.92228819835941
 11
57.389251280044903
 21
173.01582241053779
  0
LINE
  8
_1-0_
  6
CENTER2
 62
   18
 10
67.389251280044903
 20
169.92228819835941
 11
67.389251280044903
 21
173.01582241053779
  0
LINE
  8
_1-9_
  6
CONTINUOUS
 62
    7
 10
52.389251280044903
 20
175.3640548326602
 11
72.389251280044903
 21
175.3640548326602
  0
ARC
  8
_1-9_
  6
CONTINUOUS
 62
    7
 10
55.889251280044903
 20
171.56405483266013
 40
0.9999999999999996
 50
90
 51
180
  0
LINE
  8
_1-9_
  6
CONTINUOUS
 62
    7
 10
58.889251280044903
 20
172.56405483266013
 11
55.889251280044903
 21
172.56405483266013
  0
ARC
  8
_1-9_
  6
CONTINUOUS
 62
    7
 10
58.889251280044903
 20
171.56405483266013
 40
0.9999999999999996
 50
0
 51
90
  0
LINE
  8
_1-9_
  6
CONTINUOUS
 62
    7
 10
54.889251280044903
 20
170.41405483266016
 11
54.889251280044903
 21
171.56405483266013
  0
ARC
  8
_1-9_
  6
CONTINUOUS
 62
    7
 10
55.389251280044903
 20
170.41405483266016
 40
0.4999999999999998
 50
180
 51
270
  0
ARC
  8
_1-9_
  6
CONTINUOUS
 62
    7
 10
55.389251280044903
 20
170.41405483266016
 40
0.4999999999999998
 50
270
 51
0
  0
LINE
  8
_1-9_
  6
CONTINUOUS
 62
    7
 10
55.889251280044903
 20
171.01405483266018
 11
55.889251280044903
 21
170.41405483266016
  0
ARC
  8
_1-9_
  6
CONTINUOUS
 62
    7
 10
56.389251280044903
 20
171.01405483266018
 40
0.4999999999999998
 50
90
 51
180
  0
LINE
  8
_1-9_
  6
CONTINUOUS
 62
    7
 10
58.389251280044903
 20
171.51405483266018
 11
56.389251280044903
 21
171.51405483266018
  0
ARC
  8
_1-9_
  6
CONTINUOUS
 62
    7
 10
58.389251280044903
 20
171.01405483266018
 40
0.4999999999999998
 50
0
 51
90
  0
LINE
  8
_1-9_
  6
CONTINUOUS
 62
    7
 10
58.889251280044903
 20
170.41405483266016
 11
58.889251280044903
 21
171.01405483266018
  0
ARC
  8
_1-9_
  6
CONTINUOUS
 62
    7
 10
59.389251280044903
 20
170.41405483266016
 40
0.4999999999999998
 50
180
 51
270
  0
LINE
  8
_1-9_
  6
CONTINUOUS
 62
    7
 10
59.889251280044903
 20
170.41405483266016
 11
59.889251280044903
 21
171.56405483266013
  0
ARC
  8
_1-9_
  6
CONTINUOUS
 62
    7
 10
59.389251280044903
 20
170.41405483266016
 40
0.4999999999999998
 50
270
 51
0
  0
ARC
  8
_1-9_
  6
CONTINUOUS
 62
    7
 10
68.889251280044903
 20
171.56405483266013
 40
0.9999999999999996
 50
0
 51
90
  0
LINE
  8
_1-9_
  6
CONTINUOUS
 62
    7
 10
65.889251280044903
 20
172.56405483266013
 11
68.889251280044903
 21
172.56405483266013
  0
ARC
  8
_1-9_
  6
CONTINUOUS
 62
    7
 10
65.889251280044903
 20
171.56405483266013
 40
0.9999999999999996
 50
90
 51
180
  0
LINE
  8
_1-9_
  6
CONTINUOUS
 62
    7
 10
69.889251280044903
 20
170.41405483266016
 11
69.889251280044903
 21
171.56405483266013
  0
ARC
  8
_1-9_
  6
CONTINUOUS
 62
    7
 10
69.389251280044903
 20
170.41405483266016
 40
0.4999999999999998
 50
270
 51
0
  0
ARC
  8
_1-9_
  6
CONTINUOUS
 62
    7
 10
69.389251280044903
 20
170.41405483266016
 40
0.4999999999999998
 50
180
 51
270
  0
LINE
  8
_1-9_
  6
CONTINUOUS
 62
    7
 10
68.889251280044903
 20
171.01405483266018
 11
68.889251280044903
 21
170.41405483266016
  0
ARC
  8
_1-9_
  6
CONTINUOUS
 62
    7
 10
68.389251280044903
 20
171.01405483266018
 40
0.4999999999999998
 50
0
 51
90
  0
LINE
  8
_1-9_
  6
CONTINUOUS
 62
    7
 10
66.389251280044903
 20
171.51405483266018
 11
68.389251280044903
 21
171.51405483266018
  0
ARC
  8
_1-9_
  6
CONTINUOUS
 62
    7
 10
66.389251280044903
 20
171.01405483266018
 40
0.4999999999999998
 50
90
 51
180
  0
LINE
  8
_1-9_
  6
CONTINUOUS
 62
    7
 10
65.889251280044903
 20
170.41405483266016
 11
65.889251280044903
 21
171.01405483266018
  0
ARC
  8
_1-9_
  6
CONTINUOUS
 62
    7
 10
65.389251280044903
 20
170.41405483266016
 40
0.4999999999999998
 50
270
 51
0
  0
LINE
  8
_1-9_
  6
CONTINUOUS
 62
    7
 10
64.889251280044903
 20
170.41405483266016
 11
64.889251280044903
 21
171.56405483266013
  0
ARC
  8
_1-9_
  6
CONTINUOUS
 62
    7
 10
65.389251280044903
 20
170.41405483266016
 40
0.4999999999999998
 50
180
 51
270
  0
LINE
  8
_1-9_
  6
DASHED3
 62
    3
 10
52.389251280044903
 20
175.05067074426012
 11
72.389251280044903
 21
175.05067074426012
  0
LINE
  8
_1-9_
  6
CONTINUOUS
 62
    7
 10
52.389251280044903
 20
167.76405483266018
 11
52.389251280044903
 21
175.3640548326602
  0
ARC
  8
_1-9_
  6
CONTINUOUS
 62
    7
 10
53.889251280044903
 20
167.76405483266018
 40
1.4999999999999996
 50
180
 51
270
  0
LINE
  8
_1-9_
  6
CONTINUOUS
 62
    7
 10
70.889251280044903
 20
166.26405483266018
 11
53.889251280044903
 21
166.26405483266018
  0
LINE
  8
_1-9_
  6
CONTINUOUS
 62
    7
 10
72.389251280044903
 20
167.76405483266018
 11
72.389251280044903
 21
175.3640548326602
  0
ARC
  8
_1-9_
  6
CONTINUOUS
 62
    7
 10
70.889251280044903
 20
167.76405483266018
 40
1.4999999999999996
 50
270
 51
0
  0
TEXT
  8
_1-8_
 62
    7
 10
108.44758115960468
 20
131.95522007385142
 40
3
 41
0.8333333333333333
 50
0
  1
クリップ取付寸法
  0
TEXT
  8
_1-0_
 62
    7
 10
137.15556293722324
 20
178.46899321875009
 40
4
 41
1
 50
0
  1
固定クリップ専用ビス
  0
TEXT
  8
_1-8_
 62
    7
 10
144.43604910790106
 20
174.6373676172646
 40
3
 41
0.8333333333333333
 50
0
  1
4×12　 十字穴番号 2
  0
TEXT
  8
_1-3_
 62
    7
 10
74.168972128221469
 20
152.83507985020412
 40
3
 41
0.8333333333333333
 50
0
  1
φ4.5 固定用ネジ穴
  0
LINE
  8
_1-f_
  6
CONTINUOUS
 62
    7
 10
93.199574535994287
 20
30.42065500595001
 11
90.949582535994267
 21
25.920653005950015
  0
LINE
  8
_1-f_
  6
CONTINUOUS
 62
    7
 10
93.199574535994287
 20
30.42065500595001
 11
95.449574535994287
 21
25.920653005950015
  0
TEXT
  8
_1-f_
 62
    7
 10
92.223137880553253
 20
25.941448741115153
 40
4
 41
1
 50
0
  1
1
  0
LINE
  8
_1-f_
  6
CONTINUOUS
 62
    7
 10
90.949582535994267
 20
25.920653005950015
 11
95.449574535994287
 21
25.920653005950015
  0
LINE
  8
_1-f_
  6
CONTINUOUS
 62
    7
 10
139.45471856891609
 20
30.308956005362148
 11
137.20472656891607
 21
25.808954005362153
  0
LINE
  8
_1-f_
  6
CONTINUOUS
 62
    7
 10
139.45471856891609
 20
30.308956005362148
 11
141.70471856891609
 21
25.808954005362153
  0
TEXT
  8
_1-f_
 62
    7
 10
138.47828191347506
 20
25.829749740527291
 40
4
 41
1
 50
0
  1
1
  0
LINE
  8
_1-f_
  6
CONTINUOUS
 62
    7
 10
137.20472656891607
 20
25.808954005362153
 11
141.70471856891609
 21
25.808954005362153
  0
TEXT
  8
_1-f_
 62
    7
 10
97.92104764649207
 20
26.08918495708113
 40
3.5
 41
1
 50
0
  1
100％
  0
TEXT
  8
_1-f_
 62
    7
 10
144.03629108999348
 20
26.08918495708113
 40
3.5
 41
1
 50
0
  1
100％
  0
TEXT
  8
_1-f_
 62
    7
 10
337.28585320887407
 20
47.50161669606112
 40
4
 41
1.0000000000000009
 50
0
  1
原田
  0
TEXT
  8
_1-f_
 62
    7
 10
293.80997520887411
 20
271.76325769036225
 40
3
 41
1
 50
0
  1
2021.10.18
  0
TEXT
  8
_1-f_
 62
    7
 10
353.94879887889709
 20
26.45294162475227
 40
5
 41
0.8
 50
0
  1
Ｆ９２１５０９０－１
  0
TEXT
  8
_1-f_
 62
    7
 10
167.21207537887409
 20
96.296142660917312
 40
4.5
 41
1
 50
0
  1
　CR：固定クリップ
  0
TEXT
  8
_1-f_
 62
    7
 10
167.21207537887409
 20
90.796142660917312
 40
4.5
 41
1
 50
0
  1
　MG：マグネット
  0
TEXT
  8
_1-f_
 62
    7
 10
319.80997520887411
 20
271.76325769036225
 40
3
 41
0.6666666666666666
 50
0
  1
Ra95 DN/NWの全光束比率追記,ｺﾈｸﾀｰ仕様/固定仕様表記修正
  0
TEXT
  8
_1-a_
 62
    7
 10
55.202310897255131
 20
250.48198049211419
 40
2.5
 41
1
 50
90
  1
FGB-1000-N-AMG
  0
TEXT
  8
_1-f_
 62
    7
 10
19.344470180158254
 20
104.10332242148317
 40
10
 41
1
 50
0
  1
FGB-1000-NZ-AMG
  0
LINE
  8
_1-f_
  6
CONTINUOUS
 62
    7
 10
78.860229276895922
 20
104.9562218706206
 11
84.198810068151658
 21
104.9562218706206
  0
TEXT
  8
_1-f_
 62
    7
 10
78.806393842402116
 20
99.233016802245615
 40
5
 41
1.0000000000000004
 50
0
  1
⑤
  0
TEXT
  8
_1-f_
 62
    7
 10
87.13090883358376
 20
99.233016802245615
 40
5
 41
1.0000000000000004
 50
0
  1
⑥
  0
LINE
  8
_1-f_
  6
CONTINUOUS
 62
    7
 10
84.7631839658589
 20
104.9562218706206
 11
94.216446752455013
 21
104.9562218706206
  0
TEXT
  8
_1-f_
 62
    7
 10
167.21207537887409
 20
112.79614266091731
 40
4.5
 41
1
 50
0
  1
 　A：両側仕様
  0
TEXT
  8
_1-f_
 62
    7
 10
167.21207537887409
 20
107.29614266091731
 40
4.5
 41
1
 50
0
  1
　KA：片側仕様
  0
LINE
  8
_1-f_
  6
CONTINUOUS
 62
    7
 10
210.31597665239647
 20
101.292201155274
 11
208.06598465239645
 21
96.792199155274005
  0
LINE
  8
_1-f_
  6
CONTINUOUS
 62
    7
 10
210.31597665239647
 20
101.292201155274
 11
212.56597665239647
 21
96.792199155274005
  0
LINE
  8
_1-f_
  6
CONTINUOUS
 62
    7
 10
208.06598465239645
 20
96.792199155274005
 11
212.56597665239647
 21
96.792199155274005
  0
TEXT
  8
_1-f_
 62
    7
 10
209.33953999695544
 20
96.812994890439143
 40
4
 41
1
 50
0
  1
1
  0
LINE
  8
_1-f_
  6
CONTINUOUS
 62
    7
 10
201.35654102629417
 20
117.37685723993009
 11
199.10654902629415
 21
112.87685523993009
  0
LINE
  8
_1-f_
  6
CONTINUOUS
 62
    7
 10
201.35654102629417
 20
117.37685723993009
 11
203.60654102629417
 21
112.87685523993009
  0
LINE
  8
_1-f_
  6
CONTINUOUS
 62
    7
 10
199.10654902629415
 20
112.87685523993009
 11
203.60654102629417
 21
112.87685523993009
  0
TEXT
  8
_1-f_
 62
    7
 10
200.38010437085313
 20
112.89765097509523
 40
4
 41
1
 50
0
  1
1
  0
TEXT
  8
_0-0_
 62
    7
 10
17.689707841301413
 20
183.29587914837674
 40
5.0000000000000107
 41
0.9999999999999973
 50
0
  1
◆固定仕様
  0
LINE
  8
_0-0_
  6
CONTINUOUS
 62
    7
 10
18.041492503388156
 20
183.19696960098938
 11
42.380952380952351
 21
183.19696960098938
  0
TEXT
  8
_1-f_
 62
    7
 10
75.599206349206383
 20
177.82936507936509
 40
5
 41
1
 50
0
  1
【固定クリップ】
  0
TEXT
  8
_1-f_
 62
    7
 10
191.88492063492066
 20
177.82936507936509
 40
5
 41
1
 50
0
  1
【マグネット】
  0
TEXT
  8
_1-0_
 62
    7
 10
139.74708258757113
 20
148.3282739202499
 40
3
 41
1
 50
0
  1
固定クリップ(CR)付属数
  0
TEXT
  8
_1-f_
 62
    7
 10
55.761904761904646
 20
183.5891062834275
 40
4
 41
1
 50
0
  1
Ｓ=１：１
  0
TEXT
  8
_1-f_
 62
    7
 10
377.30997520887405
 20
271.29247501469723
 40
4
 41
1.0000000000000009
 50
0
  1
難波
  0
LINE
  8
_1-0_
  6
CENTER2
 62
   18
 10
118.44758115960468
 20
148.0607859499566
 11
118.44758115960468
 21
162.83527290429689
  0
TEXT
  8
_1-7_
 62
    7
 10
368.01517044437719
 20
196.69812569918463
 40
4
 41
1
 50
0
  1
マグネット
  0
TEXT
  8
_1-f_
 62
    7
 10
387.29789970887407
 20
271.29247501469723
 40
4
 41
1.0000000000000009
 50
0
  1
原田
  0
ENDSEC
  0
EOF
