  0
SECTION
  2
HEADER
  9
$ACADVER
  1
AC1009
  9
$INSBASE
 10
0
 20
0
 30
0
  9
$EXTMIN
 10
0
 20
0
  9
$EXTMAX
 10
420
 20
297
  9
$LIMMIN
 10
0
 20
0
  9
$LIMMAX
 10
420
 20
297
  9
$LTSCALE
 40
1
  0
ENDSEC
  0
SECTION
  2
TABLES
  0
TABLE
  2
LTYPE
 70
     9
  0
LTYPE
  2
CONTINUOUS
 70
    64
  3
実線
 72
    65
 73
     0
 40
0.0
  0
LTYPE
  2
DASHED1
 70
    64
  3
--  --  --  --  --  --  --  --  
 72
    65
 73
     2
 40
2.5
 49
1.25
 49
-1.25
  0
LTYPE
  2
DASHED2
 70
    64
  3
----    ----    ----    ----    
 72
    65
 73
     2
 40
5.0
 49
2.5
 49
-2.5
  0
LTYPE
  2
DASHED3
 70
    64
  3
------  ------  ------  ------  
 72
    65
 73
     2
 40
5.0
 49
3.75
 49
-1.25
  0
LTYPE
  2
CENTER1
 70
    64
  3
----- - ----- - ----- - ----- - 
 72
    65
 73
     4
 40
10.0
 49
6.25
 49
-1.25
 49
1.25
 49
-1.25
  0
LTYPE
  2
CENTER2
 70
    64
  3
----------  --  ----------  --  
 72
    65
 73
     4
 40
20.0
 49
12.5
 49
-2.5
 49
2.5
 49
-2.5
  0
LTYPE
  2
PHANTOM1
 70
    64
  3
--- - - --- - - --- - - --- - - 
 72
    65
 73
     6
 40
10.0
 49
3.25
 49
-1.25
 49
1.25
 49
-1.25
 49
1.25
 49
-1.25
  0
LTYPE
  2
PHANTOM2
 70
    64
  3
--------  -  -  --------  -  -  
 72
    65
 73
     6
 40
20.0
 49
10.0
 49
-2.5
 49
1.25
 49
-2.5
 49
1.25
 49
-2.5
  0
LTYPE
  2
DOT
 70
    64
  3
-   -   -   -   -   -   -   -   
 72
    65
 73
     2
 40
2.5
 49
0.625
 49
-1.875
  0
LTYPE
  2
DUMMY
 70
    64
  3
ダミー
 72
    65
 73
     0
 40
0.0
  0
LTYPE
  2
RAND1
 70
    64
  3
ランダム線1
 72
    65
 73
     4
 40
10.0
 49
1.0
 49
-2.0
 49
3.0
 49
-4.0
  0
LTYPE
  2
RAND2
 70
    64
  3
ランダム線2
 72
    65
 73
     4
 40
14.0
 49
2.0
 49
-3.0
 49
4.0
 49
-5.0
  0
LTYPE
  2
RAND3
 70
    64
  3
ランダム線3
 72
    65
 73
     4
 40
18.0
 49
3.0
 49
-4.0
 49
5.0
 49
-6.0
  0
LTYPE
  2
RAND4
 70
    64
  3
ランダム線4
 72
    65
 73
     4
 40
22.0
 49
4.0
 49
-5.0
 49
6.0
 49
-7.0
  0
LTYPE
  2
RAND5
 70
    64
  3
ランダム線5
 72
    65
 73
     4
 40
26.0
 49
5.0
 49
-6.0
 49
7.0
 49
-8.0
  0
LTYPE
  2
LONG1
 70
    64
  3
----------  --  ----------  --  
 72
    65
 73
     4
 40
40.0
 49
32.5
 49
-2.5
 49
2.5
 49
-2.5
  0
LTYPE
  2
LONG2
 70
    64
  3
--------  -  -  --------  -  -  
 72
    65
 73
     6
 40
40.0
 49
30.0
 49
-2.5
 49
1.25
 49
-2.5
 49
1.25
 49
-2.5
  0
LTYPE
  2
LONG3
 70
    64
  3
+++++++++++++++..+++++++++++++++
 72
    65
 73
     2
 40
40.0
 49
37.5
 49
-2.5
  0
LTYPE
  2
LONG4
 70
    64
  3
+++++++++++++++..+++++++++++++++
 72
    65
 73
     2
 40
80.0
 49
75.0
 49
-5.0
  0
LTYPE
  2
LONG5
 70
    64
  3
----------  --  ----------  --  
 72
    65
 73
     4
 40
60.0
 49
37.5
 49
-7.5
 49
7.5
 49
-7.5
  0
LTYPE
  2
dashed
 70
   64
  3
-------   -------------   ------
 72
   65
 73
    2
 40
7.5
 49
6
 49
-1.5
  0
LTYPE
  2
dashed_spaced
 70
   64
  3
----        --------        ----
 72
   65
 73
    2
 40
12
 49
6
 49
-6
  0
LTYPE
  2
long_dashed_dotted
 70
   64
  3
------------- --- --------------
 72
   65
 73
    4
 40
15.25
 49
12
 49
-1.5
 49
0.25
 49
-1.5
  0
LTYPE
  2
long_dashed_double-dotted
 70
   64
  3
----------- --- --- ------------
 72
   65
 73
    6
 40
17
 49
12
 49
-1.5
 49
0.25
 49
-1.5
 49
0.25
 49
-1.5
  0
LTYPE
  2
long_dashed_triplicate-dotted
 70
   64
  3
--------- --- --- --- ----------
 72
   65
 73
    8
 40
18.75
 49
12
 49
-1.5
 49
0.25
 49
-1.5
 49
0.25
 49
-1.5
 49
0.25
 49
-1.5
  0
LTYPE
  2
dotted
 70
   64
  3
   -       -       -       -    
 72
   65
 73
    2
 40
1.75
 49
0.25
 49
-1.5
  0
LTYPE
  2
chain
 70
   64
  3
-------------- -- --------------
 72
   65
 73
    4
 40
18.5
 49
12
 49
-1.5
 49
3.5
 49
-1.5
  0
LTYPE
  2
chain_double_dash
 70
   64
  3
------------ -- -- -------------
 72
   65
 73
    6
 40
23.5
 49
12
 49
-1.5
 49
3.5
 49
-1.5
 49
3.5
 49
-1.5
  0
LTYPE
  2
dashed_dotted
 70
   64
  3
-----------     -     ----------
 72
   65
 73
    4
 40
9.25
 49
6
 49
-1.5
 49
0.25
 49
-1.5
  0
LTYPE
  2
double-dashed_dotted
 70
   64
  3
------   -----------   -   -----
 72
   65
 73
    6
 40
16.75
 49
6
 49
-1.5
 49
6
 49
-1.5
 49
0.25
 49
-1.5
  0
LTYPE
  2
dashed_double-dotted
 70
   64
  3
---------    -    -    ---------
 72
   65
 73
    6
 40
11
 49
6
 49
-1.5
 49
0.25
 49
-1.5
 49
0.25
 49
-1.5
  0
LTYPE
  2
double-dashed_double-dotted
 70
   64
  3
-----   ---------   -   -   ----
 72
   65
 73
    8
 40
18.5
 49
6
 49
-1.5
 49
6
 49
-1.5
 49
0.25
 49
-1.5
 49
0.25
 49
-1.5
  0
LTYPE
  2
dashed_triplicate-dotted
 70
   64
  3
-------    -    -    -    ------
 72
   65
 73
    8
 40
12.75
 49
6
 49
-1.5
 49
0.25
 49
-1.5
 49
0.25
 49
-1.5
 49
0.25
 49
-1.5
  0
LTYPE
  2
double-dashed_triplicate-dotted
 70
   64
  3
-----  ---------  -  -  -  -----
 72
   65
 73
   10
 40
20.25
 49
6
 49
-1.5
 49
6
 49
-1.5
 49
0.25
 49
-1.5
 49
0.25
 49
-1.5
 49
0.25
 49
-1.5
  0
LTYPE
  2
undefined
 70
   64
  3
--------------------------------
 72
   65
 73
    0
 40
0
  0
LTYPE
  2
_
 70
   64
  3
                                
 72
   65
 73
    0
 40
0
  0
LTYPE
  2
__18
 70
   64
  3
                                
 72
   65
 73
    0
 40
0
  0
LTYPE
  2
__19
 70
   64
  3
                                
 72
   65
 73
    0
 40
0
  0
LTYPE
  2
__20
 70
   64
  3
                                
 72
   65
 73
    0
 40
0
  0
LTYPE
  2
__21
 70
   64
  3
                                
 72
   65
 73
    0
 40
0
  0
LTYPE
  2
__22
 70
   64
  3
                                
 72
   65
 73
    0
 40
0
  0
LTYPE
  2
__23
 70
   64
  3
                                
 72
   65
 73
    0
 40
0
  0
LTYPE
  2
__24
 70
   64
  3
                                
 72
   65
 73
    0
 40
0
  0
LTYPE
  2
__25
 70
   64
  3
                                
 72
   65
 73
    0
 40
0
  0
LTYPE
  2
__26
 70
   64
  3
                                
 72
   65
 73
    0
 40
0
  0
LTYPE
  2
__27
 70
   64
  3
                                
 72
   65
 73
    0
 40
0
  0
LTYPE
  2
__28
 70
   64
  3
                                
 72
   65
 73
    0
 40
0
  0
LTYPE
  2
__29
 70
   64
  3
                                
 72
   65
 73
    0
 40
0
  0
LTYPE
  2
__30
 70
   64
  3
                                
 72
   65
 73
    0
 40
0
  0
LTYPE
  2
__31
 70
   64
  3
                                
 72
   65
 73
    0
 40
0
  0
LTYPE
  2
__32
 70
   64
  3
                                
 72
   65
 73
    0
 40
0
  0
ENDTAB
  0
TABLE
  2
STYLE
  5
3
100
AcDbSymbolTable
 70
     1
  0
STYLE
  5
10
100
AcDbSymbolTableRecord
100
AcDbTextStyleTableRecord
  2
STANDARD
 70
     0
 40
0.0
 41
1.0
 50
0.0
 71
     0
 42
0.2
  3
txt
  4
bigfont.shx
  0
STYLE
  5
26
100
AcDbSymbolTableRecord
100
AcDbTextStyleTableRecord
  2
TATEGAKI
 70
    68
 40
0.0
 41
1.0
 50
0.0
 71
     0
 42
1.0
  3
txt
  4
bigfont.shx
  0
ENDTAB
  0
TABLE
  2
LAYER
 70
   14
  0
LAYER
  2
_0-0_
 70
   64
 62
    7
  6
CONTINUOUS
  0
LAYER
  2
_1-0_
 70
   64
 62
    7
  6
CONTINUOUS
  0
LAYER
  2
_1-1_
 70
   64
 62
    7
  6
CONTINUOUS
  0
LAYER
  2
_1-3_
 70
   64
 62
    7
  6
CONTINUOUS
  0
LAYER
  2
_1-4_
 70
   64
 62
    7
  6
CONTINUOUS
  0
LAYER
  2
_1-5_
 70
   64
 62
    7
  6
CONTINUOUS
  0
LAYER
  2
_1-7_
 70
   64
 62
    7
  6
CONTINUOUS
  0
LAYER
  2
_1-8_
 70
   64
 62
    7
  6
CONTINUOUS
  0
LAYER
  2
_1-9_
 70
   64
 62
    7
  6
CONTINUOUS
  0
LAYER
  2
_1-a_
 70
   64
 62
    7
  6
CONTINUOUS
  0
LAYER
  2
_1-c_
 70
   64
 62
    7
  6
CONTINUOUS
  0
LAYER
  2
_1-d_
 70
   64
 62
    7
  6
CONTINUOUS
  0
LAYER
  2
_1-f_
 70
   64
 62
    7
  6
CONTINUOUS
  0
LAYER
  2
ADD_LINE
 70
   64
 62
    7
  6
CONTINUOUS
  0
ENDTAB
  0
ENDSEC
  0
SECTION
  2
BLOCKS
  0
ENDSEC
  0
SECTION
  2
ENTITIES
  0
LINE
  8
_0-0_
  6
CONTINUOUS
 62
    7
 10
276.30996720887413
 20
270.89927962428231
 11
396.28582420887415
 21
270.89927962428231
  0
LINE
  8
_0-0_
  6
CONTINUOUS
 62
    7
 10
44.652116581683913
 20
30.49953181187243
 11
298.28583220887407
 21
30.49953181187243
  0
TEXT
  8
_1-f_
 62
    7
 10
258.72790337367155
 20
74.231547667917411
 40
4.5
 41
1
 50
0
  1
[lm]
  0
TEXT
  8
_1-f_
 62
    7
 10
75.738425924741335
 20
31.08918495708113
 40
3.5
 41
1
 50
0
  1
97％
  0
TEXT
  8
_1-f_
 62
    7
 10
74.863425924741335
 20
26.08918495708113
 40
3.5
 41
1
 50
0
  1
100％
  0
TEXT
  8
_1-f_
 62
    7
 10
98.796047668743583
 20
31.08918495708113
 40
3.5
 41
1
 50
0
  1
99％
  0
TEXT
  8
_1-f_
 62
    7
 10
120.97866940485012
 20
31.08918495708113
 40
3.5
 41
1
 50
0
  1
100％
  0
TEXT
  8
_1-f_
 62
    7
 10
120.97866940485012
 20
26.08918495708113
 40
3.5
 41
1
 50
0
  1
100％
  0
TEXT
  8
_1-f_
 62
    7
 10
144.91129108999348
 20
31.08918495708113
 40
3.5
 41
1
 50
0
  1
99％
  0
TEXT
  8
_1-f_
 62
    7
 10
167.96891281174422
 20
31.08918495708113
 40
3.5
 41
1
 50
0
  1
97％
  0
TEXT
  8
_1-f_
 62
    7
 10
167.09391281174422
 20
26.08918495708113
 40
3.5
 41
1
 50
0
  1
100％
  0
TEXT
  8
_1-f_
 62
    7
 10
191.02653443281162
 20
31.08918495708113
 40
3.5
 41
1
 50
0
  1
93％
  0
TEXT
  8
_1-f_
 62
    7
 10
190.15153443281162
 20
26.08918495708113
 40
3.5
 41
1
 50
0
  1
100％
  0
TEXT
  8
_1-f_
 62
    7
 10
214.08415625524566
 20
31.08918495708113
 40
3.5
 41
1
 50
0
  1
93％
  0
TEXT
  8
_1-f_
 62
    7
 10
214.08415625524566
 20
26.08918495708113
 40
3.5
 41
1
 50
0
  1
95％
  0
TEXT
  8
_1-f_
 62
    7
 10
237.14177813790417
 20
31.08918495708113
 40
3.5
 41
1
 50
0
  1
90％
  0
TEXT
  8
_1-f_
 62
    7
 10
237.14177813790417
 20
26.08918495708113
 40
3.5
 41
1
 50
0
  1
90％
  0
TEXT
  8
_1-f_
 62
    7
 10
260.19939969874713
 20
31.08918495708113
 40
3.5
 41
1
 50
0
  1
77％
  0
TEXT
  8
_1-f_
 62
    7
 10
260.19939969874713
 20
26.08918495708113
 40
3.5
 41
1
 50
0
  1
82％
  0
TEXT
  8
_1-f_
 62
    7
 10
285.88202138424828
 20
31.08918495708113
 40
3.5
 41
1
 50
0
  1
-
  0
TEXT
  8
_1-f_
 62
    7
 10
283.25702138424828
 20
26.08918495708113
 40
3.5
 41
1
 50
0
  1
70％
  0
TEXT
  8
_1-f_
 62
    7
 10
169.97505278650092
 20
68.029547667917413
 40
4.5
 41
1
 50
0
  1
80以上
  0
TEXT
  8
_1-f_
 62
    7
 10
169.97505278650092
 20
49.423547667917404
 40
4.5
 41
1
 50
0
  1
95以上
  0
TEXT
  8
_1-f_
 62
    7
 10
277.25651259947574
 20
58.725547667917397
 40
4.5
 41
1
 50
0
  1
3960
  0
TEXT
  8
_1-f_
 62
    7
 10
101.27283032216791
 20
74.231547667917411
 40
4.5
 41
1
 50
0
  1
[mm]
  0
TEXT
  8
_1-f_
 62
    7
 10
101.27283032216791
 20
68.029547667917413
 40
4.5
 41
1
 50
0
  1
[mm]
  0
TEXT
  8
_1-f_
 62
    7
 10
101.27283032216791
 20
61.827547667917415
 40
4.5
 41
1
 50
0
  1
[mm]
  0
TEXT
  8
_1-f_
 62
    7
 10
101.27283032216791
 20
55.625547667917402
 40
4.5
 41
1
 50
0
  1
[mm]
  0
TEXT
  8
_1-f_
 62
    7
 10
101.27283032216791
 20
49.423547667917404
 40
4.5
 41
1
 50
0
  1
[mm]
  0
TEXT
  8
_1-f_
 62
    7
 10
101.27283032216791
 20
43.221547667917406
 40
4.5
 41
1
 50
0
  1
[mm]
  0
TEXT
  8
_1-f_
 62
    7
 10
132.85842491418924
 20
74.231547667917411
 40
4.5
 41
1
 50
0
  1
ｇ
  0
TEXT
  8
_1-f_
 62
    7
 10
132.85842491418924
 20
68.029547667917413
 40
4.5
 41
1
 50
0
  1
ｇ
  0
TEXT
  8
_1-f_
 62
    7
 10
132.85842491418924
 20
61.827547667917415
 40
4.5
 41
1
 50
0
  1
ｇ
  0
TEXT
  8
_1-f_
 62
    7
 10
132.85842491418924
 20
55.625547667917402
 40
4.5
 41
1
 50
0
  1
ｇ
  0
TEXT
  8
_1-f_
 62
    7
 10
132.85842491418924
 20
49.423547667917404
 40
4.5
 41
1
 50
0
  1
ｇ
  0
TEXT
  8
_1-f_
 62
    7
 10
132.85842491418924
 20
43.221547667917406
 40
4.5
 41
1
 50
0
  1
ｇ
  0
TEXT
  8
_1-f_
 62
    7
 10
160.18395095436824
 20
74.231547667917411
 40
4.5
 41
1
 50
0
  1
個
  0
TEXT
  8
_1-f_
 62
    7
 10
160.18395095436824
 20
68.029547667917413
 40
4.5
 41
1
 50
0
  1
個
  0
TEXT
  8
_1-f_
 62
    7
 10
160.18395095436824
 20
61.827547667917415
 40
4.5
 41
1
 50
0
  1
個
  0
TEXT
  8
_1-f_
 62
    7
 10
160.18395095436824
 20
55.625547667917402
 40
4.5
 41
1
 50
0
  1
個
  0
TEXT
  8
_1-f_
 62
    7
 10
160.18395095436824
 20
49.423547667917404
 40
4.5
 41
1
 50
0
  1
個
  0
TEXT
  8
_1-f_
 62
    7
 10
160.18395095436824
 20
43.221547667917406
 40
4.5
 41
1
 50
0
  1
個
  0
TEXT
  8
_1-f_
 62
    7
 10
204.69392429531842
 20
74.231547667917411
 40
4.5
 41
1
 50
0
  1
[W]
  0
TEXT
  8
_1-f_
 62
    7
 10
204.69392429531842
 20
68.029547667917413
 40
4.5
 41
1
 50
0
  1
[W]
  0
TEXT
  8
_1-f_
 62
    7
 10
204.69392429531842
 20
61.827547667917415
 40
4.5
 41
1
 50
0
  1
[W]
  0
TEXT
  8
_1-f_
 62
    7
 10
204.69392429531842
 20
55.625547667917402
 40
4.5
 41
1
 50
0
  1
[W]
  0
TEXT
  8
_1-f_
 62
    7
 10
204.69392429531842
 20
49.423547667917404
 40
4.5
 41
1
 50
0
  1
[W]
  0
TEXT
  8
_1-f_
 62
    7
 10
204.69392429531842
 20
43.221547667917406
 40
4.5
 41
1
 50
0
  1
[W]
  0
TEXT
  8
_1-f_
 62
    7
 10
233.03358803233181
 20
74.231547667917411
 40
4.5
 41
1
 50
0
  1
[A]
  0
TEXT
  8
_1-f_
 62
    7
 10
233.03358803233181
 20
68.029547667917413
 40
4.5
 41
1
 50
0
  1
[A]
  0
TEXT
  8
_1-f_
 62
    7
 10
233.03358803233181
 20
61.827547667917415
 40
4.5
 41
1
 50
0
  1
[A]
  0
TEXT
  8
_1-f_
 62
    7
 10
233.03358803233181
 20
55.625547667917402
 40
4.5
 41
1
 50
0
  1
[A]
  0
TEXT
  8
_1-f_
 62
    7
 10
233.03358803233181
 20
49.423547667917404
 40
4.5
 41
1
 50
0
  1
[A]
  0
TEXT
  8
_1-f_
 62
    7
 10
233.03358803233181
 20
43.221547667917406
 40
4.5
 41
1
 50
0
  1
[A]
  0
TEXT
  8
_1-f_
 62
    7
 10
258.72790337367155
 20
68.029547667917413
 40
4.5
 41
1
 50
0
  1
[lm]
  0
TEXT
  8
_1-f_
 62
    7
 10
258.72790337367155
 20
61.827547667917415
 40
4.5
 41
1
 50
0
  1
[lm]
  0
TEXT
  8
_1-f_
 62
    7
 10
258.72790337367155
 20
55.625547667917402
 40
4.5
 41
1
 50
0
  1
[lm]
  0
TEXT
  8
_1-f_
 62
    7
 10
258.72790337367155
 20
49.423547667917404
 40
4.5
 41
1
 50
0
  1
[lm]
  0
TEXT
  8
_1-f_
 62
    7
 10
258.72790337367155
 20
43.221547667917406
 40
4.5
 41
1
 50
0
  1
[lm]
  0
TEXT
  8
_1-f_
 62
    7
 10
147.76351983821777
 20
74.231547667917411
 40
4.5
 41
1
 50
0
  1
108
  0
TEXT
  8
_1-f_
 62
    7
 10
147.76351983821777
 20
68.029547667917413
 40
4.5
 41
1
 50
0
  1
216
  0
TEXT
  8
_1-f_
 62
    7
 10
147.76351983821777
 20
55.625547667917402
 40
4.5
 41
1
 50
0
  1
108
  0
TEXT
  8
_1-f_
 62
    7
 10
147.76351983821777
 20
49.423547667917404
 40
4.5
 41
1
 50
0
  1
216
  0
TEXT
  8
_1-f_
 62
    7
 10
220.78358803182658
 20
74.231547667917411
 40
4.5
 41
1
 50
0
  1
0.32
  0
TEXT
  8
_1-f_
 62
    7
 10
220.78358803182658
 20
68.029547667917413
 40
4.5
 41
1
 50
0
  1
0.65
  0
TEXT
  8
_1-f_
 62
    7
 10
220.78358803182658
 20
55.625547667917402
 40
4.5
 41
1
 50
0
  1
0.34
  0
TEXT
  8
_1-f_
 62
    7
 10
220.78358803182658
 20
49.423547667917404
 40
4.5
 41
1
 50
0
  1
0.66
  0
TEXT
  8
_1-f_
 62
    7
 10
21.428571428571445
 20
99.233016802245615
 40
5
 41
1.0000000000000004
 50
0
  1
①
  0
TEXT
  8
_1-f_
 62
    7
 10
248.97791342524286
 20
74.231547667917411
 40
4.5
 41
1
 50
0
  1
860
  0
TEXT
  8
_1-f_
 62
    7
 10
246.72791342524286
 20
68.029547667917413
 40
4.5
 41
1
 50
0
  1
1721
  0
TEXT
  8
_1-f_
 62
    7
 10
248.97791342524286
 20
55.625547667917402
 40
4.5
 41
1
 50
0
  1
750
  0
TEXT
  8
_1-f_
 62
    7
 10
246.72791342524286
 20
49.423547667917404
 40
4.5
 41
1
 50
0
  1
1500
  0
TEXT
  8
_1-f_
 62
    7
 10
147.76351983821777
 20
61.827547667917415
 40
4.5
 41
1
 50
0
  1
258
  0
TEXT
  8
_1-f_
 62
    7
 10
147.76351983821777
 20
43.221547667917406
 40
4.5
 41
1
 50
0
  1
258
  0
TEXT
  8
_1-f_
 62
    7
 10
246.72791342524286
 20
61.827547667917415
 40
4.5
 41
1
 50
0
  1
1864
  0
TEXT
  8
_1-f_
 62
    7
 10
90.280647127631596
 20
74.231547667917411
 40
4.5
 41
1
 50
0
  1
505
  0
TEXT
  8
_1-f_
 62
    7
 10
88.030647127631596
 20
68.029547667917413
 40
4.5
 41
1
 50
0
  1
1000
  0
TEXT
  8
_1-f_
 62
    7
 10
83.530647127631596
 20
61.827547667917415
 40
4.5
 41
1
 50
0
  1
1192.5
  0
TEXT
  8
_1-f_
 62
    7
 10
90.280647127631596
 20
55.625547667917402
 40
4.5
 41
1
 50
0
  1
505
  0
TEXT
  8
_1-f_
 62
    7
 10
88.030647127631596
 20
49.423547667917404
 40
4.5
 41
1
 50
0
  1
1000
  0
TEXT
  8
_1-f_
 62
    7
 10
83.530647127631596
 20
43.221547667917406
 40
4.5
 41
1
 50
0
  1
1192.5
  0
TEXT
  8
_1-f_
 62
    7
 10
220.78358803182658
 20
61.827547667917415
 40
4.5
 41
1
 50
0
  1
0.70
  0
LINE
  8
_0-0_
  6
CONTINUOUS
 62
    7
 10
316.30997520887399
 20
270.89927962428226
 11
316.30997520887399
 21
191.4593531263065
  0
LINE
  8
_0-0_
  6
CONTINUOUS
 62
    7
 10
16.286964263866651
 20
191.4593531263065
 11
396.28582420887409
 21
191.4593531263065
  0
LINE
  8
_0-0_
  6
CONTINUOUS
 62
    7
 10
396.28582420887415
 20
281.29615162428229
 11
396.28582420887415
 21
24.29614462428232
  0
LINE
  8
_0-0_
  6
CONTINUOUS
 62
    7
 10
38.701512579319626
 20
273.09939465860793
 11
18.917795474056504
 21
273.09939465860793
  0
TEXT
  8
_0-0_
 62
    7
 10
19.139678455822661
 20
273.41300675785135
 40
4.9999999999999858
 41
1.0000000000000013
 50
0
  1
◆外形図
  0
LINE
  8
_0-0_
  6
CONTINUOUS
 62
    7
 10
281.2328422088741
 20
275.74344662428223
 11
278.98285020887408
 21
271.24344462428223
  0
LINE
  8
_0-0_
  6
CONTINUOUS
 62
    7
 10
281.2328422088741
 20
275.74344662428223
 11
283.4828422088741
 21
271.24344462428223
  0
LINE
  8
_0-0_
  6
CONTINUOUS
 62
    7
 10
276.30996720887413
 20
275.89925962428231
 11
276.30996720887413
 21
270.89927962428231
  0
LINE
  8
_0-0_
  6
CONTINUOUS
 62
    7
 10
286.30997520887411
 20
275.89925962428231
 11
286.30997520887411
 21
270.89927962428231
  0
LINE
  8
_0-0_
  6
CONTINUOUS
 62
    7
 10
316.30997520887411
 20
275.89925962428231
 11
316.30997520887411
 21
270.89927962428231
  0
LINE
  8
_0-0_
  6
CONTINUOUS
 62
    7
 10
276.30996720887413
 20
281.29615162428229
 11
276.30996720887413
 21
275.89925962428231
  0
LINE
  8
_0-0_
  6
CONTINUOUS
 62
    7
 10
286.30997520887411
 20
281.29615162428229
 11
286.30997520887411
 21
275.89925962428231
  0
LINE
  8
_0-0_
  6
CONTINUOUS
 62
    7
 10
316.30997520887411
 20
281.29615162428229
 11
316.30997520887411
 21
275.89925962428231
  0
LINE
  8
_0-0_
  6
CONTINUOUS
 62
    7
 10
376.30997520887411
 20
281.29615162428229
 11
376.30997520887411
 21
270.89927962428231
  0
LINE
  8
_0-0_
  6
CONTINUOUS
 62
    7
 10
386.30997520887399
 20
281.29615162428229
 11
386.30997520887399
 21
270.89927962428231
  0
LINE
  8
_0-0_
  6
CONTINUOUS
 62
    7
 10
396.28582420887415
 20
275.89925962428231
 11
276.30998320887409
 21
275.89925962428231
  0
TEXT
  8
_0-0_
 62
    7
 10
278.12561721922964
 20
277.05770329473376
 40
3
 41
1
 50
0
  1
Ｎｏ
  0
TEXT
  8
_0-0_
 62
    7
 10
293.47695794332435
 20
277.1070645189269
 40
3
 41
1.0000000000000007
 50
0
  1
年　月　日
  0
TEXT
  8
_0-0_
 62
    7
 10
334.19996790274001
 20
277.03302268263712
 40
3
 41
1.0000000000000011
 50
0
  1
訂　正　記　事
  0
TEXT
  8
_0-0_
 62
    7
 10
377.61316458068654
 20
276.39749692114924
 40
4.0000000000000142
 41
0.9999999999999973
 50
0
  1
担当
  0
TEXT
  8
_0-0_
 62
    7
 10
387.28796452255972
 20
276.4468581453425
 40
4
 41
1.0000000000000009
 50
0
  1
検印
  0
TEXT
  8
_0-0_
 62
    7
 10
280.25640555343307
 20
271.2642403594474
 40
4
 41
1
 50
0
  1
1
  0
LINE
  8
_0-0_
  6
CONTINUOUS
 62
    7
 10
278.98285020887408
 20
271.24344462428223
 11
283.4828422088741
 21
271.24344462428223
  0
LINE
  8
_0-0_
  6
CONTINUOUS
 62
    7
 10
351.28582420887415
 20
54.296150624282276
 11
351.28582420887415
 21
44.296148624282282
  0
LINE
  8
_0-0_
  6
CONTINUOUS
 62
    7
 10
311.30880320887411
 20
40.575352624282303
 11
311.30880320887411
 21
37.575355624282295
  0
LINE
  8
_0-0_
  6
CONTINUOUS
 62
    7
 10
311.30880320887411
 20
40.575352624282303
 11
318.30880120887412
 21
42.075351624282277
  0
LINE
  8
_0-0_
  6
CONTINUOUS
 62
    7
 10
318.30880120887412
 20
42.075351624282277
 11
318.30880120887412
 21
36.075350624282279
  0
LINE
  8
_0-0_
  6
CONTINUOUS
 62
    7
 10
311.30880320887411
 20
37.575355624282295
 11
318.30880120887412
 21
36.075350624282279
  0
LINE
  8
_0-0_
  6
CONTINUOUS
 62
    7
 10
346.28583220887413
 20
54.296150624282276
 11
346.28583220887413
 21
24.29614462428232
  0
LINE
  8
_0-0_
  6
CONTINUOUS
 62
    7
 10
376.28583220887413
 20
54.296150624282276
 11
376.28583220887413
 21
44.296148624282282
  0
LINE
  8
_0-0_
  6
CONTINUOUS
 62
    7
 10
381.28587420887413
 20
54.296150624282276
 11
381.28587420887413
 21
44.296148624282282
  0
LINE
  8
_0-0_
  6
CONTINUOUS
 62
    7
 10
321.28584920887408
 20
44.296148624282282
 11
321.28584920887408
 21
34.296145624282317
  0
LINE
  8
_0-0_
  6
CONTINUOUS
 62
    7
 10
326.2858412088741
 20
44.296148624282282
 11
326.2858412088741
 21
34.296145624282317
  0
LINE
  8
_0-0_
  6
CONTINUOUS
 62
    7
 10
336.28587420887413
 20
54.296150624282276
 11
336.28587420887413
 21
44.296148624282282
  0
LINE
  8
_0-0_
  6
CONTINUOUS
 62
    7
 10
331.28583220887413
 20
54.296150624282276
 11
331.28583220887413
 21
44.296148624282282
  0
LINE
  8
_0-0_
  6
CONTINUOUS
 62
    7
 10
321.28584920887408
 20
54.296150624282276
 11
321.28584920887408
 21
44.296148624282282
  0
LINE
  8
_0-0_
  6
CONTINUOUS
 62
    7
 10
316.28583220887413
 20
54.296150624282276
 11
316.28583220887413
 21
44.296148624282282
  0
LINE
  8
_0-0_
  6
CONTINUOUS
 62
    7
 10
306.28582420887415
 20
54.296150624282276
 11
306.28582420887415
 21
44.296148624282282
  0
CIRCLE
  8
_0-0_
  6
CONTINUOUS
 62
    7
 10
306.30878720887415
 20
39.0753536242823
 40
3
  0
CIRCLE
  8
_0-0_
  6
CONTINUOUS
 62
    7
 10
306.30878720887415
 20
39.0753536242823
 40
1.5
  0
LINE
  8
_0-0_
  6
CONTINUOUS
 62
    7
 10
321.28584920887408
 20
54.296150624282276
 11
321.28584920887408
 21
59.296150624282276
  0
TEXT
  8
_0-0_
 62
    7
 10
307.02526320887409
 20
54.692025624282294
 40
4
 41
1.0000000000000009
 50
0
  1
出図
  0
LINE
  8
_0-0_
  6
CONTINUOUS
 62
    7
 10
351.28583220887413
 20
54.296150624282276
 11
351.28583220887413
 21
59.296150624282276
  0
TEXT
  8
_0-0_
 62
    7
 10
332.94829920887412
 20
55.192235624282304
 40
3
 41
2
 50
0
  1
.   .
  0
TEXT
  8
_0-0_
 62
    7
 10
303.64708920887415
 20
52.291121624282297
 40
3
 41
1
 50
0
  1
設計
  7
TATEGAKI
  0
TEXT
  8
_0-0_
 62
    7
 10
318.59985020887416
 20
52.291121624282297
 40
3
 41
1
 50
0
  1
製図
  7
TATEGAKI
  0
TEXT
  8
_0-0_
 62
    7
 10
333.46308220887408
 20
52.291121624282297
 40
3
 41
1
 50
0
  1
検図
  7
TATEGAKI
  0
TEXT
  8
_0-0_
 62
    7
 10
348.81446320887414
 20
52.372151624282296
 40
2.9999999999999911
 41
1.0000000000000029
 50
0
  1
作図
  7
TATEGAKI
  0
TEXT
  8
_0-0_
 62
    7
 10
378.81193420887416
 20
52.309938624282282
 40
3
 41
1
 50
0
  1
尺度
  7
TATEGAKI
  0
TEXT
  8
_0-0_
 62
    7
 10
323.92244520887414
 20
42.573905624282318
 40
3
 41
1
 50
0
  1
材質
  7
TATEGAKI
  0
TEXT
  8
_0-0_
 62
    7
 10
348.7983592088741
 20
42.573905624282318
 40
3
 41
1
 50
0
  1
品名
  7
TATEGAKI
  0
TEXT
  8
_0-0_
 62
    7
 10
349.01061820887412
 20
32.422218624282308
 40
3
 41
1
 50
0
  1
図番
  7
TATEGAKI
  0
TEXT
  8
_0-0_
 62
    7
 10
334.77316365016964
 20
37.078458624282263
 40
4.0000000000000284
 41
0.9999999999999964
 50
0
  1
-
  0
TEXT
  8
_0-0_
 62
    7
 10
307.92822759502076
 20
26.677714006619894
 40
4
 41
0.9999999999999994
 50
0
  1
ＦＫＫ株式会社
  0
TEXT
  8
_0-0_
 62
    7
 10
385.38042315168639
 20
47.408528353794125
 40
3
 41
1
 50
0
  1
1：1
  0
LINE
  8
_0-0_
  6
CONTINUOUS
 62
    7
 10
16.285857208874063
 20
281.29615162428229
 11
396.28582420887415
 21
281.29615162428229
  0
LINE
  8
_0-0_
  6
CONTINUOUS
 62
    7
 10
16.289024208874054
 20
24.29614462428232
 11
16.285857208874063
 21
281.29615162428229
  0
LINE
  8
_0-0_
  6
CONTINUOUS
 62
    7
 10
396.28582420887415
 20
24.29614462428232
 11
16.289024208874054
 21
24.29614462428232
  0
LINE
  8
_0-0_
  6
CONTINUOUS
 62
    7
 10
346.28583220887413
 20
44.296148624282282
 11
346.28583220887413
 21
24.29614462428232
  0
LINE
  8
_0-0_
  6
CONTINUOUS
 62
    7
 10
351.28582420887415
 20
44.296148624282282
 11
351.28582420887415
 21
24.29614462428232
  0
LINE
  8
_0-0_
  6
CONTINUOUS
 62
    7
 10
396.28582420887415
 20
34.296145624282317
 11
301.28583220887413
 21
34.296145624282317
  0
LINE
  8
_0-0_
  6
CONTINUOUS
 62
    7
 10
396.28582420887415
 20
44.296148624282282
 11
301.28583220887413
 21
44.296148624282282
  0
LINE
  8
_0-0_
  6
CONTINUOUS
 62
    7
 10
396.28582420887415
 20
54.296150624282276
 11
301.28583220887413
 21
54.296150624282276
  0
LINE
  8
_0-0_
  6
CONTINUOUS
 62
    7
 10
396.28582420887415
 20
59.296150624282276
 11
301.28583220887413
 21
59.296150624282276
  0
LINE
  8
_0-0_
  6
CONTINUOUS
 62
    7
 10
396.28582420887415
 20
74.296150624282276
 11
301.28583220887413
 21
74.296150624282276
  0
LINE
  8
_0-0_
  6
CONTINUOUS
 62
    7
 10
396.28582420887415
 20
64.296150624282276
 11
301.28583220887413
 21
64.296150624282276
  0
LINE
  8
_0-0_
  6
CONTINUOUS
 62
    7
 10
396.28582420887415
 20
69.296150624282276
 11
301.28583220887413
 21
69.296150624282276
  0
LINE
  8
_0-0_
  6
CONTINUOUS
 62
    7
 10
396.28582420887415
 20
79.296150624282276
 11
301.28583220887413
 21
79.296150624282276
  0
TEXT
  8
_0-0_
 62
    7
 10
304.54077070887405
 20
79.87907797616451
 40
3.5
 41
1
 50
0
  1
⑤
  0
TEXT
  8
_0-0_
 62
    7
 10
304.54077070887405
 20
74.87907797616451
 40
3.5
 41
1
 50
0
  1
④
  0
TEXT
  8
_0-0_
 62
    7
 10
304.54077070887405
 20
69.844233108454958
 40
3.5
 41
1
 50
0
  1
③
  0
TEXT
  8
_0-0_
 62
    7
 10
304.54077070887405
 20
64.883430077035243
 40
3.5
 41
1
 50
0
  1
②
  0
TEXT
  8
_0-0_
 62
    7
 10
304.54077070887405
 20
59.848585209325691
 40
3.5
 41
1
 50
0
  1
①
  0
TEXT
  8
_0-0_
 62
    7
 10
390.28582420887409
 20
74.934553347087132
 40
4
 41
1
 50
0
  1
1
  0
TEXT
  8
_0-0_
 62
    7
 10
390.28582420887409
 20
69.626616839150628
 40
4
 41
1
 50
0
  1
1
  0
TEXT
  8
_0-0_
 62
    7
 10
390.28582420887409
 20
64.737727950261743
 40
4
 41
1
 50
0
  1
1
  0
TEXT
  8
_0-0_
 62
    7
 10
390.28582420887409
 20
59.833318779185888
 40
4
 41
1
 50
0
  1
1
  0
TEXT
  8
_0-0_
 62
    7
 10
19.166865692585304
 20
119.25991721785768
 40
5
 41
1.0000000000000013
 50
0
  1
◆型式内容
  0
LINE
  8
_0-0_
  6
CONTINUOUS
 62
    7
 10
19.446989553003846
 20
118.85125859390412
 11
44.848305342477545
 21
118.85125859390412
  0
LINE
  8
_0-0_
  6
CONTINUOUS
 62
    7
 10
16.287915142780605
 20
125.29614266091731
 11
396.28582420887409
 21
125.29614266091731
  0
TEXT
  8
_0-0_
 62
    7
 10
240.24778966887411
 20
119.29614266091731
 40
3.5
 41
1
 50
0
  1
屋内専用
  0
TEXT
  8
_0-0_
 62
    7
 10
240.24778966887411
 20
115.29614266091731
 40
3.5
 41
1
 50
0
  1
注記）使用環境　5～40℃
  0
TEXT
  8
_0-0_
 62
    7
 10
240.24778966887411
 20
111.29614266091731
 40
3.5
 41
1
 50
0
  1
　　　浴室、サウナ等 高温・高湿環境不可
  0
TEXT
  8
_0-0_
 62
    7
 10
240.24778966887411
 20
107.29614266091731
 40
3.5
 41
1
 50
0
  1
　　　海・温泉等 塩害・腐食ガス 環境不可
  0
TEXT
  8
_0-0_
 62
    7
 10
240.24778966887411
 20
103.29614266091731
 40
3.5
 41
1
 50
0
  1
　　　直射日光・水没 不可 結露の無い事
  0
TEXT
  8
_0-0_
 62
    7
 10
364.24748670887402
 20
74.211019926528806
 40
1.9999999999999716
 41
1.0000000000000142
 50
0
  1
リード線：AWG22
  0
TEXT
  8
_0-0_
 62
    7
 10
358.14748670887406
 20
76.832394503496829
 40
2.0000000000000142
 41
0.7999999999999938
 50
0
  1
日本圧着端子SMP-02V-NC相当（PA66）
  0
TEXT
  8
_0-0_
 62
    7
 10
358.94748670887407
 20
71.731341272640094
 40
1.9999999999999858
 41
0.8000000000000047
 50
0
  1
日本圧着端子SMR-02V-N相当（PA66)
  0
TEXT
  8
_0-0_
 62
    7
 10
364.24748670887402
 20
69.440123214704556
 40
1.9999999999999716
 41
1.0000000000000142
 50
0
  1
リード線：AWG22
  0
TEXT
  8
_0-0_
 62
    7
 10
346.29789970887407
 20
265.57686192427963
 40
4
 41
1
 50
0
  1
A-A 断面図
  0
LINE
  8
_0-0_
  6
CONTINUOUS
 62
    7
 10
44.652054966899584
 20
35.49953181187243
 11
298.28583220887413
 21
35.49953181187243
  0
LINE
  8
_0-0_
  6
CONTINUOUS
 62
    7
 10
19.288800474542455
 20
25.49953181187243
 11
298.28583220887413
 21
25.49953181187243
  0
LINE
  8
_0-0_
  6
CONTINUOUS
 62
    7
 10
19.288800474542455
 20
25.49953181187243
 11
19.288615630189497
 21
40.49953181187243
  0
LINE
  8
_0-0_
  6
CONTINUOUS
 62
    7
 10
19.288615630189497
 20
40.49953181187243
 11
298.28583220887413
 21
40.49953181187243
  0
LINE
  8
_0-0_
  6
CONTINUOUS
 62
    7
 10
298.28583220887413
 20
40.49953181187243
 11
298.28583220887413
 21
25.49953181187243
  0
LINE
  8
_0-0_
  6
CONTINUOUS
 62
    7
 10
44.652178192616674
 20
25.499844363681945
 11
44.651993348263716
 21
40.499844363681945
  0
TEXT
  8
_0-0_
 62
    7
 10
25.845304491152376
 20
28.935745803641964
 40
3.5
 41
1
 50
0
  1
N色基準
  0
TEXT
  8
_0-0_
 62
    7
 10
23.220304491152376
 20
33.459555327451497
 40
3.5
 41
1
 50
0
  1
全光束比率
  0
LINE
  8
_0-0_
  6
CONTINUOUS
 62
    7
 10
67.70979990086596
 20
25.500128501759633
 11
67.709615056513002
 21
40.500128501759633
  0
LINE
  8
_0-0_
  6
CONTINUOUS
 62
    7
 10
90.767421619115254
 20
25.50041263983745
 11
90.767236774762296
 21
40.50041263983745
  0
LINE
  8
_0-0_
  6
CONTINUOUS
 62
    7
 10
113.82504333736455
 20
25.500696777915266
 11
113.82485849301159
 21
40.500696777915266
  0
LINE
  8
_0-0_
  6
CONTINUOUS
 62
    7
 10
136.88266505561384
 20
25.500980915993082
 11
136.88248021126088
 21
40.500980915993082
  0
LINE
  8
_0-0_
  6
CONTINUOUS
 62
    7
 10
159.94028677386314
 20
25.501265054070899
 11
159.94010192951018
 21
40.501265054070899
  0
LINE
  8
_0-0_
  6
CONTINUOUS
 62
    7
 10
182.99790849211243
 20
25.501549192148715
 11
182.99772364775947
 21
40.501549192148715
  0
LINE
  8
_0-0_
  6
CONTINUOUS
 62
    7
 10
206.05553021036172
 20
25.501833330226532
 11
206.05534536600877
 21
40.501833330226532
  0
LINE
  8
_0-0_
  6
CONTINUOUS
 62
    7
 10
229.11315192861105
 20
25.502117468304363
 11
229.11296708425809
 21
40.502117468304363
  0
LINE
  8
_0-0_
  6
CONTINUOUS
 62
    7
 10
252.17077364686034
 20
25.502401606382179
 11
252.17058880250738
 21
40.502401606382179
  0
LINE
  8
_0-0_
  6
CONTINUOUS
 62
    7
 10
275.22839536510963
 20
25.502685744459995
 11
275.22821052075665
 21
40.502685744459995
  0
TEXT
  8
_0-0_
 62
    7
 10
50.930804212034758
 20
36.08918495708113
 40
3.5
 41
1
 50
0
  1
演色性
  0
TEXT
  8
_0-0_
 62
    7
 10
52.680804212034758
 20
31.08918495708113
 40
3.5
 41
1
 50
0
  1
Ra80
  0
TEXT
  8
_0-0_
 62
    7
 10
52.680804212034758
 20
26.08918495708113
 40
3.5
 41
1
 50
0
  1
Ra95
  0
TEXT
  8
_0-0_
 62
    7
 10
278.88202138424828
 20
36.08918495708113
 40
3.5
 41
1
 50
0
  1
L22:2200K
  0
TEXT
  8
_0-0_
 62
    7
 10
73.113425924741335
 20
36.08918495708113
 40
3.5
 41
1
 50
0
  1
D:6500K
  0
TEXT
  8
_0-0_
 62
    7
 10
95.296047668743583
 20
36.142095009991138
 40
3.5
 41
1
 50
0
  1
DN:5700K
  0
TEXT
  8
_0-0_
 62
    7
 10
119.22866940485012
 20
36.08918495708113
 40
3.5
 41
1
 50
0
  1
N:5000K
  0
TEXT
  8
_0-0_
 62
    7
 10
141.41129108999348
 20
36.08918495708113
 40
3.5
 41
1
 50
0
  1
NW:4500K
  0
TEXT
  8
_0-0_
 62
    7
 10
165.34391281174422
 20
36.08918495708113
 40
3.5
 41
1
 50
0
  1
W:4000K
  0
TEXT
  8
_0-0_
 62
    7
 10
187.52653443281162
 20
36.08918495708113
 40
3.5
 41
1
 50
0
  1
WW:3500K
  0
TEXT
  8
_0-0_
 62
    7
 10
209.70915625524566
 20
36.08918495708113
 40
3.5
 41
1
 50
0
  1
L30:3000K
  0
TEXT
  8
_0-0_
 62
    7
 10
232.76677813790417
 20
36.08918495708113
 40
3.5
 41
1
 50
0
  1
L27:2700K
  0
TEXT
  8
_0-0_
 62
    7
 10
255.8243996987471
 20
36.08918495708113
 40
3.5
 41
1
 50
0
  1
L25:2500K
  0
LINE
  8
_0-0_
  6
CONTINUOUS
 62
    7
 10
19.288590984589888
 20
42.49953181187243
 11
298.28580760577347
 21
42.49953181187243
  0
LINE
  8
_0-0_
  6
CONTINUOUS
 62
    7
 10
19.288590984589888
 20
42.49953181187243
 11
19.288154579167582
 21
85.913550310917316
  0
LINE
  8
_0-0_
  6
CONTINUOUS
 62
    7
 10
19.288154579167582
 20
85.913550310917316
 11
298.28537120035105
 21
85.913550310917316
  0
LINE
  8
_0-0_
  6
CONTINUOUS
 62
    7
 10
298.28580760577347
 20
42.49953181187243
 11
298.28537120035105
 21
85.913550310917316
  0
LINE
  8
_0-0_
  6
CONTINUOUS
 62
    7
 10
19.288154579167582
 20
79.711547667917316
 11
298.28537120035105
 21
79.711547667917316
  0
LINE
  8
_0-0_
  6
CONTINUOUS
 62
    7
 10
270.22809040752418
 20
42.499247672617997
 11
270.22765400210176
 21
85.913266171662869
  0
LINE
  8
_0-0_
  6
CONTINUOUS
 62
    7
 10
242.28377506964591
 20
42.498903316025462
 11
242.28333866422355
 21
85.912921815070348
  0
LINE
  8
_0-0_
  6
CONTINUOUS
 62
    7
 10
214.17598259178007
 20
42.498556944911186
 11
214.17554618635771
 21
85.912575443956058
  0
LINE
  8
_0-0_
  6
CONTINUOUS
 62
    7
 10
186.43727153388622
 20
42.498215121971327
 11
186.43683512846383
 21
85.912233621016213
  0
LINE
  8
_0-0_
  6
CONTINUOUS
 62
    7
 10
167.01370688536099
 20
42.497975766221998
 11
167.01327047993863
 21
85.91199426526687
  0
LINE
  8
_0-0_
  6
CONTINUOUS
 62
    7
 10
140.05756403740773
 20
42.497643586836432
 11
140.05712763198534
 21
85.911662085881318
  0
LINE
  8
_0-0_
  6
CONTINUOUS
 62
    7
 10
112.53082412949777
 20
42.497304376007904
 11
112.53038772407538
 21
85.911322875052775
  0
LINE
  8
_0-0_
  6
CONTINUOUS
 62
    7
 10
77.642243512146791
 20
42.496874445533862
 11
77.6418071067244
 21
85.910892944578734
  0
LINE
  8
_0-0_
  6
CONTINUOUS
 62
    7
 10
19.288154579167582
 20
61.105539738917315
 11
270.22790337377262
 21
61.105539738917315
  0
LINE
  8
_0-0_
  6
CONTINUOUS
 62
    7
 10
19.288154579167582
 20
73.509545024917315
 11
167.01339515156053
 21
73.509545024917315
  0
LINE
  8
_0-0_
  6
CONTINUOUS
 62
    7
 10
186.43695980249177
 20
73.509545024917315
 11
270.22777868650905
 21
73.509545024917315
  0
LINE
  8
_0-0_
  6
CONTINUOUS
 62
    7
 10
19.288154579167582
 20
67.307542381917315
 11
167.01345749519228
 21
67.307542381917315
  0
LINE
  8
_0-0_
  6
CONTINUOUS
 62
    7
 10
186.43702214612355
 20
67.307542381917315
 11
270.22784103014089
 21
67.307542381917315
  0
LINE
  8
_0-0_
  6
CONTINUOUS
 62
    7
 10
19.288154579167582
 20
54.903537095917315
 11
167.01358218245585
 21
54.903537095917315
  0
LINE
  8
_0-0_
  6
CONTINUOUS
 62
    7
 10
186.43714683338709
 20
54.903537095917315
 11
270.2279657174044
 21
54.903537095917315
  0
LINE
  8
_0-0_
  6
CONTINUOUS
 62
    7
 10
19.288154579167582
 20
48.701534452917315
 11
167.0136445260876
 21
48.701534452917315
  0
LINE
  8
_0-0_
  6
CONTINUOUS
 62
    7
 10
186.4372091770189
 20
48.701534452917315
 11
270.22802806103618
 21
48.701534452917315
  0
TEXT
  8
_0-0_
 62
    7
 10
203.91025936400479
 20
86.940931443258734
 40
3.5
 41
1
 50
0
  1
照明器具の消費電力は、JIS　C　8105-3の試験方法による。
  0
TEXT
  8
_0-0_
 62
    7
 10
19.166865692585304
 20
86.322208934870872
 40
5
 41
1.0000000000000013
 50
0
  1
◆代表特性 定格入力DC24V
  0
TEXT
  8
_0-0_
 62
    7
 10
41.464980898677538
 20
80.233550310917394
 40
4.5
 41
1
 50
0
  1
型式
  0
TEXT
  8
_0-0_
 62
    7
 10
90.586099012739055
 20
80.233550310917394
 40
4.5
 41
1
 50
0
  1
全長
  0
TEXT
  8
_0-0_
 62
    7
 10
121.7937576526718
 20
80.233550310917394
 40
4.5
 41
1
 50
0
  1
重量
  0
TEXT
  8
_0-0_
 62
    7
 10
174.47505278650092
 20
80.233550310917394
 40
4.5
 41
1
 50
0
  1
Ra
  0
TEXT
  8
_0-0_
 62
    7
 10
191.30619064329139
 20
80.233550310917394
 40
4.5
 41
1
 50
0
  1
入力電力
  0
TEXT
  8
_0-0_
 62
    7
 10
219.22944241541154
 20
80.233550310917394
 40
4.5
 41
1
 50
0
  1
入力電流
  0
TEXT
  8
_0-0_
 62
    7
 10
270.7565125997877
 20
80.233550310917394
 40
4.5
 41
1
 50
0
  1
最大連結長さ
  0
TEXT
  8
_0-0_
 62
    7
 10
143.41019903474017
 20
80.233550310917394
 40
4.5
 41
1
 50
0
  1
LED PKG数
  0
TEXT
  8
_0-0_
 62
    7
 10
347.29789970887407
 20
260.26587301587301
 40
4
 41
1
 50
0
  1
Ｓ=２：１
  0
TEXT
  8
_0-0_
 62
    7
 10
390.28582420887409
 20
79.934553347087132
 40
4
 41
1
 50
0
  1
1
  0
TEXT
  8
_0-0_
 62
    7
 10
361.84748670887404
 20
80.191548198938307
 40
2.5
 41
0.8800000000000001
 50
0
  1
ラミネートフィルム
  0
TEXT
  8
_0-0_
 62
    7
 10
325.50242920887399
 20
79.890314412939247
 40
3.5000000000000142
 41
0.9999999999999954
 50
0
  1
型式シール
  0
LINE
  8
_0-0_
  6
CONTINUOUS
 62
    7
 10
396.28582420887415
 20
84.296150624282276
 11
301.28583220887413
 21
84.296150624282276
  0
TEXT
  8
_0-0_
 62
    7
 10
251.08520314847476
 20
82.155864197530747
 40
3.5
 41
1
 50
0
  1
全光束
  0
TEXT
  8
_0-0_
 62
    7
 10
251.33520314847476
 20
79.671051342347511
 40
2.5
 41
1
 50
0
  1
N：5000K
  0
TEXT
  8
_0-0_
 62
    7
 10
327.25242920887399
 20
59.808098320632098
 40
4
 41
1
 50
0
  1
LED基板
  0
TEXT
  8
_0-0_
 62
    7
 10
367.74748670887402
 20
59.808098320632098
 40
4
 41
1
 50
0
  1
FR-4
  0
TEXT
  8
_0-0_
 62
    7
 10
366.74748670887402
 20
64.696987209520984
 40
4
 41
1
 50
0
  1
A1100
  0
LINE
  8
_0-0_
  6
CENTER2
 62
    7
 10
320.30878320887416
 20
39.0753536242823
 11
302.30879820887412
 21
39.0753536242823
  0
LINE
  8
_0-0_
  6
CENTER2
 62
    7
 10
306.30878720887415
 20
43.075354624282298
 11
306.30878720887415
 21
35.075351624282277
  0
TEXT
  8
_0-0_
 62
    7
 10
390.28582420887409
 20
84.934553347087132
 40
4
 41
1
 50
0
  1
1
  0
LINE
  8
_0-0_
  6
CONTINUOUS
 62
    7
 10
396.28582420887415
 20
89.296150624282276
 11
301.28583220887413
 21
89.296150624282276
  0
TEXT
  8
_0-0_
 62
    7
 10
390.28582420887409
 20
89.934553347087132
 40
4
 41
1
 50
0
  1
1
  0
LINE
  8
_0-0_
  6
CONTINUOUS
 62
    7
 10
396.28582420887415
 20
94.296150624282276
 11
301.28583220887413
 21
94.296150624282276
  0
TEXT
  8
_0-0_
 62
    7
 10
304.54077070887405
 20
84.87907797616451
 40
3.5
 41
1
 50
0
  1
⑥
  0
TEXT
  8
_0-0_
 62
    7
 10
304.54077070887405
 20
89.87907797616451
 40
3.5
 41
1
 50
0
  1
⑦
  0
TEXT
  8
_0-0_
 62
    7
 10
325.50242920887399
 20
89.890314412939247
 40
3.5000000000000142
 41
0.9999999999999954
 50
0
  1
両面テープ
  0
TEXT
  8
_0-0_
 62
    7
 10
325.50242920887399
 20
84.890314412939247
 40
3.5000000000000142
 41
0.9999999999999954
 50
0
  1
両面テープ
  0
TEXT
  8
_0-0_
 62
    7
 10
364.59748670887404
 20
90.191548198938307
 40
2.5
 41
0.8800000000000001
 50
0
  1
3M Y-4920 5㎜
  0
TEXT
  8
_0-0_
 62
    7
 10
364.04748670887403
 20
85.191548198938307
 40
2.5
 41
0.8800000000000001
 50
0
  1
3M Y-4630F 6mm
  0
LINE
  8
_1-f_
  6
CONTINUOUS
 62
    7
 10
19.46788649768996
 20
104.9562218706206
 11
29.461591220850551
 21
104.9562218706206
  0
LINE
  8
_1-f_
  6
CONTINUOUS
 62
    7
 10
34.540956300215612
 20
104.9562218706206
 11
54.22349598275531
 21
104.9562218706206
  0
LINE
  8
_1-f_
  6
CONTINUOUS
 62
    7
 10
58.985400744660069
 20
104.9562218706206
 11
63.641485400744727
 21
104.9562218706206
  0
LINE
  8
_1-f_
  6
CONTINUOUS
 62
    7
 10
65.122966882226194
 20
104.9562218706206
 11
69.14413090339022
 21
104.9562218706206
  0
TEXT
  8
_1-f_
 62
    7
 10
41.984792390764852
 20
99.233016802245615
 40
5
 41
1.0000000000000004
 50
0
  1
②
  0
TEXT
  8
_1-f_
 62
    7
 10
58.718959979189691
 20
99.233016802245615
 40
5
 41
1.0000000000000004
 50
0
  1
③
  0
TEXT
  8
_1-f_
 62
    7
 10
64.686261314087062
 20
99.233016802245615
 40
5
 41
1.0000000000000004
 50
0
  1
④
  0
TEXT
  8
_1-f_
 62
    7
 10
167.21207537887409
 20
112.79614266091731
 40
4.5
 41
1
 50
0
  1
　記載なし：両側仕様
  0
TEXT
  8
_1-f_
 62
    7
 10
167.21207537887409
 20
107.29614266091731
 40
4.5
 41
1
 50
0
  1
　　　　 K：片側仕様
  0
TEXT
  8
_1-f_
 62
    7
 10
116.49778966887411
 20
118.29614266091731
 40
4.5
 41
1
 50
0
  1
①本体フレーム
  0
TEXT
  8
_1-f_
 62
    7
 10
116.49778966887411
 20
112.79614266091731
 40
4.5
 41
1
 50
0
  1
②全長
  0
TEXT
  8
_1-f_
 62
    7
 10
116.49778966887411
 20
107.29614266091731
 40
4.5
 41
1
 50
0
  1
③LED発光色
  0
TEXT
  8
_1-f_
 62
    7
 10
116.49778966887411
 20
101.79614266091731
 40
4.5
 41
1
 50
0
  1
④演色性
  0
TEXT
  8
_1-f_
 62
    7
 10
116.49778966887411
 20
96.296142660917312
 40
4.5
 41
1
 50
0
  1
　記載なし：Ra80以上
  0
TEXT
  8
_1-f_
 62
    7
 10
116.49778966887411
 20
90.796142660917312
 40
4.5
 41
1
 50
0
  1
　　　　 Z：Ra95以上
  0
TEXT
  8
_1-f_
 62
    7
 10
167.21207537887409
 20
118.29614266091731
 40
4.5
 41
1
 50
0
  1
⑤接続コネクター仕様
  0
TEXT
  8
_1-f_
 62
    7
 10
34.788403953694626
 20
74.231547667917411
 40
4.5
 41
1
 50
0
  1
AL-505-N
  0
TEXT
  8
_1-f_
 62
    7
 10
34.788403953694626
 20
68.029547667917413
 40
4.5
 41
1
 50
0
  1
AL-1000-N
  0
TEXT
  8
_1-f_
 62
    7
 10
34.788403953694626
 20
61.827547667917415
 40
4.5
 41
1
 50
0
  1
AL-1193-N
  0
TEXT
  8
_1-f_
 62
    7
 10
34.788403953694626
 20
55.625547667917402
 40
4.5
 41
1
 50
0
  1
AL-505-NZ
  0
TEXT
  8
_1-f_
 62
    7
 10
34.788403953694626
 20
49.423547667917404
 40
4.5
 41
1
 50
0
  1
AL-1000-NZ
  0
TEXT
  8
_1-f_
 62
    7
 10
34.788403953694626
 20
43.221547667917406
 40
4.5
 41
1
 50
0
  1
AL-1193-NZ
  0
TEXT
  8
_0-0_
 62
    7
 10
313.25242920887405
 20
74.890314412939247
 40
3.5000000000000142
 41
0.9999999999999954
 50
0
  1
接続コネクター（出力側）
  0
TEXT
  8
_0-0_
 62
    7
 10
313.25242920887399
 20
69.89553312439206
 40
3.4999999999999289
 41
1.0000000000000202
 50
0
  1
接続コネクター（入力側）
  0
TEXT
  8
_1-f_
 62
    7
 10
76.721781305114604
 20
99.233016802245615
 40
5
 41
1.0000000000000004
 50
0
  1
⑤
  0
LINE
  8
_1-f_
  6
CONTINUOUS
 62
    7
 10
75.143298059964678
 20
104.9562218706206
 11
83.242945326278644
 21
104.9562218706206
  0
TEXT
  8
_0-0_
 62
    7
 10
322.28584070887405
 20
47.501616696061134
 40
4
 41
1.0000000000000009
 50
0
  1
難波
  0
TEXT
  8
_0-0_
 62
    7
 10
307.28582820887414
 20
47.501616696061134
 40
4
 41
1.0000000000000009
 50
0
  1
難波
  0
TEXT
  8
_0-0_
 62
    7
 10
353.65928081994718
 20
47.408528353794125
 40
3
 41
1
 50
0
  1
2021年5月17日
  0
TEXT
  8
_1-f_
 62
    7
 10
123.05738703910295
 20
74.231547667917411
 40
4.5
 41
1
 50
0
  1
31
  0
TEXT
  8
_1-f_
 62
    7
 10
123.05738703910295
 20
68.029547667917413
 40
4.5
 41
1
 50
0
  1
62
  0
TEXT
  8
_1-f_
 62
    7
 10
123.05738703910295
 20
61.827547667917415
 40
4.5
 41
1
 50
0
  1
74
  0
TEXT
  8
_1-f_
 62
    7
 10
123.05738703910295
 20
55.625539738917411
 40
4.5
 41
1
 50
0
  1
31
  0
TEXT
  8
_1-f_
 62
    7
 10
123.05738703910295
 20
49.423539738917412
 40
4.5
 41
1
 50
0
  1
62
  0
TEXT
  8
_1-f_
 62
    7
 10
123.05738703910295
 20
43.221539738917414
 40
4.5
 41
1
 50
0
  1
74
  0
TEXT
  8
_1-f_
 62
    7
 10
351.91082420887415
 20
39.521550390733182
 40
4
 41
0.75
 50
0
  1
LEDラインフラットバーシリーズ
  0
TEXT
  8
_1-f_
 62
    7
 10
365.78582420887415
 20
34.976310231454178
 40
4
 41
1
 50
0
  1
AL仕様図
  0
TEXT
  8
_1-f_
 62
    7
 10
220.78358803182658
 20
43.221547667917406
 40
4.5
 41
1
 50
0
  1
0.79
  0
TEXT
  8
_1-f_
 62
    7
 10
246.72791342524286
 20
43.221547667917406
 40
4.5
 41
1
 50
0
  1
1792
  0
TEXT
  8
_1-f_
 62
    7
 10
194.92580560265654
 20
74.231547667917411
 40
4.5
 41
1
 50
0
  1
7.7
  0
TEXT
  8
_1-f_
 62
    7
 10
192.67580560265654
 20
68.029547667917413
 40
4.5
 41
1
 50
0
  1
15.5
  0
TEXT
  8
_1-f_
 62
    7
 10
192.67580560265654
 20
61.827547667917415
 40
4.5
 41
1
 50
0
  1
16.8
  0
TEXT
  8
_1-f_
 62
    7
 10
194.92580560265654
 20
55.625547667917402
 40
4.5
 41
1
 50
0
  1
8.1
  0
TEXT
  8
_1-f_
 62
    7
 10
192.67580560265654
 20
49.423547667917404
 40
4.5
 41
1
 50
0
  1
15.9
  0
LINE
  8
_1-9_
  6
CONTINUOUS
 62
    7
 10
235.33661588543362
 20
247.57325489896462
 11
227.67809791334219
 21
247.57325489896462
  0
LINE
  8
_1-3_
  6
CONTINUOUS
 62
   18
 10
45.039326208206944
 20
225.43961610084946
 11
78.678097918206618
 21
225.43961610084946
  0
LINE
  8
_1-3_
  6
CONTINUOUS
 62
   18
 10
45.039326208206944
 20
225.43961610084946
 11
46.005252034496039
 21
225.69843514595195
  0
LINE
  8
_1-3_
  6
CONTINUOUS
 62
   18
 10
45.039326208206944
 20
225.43961610084946
 11
46.005252034496039
 21
225.18079705574692
  0
LINE
  8
_1-3_
  6
CONTINUOUS
 62
   18
 10
78.678097918206618
 20
225.43961610084946
 11
77.712172091917523
 21
225.18079705574692
  0
LINE
  8
_1-3_
  6
CONTINUOUS
 62
   18
 10
78.678097918206618
 20
225.43961610084946
 11
77.712172091917523
 21
225.69843514595195
  0
LINE
  8
_1-3_
  6
CONTINUOUS
 62
   18
 10
45.039326208206944
 20
224.93961610084946
 11
45.039326208206944
 21
240.82325489896445
  0
LINE
  8
_1-3_
  6
CONTINUOUS
 62
   18
 10
78.678097918206618
 20
224.93961610084946
 11
78.678097918206618
 21
239.57325489896462
  0
LINE
  8
_1-3_
  6
CONTINUOUS
 62
   18
 10
78.678097918206618
 20
225.43961610084946
 11
232.67809791334219
 21
225.43961610084946
  0
LINE
  8
_1-3_
  6
CONTINUOUS
 62
   18
 10
78.678097918206618
 20
225.43961610084946
 11
79.644023744495712
 21
225.69843514595195
  0
LINE
  8
_1-3_
  6
CONTINUOUS
 62
   18
 10
78.678097918206618
 20
225.43961610084946
 11
79.644023744495712
 21
225.18079705574692
  0
LINE
  8
_1-3_
  6
CONTINUOUS
 62
   18
 10
232.67809791334219
 20
225.43961610084946
 11
231.71217208705309
 21
225.18079705574692
  0
LINE
  8
_1-3_
  6
CONTINUOUS
 62
   18
 10
232.67809791334219
 20
225.43961610084946
 11
231.71217208705309
 21
225.69843514595195
  0
LINE
  8
_1-3_
  6
CONTINUOUS
 62
   18
 10
232.67809791334219
 20
224.93961610084946
 11
232.67809791334219
 21
239.57325489896462
  0
LINE
  8
_1-3_
  6
CONTINUOUS
 62
   18
 10
232.67809791334219
 20
225.43961610084946
 11
259.72583293334253
 21
225.43961610084946
  0
LINE
  8
_1-3_
  6
CONTINUOUS
 62
   18
 10
232.67809791334219
 20
225.43961610084946
 11
233.64402373963128
 21
225.69843514595195
  0
LINE
  8
_1-3_
  6
CONTINUOUS
 62
   18
 10
232.67809791334219
 20
225.43961610084946
 11
233.64402373963128
 21
225.18079705574692
  0
LINE
  8
_1-3_
  6
CONTINUOUS
 62
   18
 10
259.72583293334253
 20
225.43961610084946
 11
258.75990710705344
 21
225.18079705574692
  0
LINE
  8
_1-3_
  6
CONTINUOUS
 62
   18
 10
259.72583293334253
 20
225.43961610084946
 11
258.75990710705344
 21
225.69843514595195
  0
LINE
  8
_1-3_
  6
CONTINUOUS
 62
   18
 10
259.72583293334253
 20
224.93961610084946
 11
259.72583293334253
 21
240.57325489896451
  0
TEXT
  8
_1-3_
 62
    7
 10
152.42809791334219
 20
225.93961610084946
 40
3
 41
1
 50
0
  1
全長
  0
TEXT
  8
_1-3_
 62
    7
 10
58.001774269505745
 20
225.93961610084946
 40
3
 41
1
 50
0
  1
(50)
  0
TEXT
  8
_1-3_
 62
    7
 10
242.82696542334213
 20
225.93961610084946
 40
3
 41
1
 50
0
  1
(50)
  0
LINE
  8
_1-3_
  6
CONTINUOUS
 62
   18
 10
290.30997520887365
 20
240.57325489896468
 11
290.30997520887365
 21
248.57325489896468
  0
LINE
  8
_1-3_
  6
CONTINUOUS
 62
   18
 10
290.30997520887365
 20
240.57325489896468
 11
290.05115616377122
 21
241.53918072525371
  0
LINE
  8
_1-3_
  6
CONTINUOUS
 62
   18
 10
290.30997520887365
 20
240.57325489896468
 11
290.56879425397608
 21
241.53918072525371
  0
LINE
  8
_1-3_
  6
CONTINUOUS
 62
   18
 10
290.30997520887365
 20
248.57325489896468
 11
290.56879425397608
 21
247.60732907267558
  0
LINE
  8
_1-3_
  6
CONTINUOUS
 62
   18
 10
290.30997520887365
 20
248.57325489896468
 11
290.05115616377122
 21
247.60732907267558
  0
LINE
  8
_1-3_
  6
CONTINUOUS
 62
   18
 10
289.80997520887365
 20
240.57325489896468
 11
298.90997520887402
 21
240.57325489896468
  0
LINE
  8
_1-3_
  6
CONTINUOUS
 62
   18
 10
289.80997520887365
 20
248.57325489896468
 11
298.90997520887402
 21
248.57325489896468
  0
TEXT
  8
_1-3_
 62
    7
 10
289.80997520887365
 20
243.82325489896468
 40
3
 41
1
 50
90
  1
8
  0
LINE
  8
_1-3_
  6
CONTINUOUS
 62
   18
 10
296.75996910535821
 20
255.89927962428229
 11
293.75996910535821
 21
255.89927962428229
  0
LINE
  8
_1-3_
  6
CONTINUOUS
 62
   18
 10
301.30997520887365
 20
255.89927962428229
 11
304.30997520887365
 21
255.89927962428229
  0
LINE
  8
_1-3_
  6
CONTINUOUS
 62
   18
 10
296.75996910535821
 20
255.89927962428229
 11
301.30997520887365
 21
255.89927962428229
  0
LINE
  8
_1-3_
  6
CONTINUOUS
 62
   18
 10
296.75996910535821
 20
255.89927962428229
 11
295.79404327906911
 21
255.64046057917975
  0
LINE
  8
_1-3_
  6
CONTINUOUS
 62
   18
 10
296.75996910535821
 20
255.89927962428229
 11
295.79404327906911
 21
256.1580986693848
  0
LINE
  8
_1-3_
  6
CONTINUOUS
 62
   18
 10
301.30997520887365
 20
255.89927962428229
 11
302.27590103516275
 21
256.1580986693848
  0
LINE
  8
_1-3_
  6
CONTINUOUS
 62
   18
 10
301.30997520887365
 20
255.89927962428229
 11
302.27590103516275
 21
255.64046057917975
  0
LINE
  8
_1-3_
  6
CONTINUOUS
 62
   18
 10
296.75996910535821
 20
256.39927962428226
 11
296.75996910535821
 21
246.67326112168959
  0
LINE
  8
_1-3_
  6
CONTINUOUS
 62
   18
 10
301.30997520887365
 20
256.39927962428226
 11
301.30997520887365
 21
248.07325489896462
  0
TEXT
  8
_1-3_
 62
    7
 10
294.78497215711593
 20
256.39927962428226
 40
3
 41
1
 50
0
  1
(4.5)
  0
ARC
  8
_1-7_
  6
CONTINUOUS
 62
    7
 10
159.94939711579934
 20
249.24673901295537
 40
7.0102261709862415
 50
138.18998718261719
 51
221.80999755859375
  0
ARC
  8
_1-7_
  6
CONTINUOUS
 62
    7
 10
149.49948663691555
 20
239.89977078497387
 40
7.0102261709862415
 50
318.18998718261713
 51
41.809997558593693
  0
ARC
  8
_1-7_
  6
CONTINUOUS
 62
    7
 10
151.27855733050308
 20
239.89977078497387
 40
7.0102261709862415
 50
318.18998718261713
 51
41.809997558593693
  0
ARC
  8
_1-7_
  6
CONTINUOUS
 62
    7
 10
161.72846780938687
 20
249.24673901295537
 40
7.0102261709862415
 50
138.18998718261719
 51
221.80999755859375
  0
LINE
  8
_1-a_
  6
CONTINUOUS
 62
    7
 10
51.702310897254733
 20
242.48198049211433
 11
63.702310897254733
 21
242.48198049211433
  0
LINE
  8
_1-a_
  6
CONTINUOUS
 62
    7
 10
63.702310897254733
 20
242.48198049211433
 11
63.702310897254733
 21
275.4819804921143
  0
LINE
  8
_1-a_
  6
CONTINUOUS
 62
    7
 10
63.702310897254733
 20
275.4819804921143
 11
51.702310897254733
 21
275.4819804921143
  0
LINE
  8
_1-a_
  6
CONTINUOUS
 62
    7
 10
51.702310897254733
 20
275.4819804921143
 11
51.702310897254733
 21
242.48198049211433
  0
LINE
  8
_1-1_
  6
CONTINUOUS
 62
    7
 10
78.678097918206618
 20
247.57325489896462
 11
78.678097918206618
 21
248.57325489896462
  0
LINE
  8
_1-1_
  6
CONTINUOUS
 62
    7
 10
78.678097918206618
 20
240.57325489896462
 11
78.678097918206618
 21
241.57325489896462
  0
LINE
  8
_1-1_
  6
CONTINUOUS
 62
    7
 10
78.678097918206618
 20
243.57325489896462
 11
78.678097918206618
 21
245.57325489896462
  0
LINE
  8
_1-1_
  6
CONTINUOUS
 62
    7
 10
232.67809791334219
 20
247.57325489896462
 11
232.67809791334219
 21
248.57325489896462
  0
LINE
  8
_1-1_
  6
CONTINUOUS
 62
    7
 10
232.67809791334219
 20
240.57325489896462
 11
232.67809791334219
 21
241.57325489896462
  0
LINE
  8
_1-1_
  6
CONTINUOUS
 62
    7
 10
232.67809791334219
 20
243.57325489896462
 11
232.67809791334219
 21
245.57325489896462
  0
LINE
  8
_1-1_
  6
CONTINUOUS
 62
    7
 10
232.67809791334219
 20
240.57325489896462
 11
158.25635713535428
 21
240.57325489896462
  0
LINE
  8
_1-1_
  6
CONTINUOUS
 62
    7
 10
156.47728644176675
 20
240.57325489896462
 11
78.678097918206618
 21
240.57325489896462
  0
LINE
  8
_1-1_
  6
CONTINUOUS
 62
    7
 10
232.67809791334219
 20
248.57325489896462
 11
154.75066800453567
 21
248.57325489896462
  0
LINE
  8
_1-1_
  6
CONTINUOUS
 62
    7
 10
152.97159731094814
 20
248.57325489896462
 11
78.678097918206618
 21
248.57325489896462
  0
ARC
  8
_1-7_
  6
CONTINUOUS
 62
    7
 10
160.00876157495065
 20
211.46917708145591
 40
4.702846424857416
 50
138.18998718261719
 51
221.80999755859375
  0
ARC
  8
_1-7_
  6
CONTINUOUS
 62
    7
 10
158.22981480861324
 20
211.46917708145591
 40
4.702846424857416
 50
138.18998718261719
 51
221.80999755859375
  0
ARC
  8
_1-7_
  6
CONTINUOUS
 62
    7
 10
152.99838517096339
 20
205.19871518164612
 40
4.702846424857416
 50
318.18998718261713
 51
41.809997558593693
  0
ARC
  8
_1-7_
  6
CONTINUOUS
 62
    7
 10
151.21943840462598
 20
205.19871518164612
 40
4.702846424857416
 50
318.18998718261713
 51
41.809997558593693
  0
LINE
  8
_1-1_
  6
CONTINUOUS
 62
    7
 10
232.67809791334219
 20
204.77149862488241
 11
232.67809791334219
 21
203.77149861988241
  0
LINE
  8
_1-1_
  6
CONTINUOUS
 62
    7
 10
78.678097918206618
 20
204.77149862488241
 11
78.678097918206618
 21
203.77149861988241
  0
LINE
  8
_1-4_
  6
CONTINUOUS
 62
    7
 10
232.67809791334219
 20
203.77149861988241
 11
232.67809791334219
 21
203.37149862458242
  0
LINE
  8
_1-4_
  6
CONTINUOUS
 62
    7
 10
78.678097918206618
 20
203.77149861988241
 11
78.678097918206618
 21
203.37149862458242
  0
LINE
  8
_1-4_
  6
CONTINUOUS
 62
    7
 10
232.67809791334219
 20
203.77149861988241
 11
157.47943609475567
 21
203.77149861988241
  0
LINE
  8
_1-4_
  6
CONTINUOUS
 62
    7
 10
155.70048932841871
 20
203.77149861988241
 11
78.678097918206618
 21
203.77149861988241
  0
LINE
  8
_1-4_
  6
CONTINUOUS
 62
    7
 10
232.67809791334219
 20
203.37149862458242
 11
157.33174923937338
 21
203.37149862458242
  0
LINE
  8
_1-4_
  6
CONTINUOUS
 62
    7
 10
155.55280247303597
 20
203.37149862458242
 11
78.678097918206618
 21
203.37149862458242
  0
LINE
  8
_1-1_
  6
CONTINUOUS
 62
    7
 10
232.67809791334219
 20
203.77149861988241
 11
157.47943609475567
 21
203.77149861988241
  0
LINE
  8
_1-1_
  6
CONTINUOUS
 62
    7
 10
155.70048932841871
 20
203.77149861988241
 11
78.678097918206618
 21
203.77149861988241
  0
LINE
  8
_1-1_
  6
CONTINUOUS
 62
    7
 10
232.67809791334219
 20
204.77149862488241
 11
157.68178676696368
 21
204.77149862488241
  0
LINE
  8
_1-1_
  6
CONTINUOUS
 62
    7
 10
155.90284000062672
 20
204.77149862488241
 11
78.678097918206618
 21
204.77149862488241
  0
LINE
  8
_1-5_
  6
CONTINUOUS
 62
    7
 10
168.77808876293318
 20
243.47326417344746
 11
171.77808876293318
 21
243.47326417344746
  0
LINE
  8
_1-5_
  6
CONTINUOUS
 62
    7
 10
171.77808876293318
 20
243.47326417344746
 11
171.77808876293318
 21
245.67326112168959
  0
LINE
  8
_1-5_
  6
CONTINUOUS
 62
    7
 10
171.77808876293318
 20
245.67326112168959
 11
168.77808876293318
 21
245.67326112168959
  0
LINE
  8
_1-5_
  6
CONTINUOUS
 62
    7
 10
168.77808876293318
 20
245.67326112168959
 11
168.77808876293318
 21
243.47326417344746
  0
LINE
  8
_1-5_
  6
CONTINUOUS
 62
    7
 10
164.27808876293318
 20
243.47326417344746
 11
167.27808876293318
 21
243.47326417344746
  0
LINE
  8
_1-5_
  6
CONTINUOUS
 62
    7
 10
167.27808876293318
 20
243.47326417344746
 11
167.27808876293318
 21
245.67326112168959
  0
LINE
  8
_1-5_
  6
CONTINUOUS
 62
    7
 10
167.27808876293318
 20
245.67326112168959
 11
164.27808876293318
 21
245.67326112168959
  0
LINE
  8
_1-5_
  6
CONTINUOUS
 62
    7
 10
164.27808876293318
 20
245.67326112168959
 11
164.27808876293318
 21
243.47326417344746
  0
LINE
  8
_1-5_
  6
CONTINUOUS
 62
    7
 10
159.77808876293318
 20
243.47326417344746
 11
162.77808876293318
 21
243.47326417344746
  0
LINE
  8
_1-5_
  6
CONTINUOUS
 62
    7
 10
162.77808876293318
 20
243.47326417344746
 11
162.77808876293318
 21
245.67326112168959
  0
LINE
  8
_1-5_
  6
CONTINUOUS
 62
    7
 10
162.77808876293318
 20
245.67326112168959
 11
159.77808876293318
 21
245.67326112168959
  0
LINE
  8
_1-5_
  6
CONTINUOUS
 62
    7
 10
160.07809181469054
 20
247.43359513658223
 11
160.07809181469054
 21
246.58854003328017
  0
LINE
  8
_1-5_
  6
CONTINUOUS
 62
    7
 10
159.77808876293318
 20
247.43359513658223
 11
159.77808876293318
 21
246.58854003328017
  0
LINE
  8
_1-5_
  6
CONTINUOUS
 62
    7
 10
158.55508156078474
 20
246.58854003328017
 11
160.07809181469054
 21
246.58854003328017
  0
LINE
  8
_1-5_
  6
CONTINUOUS
 62
    7
 10
158.55508156078474
 20
247.43359513658223
 11
158.55508156078474
 21
246.58854003328017
  0
LINE
  8
_1-5_
  6
CONTINUOUS
 62
    7
 10
158.55508156078474
 20
247.43359513658223
 11
160.07809181469054
 21
247.43359513658223
  0
LINE
  8
_1-5_
  6
CONTINUOUS
 62
    7
 10
158.85506935375349
 20
247.43359513658223
 11
158.85506935375349
 21
246.58854003328017
  0
LINE
  8
_1-5_
  6
CONTINUOUS
 62
    7
 10
169.07809181469054
 20
247.43359513658223
 11
169.07809181469054
 21
246.58854003328017
  0
LINE
  8
_1-5_
  6
CONTINUOUS
 62
    7
 10
168.77808876293318
 20
247.43359513658223
 11
168.77808876293318
 21
246.58854003328017
  0
LINE
  8
_1-5_
  6
CONTINUOUS
 62
    7
 10
167.55508156078474
 20
246.58854003328017
 11
169.07809181469054
 21
246.58854003328017
  0
LINE
  8
_1-5_
  6
CONTINUOUS
 62
    7
 10
167.55508156078474
 20
247.43359513658223
 11
167.55508156078474
 21
246.58854003328017
  0
LINE
  8
_1-5_
  6
CONTINUOUS
 62
    7
 10
167.55508156078474
 20
247.43359513658223
 11
169.07809181469054
 21
247.43359513658223
  0
LINE
  8
_1-5_
  6
CONTINUOUS
 62
    7
 10
167.85506935375349
 20
247.43359513658223
 11
167.85506935375349
 21
246.58854003328017
  0
LINE
  8
_1-5_
  6
CONTINUOUS
 62
    7
 10
164.57809181469054
 20
241.71291442292861
 11
164.57809181469054
 21
242.55796976464919
  0
LINE
  8
_1-5_
  6
CONTINUOUS
 62
    7
 10
164.27808876293318
 20
241.71291442292861
 11
164.27808876293318
 21
242.55796976464919
  0
LINE
  8
_1-5_
  6
CONTINUOUS
 62
    7
 10
163.05508156078474
 20
242.55796976464919
 11
164.57809181469054
 21
242.55796976464919
  0
LINE
  8
_1-5_
  6
CONTINUOUS
 62
    7
 10
163.05508156078474
 20
241.71291442292861
 11
163.05508156078474
 21
242.55796976464919
  0
LINE
  8
_1-5_
  6
CONTINUOUS
 62
    7
 10
163.05508156078474
 20
241.71291442292861
 11
164.57809181469054
 21
241.71291442292861
  0
LINE
  8
_1-5_
  6
CONTINUOUS
 62
    7
 10
163.35506935375349
 20
241.71291442292861
 11
163.35506935375349
 21
242.55796976464919
  0
LINE
  8
_1-5_
  6
CONTINUOUS
 62
    7
 10
170.35514564769881
 20
245.85780139344863
 11
172.67809791820662
 21
245.85780139344863
  0
LINE
  8
_1-5_
  6
CONTINUOUS
 62
    7
 10
170.35514564769881
 20
245.85780139344863
 11
170.35514564769881
 21
247.65517659562758
  0
LINE
  8
_1-5_
  6
CONTINUOUS
 62
    7
 10
170.35514564769881
 20
247.65517659562758
 11
172.67809791820662
 21
247.65517659562758
  0
LINE
  8
_1-5_
  6
CONTINUOUS
 62
    7
 10
170.35514564769881
 20
243.28870840448073
 11
170.35514564769881
 21
241.49133248704604
  0
LINE
  8
_1-5_
  6
CONTINUOUS
 62
    7
 10
170.35514564769881
 20
241.49133248704604
 11
172.67809791820662
 21
241.49133248704604
  0
CIRCLE
  8
_1-5_
  6
CONTINUOUS
 62
    7
 10
171.56069679515974
 20
246.70795388597188
 40
0.4000000059604644
  0
CIRCLE
  8
_1-5_
  6
CONTINUOUS
 62
    7
 10
171.56069679515974
 20
242.43855591195759
 40
0.4000000059604644
  0
LINE
  8
_1-5_
  6
CONTINUOUS
 62
    7
 10
172.67809791820662
 20
248.07325501817397
 11
172.67809791820662
 21
241.07325477975539
  0
LINE
  8
_1-5_
  6
CONTINUOUS
 62
    7
 10
170.35514564769881
 20
243.28870840448073
 11
172.67809791820662
 21
243.28870840448073
  0
LINE
  8
_1-5_
  6
CONTINUOUS
 62
    7
 10
158.07809181469099
 20
245.67326112168959
 11
158.07809181469099
 21
243.47326417344746
  0
LINE
  8
_1-5_
  6
CONTINUOUS
 62
    7
 10
159.77808876293318
 20
245.67326112168959
 11
159.77808876293318
 21
243.47326417344746
  0
LINE
  8
_1-5_
  6
CONTINUOUS
 62
    7
 10
158.07809181469099
 20
243.47326417344746
 11
157.3095950546093
 21
243.47326417344746
  0
LINE
  8
_1-5_
  6
CONTINUOUS
 62
    7
 10
155.6974209126746
 20
245.67326112168959
 11
158.07809181469099
 21
245.67326112168959
  0
LINE
  8
_1-5_
  6
CONTINUOUS
 62
    7
 10
154.81715778775276
 20
248.07325501817397
 11
172.67809791820662
 21
248.07325501817397
  0
LINE
  8
_1-5_
  6
CONTINUOUS
 62
    7
 10
172.67809791820662
 20
241.07325477975539
 11
158.18986736186559
 21
241.07325477975539
  0
LINE
  8
_1-5_
  6
CONTINUOUS
 62
    7
 10
138.67809791820662
 20
248.07325501817397
 11
138.67809791820662
 21
241.07325477975539
  0
LINE
  8
_1-5_
  6
CONTINUOUS
 62
    7
 10
141.00105018871443
 20
245.85780115503005
 11
138.67809791820662
 21
245.85780115503005
  0
LINE
  8
_1-5_
  6
CONTINUOUS
 62
    7
 10
141.00105018871443
 20
243.28870816606209
 11
138.67809791820662
 21
243.28870816606209
  0
LINE
  8
_1-5_
  6
CONTINUOUS
 62
    7
 10
142.57835121410506
 20
243.47326417344746
 11
139.57835121410506
 21
243.47326417344746
  0
LINE
  8
_1-5_
  6
CONTINUOUS
 62
    7
 10
139.57835121410506
 20
243.47326417344746
 11
139.57835121410506
 21
245.67326112168959
  0
LINE
  8
_1-5_
  6
CONTINUOUS
 62
    7
 10
139.57835121410506
 20
245.67326112168959
 11
142.57835121410506
 21
245.67326112168959
  0
LINE
  8
_1-5_
  6
CONTINUOUS
 62
    7
 10
147.07835121410506
 20
243.47326417344746
 11
144.07835121410506
 21
243.47326417344746
  0
LINE
  8
_1-5_
  6
CONTINUOUS
 62
    7
 10
144.07835121410506
 20
245.67326112168959
 11
147.07835121410506
 21
245.67326112168959
  0
LINE
  8
_1-5_
  6
CONTINUOUS
 62
    7
 10
151.57835121410506
 20
243.47326417344746
 11
148.57835121410506
 21
243.47326417344746
  0
LINE
  8
_1-5_
  6
CONTINUOUS
 62
    7
 10
148.57835121410506
 20
245.67326112168959
 11
151.57835121410506
 21
245.67326112168959
  0
LINE
  8
_1-5_
  6
CONTINUOUS
 62
    7
 10
144.37835426586287
 20
247.43359513658223
 11
144.37835426586287
 21
246.58854003328017
  0
LINE
  8
_1-5_
  6
CONTINUOUS
 62
    7
 10
144.07835121410506
 20
247.43359513658223
 11
144.07835121410506
 21
246.58854003328017
  0
LINE
  8
_1-5_
  6
CONTINUOUS
 62
    7
 10
142.85534401195662
 20
246.58854003328017
 11
144.37835426586287
 21
246.58854003328017
  0
LINE
  8
_1-5_
  6
CONTINUOUS
 62
    7
 10
142.85534401195662
 20
247.43359513658223
 11
142.85534401195662
 21
246.58854003328017
  0
LINE
  8
_1-5_
  6
CONTINUOUS
 62
    7
 10
142.85534401195662
 20
247.43359513658223
 11
144.37835426586287
 21
247.43359513658223
  0
LINE
  8
_1-5_
  6
CONTINUOUS
 62
    7
 10
143.15533180492537
 20
247.43359513658223
 11
143.15533180492537
 21
246.58854003328017
  0
LINE
  8
_1-5_
  6
CONTINUOUS
 62
    7
 10
148.87835426586287
 20
241.71291442292861
 11
148.87835426586287
 21
242.55796976464919
  0
LINE
  8
_1-5_
  6
CONTINUOUS
 62
    7
 10
148.57835121410506
 20
241.71291442292861
 11
148.57835121410506
 21
242.55796976464919
  0
LINE
  8
_1-5_
  6
CONTINUOUS
 62
    7
 10
147.35534401195662
 20
242.55796976464919
 11
148.87835426586287
 21
242.55796976464919
  0
LINE
  8
_1-5_
  6
CONTINUOUS
 62
    7
 10
147.35534401195662
 20
241.71291442292861
 11
147.35534401195662
 21
242.55796976464919
  0
LINE
  8
_1-5_
  6
CONTINUOUS
 62
    7
 10
147.35534401195662
 20
241.71291442292861
 11
148.87835426586287
 21
241.71291442292861
  0
LINE
  8
_1-5_
  6
CONTINUOUS
 62
    7
 10
147.65533180492537
 20
241.71291442292861
 11
147.65533180492537
 21
242.55796976464919
  0
LINE
  8
_1-5_
  6
CONTINUOUS
 62
    7
 10
152.05534096019881
 20
247.43359513658223
 11
152.05534096019881
 21
246.58854003328017
  0
LINE
  8
_1-5_
  6
CONTINUOUS
 62
    7
 10
152.35532875316756
 20
247.43359513658223
 11
152.35532875316756
 21
246.58854003328017
  0
LINE
  8
_1-5_
  6
CONTINUOUS
 62
    7
 10
141.00129432933943
 20
245.85780139344863
 11
138.67834205883162
 21
245.85780139344863
  0
LINE
  8
_1-5_
  6
CONTINUOUS
 62
    7
 10
141.00129432933943
 20
245.85780139344863
 11
141.00129432933943
 21
247.65517659562758
  0
LINE
  8
_1-5_
  6
CONTINUOUS
 62
    7
 10
141.00129432933943
 20
243.28870840448073
 11
138.67834205883162
 21
243.28870840448073
  0
LINE
  8
_1-5_
  6
CONTINUOUS
 62
    7
 10
141.00129432933943
 20
243.28870840448073
 11
141.00129432933943
 21
241.49133248704604
  0
CIRCLE
  8
_1-5_
  6
CONTINUOUS
 62
    7
 10
139.79574318187849
 20
246.70795388597188
 40
0.4000000059604644
  0
CIRCLE
  8
_1-5_
  6
CONTINUOUS
 62
    7
 10
139.79574318187849
 20
242.43855591195759
 40
0.4000000059604644
  0
LINE
  8
_1-5_
  6
CONTINUOUS
 62
    7
 10
141.00129432933943
 20
241.49133248704604
 11
138.67809791820662
 21
241.49133248704604
  0
LINE
  8
_1-5_
  6
CONTINUOUS
 62
    7
 10
141.00129432933943
 20
247.65517659562758
 11
138.67809791820662
 21
247.65517659562758
  0
LINE
  8
_1-5_
  6
CONTINUOUS
 62
    7
 10
142.57835121410506
 20
245.67326112168959
 11
142.57835121410506
 21
243.47326417344746
  0
LINE
  8
_1-5_
  6
CONTINUOUS
 62
    7
 10
144.07835121410506
 20
243.47326417344746
 11
144.07835121410506
 21
245.67326112168959
  0
LINE
  8
_1-5_
  6
CONTINUOUS
 62
    7
 10
147.07835121410506
 20
245.67326112168959
 11
147.07835121410506
 21
243.47326417344746
  0
LINE
  8
_1-5_
  6
CONTINUOUS
 62
    7
 10
148.57835121410506
 20
243.47326417344746
 11
148.57835121410506
 21
245.67326112168959
  0
LINE
  8
_1-5_
  6
CONTINUOUS
 62
    7
 10
151.57835121410506
 20
245.67326112168959
 11
151.57835121410506
 21
243.47326417344746
  0
LINE
  8
_1-5_
  6
CONTINUOUS
 62
    7
 10
153.27834816234724
 20
245.67326112168959
 11
153.27834816234724
 21
243.47326417344746
  0
LINE
  8
_1-5_
  6
CONTINUOUS
 62
    7
 10
138.67809791820662
 20
248.07325501817397
 11
153.03808709416523
 21
248.07325501817397
  0
LINE
  8
_1-5_
  6
CONTINUOUS
 62
    7
 10
156.41079666827761
 20
241.07325477975539
 11
138.67809791820662
 21
241.07325477975539
  0
LINE
  8
_1-5_
  6
CONTINUOUS
 62
    7
 10
153.27834816234724
 20
243.47326417344746
 11
155.53052436102132
 21
243.47326417344746
  0
LINE
  8
_1-5_
  6
CONTINUOUS
 62
    7
 10
153.91835021908707
 20
245.67326112168959
 11
153.27834816234724
 21
245.67326112168959
  0
LINE
  8
_1-5_
  6
CONTINUOUS
 62
    7
 10
152.05534096019881
 20
246.58854003328017
 11
153.4626992586667
 21
246.58854003328017
  0
LINE
  8
_1-5_
  6
CONTINUOUS
 62
    7
 10
152.05534096019881
 20
247.43359513658223
 11
153.17770750492116
 21
247.43359513658223
  0
LINE
  8
_1-5_
  6
CONTINUOUS
 62
    7
 10
153.27834816234724
 20
247.09258563769887
 11
153.27834816234724
 21
246.58854003328017
  0
CIRCLE
  8
_1-5_
  6
CONTINUOUS
 62
    7
 10
110.06095619457381
 20
246.70795388597188
 40
0.4000000059604644
  0
LINE
  8
_1-5_
  6
CONTINUOUS
 62
    7
 10
83.678097918206618
 20
248.07325501817397
 11
83.678097918206618
 21
241.07325477975539
  0
LINE
  8
_1-5_
  6
CONTINUOUS
 62
    7
 10
86.00105018871443
 20
245.85780115503005
 11
83.678097918206618
 21
245.85780115503005
  0
LINE
  8
_1-5_
  6
CONTINUOUS
 62
    7
 10
86.00105018871443
 20
243.28870816606209
 11
83.678097918206618
 21
243.28870816606209
  0
LINE
  8
_1-5_
  6
CONTINUOUS
 62
    7
 10
87.578351214105055
 20
243.47326417344746
 11
84.578351214105055
 21
243.47326417344746
  0
LINE
  8
_1-5_
  6
CONTINUOUS
 62
    7
 10
84.578351214105055
 20
243.47326417344746
 11
84.578351214105055
 21
245.67326112168959
  0
LINE
  8
_1-5_
  6
CONTINUOUS
 62
    7
 10
84.578351214105055
 20
245.67326112168959
 11
87.578351214105055
 21
245.67326112168959
  0
LINE
  8
_1-5_
  6
CONTINUOUS
 62
    7
 10
92.078351214105055
 20
243.47326417344746
 11
89.078351214105055
 21
243.47326417344746
  0
LINE
  8
_1-5_
  6
CONTINUOUS
 62
    7
 10
89.078351214105055
 20
245.67326112168959
 11
92.078351214105055
 21
245.67326112168959
  0
LINE
  8
_1-5_
  6
CONTINUOUS
 62
    7
 10
96.578351214105055
 20
243.47326417344746
 11
93.578351214105055
 21
243.47326417344746
  0
LINE
  8
_1-5_
  6
CONTINUOUS
 62
    7
 10
93.578351214105055
 20
245.67326112168959
 11
96.578351214105055
 21
245.67326112168959
  0
LINE
  8
_1-5_
  6
CONTINUOUS
 62
    7
 10
107.27834816234724
 20
243.47326417344746
 11
110.27834816234724
 21
243.47326417344746
  0
LINE
  8
_1-5_
  6
CONTINUOUS
 62
    7
 10
110.27834816234724
 20
243.47326417344746
 11
110.27834816234724
 21
245.67326112168959
  0
LINE
  8
_1-5_
  6
CONTINUOUS
 62
    7
 10
110.27834816234724
 20
245.67326112168959
 11
107.27834816234724
 21
245.67326112168959
  0
LINE
  8
_1-5_
  6
CONTINUOUS
 62
    7
 10
107.27834816234724
 20
245.67326112168959
 11
107.27834816234724
 21
243.47326417344746
  0
LINE
  8
_1-5_
  6
CONTINUOUS
 62
    7
 10
102.77834816234724
 20
243.47326417344746
 11
105.77834816234724
 21
243.47326417344746
  0
LINE
  8
_1-5_
  6
CONTINUOUS
 62
    7
 10
105.77834816234724
 20
243.47326417344746
 11
105.77834816234724
 21
245.67326112168959
  0
LINE
  8
_1-5_
  6
CONTINUOUS
 62
    7
 10
105.77834816234724
 20
245.67326112168959
 11
102.77834816234724
 21
245.67326112168959
  0
LINE
  8
_1-5_
  6
CONTINUOUS
 62
    7
 10
102.77834816234724
 20
245.67326112168959
 11
102.77834816234724
 21
243.47326417344746
  0
LINE
  8
_1-5_
  6
CONTINUOUS
 62
    7
 10
98.278348162347243
 20
243.47326417344746
 11
101.27834816234724
 21
243.47326417344746
  0
LINE
  8
_1-5_
  6
CONTINUOUS
 62
    7
 10
101.27834816234724
 20
243.47326417344746
 11
101.27834816234724
 21
245.67326112168959
  0
LINE
  8
_1-5_
  6
CONTINUOUS
 62
    7
 10
101.27834816234724
 20
245.67326112168959
 11
98.278348162347243
 21
245.67326112168959
  0
LINE
  8
_1-5_
  6
CONTINUOUS
 62
    7
 10
89.378354265862868
 20
247.43359513658223
 11
89.378354265862868
 21
246.58854003328017
  0
LINE
  8
_1-5_
  6
CONTINUOUS
 62
    7
 10
89.078351214105055
 20
247.43359513658223
 11
89.078351214105055
 21
246.58854003328017
  0
LINE
  8
_1-5_
  6
CONTINUOUS
 62
    7
 10
87.855344011956618
 20
246.58854003328017
 11
89.378354265862868
 21
246.58854003328017
  0
LINE
  8
_1-5_
  6
CONTINUOUS
 62
    7
 10
87.855344011956618
 20
247.43359513658223
 11
87.855344011956618
 21
246.58854003328017
  0
LINE
  8
_1-5_
  6
CONTINUOUS
 62
    7
 10
87.855344011956618
 20
247.43359513658223
 11
89.378354265862868
 21
247.43359513658223
  0
LINE
  8
_1-5_
  6
CONTINUOUS
 62
    7
 10
88.155331804925368
 20
247.43359513658223
 11
88.155331804925368
 21
246.58854003328017
  0
LINE
  8
_1-5_
  6
CONTINUOUS
 62
    7
 10
93.878354265862868
 20
241.71291442292861
 11
93.878354265862868
 21
242.55796976464919
  0
LINE
  8
_1-5_
  6
CONTINUOUS
 62
    7
 10
93.578351214105055
 20
241.71291442292861
 11
93.578351214105055
 21
242.55796976464919
  0
LINE
  8
_1-5_
  6
CONTINUOUS
 62
    7
 10
92.355344011956618
 20
242.55796976464919
 11
93.878354265862868
 21
242.55796976464919
  0
LINE
  8
_1-5_
  6
CONTINUOUS
 62
    7
 10
92.355344011956618
 20
241.71291442292861
 11
92.355344011956618
 21
242.55796976464919
  0
LINE
  8
_1-5_
  6
CONTINUOUS
 62
    7
 10
92.355344011956618
 20
241.71291442292861
 11
93.878354265862868
 21
241.71291442292861
  0
LINE
  8
_1-5_
  6
CONTINUOUS
 62
    7
 10
92.655331804925368
 20
241.71291442292861
 11
92.655331804925368
 21
242.55796976464919
  0
LINE
  8
_1-5_
  6
CONTINUOUS
 62
    7
 10
98.578351214105055
 20
247.43359513658223
 11
98.578351214105055
 21
246.58854003328017
  0
LINE
  8
_1-5_
  6
CONTINUOUS
 62
    7
 10
98.278348162347243
 20
247.43359513658223
 11
98.278348162347243
 21
246.58854003328017
  0
LINE
  8
_1-5_
  6
CONTINUOUS
 62
    7
 10
97.055340960198805
 20
246.58854003328017
 11
98.578351214105055
 21
246.58854003328017
  0
LINE
  8
_1-5_
  6
CONTINUOUS
 62
    7
 10
97.055340960198805
 20
247.43359513658223
 11
97.055340960198805
 21
246.58854003328017
  0
LINE
  8
_1-5_
  6
CONTINUOUS
 62
    7
 10
97.055340960198805
 20
247.43359513658223
 11
98.578351214105055
 21
247.43359513658223
  0
LINE
  8
_1-5_
  6
CONTINUOUS
 62
    7
 10
97.355328753167555
 20
247.43359513658223
 11
97.355328753167555
 21
246.58854003328017
  0
LINE
  8
_1-5_
  6
CONTINUOUS
 62
    7
 10
107.57835121410506
 20
247.43359513658223
 11
107.57835121410506
 21
246.58854003328017
  0
LINE
  8
_1-5_
  6
CONTINUOUS
 62
    7
 10
107.27834816234724
 20
247.43359513658223
 11
107.27834816234724
 21
246.58854003328017
  0
LINE
  8
_1-5_
  6
CONTINUOUS
 62
    7
 10
106.05534096019881
 20
246.58854003328017
 11
107.57835121410506
 21
246.58854003328017
  0
LINE
  8
_1-5_
  6
CONTINUOUS
 62
    7
 10
106.05534096019881
 20
247.43359513658223
 11
106.05534096019881
 21
246.58854003328017
  0
LINE
  8
_1-5_
  6
CONTINUOUS
 62
    7
 10
106.05534096019881
 20
247.43359513658223
 11
107.57835121410506
 21
247.43359513658223
  0
LINE
  8
_1-5_
  6
CONTINUOUS
 62
    7
 10
106.35532875316756
 20
247.43359513658223
 11
106.35532875316756
 21
246.58854003328017
  0
LINE
  8
_1-5_
  6
CONTINUOUS
 62
    7
 10
103.07835121410506
 20
241.71291442292861
 11
103.07835121410506
 21
242.55796976464919
  0
LINE
  8
_1-5_
  6
CONTINUOUS
 62
    7
 10
102.77834816234724
 20
241.71291442292861
 11
102.77834816234724
 21
242.55796976464919
  0
LINE
  8
_1-5_
  6
CONTINUOUS
 62
    7
 10
101.55534096019881
 20
242.55796976464919
 11
103.07835121410506
 21
242.55796976464919
  0
LINE
  8
_1-5_
  6
CONTINUOUS
 62
    7
 10
101.55534096019881
 20
241.71291442292861
 11
101.55534096019881
 21
242.55796976464919
  0
LINE
  8
_1-5_
  6
CONTINUOUS
 62
    7
 10
101.55534096019881
 20
241.71291442292861
 11
103.07835121410506
 21
241.71291442292861
  0
LINE
  8
_1-5_
  6
CONTINUOUS
 62
    7
 10
101.85532875316756
 20
241.71291442292861
 11
101.85532875316756
 21
242.55796976464919
  0
LINE
  8
_1-5_
  6
CONTINUOUS
 62
    7
 10
108.85540504711287
 20
245.85780139344863
 11
111.17835731762068
 21
245.85780139344863
  0
LINE
  8
_1-5_
  6
CONTINUOUS
 62
    7
 10
108.85540504711287
 20
245.85780139344863
 11
108.85540504711287
 21
247.65517659562758
  0
LINE
  8
_1-5_
  6
CONTINUOUS
 62
    7
 10
108.85540504711287
 20
247.65517659562758
 11
111.17835731762068
 21
247.65517659562758
  0
LINE
  8
_1-5_
  6
CONTINUOUS
 62
    7
 10
108.85540504711287
 20
243.28870840448073
 11
108.85540504711287
 21
241.49133248704604
  0
LINE
  8
_1-5_
  6
CONTINUOUS
 62
    7
 10
108.85540504711287
 20
241.49133248704604
 11
111.17835731762068
 21
241.49133248704604
  0
LINE
  8
_1-5_
  6
CONTINUOUS
 62
    7
 10
86.00129432933943
 20
245.85780139344863
 11
83.678342058831618
 21
245.85780139344863
  0
LINE
  8
_1-5_
  6
CONTINUOUS
 62
    7
 10
86.00129432933943
 20
245.85780139344863
 11
86.00129432933943
 21
247.65517659562758
  0
LINE
  8
_1-5_
  6
CONTINUOUS
 62
    7
 10
86.00129432933943
 20
243.28870840448073
 11
83.678342058831618
 21
243.28870840448073
  0
LINE
  8
_1-5_
  6
CONTINUOUS
 62
    7
 10
86.00129432933943
 20
243.28870840448073
 11
86.00129432933943
 21
241.49133248704604
  0
CIRCLE
  8
_1-5_
  6
CONTINUOUS
 62
    7
 10
110.06095619457381
 20
242.43855591195759
 40
0.4000000059604644
  0
LINE
  8
_1-5_
  6
CONTINUOUS
 62
    7
 10
86.00129432933943
 20
241.49133248704604
 11
83.678097918206618
 21
241.49133248704604
  0
LINE
  8
_1-5_
  6
CONTINUOUS
 62
    7
 10
86.00129432933943
 20
247.65517659562758
 11
83.678097918206618
 21
247.65517659562758
  0
LINE
  8
_1-5_
  6
CONTINUOUS
 62
    7
 10
111.17835731762068
 20
241.07325477975539
 11
83.678097918206618
 21
241.07325477975539
  0
LINE
  8
_1-5_
  6
CONTINUOUS
 62
    7
 10
111.17835731762068
 20
248.07325501817397
 11
111.17835731762068
 21
241.07325477975539
  0
LINE
  8
_1-5_
  6
CONTINUOUS
 62
    7
 10
83.678097918206618
 20
248.07325501817397
 11
111.17835731762068
 21
248.07325501817397
  0
LINE
  8
_1-5_
  6
CONTINUOUS
 62
    7
 10
108.85540504711287
 20
243.28870840448073
 11
111.17835731762068
 21
243.28870840448073
  0
LINE
  8
_1-5_
  6
CONTINUOUS
 62
    7
 10
87.578351214105055
 20
245.67326112168959
 11
87.578351214105055
 21
243.47326417344746
  0
LINE
  8
_1-5_
  6
CONTINUOUS
 62
    7
 10
89.078351214105055
 20
243.47326417344746
 11
89.078351214105055
 21
245.67326112168959
  0
LINE
  8
_1-5_
  6
CONTINUOUS
 62
    7
 10
92.078351214105055
 20
245.67326112168959
 11
92.078351214105055
 21
243.47326417344746
  0
LINE
  8
_1-5_
  6
CONTINUOUS
 62
    7
 10
93.578351214105055
 20
243.47326417344746
 11
93.578351214105055
 21
245.67326112168959
  0
LINE
  8
_1-5_
  6
CONTINUOUS
 62
    7
 10
96.578351214105055
 20
245.67326112168959
 11
96.578351214105055
 21
243.47326417344746
  0
LINE
  8
_1-5_
  6
CONTINUOUS
 62
    7
 10
98.278348162347243
 20
245.67326112168959
 11
98.278348162347243
 21
243.47326417344746
  0
LINE
  8
_1-5_
  6
CONTINUOUS
 62
    7
 10
200.1778385187921
 20
248.07325501817397
 11
200.1778385187921
 21
241.07325477975539
  0
LINE
  8
_1-5_
  6
CONTINUOUS
 62
    7
 10
202.50079078930037
 20
245.85780115503005
 11
200.1778385187921
 21
245.85780115503005
  0
LINE
  8
_1-5_
  6
CONTINUOUS
 62
    7
 10
202.50079078930037
 20
243.28870816606209
 11
200.1778385187921
 21
243.28870816606209
  0
LINE
  8
_1-5_
  6
CONTINUOUS
 62
    7
 10
204.07809181469099
 20
243.47326417344746
 11
201.07809181469099
 21
243.47326417344746
  0
LINE
  8
_1-5_
  6
CONTINUOUS
 62
    7
 10
201.07809181469099
 20
243.47326417344746
 11
201.07809181469099
 21
245.67326112168959
  0
LINE
  8
_1-5_
  6
CONTINUOUS
 62
    7
 10
201.07809181469099
 20
245.67326112168959
 11
204.07809181469099
 21
245.67326112168959
  0
LINE
  8
_1-5_
  6
CONTINUOUS
 62
    7
 10
208.57809181469099
 20
243.47326417344746
 11
205.57809181469099
 21
243.47326417344746
  0
LINE
  8
_1-5_
  6
CONTINUOUS
 62
    7
 10
205.57809181469099
 20
245.67326112168959
 11
208.57809181469099
 21
245.67326112168959
  0
LINE
  8
_1-5_
  6
CONTINUOUS
 62
    7
 10
213.07809181469099
 20
243.47326417344746
 11
210.07809181469099
 21
243.47326417344746
  0
LINE
  8
_1-5_
  6
CONTINUOUS
 62
    7
 10
210.07809181469099
 20
245.67326112168959
 11
213.07809181469099
 21
245.67326112168959
  0
LINE
  8
_1-5_
  6
CONTINUOUS
 62
    7
 10
223.77808876293318
 20
243.47326417344746
 11
226.77808876293318
 21
243.47326417344746
  0
LINE
  8
_1-5_
  6
CONTINUOUS
 62
    7
 10
226.77808876293318
 20
243.47326417344746
 11
226.77808876293318
 21
245.67326112168959
  0
LINE
  8
_1-5_
  6
CONTINUOUS
 62
    7
 10
226.77808876293318
 20
245.67326112168959
 11
223.77808876293318
 21
245.67326112168959
  0
LINE
  8
_1-5_
  6
CONTINUOUS
 62
    7
 10
223.77808876293318
 20
245.67326112168959
 11
223.77808876293318
 21
243.47326417344746
  0
LINE
  8
_1-5_
  6
CONTINUOUS
 62
    7
 10
219.27808876293318
 20
243.47326417344746
 11
222.27808876293318
 21
243.47326417344746
  0
LINE
  8
_1-5_
  6
CONTINUOUS
 62
    7
 10
222.27808876293318
 20
243.47326417344746
 11
222.27808876293318
 21
245.67326112168959
  0
LINE
  8
_1-5_
  6
CONTINUOUS
 62
    7
 10
222.27808876293318
 20
245.67326112168959
 11
219.27808876293318
 21
245.67326112168959
  0
LINE
  8
_1-5_
  6
CONTINUOUS
 62
    7
 10
219.27808876293318
 20
245.67326112168959
 11
219.27808876293318
 21
243.47326417344746
  0
LINE
  8
_1-5_
  6
CONTINUOUS
 62
    7
 10
214.77808876293318
 20
243.47326417344746
 11
217.77808876293318
 21
243.47326417344746
  0
LINE
  8
_1-5_
  6
CONTINUOUS
 62
    7
 10
217.77808876293318
 20
243.47326417344746
 11
217.77808876293318
 21
245.67326112168959
  0
LINE
  8
_1-5_
  6
CONTINUOUS
 62
    7
 10
217.77808876293318
 20
245.67326112168959
 11
214.77808876293318
 21
245.67326112168959
  0
LINE
  8
_1-5_
  6
CONTINUOUS
 62
    7
 10
205.87809486644835
 20
247.43359513658223
 11
205.87809486644835
 21
246.58854003328017
  0
LINE
  8
_1-5_
  6
CONTINUOUS
 62
    7
 10
205.57809181469099
 20
247.43359513658223
 11
205.57809181469099
 21
246.58854003328017
  0
LINE
  8
_1-5_
  6
CONTINUOUS
 62
    7
 10
204.35508461254256
 20
246.58854003328017
 11
205.87809486644835
 21
246.58854003328017
  0
LINE
  8
_1-5_
  6
CONTINUOUS
 62
    7
 10
204.35508461254256
 20
247.43359513658223
 11
204.35508461254256
 21
246.58854003328017
  0
LINE
  8
_1-5_
  6
CONTINUOUS
 62
    7
 10
204.35508461254256
 20
247.43359513658223
 11
205.87809486644835
 21
247.43359513658223
  0
LINE
  8
_1-5_
  6
CONTINUOUS
 62
    7
 10
204.65507240551085
 20
247.43359513658223
 11
204.65507240551085
 21
246.58854003328017
  0
LINE
  8
_1-5_
  6
CONTINUOUS
 62
    7
 10
210.37809486644835
 20
241.71291442292861
 11
210.37809486644835
 21
242.55796976464919
  0
LINE
  8
_1-5_
  6
CONTINUOUS
 62
    7
 10
210.07809181469099
 20
241.71291442292861
 11
210.07809181469099
 21
242.55796976464919
  0
LINE
  8
_1-5_
  6
CONTINUOUS
 62
    7
 10
208.85508461254256
 20
242.55796976464919
 11
210.37809486644835
 21
242.55796976464919
  0
LINE
  8
_1-5_
  6
CONTINUOUS
 62
    7
 10
208.85508461254256
 20
241.71291442292861
 11
208.85508461254256
 21
242.55796976464919
  0
LINE
  8
_1-5_
  6
CONTINUOUS
 62
    7
 10
208.85508461254256
 20
241.71291442292861
 11
210.37809486644835
 21
241.71291442292861
  0
LINE
  8
_1-5_
  6
CONTINUOUS
 62
    7
 10
209.15507240551085
 20
241.71291442292861
 11
209.15507240551085
 21
242.55796976464919
  0
LINE
  8
_1-5_
  6
CONTINUOUS
 62
    7
 10
215.07809181469054
 20
247.43359513658223
 11
215.07809181469054
 21
246.58854003328017
  0
LINE
  8
_1-5_
  6
CONTINUOUS
 62
    7
 10
214.77808876293318
 20
247.43359513658223
 11
214.77808876293318
 21
246.58854003328017
  0
LINE
  8
_1-5_
  6
CONTINUOUS
 62
    7
 10
213.55508156078474
 20
246.58854003328017
 11
215.07809181469054
 21
246.58854003328017
  0
LINE
  8
_1-5_
  6
CONTINUOUS
 62
    7
 10
213.55508156078474
 20
247.43359513658223
 11
213.55508156078474
 21
246.58854003328017
  0
LINE
  8
_1-5_
  6
CONTINUOUS
 62
    7
 10
213.55508156078474
 20
247.43359513658223
 11
215.07809181469054
 21
247.43359513658223
  0
LINE
  8
_1-5_
  6
CONTINUOUS
 62
    7
 10
213.85506935375304
 20
247.43359513658223
 11
213.85506935375304
 21
246.58854003328017
  0
LINE
  8
_1-5_
  6
CONTINUOUS
 62
    7
 10
224.07809181469054
 20
247.43359513658223
 11
224.07809181469054
 21
246.58854003328017
  0
LINE
  8
_1-5_
  6
CONTINUOUS
 62
    7
 10
223.77808876293318
 20
247.43359513658223
 11
223.77808876293318
 21
246.58854003328017
  0
LINE
  8
_1-5_
  6
CONTINUOUS
 62
    7
 10
222.55508156078474
 20
246.58854003328017
 11
224.07809181469054
 21
246.58854003328017
  0
LINE
  8
_1-5_
  6
CONTINUOUS
 62
    7
 10
222.55508156078474
 20
247.43359513658223
 11
222.55508156078474
 21
246.58854003328017
  0
LINE
  8
_1-5_
  6
CONTINUOUS
 62
    7
 10
222.55508156078474
 20
247.43359513658223
 11
224.07809181469054
 21
247.43359513658223
  0
LINE
  8
_1-5_
  6
CONTINUOUS
 62
    7
 10
222.85506935375304
 20
247.43359513658223
 11
222.85506935375304
 21
246.58854003328017
  0
LINE
  8
_1-5_
  6
CONTINUOUS
 62
    7
 10
219.57809181469054
 20
241.71291442292861
 11
219.57809181469054
 21
242.55796976464919
  0
LINE
  8
_1-5_
  6
CONTINUOUS
 62
    7
 10
219.27808876293318
 20
241.71291442292861
 11
219.27808876293318
 21
242.55796976464919
  0
LINE
  8
_1-5_
  6
CONTINUOUS
 62
    7
 10
218.05508156078474
 20
242.55796976464919
 11
219.57809181469054
 21
242.55796976464919
  0
LINE
  8
_1-5_
  6
CONTINUOUS
 62
    7
 10
218.05508156078474
 20
241.71291442292861
 11
218.05508156078474
 21
242.55796976464919
  0
LINE
  8
_1-5_
  6
CONTINUOUS
 62
    7
 10
218.05508156078474
 20
241.71291442292861
 11
219.57809181469054
 21
241.71291442292861
  0
LINE
  8
_1-5_
  6
CONTINUOUS
 62
    7
 10
218.35506935375304
 20
241.71291442292861
 11
218.35506935375304
 21
242.55796976464919
  0
LINE
  8
_1-5_
  6
CONTINUOUS
 62
    7
 10
225.35514564769835
 20
245.85780139344863
 11
227.67809791820662
 21
245.85780139344863
  0
LINE
  8
_1-5_
  6
CONTINUOUS
 62
    7
 10
225.35514564769835
 20
245.85780139344863
 11
225.35514564769835
 21
247.65517659562758
  0
LINE
  8
_1-5_
  6
CONTINUOUS
 62
    7
 10
225.35514564769835
 20
247.65517659562758
 11
227.67809791820662
 21
247.65517659562758
  0
LINE
  8
_1-5_
  6
CONTINUOUS
 62
    7
 10
225.35514564769835
 20
243.28870840448073
 11
225.35514564769835
 21
241.49133248704604
  0
LINE
  8
_1-5_
  6
CONTINUOUS
 62
    7
 10
225.35514564769835
 20
241.49133248704604
 11
227.67809791820662
 21
241.49133248704604
  0
LINE
  8
_1-5_
  6
CONTINUOUS
 62
    7
 10
202.50103492992491
 20
245.85780139344863
 11
200.17808265941756
 21
245.85780139344863
  0
LINE
  8
_1-5_
  6
CONTINUOUS
 62
    7
 10
202.50103492992491
 20
245.85780139344863
 11
202.50103492992491
 21
247.65517659562758
  0
LINE
  8
_1-5_
  6
CONTINUOUS
 62
    7
 10
202.50103492992491
 20
243.28870840448073
 11
200.17808265941756
 21
243.28870840448073
  0
LINE
  8
_1-5_
  6
CONTINUOUS
 62
    7
 10
202.50103492992491
 20
243.28870840448073
 11
202.50103492992491
 21
241.49133248704604
  0
CIRCLE
  8
_1-5_
  6
CONTINUOUS
 62
    7
 10
201.29548378246443
 20
246.70795388597188
 40
0.4000000059604644
  0
CIRCLE
  8
_1-5_
  6
CONTINUOUS
 62
    7
 10
201.29548378246443
 20
242.43855591195759
 40
0.4000000059604644
  0
LINE
  8
_1-5_
  6
CONTINUOUS
 62
    7
 10
202.50103492992491
 20
241.49133248704604
 11
200.1778385187921
 21
241.49133248704604
  0
LINE
  8
_1-5_
  6
CONTINUOUS
 62
    7
 10
202.50103492992491
 20
247.65517659562758
 11
200.1778385187921
 21
247.65517659562758
  0
LINE
  8
_1-5_
  6
CONTINUOUS
 62
    7
 10
227.67809791820662
 20
241.07325477975539
 11
200.1778385187921
 21
241.07325477975539
  0
LINE
  8
_1-5_
  6
CONTINUOUS
 62
    7
 10
227.67809791820662
 20
248.07325501817397
 11
227.67809791820662
 21
241.07325477975539
  0
LINE
  8
_1-5_
  6
CONTINUOUS
 62
    7
 10
200.1778385187921
 20
248.07325501817397
 11
227.67809791820662
 21
248.07325501817397
  0
LINE
  8
_1-5_
  6
CONTINUOUS
 62
    7
 10
225.35514564769835
 20
243.28870840448073
 11
227.67809791820662
 21
243.28870840448073
  0
LINE
  8
_1-5_
  6
CONTINUOUS
 62
    7
 10
204.07809181469099
 20
245.67326112168959
 11
204.07809181469099
 21
243.47326417344746
  0
LINE
  8
_1-5_
  6
CONTINUOUS
 62
    7
 10
205.57809181469099
 20
243.47326417344746
 11
205.57809181469099
 21
245.67326112168959
  0
LINE
  8
_1-5_
  6
CONTINUOUS
 62
    7
 10
208.57809181469099
 20
245.67326112168959
 11
208.57809181469099
 21
243.47326417344746
  0
LINE
  8
_1-5_
  6
CONTINUOUS
 62
    7
 10
210.07809181469099
 20
243.47326417344746
 11
210.07809181469099
 21
245.67326112168959
  0
LINE
  8
_1-5_
  6
CONTINUOUS
 62
    7
 10
213.07809181469099
 20
245.67326112168959
 11
213.07809181469099
 21
243.47326417344746
  0
LINE
  8
_1-5_
  6
CONTINUOUS
 62
    7
 10
214.77808876293318
 20
245.67326112168959
 11
214.77808876293318
 21
243.47326417344746
  0
LINE
  8
_1-5_
  6
CONTINUOUS
 62
    7
 10
227.67809791820662
 20
207.17150472858239
 11
227.67809791820662
 21
205.5714986245824
  0
LINE
  8
_1-5_
  6
CONTINUOUS
 62
    7
 10
83.678097922452594
 20
207.17150472858239
 11
83.678097922452594
 21
205.5714986245824
  0
LINE
  8
_1-5_
  6
CONTINUOUS
 62
    7
 10
223.77808876290635
 20
207.9215047280824
 11
223.77808876290635
 21
207.17150472858239
  0
LINE
  8
_1-5_
  6
CONTINUOUS
 62
    7
 10
222.27808876293318
 20
207.9215047280824
 11
219.27808876293318
 21
207.9215047280824
  0
LINE
  8
_1-5_
  6
CONTINUOUS
 62
    7
 10
219.27808876293318
 20
207.9215047280824
 11
219.27808876293318
 21
207.17150472858239
  0
LINE
  8
_1-5_
  6
CONTINUOUS
 62
    7
 10
222.27808876293318
 20
207.9215047280824
 11
222.27808876293318
 21
207.17150472858239
  0
LINE
  8
_1-5_
  6
CONTINUOUS
 62
    7
 10
217.77808876293318
 20
207.9215047280824
 11
214.77808876293318
 21
207.9215047280824
  0
LINE
  8
_1-5_
  6
CONTINUOUS
 62
    7
 10
214.77808876293318
 20
207.9215047280824
 11
214.77808876293318
 21
207.17150472858239
  0
LINE
  8
_1-5_
  6
CONTINUOUS
 62
    7
 10
217.77808876293318
 20
207.9215047280824
 11
217.77808876293318
 21
207.17150472858239
  0
LINE
  8
_1-5_
  6
CONTINUOUS
 62
    7
 10
213.07809181469099
 20
207.9215047280824
 11
210.07809181469099
 21
207.9215047280824
  0
LINE
  8
_1-5_
  6
CONTINUOUS
 62
    7
 10
210.07809181469099
 20
207.9215047280824
 11
210.07809181469099
 21
207.17150472858239
  0
LINE
  8
_1-5_
  6
CONTINUOUS
 62
    7
 10
213.07809181469099
 20
207.9215047280824
 11
213.07809181469099
 21
207.17150472858239
  0
LINE
  8
_1-5_
  6
CONTINUOUS
 62
    7
 10
208.57809181469099
 20
207.9215047280824
 11
205.57809181469099
 21
207.9215047280824
  0
LINE
  8
_1-5_
  6
CONTINUOUS
 62
    7
 10
205.57809181469099
 20
207.9215047280824
 11
205.57809181469099
 21
207.17150472858239
  0
LINE
  8
_1-5_
  6
CONTINUOUS
 62
    7
 10
208.57809181469099
 20
207.9215047280824
 11
208.57809181469099
 21
207.17150472858239
  0
LINE
  8
_1-5_
  6
CONTINUOUS
 62
    7
 10
204.07809181469099
 20
207.9215047280824
 11
201.07809181469099
 21
207.9215047280824
  0
LINE
  8
_1-5_
  6
CONTINUOUS
 62
    7
 10
201.07809181469099
 20
207.9215047280824
 11
201.07809181469099
 21
207.17150472858239
  0
LINE
  8
_1-5_
  6
CONTINUOUS
 62
    7
 10
204.07809181469099
 20
207.9215047280824
 11
204.07809181469099
 21
207.17150472858239
  0
LINE
  8
_1-5_
  6
CONTINUOUS
 62
    7
 10
199.27808876293318
 20
207.9215047280824
 11
196.27808876293318
 21
207.9215047280824
  0
LINE
  8
_1-5_
  6
CONTINUOUS
 62
    7
 10
196.27808876293318
 20
207.9215047280824
 11
196.27808876293318
 21
207.17150472858239
  0
LINE
  8
_1-5_
  6
CONTINUOUS
 62
    7
 10
199.27808876293318
 20
207.9215047280824
 11
199.27808876293318
 21
207.17150472858239
  0
LINE
  8
_1-5_
  6
CONTINUOUS
 62
    7
 10
194.77808876293318
 20
207.9215047280824
 11
191.77808876293318
 21
207.9215047280824
  0
LINE
  8
_1-5_
  6
CONTINUOUS
 62
    7
 10
191.77808876293318
 20
207.9215047280824
 11
191.77808876293318
 21
207.17150472858239
  0
LINE
  8
_1-5_
  6
CONTINUOUS
 62
    7
 10
194.77808876293318
 20
207.9215047280824
 11
194.77808876293318
 21
207.17150472858239
  0
LINE
  8
_1-5_
  6
CONTINUOUS
 62
    7
 10
190.27808876293318
 20
207.9215047280824
 11
187.27808876293318
 21
207.9215047280824
  0
LINE
  8
_1-5_
  6
CONTINUOUS
 62
    7
 10
187.27808876293318
 20
207.9215047280824
 11
187.27808876293318
 21
207.17150472858239
  0
LINE
  8
_1-5_
  6
CONTINUOUS
 62
    7
 10
190.27808876293318
 20
207.9215047280824
 11
190.27808876293318
 21
207.17150472858239
  0
LINE
  8
_1-5_
  6
CONTINUOUS
 62
    7
 10
185.57809181469099
 20
207.9215047280824
 11
182.57809181469099
 21
207.9215047280824
  0
LINE
  8
_1-5_
  6
CONTINUOUS
 62
    7
 10
182.57809181469099
 20
207.9215047280824
 11
182.57809181469099
 21
207.17150472858239
  0
LINE
  8
_1-5_
  6
CONTINUOUS
 62
    7
 10
185.57809181469099
 20
207.9215047280824
 11
185.57809181469099
 21
207.17150472858239
  0
LINE
  8
_1-5_
  6
CONTINUOUS
 62
    7
 10
181.07809181469099
 20
207.9215047280824
 11
178.07809181469099
 21
207.9215047280824
  0
LINE
  8
_1-5_
  6
CONTINUOUS
 62
    7
 10
178.07809181469099
 20
207.9215047280824
 11
178.07809181469099
 21
207.17150472858239
  0
LINE
  8
_1-5_
  6
CONTINUOUS
 62
    7
 10
181.07809181469099
 20
207.9215047280824
 11
181.07809181469099
 21
207.17150472858239
  0
LINE
  8
_1-5_
  6
CONTINUOUS
 62
    7
 10
176.57809181469099
 20
207.9215047280824
 11
173.57809181469099
 21
207.9215047280824
  0
LINE
  8
_1-5_
  6
CONTINUOUS
 62
    7
 10
173.57809181469099
 20
207.9215047280824
 11
173.57809181469099
 21
207.17150472858239
  0
LINE
  8
_1-5_
  6
CONTINUOUS
 62
    7
 10
176.57809181469099
 20
207.9215047280824
 11
176.57809181469099
 21
207.17150472858239
  0
LINE
  8
_1-5_
  6
CONTINUOUS
 62
    7
 10
171.77808876293318
 20
207.9215047280824
 11
168.77808876293318
 21
207.9215047280824
  0
LINE
  8
_1-5_
  6
CONTINUOUS
 62
    7
 10
168.77808876293318
 20
207.9215047280824
 11
168.77808876293318
 21
207.17150472858239
  0
LINE
  8
_1-5_
  6
CONTINUOUS
 62
    7
 10
171.77808876293318
 20
207.9215047280824
 11
171.77808876293318
 21
207.17150472858239
  0
LINE
  8
_1-5_
  6
CONTINUOUS
 62
    7
 10
167.27808876293318
 20
207.9215047280824
 11
164.27808876293318
 21
207.9215047280824
  0
LINE
  8
_1-5_
  6
CONTINUOUS
 62
    7
 10
164.27808876293318
 20
207.9215047280824
 11
164.27808876293318
 21
207.17150472858239
  0
LINE
  8
_1-5_
  6
CONTINUOUS
 62
    7
 10
167.27808876293318
 20
207.9215047280824
 11
167.27808876293318
 21
207.17150472858239
  0
LINE
  8
_1-5_
  6
CONTINUOUS
 62
    7
 10
162.77808876293318
 20
207.9215047280824
 11
159.77808876293318
 21
207.9215047280824
  0
LINE
  8
_1-5_
  6
CONTINUOUS
 62
    7
 10
159.77808876293318
 20
207.9215047280824
 11
159.77808876293318
 21
207.17150472858239
  0
LINE
  8
_1-5_
  6
CONTINUOUS
 62
    7
 10
162.77808876293318
 20
207.9215047280824
 11
162.77808876293318
 21
207.17150472858239
  0
LINE
  8
_1-5_
  6
CONTINUOUS
 62
    7
 10
158.07809181469099
 20
207.9215047280824
 11
158.07809181469099
 21
207.17150472858239
  0
LINE
  8
_1-5_
  6
CONTINUOUS
 62
    7
 10
151.57835121410506
 20
207.9215047280824
 11
148.57835121410506
 21
207.9215047280824
  0
LINE
  8
_1-5_
  6
CONTINUOUS
 62
    7
 10
148.57835121410506
 20
207.9215047280824
 11
148.57835121410506
 21
207.17150472858239
  0
LINE
  8
_1-5_
  6
CONTINUOUS
 62
    7
 10
151.57835121410506
 20
207.9215047280824
 11
151.57835121410506
 21
207.17150472858239
  0
LINE
  8
_1-5_
  6
CONTINUOUS
 62
    7
 10
147.07835121410506
 20
207.9215047280824
 11
144.07835121410506
 21
207.9215047280824
  0
LINE
  8
_1-5_
  6
CONTINUOUS
 62
    7
 10
144.07835121410506
 20
207.9215047280824
 11
144.07835121410506
 21
207.17150472858239
  0
LINE
  8
_1-5_
  6
CONTINUOUS
 62
    7
 10
147.07835121410506
 20
207.9215047280824
 11
147.07835121410506
 21
207.17150472858239
  0
LINE
  8
_1-5_
  6
CONTINUOUS
 62
    7
 10
142.57835121410506
 20
207.9215047280824
 11
139.57835121410506
 21
207.9215047280824
  0
LINE
  8
_1-5_
  6
CONTINUOUS
 62
    7
 10
139.57835121410506
 20
207.9215047280824
 11
139.57835121410506
 21
207.17150472858239
  0
LINE
  8
_1-5_
  6
CONTINUOUS
 62
    7
 10
142.57835121410506
 20
207.9215047280824
 11
142.57835121410506
 21
207.17150472858239
  0
LINE
  8
_1-5_
  6
CONTINUOUS
 62
    7
 10
137.77834816234724
 20
207.9215047280824
 11
134.77834816234724
 21
207.9215047280824
  0
LINE
  8
_1-5_
  6
CONTINUOUS
 62
    7
 10
134.77834816234724
 20
207.9215047280824
 11
134.77834816234724
 21
207.17150472858239
  0
LINE
  8
_1-5_
  6
CONTINUOUS
 62
    7
 10
137.77834816234724
 20
207.9215047280824
 11
137.77834816234724
 21
207.17150472858239
  0
LINE
  8
_1-5_
  6
CONTINUOUS
 62
    7
 10
133.27834816234724
 20
207.9215047280824
 11
130.27834816234724
 21
207.9215047280824
  0
LINE
  8
_1-5_
  6
CONTINUOUS
 62
    7
 10
130.27834816234724
 20
207.9215047280824
 11
130.27834816234724
 21
207.17150472858239
  0
LINE
  8
_1-5_
  6
CONTINUOUS
 62
    7
 10
133.27834816234724
 20
207.9215047280824
 11
133.27834816234724
 21
207.17150472858239
  0
LINE
  8
_1-5_
  6
CONTINUOUS
 62
    7
 10
128.77834816234724
 20
207.9215047280824
 11
125.77834816234724
 21
207.9215047280824
  0
LINE
  8
_1-5_
  6
CONTINUOUS
 62
    7
 10
125.77834816234724
 20
207.9215047280824
 11
125.77834816234724
 21
207.17150472858239
  0
LINE
  8
_1-5_
  6
CONTINUOUS
 62
    7
 10
128.77834816234724
 20
207.9215047280824
 11
128.77834816234724
 21
207.17150472858239
  0
LINE
  8
_1-5_
  6
CONTINUOUS
 62
    7
 10
124.07835121410506
 20
207.9215047280824
 11
121.07835121410506
 21
207.9215047280824
  0
LINE
  8
_1-5_
  6
CONTINUOUS
 62
    7
 10
121.07835121410506
 20
207.9215047280824
 11
121.07835121410506
 21
207.17150472858239
  0
LINE
  8
_1-5_
  6
CONTINUOUS
 62
    7
 10
124.07835121410506
 20
207.9215047280824
 11
124.07835121410506
 21
207.17150472858239
  0
LINE
  8
_1-5_
  6
CONTINUOUS
 62
    7
 10
119.57835121410506
 20
207.9215047280824
 11
116.57835121410506
 21
207.9215047280824
  0
LINE
  8
_1-5_
  6
CONTINUOUS
 62
    7
 10
116.57835121410506
 20
207.9215047280824
 11
116.57835121410506
 21
207.17150472858239
  0
LINE
  8
_1-5_
  6
CONTINUOUS
 62
    7
 10
119.57835121410506
 20
207.9215047280824
 11
119.57835121410506
 21
207.17150472858239
  0
LINE
  8
_1-5_
  6
CONTINUOUS
 62
    7
 10
115.07835121410506
 20
207.9215047280824
 11
112.07835121410506
 21
207.9215047280824
  0
LINE
  8
_1-5_
  6
CONTINUOUS
 62
    7
 10
112.07835121410506
 20
207.9215047280824
 11
112.07835121410506
 21
207.17150472858239
  0
LINE
  8
_1-5_
  6
CONTINUOUS
 62
    7
 10
115.07835121410506
 20
207.9215047280824
 11
115.07835121410506
 21
207.17150472858239
  0
LINE
  8
_1-5_
  6
CONTINUOUS
 62
    7
 10
110.27834816234724
 20
207.9215047280824
 11
107.27834816234724
 21
207.9215047280824
  0
LINE
  8
_1-5_
  6
CONTINUOUS
 62
    7
 10
107.27834816234724
 20
207.9215047280824
 11
107.27834816234724
 21
207.17150472858239
  0
LINE
  8
_1-5_
  6
CONTINUOUS
 62
    7
 10
110.27834816234724
 20
207.9215047280824
 11
110.27834816234724
 21
207.17150472858239
  0
LINE
  8
_1-5_
  6
CONTINUOUS
 62
    7
 10
105.77834816234724
 20
207.9215047280824
 11
102.77834816234724
 21
207.9215047280824
  0
LINE
  8
_1-5_
  6
CONTINUOUS
 62
    7
 10
102.77834816234724
 20
207.9215047280824
 11
102.77834816234724
 21
207.17150472858239
  0
LINE
  8
_1-5_
  6
CONTINUOUS
 62
    7
 10
105.77834816234724
 20
207.9215047280824
 11
105.77834816234724
 21
207.17150472858239
  0
LINE
  8
_1-5_
  6
CONTINUOUS
 62
    7
 10
101.27834816234724
 20
207.9215047280824
 11
98.278348162347243
 21
207.9215047280824
  0
LINE
  8
_1-5_
  6
CONTINUOUS
 62
    7
 10
98.278348162347243
 20
207.9215047280824
 11
98.278348162347243
 21
207.17150472858239
  0
LINE
  8
_1-5_
  6
CONTINUOUS
 62
    7
 10
101.27834816234724
 20
207.9215047280824
 11
101.27834816234724
 21
207.17150472858239
  0
LINE
  8
_1-5_
  6
CONTINUOUS
 62
    7
 10
96.578351214105055
 20
207.9215047280824
 11
93.578351214105055
 21
207.9215047280824
  0
LINE
  8
_1-5_
  6
CONTINUOUS
 62
    7
 10
93.578351214105055
 20
207.9215047280824
 11
93.578351214105055
 21
207.17150472858239
  0
LINE
  8
_1-5_
  6
CONTINUOUS
 62
    7
 10
96.578351214105055
 20
207.9215047280824
 11
96.578351214105055
 21
207.17150472858239
  0
LINE
  8
_1-5_
  6
CONTINUOUS
 62
    7
 10
92.078351214105055
 20
207.9215047280824
 11
89.078351214105055
 21
207.9215047280824
  0
LINE
  8
_1-5_
  6
CONTINUOUS
 62
    7
 10
89.078351214105055
 20
207.9215047280824
 11
89.078351214105055
 21
207.17150472858239
  0
LINE
  8
_1-5_
  6
CONTINUOUS
 62
    7
 10
92.078351214105055
 20
207.9215047280824
 11
92.078351214105055
 21
207.17150472858239
  0
LINE
  8
_1-5_
  6
CONTINUOUS
 62
    7
 10
87.578351214105055
 20
207.9215047280824
 11
87.578351214105055
 21
207.17150472858239
  0
LINE
  8
_1-5_
  6
CONTINUOUS
 62
    7
 10
153.27834816234724
 20
207.9215047280824
 11
153.27834816234724
 21
207.17150472858239
  0
LINE
  8
_1-5_
  6
CONTINUOUS
 62
    7
 10
158.07809181469099
 20
207.9215047280824
 11
156.83285796153211
 21
207.9215047280824
  0
LINE
  8
_1-5_
  6
CONTINUOUS
 62
    7
 10
227.67809791820662
 20
207.17150472858239
 11
157.26744430609995
 21
207.17150472858239
  0
LINE
  8
_1-5_
  6
CONTINUOUS
 62
    7
 10
227.67809791820662
 20
205.5714986245824
 11
157.68643348561034
 21
205.5714986245824
  0
LINE
  8
_1-5_
  6
CONTINUOUS
 62
    7
 10
155.90748671927338
 20
205.5714986245824
 11
83.678097922452594
 21
205.5714986245824
  0
LINE
  8
_1-5_
  6
CONTINUOUS
 62
    7
 10
155.48849753976253
 20
207.17150472858239
 11
83.678097922452594
 21
207.17150472858239
  0
LINE
  8
_1-5_
  6
CONTINUOUS
 62
    7
 10
155.0539111951947
 20
207.9215047280824
 11
153.27834816234724
 21
207.9215047280824
  0
LINE
  8
_1-5_
  6
CONTINUOUS
 62
    7
 10
87.578351214105055
 20
207.9215047280824
 11
85.670675024903062
 21
207.9215047280824
  0
LINE
  8
_1-5_
  6
CONTINUOUS
 62
    7
 10
225.68552081174255
 20
207.9215047280824
 11
223.77808876290635
 21
207.9215047280824
  0
LINE
  8
_1-5_
  6
CONTINUOUS
 62
    7
 10
111.17835732245283
 20
207.17150472858239
 11
111.17835732245283
 21
205.5714986245824
  0
LINE
  8
_1-5_
  6
CONTINUOUS
 62
    7
 10
138.67809792245259
 20
207.17150472858239
 11
138.67809792245259
 21
205.5714986245824
  0
LINE
  8
_1-5_
  6
CONTINUOUS
 62
    7
 10
172.67783852245282
 20
207.17150472858239
 11
172.67783852245282
 21
205.5714986245824
  0
LINE
  8
_1-5_
  6
CONTINUOUS
 62
    7
 10
200.17809792245259
 20
207.17150472858239
 11
200.17809792245259
 21
205.5714986245824
  0
LINE
  8
_1-1_
  6
CONTINUOUS
 62
    7
 10
299.90997520887402
 20
248.57325489896468
 11
299.90997520887402
 21
240.57325489896468
  0
LINE
  8
_1-1_
  6
CONTINUOUS
 62
    7
 10
299.90997520887402
 20
240.57325489896468
 11
300.90997520887402
 21
240.57325489896468
  0
LINE
  8
_1-1_
  6
CONTINUOUS
 62
    7
 10
300.90997520887402
 20
240.57325489896468
 11
300.90997520887402
 21
248.57325489896468
  0
LINE
  8
_1-1_
  6
CONTINUOUS
 62
    7
 10
300.90997520887402
 20
248.57325489896468
 11
299.90997520887402
 21
248.57325489896468
  0
LINE
  8
_1-4_
  6
CONTINUOUS
 62
    7
 10
299.90997520887402
 20
241.57325489896462
 11
299.90997520887402
 21
247.57325489896462
  0
LINE
  8
_1-4_
  6
CONTINUOUS
 62
    7
 10
299.90997520887402
 20
247.57325489896462
 11
299.10997520887383
 21
247.57325489896462
  0
LINE
  8
_1-4_
  6
CONTINUOUS
 62
    7
 10
299.10997520887383
 20
247.57325489896462
 11
299.10997520887383
 21
241.57325489896462
  0
LINE
  8
_1-4_
  6
CONTINUOUS
 62
    7
 10
299.10997520887383
 20
241.57325489896462
 11
299.90997520887402
 21
241.57325489896462
  0
LINE
  8
_1-4_
  6
CONTINUOUS
 62
    7
 10
300.90997520887356
 20
242.07325489896462
 11
300.90997520887356
 21
247.07325489896462
  0
LINE
  8
_1-4_
  6
CONTINUOUS
 62
    7
 10
300.90997520887356
 20
247.07325489896462
 11
301.30997520887365
 21
247.07325489896462
  0
LINE
  8
_1-4_
  6
CONTINUOUS
 62
    7
 10
301.30997520887365
 20
247.07325489896462
 11
301.30997520887365
 21
242.07325489896462
  0
LINE
  8
_1-4_
  6
CONTINUOUS
 62
    7
 10
301.30997520887365
 20
242.07325489896462
 11
300.90997520887356
 21
242.07325489896462
  0
LINE
  8
_1-5_
  6
CONTINUOUS
 62
    7
 10
297.50996910535821
 20
248.07325501817397
 11
299.10997520887383
 21
248.07325501817397
  0
LINE
  8
_1-5_
  6
CONTINUOUS
 62
    7
 10
299.10997520887383
 20
248.07325501817397
 11
299.10997520887383
 21
241.07325477975539
  0
LINE
  8
_1-5_
  6
CONTINUOUS
 62
    7
 10
299.10997520887383
 20
241.07325477975539
 11
297.50996910535821
 21
241.07325477975539
  0
LINE
  8
_1-5_
  6
CONTINUOUS
 62
    7
 10
297.50996910535821
 20
241.07325477975539
 11
297.50996910535821
 21
248.07325501817397
  0
LINE
  8
_1-5_
  6
CONTINUOUS
 62
    7
 10
296.75996910535821
 20
245.67326112168959
 11
297.50996910535821
 21
245.67326112168959
  0
LINE
  8
_1-5_
  6
CONTINUOUS
 62
    7
 10
297.50996910535821
 20
245.67326112168959
 11
297.50996910535821
 21
243.4732641734474
  0
LINE
  8
_1-5_
  6
CONTINUOUS
 62
    7
 10
297.50996910535821
 20
243.4732641734474
 11
296.75996910535821
 21
243.4732641734474
  0
LINE
  8
_1-5_
  6
CONTINUOUS
 62
    7
 10
296.75996910535821
 20
243.4732641734474
 11
296.75996910535821
 21
245.67326112168959
  0
CIRCLE
  8
_1-5_
  6
CONTINUOUS
 62
    7
 10
199.06069679515974
 20
246.70795388597188
 40
0.4000000059604644
  0
LINE
  8
_1-5_
  6
CONTINUOUS
 62
    7
 10
172.67783851879256
 20
248.07325501817397
 11
172.67783851879256
 21
241.07325477975539
  0
LINE
  8
_1-5_
  6
CONTINUOUS
 62
    7
 10
175.00079078930037
 20
245.85780115503005
 11
172.67783851879256
 21
245.85780115503005
  0
LINE
  8
_1-5_
  6
CONTINUOUS
 62
    7
 10
175.00079078930037
 20
243.28870816606209
 11
172.67783851879256
 21
243.28870816606209
  0
LINE
  8
_1-5_
  6
CONTINUOUS
 62
    7
 10
176.57809181469099
 20
243.47326417344746
 11
173.57809181469099
 21
243.47326417344746
  0
LINE
  8
_1-5_
  6
CONTINUOUS
 62
    7
 10
173.57809181469099
 20
243.47326417344746
 11
173.57809181469099
 21
245.67326112168959
  0
LINE
  8
_1-5_
  6
CONTINUOUS
 62
    7
 10
173.57809181469099
 20
245.67326112168959
 11
176.57809181469099
 21
245.67326112168959
  0
LINE
  8
_1-5_
  6
CONTINUOUS
 62
    7
 10
181.07809181469099
 20
243.47326417344746
 11
178.07809181469099
 21
243.47326417344746
  0
LINE
  8
_1-5_
  6
CONTINUOUS
 62
    7
 10
178.07809181469099
 20
245.67326112168959
 11
181.07809181469099
 21
245.67326112168959
  0
LINE
  8
_1-5_
  6
CONTINUOUS
 62
    7
 10
185.57809181469099
 20
243.47326417344746
 11
182.57809181469099
 21
243.47326417344746
  0
LINE
  8
_1-5_
  6
CONTINUOUS
 62
    7
 10
182.57809181469099
 20
245.67326112168959
 11
185.57809181469099
 21
245.67326112168959
  0
LINE
  8
_1-5_
  6
CONTINUOUS
 62
    7
 10
196.27808876293318
 20
243.47326417344746
 11
199.27808876293318
 21
243.47326417344746
  0
LINE
  8
_1-5_
  6
CONTINUOUS
 62
    7
 10
199.27808876293318
 20
243.47326417344746
 11
199.27808876293318
 21
245.67326112168959
  0
LINE
  8
_1-5_
  6
CONTINUOUS
 62
    7
 10
199.27808876293318
 20
245.67326112168959
 11
196.27808876293318
 21
245.67326112168959
  0
LINE
  8
_1-5_
  6
CONTINUOUS
 62
    7
 10
196.27808876293318
 20
245.67326112168959
 11
196.27808876293318
 21
243.47326417344746
  0
LINE
  8
_1-5_
  6
CONTINUOUS
 62
    7
 10
191.77808876293318
 20
243.47326417344746
 11
194.77808876293318
 21
243.47326417344746
  0
LINE
  8
_1-5_
  6
CONTINUOUS
 62
    7
 10
194.77808876293318
 20
243.47326417344746
 11
194.77808876293318
 21
245.67326112168959
  0
LINE
  8
_1-5_
  6
CONTINUOUS
 62
    7
 10
194.77808876293318
 20
245.67326112168959
 11
191.77808876293318
 21
245.67326112168959
  0
LINE
  8
_1-5_
  6
CONTINUOUS
 62
    7
 10
191.77808876293318
 20
245.67326112168959
 11
191.77808876293318
 21
243.47326417344746
  0
LINE
  8
_1-5_
  6
CONTINUOUS
 62
    7
 10
187.27808876293318
 20
243.47326417344746
 11
190.27808876293318
 21
243.47326417344746
  0
LINE
  8
_1-5_
  6
CONTINUOUS
 62
    7
 10
190.27808876293318
 20
243.47326417344746
 11
190.27808876293318
 21
245.67326112168959
  0
LINE
  8
_1-5_
  6
CONTINUOUS
 62
    7
 10
190.27808876293318
 20
245.67326112168959
 11
187.27808876293318
 21
245.67326112168959
  0
LINE
  8
_1-5_
  6
CONTINUOUS
 62
    7
 10
178.37809486644881
 20
247.43359513658223
 11
178.37809486644881
 21
246.58854003328017
  0
LINE
  8
_1-5_
  6
CONTINUOUS
 62
    7
 10
178.07809181469099
 20
247.43359513658223
 11
178.07809181469099
 21
246.58854003328017
  0
LINE
  8
_1-5_
  6
CONTINUOUS
 62
    7
 10
176.85508461254256
 20
246.58854003328017
 11
178.37809486644881
 21
246.58854003328017
  0
LINE
  8
_1-5_
  6
CONTINUOUS
 62
    7
 10
176.85508461254256
 20
247.43359513658223
 11
176.85508461254256
 21
246.58854003328017
  0
LINE
  8
_1-5_
  6
CONTINUOUS
 62
    7
 10
176.85508461254256
 20
247.43359513658223
 11
178.37809486644881
 21
247.43359513658223
  0
LINE
  8
_1-5_
  6
CONTINUOUS
 62
    7
 10
177.15507240551131
 20
247.43359513658223
 11
177.15507240551131
 21
246.58854003328017
  0
LINE
  8
_1-5_
  6
CONTINUOUS
 62
    7
 10
182.87809486644881
 20
241.71291442292861
 11
182.87809486644881
 21
242.55796976464919
  0
LINE
  8
_1-5_
  6
CONTINUOUS
 62
    7
 10
182.57809181469099
 20
241.71291442292861
 11
182.57809181469099
 21
242.55796976464919
  0
LINE
  8
_1-5_
  6
CONTINUOUS
 62
    7
 10
181.35508461254256
 20
242.55796976464919
 11
182.87809486644881
 21
242.55796976464919
  0
LINE
  8
_1-5_
  6
CONTINUOUS
 62
    7
 10
181.35508461254256
 20
241.71291442292861
 11
181.35508461254256
 21
242.55796976464919
  0
LINE
  8
_1-5_
  6
CONTINUOUS
 62
    7
 10
181.35508461254256
 20
241.71291442292861
 11
182.87809486644881
 21
241.71291442292861
  0
LINE
  8
_1-5_
  6
CONTINUOUS
 62
    7
 10
181.65507240551131
 20
241.71291442292861
 11
181.65507240551131
 21
242.55796976464919
  0
LINE
  8
_1-5_
  6
CONTINUOUS
 62
    7
 10
187.57809181469099
 20
247.43359513658223
 11
187.57809181469099
 21
246.58854003328017
  0
LINE
  8
_1-5_
  6
CONTINUOUS
 62
    7
 10
187.27808876293318
 20
247.43359513658223
 11
187.27808876293318
 21
246.58854003328017
  0
LINE
  8
_1-5_
  6
CONTINUOUS
 62
    7
 10
186.05508156078474
 20
246.58854003328017
 11
187.57809181469099
 21
246.58854003328017
  0
LINE
  8
_1-5_
  6
CONTINUOUS
 62
    7
 10
186.05508156078474
 20
247.43359513658223
 11
186.05508156078474
 21
246.58854003328017
  0
LINE
  8
_1-5_
  6
CONTINUOUS
 62
    7
 10
186.05508156078474
 20
247.43359513658223
 11
187.57809181469099
 21
247.43359513658223
  0
LINE
  8
_1-5_
  6
CONTINUOUS
 62
    7
 10
186.35506935375349
 20
247.43359513658223
 11
186.35506935375349
 21
246.58854003328017
  0
LINE
  8
_1-5_
  6
CONTINUOUS
 62
    7
 10
196.57809181469099
 20
247.43359513658223
 11
196.57809181469099
 21
246.58854003328017
  0
LINE
  8
_1-5_
  6
CONTINUOUS
 62
    7
 10
196.27808876293318
 20
247.43359513658223
 11
196.27808876293318
 21
246.58854003328017
  0
LINE
  8
_1-5_
  6
CONTINUOUS
 62
    7
 10
195.05508156078474
 20
246.58854003328017
 11
196.57809181469099
 21
246.58854003328017
  0
LINE
  8
_1-5_
  6
CONTINUOUS
 62
    7
 10
195.05508156078474
 20
247.43359513658223
 11
195.05508156078474
 21
246.58854003328017
  0
LINE
  8
_1-5_
  6
CONTINUOUS
 62
    7
 10
195.05508156078474
 20
247.43359513658223
 11
196.57809181469099
 21
247.43359513658223
  0
LINE
  8
_1-5_
  6
CONTINUOUS
 62
    7
 10
195.35506935375349
 20
247.43359513658223
 11
195.35506935375349
 21
246.58854003328017
  0
LINE
  8
_1-5_
  6
CONTINUOUS
 62
    7
 10
192.07809181469099
 20
241.71291442292861
 11
192.07809181469099
 21
242.55796976464919
  0
LINE
  8
_1-5_
  6
CONTINUOUS
 62
    7
 10
191.77808876293318
 20
241.71291442292861
 11
191.77808876293318
 21
242.55796976464919
  0
LINE
  8
_1-5_
  6
CONTINUOUS
 62
    7
 10
190.55508156078474
 20
242.55796976464919
 11
192.07809181469099
 21
242.55796976464919
  0
LINE
  8
_1-5_
  6
CONTINUOUS
 62
    7
 10
190.55508156078474
 20
241.71291442292861
 11
190.55508156078474
 21
242.55796976464919
  0
LINE
  8
_1-5_
  6
CONTINUOUS
 62
    7
 10
190.55508156078474
 20
241.71291442292861
 11
192.07809181469099
 21
241.71291442292861
  0
LINE
  8
_1-5_
  6
CONTINUOUS
 62
    7
 10
190.85506935375349
 20
241.71291442292861
 11
190.85506935375349
 21
242.55796976464919
  0
LINE
  8
_1-5_
  6
CONTINUOUS
 62
    7
 10
197.85514564769881
 20
245.85780139344863
 11
200.17809791820662
 21
245.85780139344863
  0
LINE
  8
_1-5_
  6
CONTINUOUS
 62
    7
 10
197.85514564769881
 20
245.85780139344863
 11
197.85514564769881
 21
247.65517659562758
  0
LINE
  8
_1-5_
  6
CONTINUOUS
 62
    7
 10
197.85514564769881
 20
247.65517659562758
 11
200.17809791820662
 21
247.65517659562758
  0
LINE
  8
_1-5_
  6
CONTINUOUS
 62
    7
 10
197.85514564769881
 20
243.28870840448073
 11
197.85514564769881
 21
241.49133248704604
  0
LINE
  8
_1-5_
  6
CONTINUOUS
 62
    7
 10
197.85514564769881
 20
241.49133248704604
 11
200.17809791820662
 21
241.49133248704604
  0
LINE
  8
_1-5_
  6
CONTINUOUS
 62
    7
 10
175.00103492992537
 20
245.85780139344863
 11
172.67808265941756
 21
245.85780139344863
  0
LINE
  8
_1-5_
  6
CONTINUOUS
 62
    7
 10
175.00103492992537
 20
245.85780139344863
 11
175.00103492992537
 21
247.65517659562758
  0
LINE
  8
_1-5_
  6
CONTINUOUS
 62
    7
 10
175.00103492992537
 20
243.28870840448073
 11
172.67808265941756
 21
243.28870840448073
  0
LINE
  8
_1-5_
  6
CONTINUOUS
 62
    7
 10
175.00103492992537
 20
243.28870840448073
 11
175.00103492992537
 21
241.49133248704604
  0
CIRCLE
  8
_1-5_
  6
CONTINUOUS
 62
    7
 10
199.06069679515974
 20
242.43855591195759
 40
0.4000000059604644
  0
CIRCLE
  8
_1-5_
  6
CONTINUOUS
 62
    7
 10
173.79548378246443
 20
246.70795388597188
 40
0.4000000059604644
  0
CIRCLE
  8
_1-5_
  6
CONTINUOUS
 62
    7
 10
173.79548378246443
 20
242.43855591195759
 40
0.4000000059604644
  0
LINE
  8
_1-5_
  6
CONTINUOUS
 62
    7
 10
175.00103492992537
 20
241.49133248704604
 11
172.67783851879256
 21
241.49133248704604
  0
LINE
  8
_1-5_
  6
CONTINUOUS
 62
    7
 10
175.00103492992537
 20
247.65517659562758
 11
172.67783851879256
 21
247.65517659562758
  0
LINE
  8
_1-5_
  6
CONTINUOUS
 62
    7
 10
200.17809791820662
 20
241.07325477975539
 11
172.67783851879256
 21
241.07325477975539
  0
LINE
  8
_1-5_
  6
CONTINUOUS
 62
    7
 10
200.17809791820662
 20
248.07325501817397
 11
200.17809791820662
 21
241.07325477975539
  0
LINE
  8
_1-5_
  6
CONTINUOUS
 62
    7
 10
172.67783851879256
 20
248.07325501817397
 11
200.17809791820662
 21
248.07325501817397
  0
LINE
  8
_1-5_
  6
CONTINUOUS
 62
    7
 10
197.85514564769881
 20
243.28870840448073
 11
200.17809791820662
 21
243.28870840448073
  0
LINE
  8
_1-5_
  6
CONTINUOUS
 62
    7
 10
176.57809181469099
 20
245.67326112168959
 11
176.57809181469099
 21
243.47326417344746
  0
LINE
  8
_1-5_
  6
CONTINUOUS
 62
    7
 10
178.07809181469099
 20
243.47326417344746
 11
178.07809181469099
 21
245.67326112168959
  0
LINE
  8
_1-5_
  6
CONTINUOUS
 62
    7
 10
181.07809181469099
 20
245.67326112168959
 11
181.07809181469099
 21
243.47326417344746
  0
LINE
  8
_1-5_
  6
CONTINUOUS
 62
    7
 10
182.57809181469099
 20
243.47326417344746
 11
182.57809181469099
 21
245.67326112168959
  0
LINE
  8
_1-5_
  6
CONTINUOUS
 62
    7
 10
185.57809181469099
 20
245.67326112168959
 11
185.57809181469099
 21
243.47326417344746
  0
LINE
  8
_1-5_
  6
CONTINUOUS
 62
    7
 10
187.27808876293318
 20
245.67326112168959
 11
187.27808876293318
 21
243.47326417344746
  0
CIRCLE
  8
_1-5_
  6
CONTINUOUS
 62
    7
 10
137.56095619457381
 20
246.70795388597188
 40
0.4000000059604644
  0
LINE
  8
_1-5_
  6
CONTINUOUS
 62
    7
 10
111.17809791820662
 20
248.07325501817397
 11
111.17809791820662
 21
241.07325477975539
  0
LINE
  8
_1-5_
  6
CONTINUOUS
 62
    7
 10
113.50105018871443
 20
245.85780115503005
 11
111.17809791820662
 21
245.85780115503005
  0
LINE
  8
_1-5_
  6
CONTINUOUS
 62
    7
 10
113.50105018871443
 20
243.28870816606209
 11
111.17809791820662
 21
243.28870816606209
  0
LINE
  8
_1-5_
  6
CONTINUOUS
 62
    7
 10
115.07835121410506
 20
243.47326417344746
 11
112.07835121410506
 21
243.47326417344746
  0
LINE
  8
_1-5_
  6
CONTINUOUS
 62
    7
 10
112.07835121410506
 20
243.47326417344746
 11
112.07835121410506
 21
245.67326112168959
  0
LINE
  8
_1-5_
  6
CONTINUOUS
 62
    7
 10
112.07835121410506
 20
245.67326112168959
 11
115.07835121410506
 21
245.67326112168959
  0
LINE
  8
_1-5_
  6
CONTINUOUS
 62
    7
 10
119.57835121410506
 20
243.47326417344746
 11
116.57835121410506
 21
243.47326417344746
  0
LINE
  8
_1-5_
  6
CONTINUOUS
 62
    7
 10
116.57835121410506
 20
245.67326112168959
 11
119.57835121410506
 21
245.67326112168959
  0
LINE
  8
_1-5_
  6
CONTINUOUS
 62
    7
 10
124.07835121410506
 20
243.47326417344746
 11
121.07835121410506
 21
243.47326417344746
  0
LINE
  8
_1-5_
  6
CONTINUOUS
 62
    7
 10
121.07835121410506
 20
245.67326112168959
 11
124.07835121410506
 21
245.67326112168959
  0
LINE
  8
_1-5_
  6
CONTINUOUS
 62
    7
 10
134.77834816234724
 20
243.47326417344746
 11
137.77834816234724
 21
243.47326417344746
  0
LINE
  8
_1-5_
  6
CONTINUOUS
 62
    7
 10
137.77834816234724
 20
243.47326417344746
 11
137.77834816234724
 21
245.67326112168959
  0
LINE
  8
_1-5_
  6
CONTINUOUS
 62
    7
 10
137.77834816234724
 20
245.67326112168959
 11
134.77834816234724
 21
245.67326112168959
  0
LINE
  8
_1-5_
  6
CONTINUOUS
 62
    7
 10
134.77834816234724
 20
245.67326112168959
 11
134.77834816234724
 21
243.47326417344746
  0
LINE
  8
_1-5_
  6
CONTINUOUS
 62
    7
 10
130.27834816234724
 20
243.47326417344746
 11
133.27834816234724
 21
243.47326417344746
  0
LINE
  8
_1-5_
  6
CONTINUOUS
 62
    7
 10
133.27834816234724
 20
243.47326417344746
 11
133.27834816234724
 21
245.67326112168959
  0
LINE
  8
_1-5_
  6
CONTINUOUS
 62
    7
 10
133.27834816234724
 20
245.67326112168959
 11
130.27834816234724
 21
245.67326112168959
  0
LINE
  8
_1-5_
  6
CONTINUOUS
 62
    7
 10
130.27834816234724
 20
245.67326112168959
 11
130.27834816234724
 21
243.47326417344746
  0
LINE
  8
_1-5_
  6
CONTINUOUS
 62
    7
 10
125.77834816234724
 20
243.47326417344746
 11
128.77834816234724
 21
243.47326417344746
  0
LINE
  8
_1-5_
  6
CONTINUOUS
 62
    7
 10
128.77834816234724
 20
243.47326417344746
 11
128.77834816234724
 21
245.67326112168959
  0
LINE
  8
_1-5_
  6
CONTINUOUS
 62
    7
 10
128.77834816234724
 20
245.67326112168959
 11
125.77834816234724
 21
245.67326112168959
  0
LINE
  8
_1-5_
  6
CONTINUOUS
 62
    7
 10
116.87835426586287
 20
247.43359513658223
 11
116.87835426586287
 21
246.58854003328017
  0
LINE
  8
_1-5_
  6
CONTINUOUS
 62
    7
 10
116.57835121410506
 20
247.43359513658223
 11
116.57835121410506
 21
246.58854003328017
  0
LINE
  8
_1-5_
  6
CONTINUOUS
 62
    7
 10
115.35534401195662
 20
246.58854003328017
 11
116.87835426586287
 21
246.58854003328017
  0
LINE
  8
_1-5_
  6
CONTINUOUS
 62
    7
 10
115.35534401195662
 20
247.43359513658223
 11
115.35534401195662
 21
246.58854003328017
  0
LINE
  8
_1-5_
  6
CONTINUOUS
 62
    7
 10
115.35534401195662
 20
247.43359513658223
 11
116.87835426586287
 21
247.43359513658223
  0
LINE
  8
_1-5_
  6
CONTINUOUS
 62
    7
 10
115.65533180492537
 20
247.43359513658223
 11
115.65533180492537
 21
246.58854003328017
  0
LINE
  8
_1-5_
  6
CONTINUOUS
 62
    7
 10
121.37835426586287
 20
241.71291442292861
 11
121.37835426586287
 21
242.55796976464919
  0
LINE
  8
_1-5_
  6
CONTINUOUS
 62
    7
 10
121.07835121410506
 20
241.71291442292861
 11
121.07835121410506
 21
242.55796976464919
  0
LINE
  8
_1-5_
  6
CONTINUOUS
 62
    7
 10
119.85534401195662
 20
242.55796976464919
 11
121.37835426586287
 21
242.55796976464919
  0
LINE
  8
_1-5_
  6
CONTINUOUS
 62
    7
 10
119.85534401195662
 20
241.71291442292861
 11
119.85534401195662
 21
242.55796976464919
  0
LINE
  8
_1-5_
  6
CONTINUOUS
 62
    7
 10
119.85534401195662
 20
241.71291442292861
 11
121.37835426586287
 21
241.71291442292861
  0
LINE
  8
_1-5_
  6
CONTINUOUS
 62
    7
 10
120.15533180492537
 20
241.71291442292861
 11
120.15533180492537
 21
242.55796976464919
  0
LINE
  8
_1-5_
  6
CONTINUOUS
 62
    7
 10
126.07835121410506
 20
247.43359513658223
 11
126.07835121410506
 21
246.58854003328017
  0
LINE
  8
_1-5_
  6
CONTINUOUS
 62
    7
 10
125.77834816234724
 20
247.43359513658223
 11
125.77834816234724
 21
246.58854003328017
  0
LINE
  8
_1-5_
  6
CONTINUOUS
 62
    7
 10
124.55534096019881
 20
246.58854003328017
 11
126.07835121410506
 21
246.58854003328017
  0
LINE
  8
_1-5_
  6
CONTINUOUS
 62
    7
 10
124.55534096019881
 20
247.43359513658223
 11
124.55534096019881
 21
246.58854003328017
  0
LINE
  8
_1-5_
  6
CONTINUOUS
 62
    7
 10
124.55534096019881
 20
247.43359513658223
 11
126.07835121410506
 21
247.43359513658223
  0
LINE
  8
_1-5_
  6
CONTINUOUS
 62
    7
 10
124.85532875316756
 20
247.43359513658223
 11
124.85532875316756
 21
246.58854003328017
  0
LINE
  8
_1-5_
  6
CONTINUOUS
 62
    7
 10
135.07835121410506
 20
247.43359513658223
 11
135.07835121410506
 21
246.58854003328017
  0
LINE
  8
_1-5_
  6
CONTINUOUS
 62
    7
 10
134.77834816234724
 20
247.43359513658223
 11
134.77834816234724
 21
246.58854003328017
  0
LINE
  8
_1-5_
  6
CONTINUOUS
 62
    7
 10
133.55534096019881
 20
246.58854003328017
 11
135.07835121410506
 21
246.58854003328017
  0
LINE
  8
_1-5_
  6
CONTINUOUS
 62
    7
 10
133.55534096019881
 20
247.43359513658223
 11
133.55534096019881
 21
246.58854003328017
  0
LINE
  8
_1-5_
  6
CONTINUOUS
 62
    7
 10
133.55534096019881
 20
247.43359513658223
 11
135.07835121410506
 21
247.43359513658223
  0
LINE
  8
_1-5_
  6
CONTINUOUS
 62
    7
 10
133.85532875316756
 20
247.43359513658223
 11
133.85532875316756
 21
246.58854003328017
  0
LINE
  8
_1-5_
  6
CONTINUOUS
 62
    7
 10
130.57835121410506
 20
241.71291442292861
 11
130.57835121410506
 21
242.55796976464919
  0
LINE
  8
_1-5_
  6
CONTINUOUS
 62
    7
 10
130.27834816234724
 20
241.71291442292861
 11
130.27834816234724
 21
242.55796976464919
  0
LINE
  8
_1-5_
  6
CONTINUOUS
 62
    7
 10
129.05534096019881
 20
242.55796976464919
 11
130.57835121410506
 21
242.55796976464919
  0
LINE
  8
_1-5_
  6
CONTINUOUS
 62
    7
 10
129.05534096019881
 20
241.71291442292861
 11
129.05534096019881
 21
242.55796976464919
  0
LINE
  8
_1-5_
  6
CONTINUOUS
 62
    7
 10
129.05534096019881
 20
241.71291442292861
 11
130.57835121410506
 21
241.71291442292861
  0
LINE
  8
_1-5_
  6
CONTINUOUS
 62
    7
 10
129.35532875316756
 20
241.71291442292861
 11
129.35532875316756
 21
242.55796976464919
  0
LINE
  8
_1-5_
  6
CONTINUOUS
 62
    7
 10
136.35540504711287
 20
245.85780139344863
 11
138.67835731762068
 21
245.85780139344863
  0
LINE
  8
_1-5_
  6
CONTINUOUS
 62
    7
 10
136.35540504711287
 20
245.85780139344863
 11
136.35540504711287
 21
247.65517659562758
  0
LINE
  8
_1-5_
  6
CONTINUOUS
 62
    7
 10
136.35540504711287
 20
247.65517659562758
 11
138.67835731762068
 21
247.65517659562758
  0
LINE
  8
_1-5_
  6
CONTINUOUS
 62
    7
 10
136.35540504711287
 20
243.28870840448073
 11
136.35540504711287
 21
241.49133248704604
  0
LINE
  8
_1-5_
  6
CONTINUOUS
 62
    7
 10
136.35540504711287
 20
241.49133248704604
 11
138.67835731762068
 21
241.49133248704604
  0
LINE
  8
_1-5_
  6
CONTINUOUS
 62
    7
 10
113.50129432933943
 20
245.85780139344863
 11
111.17834205883162
 21
245.85780139344863
  0
LINE
  8
_1-5_
  6
CONTINUOUS
 62
    7
 10
113.50129432933943
 20
245.85780139344863
 11
113.50129432933943
 21
247.65517659562758
  0
LINE
  8
_1-5_
  6
CONTINUOUS
 62
    7
 10
113.50129432933943
 20
243.28870840448073
 11
111.17834205883162
 21
243.28870840448073
  0
LINE
  8
_1-5_
  6
CONTINUOUS
 62
    7
 10
113.50129432933943
 20
243.28870840448073
 11
113.50129432933943
 21
241.49133248704604
  0
CIRCLE
  8
_1-5_
  6
CONTINUOUS
 62
    7
 10
137.56095619457381
 20
242.43855591195759
 40
0.4000000059604644
  0
CIRCLE
  8
_1-5_
  6
CONTINUOUS
 62
    7
 10
112.29574318187849
 20
246.70795388597188
 40
0.4000000059604644
  0
CIRCLE
  8
_1-5_
  6
CONTINUOUS
 62
    7
 10
112.29574318187849
 20
242.43855591195759
 40
0.4000000059604644
  0
LINE
  8
_1-5_
  6
CONTINUOUS
 62
    7
 10
113.50129432933943
 20
241.49133248704604
 11
111.17809791820662
 21
241.49133248704604
  0
LINE
  8
_1-5_
  6
CONTINUOUS
 62
    7
 10
113.50129432933943
 20
247.65517659562758
 11
111.17809791820662
 21
247.65517659562758
  0
LINE
  8
_1-5_
  6
CONTINUOUS
 62
    7
 10
138.67835731762068
 20
241.07325477975539
 11
111.17809791820662
 21
241.07325477975539
  0
LINE
  8
_1-5_
  6
CONTINUOUS
 62
    7
 10
138.67835731762068
 20
248.07325501817397
 11
138.67835731762068
 21
241.07325477975539
  0
LINE
  8
_1-5_
  6
CONTINUOUS
 62
    7
 10
111.17809791820662
 20
248.07325501817397
 11
138.67835731762068
 21
248.07325501817397
  0
LINE
  8
_1-5_
  6
CONTINUOUS
 62
    7
 10
136.35540504711287
 20
243.28870840448073
 11
138.67835731762068
 21
243.28870840448073
  0
LINE
  8
_1-5_
  6
CONTINUOUS
 62
    7
 10
115.07835121410506
 20
245.67326112168959
 11
115.07835121410506
 21
243.47326417344746
  0
LINE
  8
_1-5_
  6
CONTINUOUS
 62
    7
 10
116.57835121410506
 20
243.47326417344746
 11
116.57835121410506
 21
245.67326112168959
  0
LINE
  8
_1-5_
  6
CONTINUOUS
 62
    7
 10
119.57835121410506
 20
245.67326112168959
 11
119.57835121410506
 21
243.47326417344746
  0
LINE
  8
_1-5_
  6
CONTINUOUS
 62
    7
 10
121.07835121410506
 20
243.47326417344746
 11
121.07835121410506
 21
245.67326112168959
  0
LINE
  8
_1-5_
  6
CONTINUOUS
 62
    7
 10
124.07835121410506
 20
245.67326112168959
 11
124.07835121410506
 21
243.47326417344746
  0
LINE
  8
_1-5_
  6
CONTINUOUS
 62
    7
 10
125.77834816234724
 20
245.67326112168959
 11
125.77834816234724
 21
243.47326417344746
  0
LINE
  8
_1-9_
  6
DASHED3
 62
    7
 10
51.702310897254733
 20
209.17150472858239
 11
63.702310897254733
 21
209.17150472858239
  0
LINE
  8
_1-9_
  6
DASHED3
 62
    7
 10
51.702310897254733
 20
207.17150472858239
 11
63.702310897254733
 21
207.17150472858239
  0
LINE
  8
_1-9_
  6
DASHED3
 62
    7
 10
51.702310897255188
 20
246.57325489896462
 11
63.702310897255188
 21
246.57325489896462
  0
LINE
  8
_1-9_
  6
DASHED3
 62
    7
 10
51.702310897255188
 20
242.57325489896462
 11
63.702310897255188
 21
242.57325489896462
  0
LINE
  8
_1-9_
  6
DASHED3
 62
    7
 10
51.702310897255188
 20
244.57325489896462
 11
63.702310897255188
 21
244.57325489896462
  0
ARC
  8
_1-9_
  6
CONTINUOUS
 62
    7
 10
34.339326208206671
 20
211.63124874584909
 40
0.5
 50
0.0000000000065137
 51
90.000000000004917
  0
LINE
  8
_1-9_
  6
CONTINUOUS
 62
    7
 10
34.339326208206671
 20
212.13124874584886
 11
26.839326208206671
 21
212.13124874584886
  0
LINE
  8
_1-9_
  6
CONTINUOUS
 62
    7
 10
34.839326208206671
 20
205.13124874584892
 11
34.839326208206671
 21
211.63124874584909
  0
ARC
  8
_1-9_
  6
CONTINUOUS
 62
    7
 10
34.339326208206671
 20
205.13124874584892
 40
0.5
 50
269.99999999999801
 51
0.0000000000061448
  0
LINE
  8
_1-9_
  6
CONTINUOUS
 62
    7
 10
26.839326208206671
 20
204.63124874584892
 11
34.339326208206671
 21
204.63124874584892
  0
LINE
  8
_1-9_
  6
CONTINUOUS
 62
    7
 10
30.839326208206671
 20
203.38597471344011
 11
41.039326208206489
 21
203.38597471344011
  0
ARC
  8
_1-9_
  6
CONTINUOUS
 62
    7
 10
34.953168558370066
 20
204.70905357199095
 40
0.2999999999999993
 50
269.9999999999942
 51
0.0000000000104703
  0
LINE
  8
_1-9_
  6
CONTINUOUS
 62
    7
 10
35.253168558370248
 20
204.70905357199095
 11
35.253168558370248
 21
206.08124874584891
  0
LINE
  8
_1-9_
  6
CONTINUOUS
 62
    7
 10
30.839326208206671
 20
204.409053571991
 11
34.953168558370066
 21
204.409053571991
  0
ARC
  8
_1-9_
  6
CONTINUOUS
 62
    7
 10
37.053168558369975
 20
205.28124874584901
 40
0.8
 50
89.999999999999915
 51
179.99999999999983
  0
LINE
  8
_1-9_
  6
CONTINUOUS
 62
    7
 10
36.253168558370248
 20
205.20905357199095
 11
36.253168558370248
 21
205.28124874584901
  0
LINE
  8
_1-9_
  6
CONTINUOUS
 62
    7
 10
34.839326208206671
 20
206.08124874584891
 11
45.039326208206489
 21
206.08124874584891
  0
ARC
  8
_1-9_
  6
CONTINUOUS
 62
    7
 10
37.053168558369975
 20
205.20905357199095
 40
0.8
 50
179.99999999999983
 51
269.99999999999977
  0
LINE
  8
_1-9_
  6
CONTINUOUS
 62
    7
 10
37.053168558369975
 20
204.409053571991
 11
37.932796635283353
 21
204.409053571991
  0
LINE
  8
_1-9_
  6
CONTINUOUS
 62
    7
 10
41.039326208206489
 20
203.38597471344011
 11
37.932796635283353
 21
204.409053571991
  0
LINE
  8
_1-9_
  6
CONTINUOUS
 62
    7
 10
45.039326208206489
 20
206.08124874584891
 11
45.039326208206489
 21
211.13124874584886
  0
ARC
  8
_1-9_
  6
CONTINUOUS
 62
    7
 10
27.220548280450089
 20
208.13124874584886
 40
0.2499999999999998
 50
89.999999999999915
 51
180.00000000001268
  0
LINE
  8
_1-9_
  6
CONTINUOUS
 62
    7
 10
30.139326208206398
 20
208.38124874584886
 11
27.220548280450089
 21
208.38124874584886
  0
ARC
  8
_1-9_
  6
CONTINUOUS
 62
    7
 10
27.220548280450089
 20
208.13124874584886
 40
0.2499999999999998
 50
179.99999999999983
 51
269.99999999999977
  0
LINE
  8
_1-9_
  6
CONTINUOUS
 62
    7
 10
27.220548280450089
 20
207.88124874584886
 11
30.139326208206398
 21
207.88124874584909
  0
LINE
  8
_1-9_
  6
CONTINUOUS
 62
    7
 10
43.93932620820658
 20
211.13124874584886
 11
45.039326208206489
 21
211.13124874584886
  0
LINE
  8
_1-9_
  6
CONTINUOUS
 62
    7
 10
43.93932620820658
 20
210.68124874584905
 11
43.93932620820658
 21
211.13124874584886
  0
LINE
  8
_1-9_
  6
CONTINUOUS
 62
    7
 10
34.839326208206671
 20
210.68124874584905
 11
43.93932620820658
 21
210.68124874584905
  0
LINE
  8
_1-9_
  6
CONTINUOUS
 62
    7
 10
26.839326208206671
 20
210.68124874584905
 11
26.839326208206671
 21
212.13124874584886
  0
LINE
  8
_1-9_
  6
CONTINUOUS
 62
    7
 10
26.839326208206671
 20
204.63124874584892
 11
26.839326208206671
 21
206.08124874584891
  0
LINE
  8
_1-9_
  6
CONTINUOUS
 62
    7
 10
30.139326208206398
 20
210.68124874584905
 11
26.839326208206671
 21
210.68124874584905
  0
LINE
  8
_1-9_
  6
CONTINUOUS
 62
    7
 10
30.139326208206398
 20
206.08124874584891
 11
30.139326208206398
 21
210.68124874584905
  0
LINE
  8
_1-9_
  6
CONTINUOUS
 62
    7
 10
26.839326208206671
 20
206.08124874584891
 11
30.139326208206398
 21
206.08124874584891
  0
LINE
  8
_1-9_
  6
CONTINUOUS
 62
    7
 10
30.839326208206671
 20
202.93124874584888
 11
30.839326208206671
 21
204.409053571991
  0
LINE
  8
_1-9_
  6
CONTINUOUS
 62
    7
 10
30.839326208206671
 20
202.93124874584888
 11
41.039326208206489
 21
202.93124874584888
  0
LINE
  8
_1-9_
  6
CONTINUOUS
 62
    7
 10
261.2256549333423
 20
212.13124874585051
 11
261.2256549333423
 21
210.78124874585038
  0
LINE
  8
_1-9_
  6
CONTINUOUS
 62
    7
 10
259.7256549333423
 20
212.13124874585051
 11
261.2256549333423
 21
212.13124874585051
  0
LINE
  8
_1-9_
  6
CONTINUOUS
 62
    7
 10
259.7256549333423
 20
212.13124874585051
 11
259.7256549333423
 21
204.63124874585051
  0
LINE
  8
_1-9_
  6
CONTINUOUS
 62
    7
 10
270.43231196592103
 20
204.88124874585051
 11
271.42565493334212
 21
205.98124874585042
  0
LINE
  8
_1-9_
  6
CONTINUOUS
 62
    7
 10
269.92565493334212
 20
205.98124874585042
 11
269.92565493334212
 21
204.88124874585051
  0
LINE
  8
_1-9_
  6
CONTINUOUS
 62
    7
 10
261.2256549333423
 20
205.98124874585042
 11
271.42565493334212
 21
205.98124874585042
  0
LINE
  8
_1-9_
  6
CONTINUOUS
 62
    7
 10
261.2256549333423
 20
204.63124874585051
 11
261.2256549333423
 21
205.98124874585042
  0
LINE
  8
_1-9_
  6
CONTINUOUS
 62
    7
 10
261.2256549333423
 20
210.78124874585038
 11
271.42565493334212
 21
210.78124874585038
  0
LINE
  8
_1-9_
  6
CONTINUOUS
 62
    7
 10
271.42565493334212
 20
210.78124874585038
 11
271.42565493334212
 21
205.98124874585042
  0
LINE
  8
_1-9_
  6
CONTINUOUS
 62
    7
 10
269.92565493334212
 20
204.88124874585051
 11
270.43231196592103
 21
204.88124874585051
  0
LINE
  8
_1-9_
  6
CONTINUOUS
 62
    7
 10
259.7256549333423
 20
204.63124874585051
 11
261.2256549333423
 21
204.63124874585051
  0
LINE
  8
_1-9_
  6
CONTINUOUS
 62
    7
 10
268.32417293334208
 20
210.33124874585033
 11
268.32417293334208
 21
206.43124874585047
  0
LINE
  8
_1-9_
  6
CONTINUOUS
 62
    7
 10
262.83742393334239
 20
210.33124874585033
 11
262.83742393334239
 21
206.43124874585047
  0
LINE
  8
_1-9_
  6
CONTINUOUS
 62
    7
 10
263.13742393334212
 20
210.33124874585033
 11
263.13742393334212
 21
206.43124874585047
  0
LINE
  8
_1-9_
  6
CONTINUOUS
 62
    7
 10
263.4374239333423
 20
210.33124874585033
 11
263.4374239333423
 21
206.43124874585047
  0
LINE
  8
_1-9_
  6
CONTINUOUS
 62
    7
 10
263.73742393334203
 20
210.33124874585033
 11
263.73742393334203
 21
206.43124874585047
  0
LINE
  8
_1-9_
  6
CONTINUOUS
 62
    7
 10
264.03742393334221
 20
210.33124874585033
 11
264.03742393334221
 21
206.43124874585047
  0
LINE
  8
_1-9_
  6
CONTINUOUS
 62
    7
 10
264.33742393334194
 20
210.33124874585033
 11
264.33742393334194
 21
206.43124874585047
  0
LINE
  8
_1-9_
  6
CONTINUOUS
 62
    7
 10
264.63742393334212
 20
210.33124874585033
 11
264.63742393334212
 21
206.43124874585047
  0
LINE
  8
_1-9_
  6
CONTINUOUS
 62
    7
 10
264.93742393334185
 20
210.33124874585033
 11
264.93742393334185
 21
206.43124874585047
  0
LINE
  8
_1-9_
  6
CONTINUOUS
 62
    7
 10
265.23742393334203
 20
210.33124874585033
 11
265.23742393334203
 21
206.43124874585047
  0
LINE
  8
_1-9_
  6
CONTINUOUS
 62
    7
 10
265.53742393334176
 20
210.33124874585033
 11
265.53742393334176
 21
206.43124874585047
  0
LINE
  8
_1-9_
  6
CONTINUOUS
 62
    7
 10
265.83742393334194
 20
210.33124874585033
 11
265.83742393334194
 21
206.43124874585047
  0
LINE
  8
_1-9_
  6
CONTINUOUS
 62
    7
 10
266.13742393334167
 20
210.33124874585033
 11
266.13742393334167
 21
206.43124874585047
  0
LINE
  8
_1-9_
  6
CONTINUOUS
 62
    7
 10
262.63742393334167
 20
206.43124874585047
 11
262.63742393334167
 21
210.33124874585033
  0
LINE
  8
_1-9_
  6
CONTINUOUS
 62
    7
 10
268.32417293334208
 20
206.43124874585047
 11
262.42157993334183
 21
206.43124874585047
  0
LINE
  8
_1-9_
  6
CONTINUOUS
 62
    7
 10
262.42157993334183
 20
210.33124874585033
 11
268.32417293334208
 21
210.33124874585033
  0
ARC
  8
_1-9_
  6
CONTINUOUS
 62
    7
 10
33.839326208206671
 20
247.57325489896445
 40
1
 50
0.0000000000032568
 51
89.999999999999929
  0
LINE
  8
_1-9_
  6
CONTINUOUS
 62
    7
 10
34.839326208206671
 20
241.57325489896445
 11
34.839326208206671
 21
247.57325489896445
  0
ARC
  8
_1-9_
  6
CONTINUOUS
 62
    7
 10
33.839326208206671
 20
241.57325489896445
 40
1
 50
269.99999999999977
 51
359.99999999999636
  0
LINE
  8
_1-9_
  6
CONTINUOUS
 62
    7
 10
33.839326208206671
 20
248.57325489896422
 11
26.839326208206671
 21
248.57325489896422
  0
LINE
  8
_1-9_
  6
CONTINUOUS
 62
    7
 10
26.839326208206671
 20
240.57325489896445
 11
26.839326208206671
 21
248.57325489896422
  0
LINE
  8
_1-9_
  6
CONTINUOUS
 62
    7
 10
26.839326208206671
 20
240.57325489896445
 11
33.839326208206671
 21
240.57325489896445
  0
LINE
  8
_1-9_
  6
CONTINUOUS
 62
    7
 10
45.039326208206944
 20
247.32325489896445
 11
34.839326208206671
 21
247.32325489896445
  0
LINE
  8
_1-9_
  6
CONTINUOUS
 62
    7
 10
34.839326208206671
 20
241.82325489896445
 11
45.039326208206944
 21
241.82325489896445
  0
LINE
  8
_1-9_
  6
CONTINUOUS
 62
    7
 10
43.939326208207035
 20
241.82325489896445
 11
43.939326208207035
 21
247.32325489896445
  0
LINE
  8
_1-9_
  6
CONTINUOUS
 62
    7
 10
45.039326208206944
 20
241.82325489896445
 11
45.039326208206944
 21
247.32325489896445
  0
LINE
  8
_1-9_
  6
CONTINUOUS
 62
    7
 10
271.42583293334235
 20
241.57325489896451
 11
271.42583293334235
 21
247.57325489896456
  0
LINE
  8
_1-9_
  6
CONTINUOUS
 62
    7
 10
267.22583293334208
 20
245.17325489896447
 11
267.22583293334208
 21
246.37325489896429
  0
LINE
  8
_1-9_
  6
CONTINUOUS
 62
    7
 10
267.22583293334208
 20
242.77325489896461
 11
267.22583293334208
 21
243.97325489896443
  0
LINE
  8
_1-9_
  6
CONTINUOUS
 62
    7
 10
267.22583293334208
 20
242.77325489896461
 11
271.42583293334235
 21
242.77325489896461
  0
LINE
  8
_1-9_
  6
CONTINUOUS
 62
    7
 10
267.22583293334208
 20
243.97325489896443
 11
271.42583293334235
 21
243.97325489896443
  0
LINE
  8
_1-9_
  6
CONTINUOUS
 62
    7
 10
267.22583293334208
 20
245.17325489896447
 11
271.42583293334235
 21
245.17325489896447
  0
LINE
  8
_1-9_
  6
CONTINUOUS
 62
    7
 10
267.22583293334208
 20
246.37325489896429
 11
271.42583293334235
 21
246.37325489896429
  0
LINE
  8
_1-9_
  6
CONTINUOUS
 62
    7
 10
265.84269393334205
 20
248.76901889896439
 11
262.42175793334206
 21
248.59207389896446
  0
LINE
  8
_1-9_
  6
CONTINUOUS
 62
    7
 10
262.42175793334206
 20
248.59207389896446
 11
266.13760193334235
 21
249.91916089896458
  0
LINE
  8
_1-9_
  6
CONTINUOUS
 62
    7
 10
267.55611393334209
 20
247.57325489896456
 11
265.84269393334205
 21
248.76901889896439
  0
LINE
  8
_1-9_
  6
CONTINUOUS
 62
    7
 10
266.13760193334235
 20
249.91916089896458
 11
268.32435093334232
 21
247.57325489896456
  0
LINE
  8
_1-9_
  6
CONTINUOUS
 62
    7
 10
266.13760193334235
 20
239.22734889896449
 11
268.32435093334232
 21
241.57325489896451
  0
LINE
  8
_1-9_
  6
CONTINUOUS
 62
    7
 10
262.42175793334206
 20
240.5544368989645
 11
266.13760193334235
 21
239.22734889896449
  0
LINE
  8
_1-9_
  6
CONTINUOUS
 62
    7
 10
265.84269393334205
 20
240.37749189896434
 11
262.42175793334206
 21
240.5544368989645
  0
LINE
  8
_1-9_
  6
CONTINUOUS
 62
    7
 10
267.55611393334209
 20
241.57325489896451
 11
265.84269393334205
 21
240.37749189896434
  0
LINE
  8
_1-9_
  6
CONTINUOUS
 62
    7
 10
259.72583293334253
 20
243.37325489896429
 11
259.72583293334253
 21
244.57325489896456
  0
LINE
  8
_1-9_
  6
CONTINUOUS
 62
    7
 10
259.72583293334253
 20
241.57325489896451
 11
259.72583293334253
 21
247.57325489896456
  0
LINE
  8
_1-9_
  6
CONTINUOUS
 62
    7
 10
259.72583293334253
 20
247.57325489896456
 11
271.42583293334235
 21
247.57325489896456
  0
LINE
  8
_1-9_
  6
CONTINUOUS
 62
    7
 10
271.42583293334235
 20
241.57325489896451
 11
259.72583293334253
 21
241.57325489896451
  0
LINE
  8
_1-9_
  6
CONTINUOUS
 62
    7
 10
261.22583293334253
 20
241.57325489896451
 11
261.22583293334253
 21
247.57325489896456
  0
LINE
  8
_1-9_
  6
CONTINUOUS
 62
    7
 10
227.67809791334219
 20
209.17150472858239
 11
227.67809791334219
 21
207.17150472858239
  0
LINE
  8
_1-9_
  6
CONTINUOUS
 62
    7
 10
45.039326208206489
 20
207.17150472858239
 11
51.702310897254733
 21
207.17150472858239
  0
LINE
  8
_1-9_
  6
CONTINUOUS
 62
    7
 10
45.039326208206489
 20
209.17150472858239
 11
51.702310897254733
 21
209.17150472858239
  0
LINE
  8
_1-9_
  6
CONTINUOUS
 62
    7
 10
51.702310897254733
 20
209.17150472858239
 11
51.702310897254733
 21
207.17150472858239
  0
LINE
  8
_1-9_
  6
CONTINUOUS
 62
    7
 10
63.702310897254733
 20
209.17150472858239
 11
63.702310897254733
 21
207.17150472858239
  0
ARC
  8
_1-9_
  6
CONTINUOUS
 62
    7
 10
73.540060144969061
 20
209.08953050334267
 40
1.8389692227722536
 50
138.18998718261719
 51
221.80999755859375
  0
ARC
  8
_1-9_
  6
CONTINUOUS
 62
    7
 10
70.798770023556585
 20
206.6375715396463
 40
1.8389692227722536
 50
318.18998718261713
 51
41.809997558593693
  0
ARC
  8
_1-9_
  6
CONTINUOUS
 62
    7
 10
72.314080663120762
 20
209.08953050334267
 40
1.8389692227722536
 50
138.18998718261719
 51
221.80999755859375
  0
ARC
  8
_1-9_
  6
CONTINUOUS
 62
    7
 10
69.572790541708287
 20
206.6375715396463
 40
1.8389692227722536
 50
318.18998718261713
 51
41.809997558593693
  0
LINE
  8
_1-9_
  6
CONTINUOUS
 62
    7
 10
63.702310897254733
 20
209.17150472858239
 11
70.476939397812089
 21
209.17150472858239
  0
LINE
  8
_1-9_
  6
CONTINUOUS
 62
    7
 10
63.702310897254733
 20
207.17150472858239
 11
71.332541419547738
 21
207.17150472858239
  0
ARC
  8
_1-9_
  6
CONTINUOUS
 62
    7
 10
248.98086766789163
 20
209.08953050334267
 40
1.8389692227722536
 50
138.18998718261719
 51
221.80999755859375
  0
ARC
  8
_1-9_
  6
CONTINUOUS
 62
    7
 10
246.23957754647915
 20
206.6375715396463
 40
1.8389692227722536
 50
318.18998718261713
 51
41.809997558593693
  0
ARC
  8
_1-9_
  6
CONTINUOUS
 62
    7
 10
247.75488818604333
 20
209.08953050334267
 40
1.8389692227722536
 50
138.18998718261719
 51
221.80999755859375
  0
ARC
  8
_1-9_
  6
CONTINUOUS
 62
    7
 10
245.01359806463086
 20
206.6375715396463
 40
1.8389692227722536
 50
318.18998718261713
 51
41.809997558593693
  0
LINE
  8
_1-9_
  6
CONTINUOUS
 62
    7
 10
247.14372640258296
 20
209.17150472858239
 11
259.72583293334208
 21
209.17150472858239
  0
LINE
  8
_1-9_
  6
CONTINUOUS
 62
    7
 10
247.99932842431815
 20
207.17150472858239
 11
259.72583293334208
 21
207.17150472858239
  0
LINE
  8
_1-9_
  6
CONTINUOUS
 62
    7
 10
76.01957995121154
 20
241.57325489896462
 11
83.678097918323033
 21
241.57325489896462
  0
LINE
  8
_1-9_
  6
CONTINUOUS
 62
    7
 10
45.039326208206489
 20
246.57325489896462
 11
51.702310897255188
 21
246.57325489896462
  0
LINE
  8
_1-9_
  6
CONTINUOUS
 62
    7
 10
45.039326208206489
 20
244.57325489896462
 11
51.702310897255188
 21
244.57325489896462
  0
LINE
  8
_1-9_
  6
CONTINUOUS
 62
    7
 10
45.039326208206489
 20
242.57325489896462
 11
51.702310897255188
 21
242.57325489896462
  0
ARC
  8
_1-9_
  6
CONTINUOUS
 62
    7
 10
248.98086766789163
 20
245.79923438081269
 40
1.8389692227722536
 50
138.18998718261719
 51
221.80999755859375
  0
ARC
  8
_1-9_
  6
CONTINUOUS
 62
    7
 10
246.23957754647915
 20
243.34727541711655
 40
1.8389692227722536
 50
318.18998718261713
 51
41.809997558593693
  0
ARC
  8
_1-9_
  6
CONTINUOUS
 62
    7
 10
247.75488818604333
 20
245.79923438081269
 40
1.8389692227722536
 50
138.18998718261719
 51
221.80999755859375
  0
ARC
  8
_1-9_
  6
CONTINUOUS
 62
    7
 10
245.01359806463086
 20
243.34727541711655
 40
1.8389692227722536
 50
318.18998718261713
 51
41.809997558593693
  0
LINE
  8
_1-9_
  6
CONTINUOUS
 62
    7
 10
247.31272497621819
 20
246.57325489896462
 11
259.72583293334208
 21
246.57325489896462
  0
LINE
  8
_1-9_
  6
CONTINUOUS
 62
    7
 10
247.61017414751257
 20
244.57325489896462
 11
259.72583293334208
 21
244.57325489896462
  0
LINE
  8
_1-9_
  6
CONTINUOUS
 62
    7
 10
247.90772023815259
 20
242.57325489896462
 11
259.72583293334208
 21
242.57325489896462
  0
ARC
  8
_1-9_
  6
CONTINUOUS
 62
    7
 10
69.548390703835935
 20
245.79923438081269
 40
1.8389692227722536
 50
138.18998718261719
 51
221.80999755859375
  0
ARC
  8
_1-9_
  6
CONTINUOUS
 62
    7
 10
66.807100582423459
 20
243.34727541711655
 40
1.8389692227722536
 50
318.18998718261713
 51
41.809997558593693
  0
ARC
  8
_1-9_
  6
CONTINUOUS
 62
    7
 10
68.322411221987636
 20
245.79923438081269
 40
1.8389692227722536
 50
138.18998718261719
 51
221.80999755859375
  0
ARC
  8
_1-9_
  6
CONTINUOUS
 62
    7
 10
65.58112110057516
 20
243.34727541711655
 40
1.8389692227722536
 50
318.18998718261713
 51
41.809997558593693
  0
LINE
  8
_1-9_
  6
CONTINUOUS
 62
    7
 10
63.702310897255188
 20
246.57325489896462
 11
66.654268530314198
 21
246.57325489896462
  0
LINE
  8
_1-9_
  6
CONTINUOUS
 62
    7
 10
66.951717701608572
 20
244.57325489896462
 11
63.702310897255188
 21
244.57325489896462
  0
LINE
  8
_1-9_
  6
CONTINUOUS
 62
    7
 10
63.702310897255188
 20
242.57325489896462
 11
67.249263792248598
 21
242.57325489896462
  0
LINE
  8
_1-9_
  6
CONTINUOUS
 62
    7
 10
68.177794102802523
 20
244.57324730728956
 11
73.794024070086721
 21
244.57324730728956
  0
LINE
  8
_1-9_
  6
CONTINUOUS
 62
    7
 10
68.177794102802523
 20
244.57326249063968
 11
73.794024070087175
 21
244.57326249063968
  0
LINE
  8
_1-9_
  6
CONTINUOUS
 62
    7
 10
68.475243274096897
 20
242.57325489896462
 11
71.896474325593658
 21
242.57325489896462
  0
LINE
  8
_1-9_
  6
CONTINUOUS
 62
    7
 10
67.880248012162497
 20
246.57325489896462
 11
71.896474325593658
 21
246.57325489896462
  0
ARC
  8
_1-9_
  6
CONTINUOUS
 62
    7
 10
71.896474325593658
 20
250.57325489896462
 40
4
 50
270
 51
297.26604445073281
  0
ARC
  8
_1-9_
  6
CONTINUOUS
 62
    7
 10
76.019579951211085
 20
242.57325489896462
 40
5
 50
90
 51
117.26604445073281
  0
ARC
  8
_1-9_
  6
CONTINUOUS
 62
    7
 10
71.896474325593658
 20
238.57325489896462
 40
4
 50
62.733955549267179
 51
90
  0
ARC
  8
_1-9_
  6
CONTINUOUS
 62
    7
 10
76.01957995121154
 20
246.57325489896462
 40
5
 50
242.73395554926719
 51
270
  0
LINE
  8
_1-9_
  6
CONTINUOUS
 62
    7
 10
74.365833988978352
 20
244.90338191788683
 11
73.794024070086721
 21
244.57324730728956
  0
ARC
  8
_1-9_
  6
CONTINUOUS
 62
    7
 10
76.865833988978352
 20
240.57325489896462
 40
5
 50
90
 51
120.0000000000001
  0
LINE
  8
_1-9_
  6
CONTINUOUS
 62
    7
 10
74.365833988978352
 20
244.24312788004241
 11
73.794024070087175
 21
244.57326249063968
  0
ARC
  8
_1-9_
  6
CONTINUOUS
 62
    7
 10
76.865833988978352
 20
248.57325489896462
 40
5
 50
239.99999999999994
 51
270
  0
ARC
  8
_1-9_
  6
CONTINUOUS
 62
    7
 10
239.4597215110515
 20
250.57325489896462
 40
4
 50
242.73395554926719
 51
270
  0
ARC
  8
_1-9_
  6
CONTINUOUS
 62
    7
 10
235.33661588543362
 20
242.57325489896462
 40
5
 50
62.733955549267193
 51
90
  0
ARC
  8
_1-9_
  6
CONTINUOUS
 62
    7
 10
239.4597215110515
 20
238.57325489896462
 40
4
 50
90
 51
117.26604445073281
  0
ARC
  8
_1-9_
  6
CONTINUOUS
 62
    7
 10
235.33661588543362
 20
246.57325489896462
 40
5
 50
270
 51
297.26604445073281
  0
LINE
  8
_1-9_
  6
CONTINUOUS
 62
    7
 10
236.9903618476668
 20
244.90338191788683
 11
237.56217176655798
 21
244.57324730728956
  0
ARC
  8
_1-9_
  6
CONTINUOUS
 62
    7
 10
234.4903618476668
 20
240.57325489896462
 40
5
 50
59.999999999999908
 51
90
  0
LINE
  8
_1-9_
  6
CONTINUOUS
 62
    7
 10
236.99036184766635
 20
244.24312788004241
 11
237.56217176655798
 21
244.57326249063968
  0
ARC
  8
_1-9_
  6
CONTINUOUS
 62
    7
 10
234.49036184766635
 20
248.57325489896462
 40
5
 50
270
 51
300.00000000000006
  0
LINE
  8
_1-9_
  6
CONTINUOUS
 62
    7
 10
246.53173932138213
 20
246.57325489896462
 11
239.4597215110515
 21
246.57325489896462
  0
LINE
  8
_1-9_
  6
CONTINUOUS
 62
    7
 10
246.38419466566427
 20
244.57324730728956
 11
237.56217176655798
 21
244.57324730728956
  0
LINE
  8
_1-9_
  6
CONTINUOUS
 62
    7
 10
246.38419466566427
 20
244.57326249063968
 11
237.56217176655798
 21
244.57326249063968
  0
LINE
  8
_1-9_
  6
CONTINUOUS
 62
    7
 10
246.68174075630429
 20
242.57325489896462
 11
239.4597215110515
 21
242.57325489896462
  0
LINE
  8
_1-9_
  6
CONTINUOUS
 62
    7
 10
76.019579951211085
 20
247.57325489896462
 11
83.678097918322578
 21
247.57325489896462
  0
LINE
  8
_1-9_
  6
CONTINUOUS
 62
    7
 10
76.865833988978352
 20
245.57325489896462
 11
83.678097918322578
 21
245.57325489896462
  0
LINE
  8
_1-9_
  6
CONTINUOUS
 62
    7
 10
76.865833988978352
 20
243.57325489896462
 11
83.678097918323033
 21
243.57325489896462
  0
LINE
  8
_1-9_
  6
CONTINUOUS
 62
    7
 10
235.33661588543362
 20
241.57325489896462
 11
227.67809791334219
 21
241.57325489896462
  0
LINE
  8
_1-9_
  6
CONTINUOUS
 62
    7
 10
234.4903618476668
 20
245.57325489896462
 11
227.67809791334219
 21
245.57325489896462
  0
LINE
  8
_1-9_
  6
CONTINUOUS
 62
    7
 10
234.49036184766635
 20
243.57325489896462
 11
227.67809791334219
 21
243.57325489896462
  0
LINE
  8
_1-9_
  6
CONTINUOUS
 62
    7
 10
83.678097918322578
 20
247.57325489896462
 11
83.678097918322578
 21
245.57325489896462
  0
LINE
  8
_1-9_
  6
CONTINUOUS
 62
    7
 10
83.678097913342185
 20
243.57325489896462
 11
83.678097913342185
 21
241.57325489896462
  0
LINE
  8
_1-9_
  6
CONTINUOUS
 62
    7
 10
227.67809791334219
 20
247.57325489896462
 11
227.67809791334219
 21
245.57325489896462
  0
LINE
  8
_1-9_
  6
CONTINUOUS
 62
    7
 10
227.67809791334219
 20
243.57325489896462
 11
227.67809791334219
 21
241.57325489896462
  0
ARC
  8
_1-9_
  6
CONTINUOUS
 62
    7
 10
226.34623037074095
 20
246.73948674359454
 40
0.7
 50
90
 51
180
  0
LINE
  8
_1-9_
  6
CONTINUOUS
 62
    7
 10
225.64623037074068
 20
246.69719789389833
 11
225.64623037074068
 21
246.73948674359454
  0
ARC
  8
_1-9_
  6
CONTINUOUS
 62
    7
 10
226.34623037074095
 20
246.69719789389833
 40
0.7
 50
180
 51
270
  0
LINE
  8
_1-9_
  6
CONTINUOUS
 62
    7
 10
226.34623037074095
 20
247.43948674359459
 11
227.67809791334219
 21
247.43948674359459
  0
LINE
  8
_1-9_
  6
CONTINUOUS
 62
    7
 10
227.67809791334219
 20
245.99719789389829
 11
226.34623037074095
 21
245.99719789389829
  0
ARC
  8
_1-9_
  6
CONTINUOUS
 62
    7
 10
226.34623037074095
 20
242.47776749796762
 40
0.7
 50
90
 51
180
  0
LINE
  8
_1-9_
  6
CONTINUOUS
 62
    7
 10
225.64623037074068
 20
242.43547864827141
 11
225.64623037074068
 21
242.47776749796762
  0
ARC
  8
_1-9_
  6
CONTINUOUS
 62
    7
 10
226.34623037074095
 20
242.43547864827141
 40
0.7
 50
180
 51
270
  0
LINE
  8
_1-9_
  6
CONTINUOUS
 62
    7
 10
227.67809791334219
 20
241.73547864827137
 11
226.34623037074095
 21
241.73547864827137
  0
LINE
  8
_1-9_
  6
CONTINUOUS
 62
    7
 10
226.34623037074095
 20
243.17776749796766
 11
227.67809791334219
 21
243.17776749796766
  0
ARC
  8
_1-9_
  6
CONTINUOUS
 62
    7
 10
85.00996545594387
 20
246.73948674359454
 40
0.7
 50
0
 51
90
  0
LINE
  8
_1-9_
  6
CONTINUOUS
 62
    7
 10
85.709965455944143
 20
246.69719789389833
 11
85.709965455944143
 21
246.73948674359454
  0
ARC
  8
_1-9_
  6
CONTINUOUS
 62
    7
 10
85.00996545594387
 20
246.69719789389833
 40
0.7
 50
270
 51
0
  0
LINE
  8
_1-9_
  6
CONTINUOUS
 62
    7
 10
85.00996545594387
 20
247.43948674359459
 11
83.678097913342185
 21
247.43948674359459
  0
LINE
  8
_1-9_
  6
CONTINUOUS
 62
    7
 10
83.678097913342185
 20
245.99719789389829
 11
85.00996545594387
 21
245.99719789389829
  0
ARC
  8
_1-9_
  6
CONTINUOUS
 62
    7
 10
85.00996545594387
 20
242.47776749796762
 40
0.7
 50
0
 51
90
  0
LINE
  8
_1-9_
  6
CONTINUOUS
 62
    7
 10
85.709965455944143
 20
242.43547864827141
 11
85.709965455944143
 21
242.47776749796762
  0
ARC
  8
_1-9_
  6
CONTINUOUS
 62
    7
 10
85.00996545594387
 20
242.43547864827141
 40
0.7
 50
270
 51
0
  0
LINE
  8
_1-9_
  6
CONTINUOUS
 62
    7
 10
83.678097913342185
 20
241.73547864827137
 11
85.00996545594387
 21
241.73547864827137
  0
LINE
  8
_1-9_
  6
CONTINUOUS
 62
    7
 10
85.00996545594387
 20
243.17776749796766
 11
83.678097913342185
 21
243.17776749796766
  0
LINE
  8
_1-9_
  6
CONTINUOUS
 62
    7
 10
71.702918879660388
 20
209.17150472858239
 11
83.678097917588161
 21
209.17150472858239
  0
LINE
  8
_1-9_
  6
CONTINUOUS
 62
    7
 10
72.558520901395582
 20
207.17150472858239
 11
83.678097917588161
 21
207.17150472858239
  0
LINE
  8
_1-9_
  6
CONTINUOUS
 62
    7
 10
227.67809791334219
 20
209.17150472858239
 11
245.91774692073466
 21
209.17150472858239
  0
LINE
  8
_1-9_
  6
CONTINUOUS
 62
    7
 10
227.67809791334219
 20
207.17150472858239
 11
246.77334894247031
 21
207.17150472858239
  0
LINE
  8
_1-9_
  6
CONTINUOUS
 62
    7
 10
83.678097917588161
 20
209.17150472858239
 11
83.678097917588161
 21
207.17150472858239
  0
LINE
  8
_1-9_
  6
CONTINUOUS
 62
    7
 10
84.509965455588258
 20
208.81695047068237
 11
83.678097917588161
 21
208.81695047068237
  0
LINE
  8
_1-9_
  6
CONTINUOUS
 62
    7
 10
85.709965455588076
 20
207.61695047068238
 11
85.709965455588076
 21
207.17150472858239
  0
ARC
  8
_1-9_
  6
CONTINUOUS
 62
    7
 10
84.509965455588258
 20
207.61695047068238
 40
1.2
 50
0
 51
90
  0
LINE
  8
_1-9_
  6
CONTINUOUS
 62
    7
 10
226.84623038105781
 20
208.81695047068237
 11
227.67809791905745
 21
208.81695047068237
  0
LINE
  8
_1-9_
  6
CONTINUOUS
 62
    7
 10
225.64623038105753
 20
207.61695047068238
 11
225.64623038105753
 21
207.17150472858239
  0
ARC
  8
_1-9_
  6
CONTINUOUS
 62
    7
 10
226.84623038105781
 20
207.61695047068238
 40
1.2
 50
90
 51
180
  0
LINE
  8
_1-9_
  6
CONTINUOUS
 62
    7
 10
41.039326208206489
 20
203.38597471344011
 11
41.039326208206489
 21
202.93124874584888
  0
LINE
  8
_1-9_
  6
CONTINUOUS
 62
    7
 10
262.42157993334183
 20
210.33124874585033
 11
262.42157993334183
 21
206.43124874585047
  0
TEXT
  8
_1-a_
 62
    7
 10
60.202310897254733
 20
250.48198049211433
 40
2.5
 41
1
 50
90
  1
FKK(株)
  0
TEXT
  8
_1-a_
 62
    7
 10
62.702310897254733
 20
250.48198049211433
 40
2.5
 41
1
 50
90
  1
DC24V　15.5W
  0
TEXT
  8
_1-a_
 62
    7
 10
57.702310897254733
 20
250.48198049211433
 40
2.5
 41
1
 50
90
  1
210517A1
  0
LINE
  8
_1-d_
  6
CONTINUOUS
 62
   18
 10
263.14974057788856
 20
246.54886218818538
 11
257.67811337007186
 21
257.77271287088604
  0
LINE
  8
_1-d_
  6
CONTINUOUS
 62
   18
 10
32.797742582147634
 20
246.75054075514018
 11
36.585792187558923
 21
256.64155916927018
  0
TEXT
  8
_1-d_
 62
    7
 10
153.59368395757008
 20
261.84428162114716
 40
4
 41
1
 50
0
  1
①
  0
TEXT
  8
_1-d_
 62
    7
 10
171.70968045011693
 20
198.28630425257225
 40
4
 41
1
 50
0
  1
②
  0
TEXT
  8
_1-d_
 62
    7
 10
34.708553054400795
 20
256.36973153554857
 40
4
 41
1
 50
0
  1
③
  0
TEXT
  8
_1-d_
 62
    7
 10
255.73072517014714
 20
257.97439143784084
 40
4
 41
1
 50
0
  1
④
  0
LINE
  8
_1-d_
  6
CONTINUOUS
 62
   18
 10
62.014828890552849
 20
268.55813188629384
 11
68.608841166639536
 21
274.31035536117804
  0
LINE
  8
_1-d_
  6
CENTER2
 62
   18
 10
197.79508178944968
 20
255.76665427162553
 11
197.79508178944968
 21
233.37985552630371
  0
TEXT
  8
_1-d_
 62
    7
 10
199.01424133655917
 20
254.42737700885974
 40
4
 41
1
 50
0
  1
A
  0
TEXT
  8
_1-d_
 62
    7
 10
199.01424133655917
 20
230.67022639714324
 40
4
 41
1
 50
0
  1
A
  0
LINE
  8
_1-d_
  6
CONTINUOUS
 62
   18
 10
145.27783890623584
 20
244.67713793690288
 11
154.97987962335981
 21
261.77120967659823
  0
TEXT
  8
_1-d_
 62
    7
 10
68.292418769044502
 20
273.3282684264417
 40
4
 41
1
 50
0
  1
⑤
  0
LINE
  8
_1-d_
  6
CONTINUOUS
 62
   18
 10
167.51150265561944
 20
204.36682613080629
 11
171.79811838071953
 21
201.39916909035256
  0
LINE
  8
_1-d_
  6
CONTINUOUS
 62
    7
 10
198.96664024138806
 20
232.21626653353033
 11
197.79508178944968
 21
232.21626653353033
  0
LINE
  8
_1-d_
  6
CONTINUOUS
 62
    7
 10
197.79508178944968
 20
233.37985552630371
 11
197.79508178944968
 21
232.21626653353033
  0
LINE
  8
_1-d_
  6
CONTINUOUS
 62
    7
 10
198.96664024138806
 20
256.93024326439888
 11
197.79508178944968
 21
256.93024326439888
  0
LINE
  8
_1-d_
  6
CONTINUOUS
 62
    7
 10
197.79508178944968
 20
255.76665427162553
 11
197.79508178944968
 21
256.93024326439888
  0
TEXT
  8
_1-d_
 62
    7
 10
296.90444245420247
 20
228.74913351403367
 40
4
 41
1
 50
0
  1
⑥
  0
TEXT
  8
_1-d_
 62
    7
 10
302.93862173199352
 20
228.74913351403367
 40
4
 41
1
 50
0
  1
⑦
  0
LINE
  8
_1-d_
  6
CONTINUOUS
 62
   18
 10
298.77028113939298
 20
232.92022292189634
 11
299.59576767108172
 21
243.6526695996441
  0
LINE
  8
_1-d_
  6
CONTINUOUS
 62
   18
 10
304.61410921434083
 20
232.90266194743324
 11
301.15311970288019
 21
243.6526695996441
  0
LINE
  8
_1-4_
  6
CONTINUOUS
 62
    7
 10
224.61558781573092
 20
205.5714986245824
 11
224.61558781573092
 21
204.77149862488241
  0
LINE
  8
_1-4_
  6
CONTINUOUS
 62
    7
 10
224.61558781573092
 20
205.5714986245824
 11
157.68643348561034
 21
205.5714986245824
  0
LINE
  8
_1-4_
  6
CONTINUOUS
 62
    7
 10
224.61558781573092
 20
204.77149862488241
 11
157.68178676696368
 21
204.77149862488241
  0
LINE
  8
_1-4_
  6
CONTINUOUS
 62
    7
 10
86.740608013986616
 20
205.5714986245824
 11
86.740608013986616
 21
204.77149862488241
  0
LINE
  8
_1-4_
  6
CONTINUOUS
 62
    7
 10
155.90748671927338
 20
205.5714986245824
 11
86.740608013986616
 21
205.5714986245824
  0
LINE
  8
_1-4_
  6
CONTINUOUS
 62
    7
 10
155.90284000062672
 20
204.77149862488241
 11
86.740608013986616
 21
204.77149862488241
  0
ARC
  8
_1-9_
  6
CONTINUOUS
 62
    7
 10
83.525057928858473
 20
209.01846473498838
 40
0.2530399935940553
 50
45.219757044870263
 51
90
  0
LINE
  8
_1-9_
  6
CONTINUOUS
 62
    7
 10
83.703296640896838
 20
209.19807598154327
 11
83.882907887451552
 21
209.01983726950513
  0
LINE
  8
_1-9_
  6
CONTINUOUS
 62
    7
 10
84.50996546045269
 20
208.91695047068239
 11
84.132652180352466
 21
208.91695047068239
  0
ARC
  8
_1-9_
  6
CONTINUOUS
 62
    7
 10
84.132652180352466
 20
209.27150472858241
 40
0.3545542579000198
 50
225.21975704487107
 51
270
  0
ARC
  8
_1-9_
  6
CONTINUOUS
 62
    7
 10
82.120912751077753
 20
205.61431955720727
 40
1.3571851713751357
 50
4.2285035858026765
 51
90.000000000000028
  0
ARC
  8
_1-9_
  6
CONTINUOUS
 62
    7
 10
83.669750092377285
 20
205.67149862473403
 40
0.2
 50
167.61612893984241
 51
270
  0
ARC
  8
_1-9_
  6
CONTINUOUS
 62
    7
 10
227.83113791058793
 20
209.01846473498838
 40
0.2530399935940553
 50
90
 51
134.78024295512972
  0
LINE
  8
_1-9_
  6
CONTINUOUS
 62
    7
 10
227.65289919854956
 20
209.19807598154327
 11
227.47328795199485
 21
209.01983726950513
  0
LINE
  8
_1-9_
  6
CONTINUOUS
 62
    7
 10
226.84623037899371
 20
208.91695047068239
 11
227.22354365909393
 21
208.91695047068239
  0
ARC
  8
_1-9_
  6
CONTINUOUS
 62
    7
 10
227.22354365909393
 20
209.27150472858241
 40
0.3545542579000198
 50
270
 51
314.78024295512893
  0
ARC
  8
_1-9_
  6
CONTINUOUS
 62
    7
 10
229.23528308836865
 20
205.61431955720727
 40
1.3571851713751357
 50
89.999999999999972
 51
175.77149641419732
  0
ARC
  8
_1-9_
  6
CONTINUOUS
 62
    7
 10
227.68644574706911
 20
205.67149862473403
 40
0.2
 50
270
 51
12.383871060157578
  0
LINE
  8
_1-9_
  6
CONTINUOUS
 62
    7
 10
81.311971606206612
 20
209.27150472858241
 11
83.525057928858473
 21
209.27150472858241
  0
ARC
  8
_1-9_
  6
CONTINUOUS
 62
    7
 10
81.311971606206612
 20
209.17150472858239
 40
0.1
 50
90
 51
180
  0
LINE
  8
_1-9_
  6
CONTINUOUS
 62
    7
 10
81.211971606206703
 20
207.17045784786674
 11
81.211971606206703
 21
209.17150472858239
  0
ARC
  8
_1-9_
  6
CONTINUOUS
 62
    7
 10
81.411971606206748
 20
207.17045784786674
 40
0.2
 50
180
 51
264.13509672881599
  0
LINE
  8
_1-9_
  6
CONTINUOUS
 62
    7
 10
81.391534964432026
 20
206.9715047285824
 11
82.183912751077855
 21
206.9715047285824
  0
ARC
  8
_1-9_
  6
CONTINUOUS
 62
    7
 10
86.111608018851143
 20
205.57149862473406
 40
0.1
 50
270
 51
0
  0
LINE
  8
_1-9_
  6
CONTINUOUS
 62
    7
 10
86.211608018851052
 20
205.57149862473406
 11
86.211608018851052
 21
207.92397403197489
  0
LINE
  8
_1-9_
  6
CONTINUOUS
 62
    7
 10
86.111608018851143
 20
205.47149862473404
 11
83.669750092377285
 21
205.47149862473404
  0
LINE
  8
_1-9_
  6
CONTINUOUS
 62
    7
 10
230.04422423323979
 20
209.27150472858241
 11
227.83113791058793
 21
209.27150472858241
  0
ARC
  8
_1-9_
  6
CONTINUOUS
 62
    7
 10
230.04422423323979
 20
209.17150472858239
 40
0.1
 50
0
 51
90
  0
LINE
  8
_1-9_
  6
CONTINUOUS
 62
    7
 10
230.1442242332397
 20
207.17045784786674
 11
230.1442242332397
 21
209.17150472858239
  0
ARC
  8
_1-9_
  6
CONTINUOUS
 62
    7
 10
229.94422423323965
 20
207.17045784786674
 40
0.2
 50
275.86490327118406
 51
0
  0
LINE
  8
_1-9_
  6
CONTINUOUS
 62
    7
 10
229.96466087501437
 20
206.9715047285824
 11
229.23528308836865
 21
206.9715047285824
  0
ARC
  8
_1-9_
  6
CONTINUOUS
 62
    7
 10
225.24458782059526
 20
205.57149862473406
 40
0.1
 50
180
 51
270
  0
LINE
  8
_1-9_
  6
CONTINUOUS
 62
    7
 10
225.14458782059535
 20
205.57149862473406
 11
225.14458782059535
 21
207.92397403197489
  0
LINE
  8
_1-9_
  6
CONTINUOUS
 62
    7
 10
225.24458782059526
 20
205.47149862473404
 11
227.68644574706911
 21
205.47149862473404
  0
ARC
  8
_1-9_
  6
CONTINUOUS
 62
    7
 10
226.84623037899371
 20
207.61695047068238
 40
1.3
 50
90
 51
149.77446464952536
  0
ARC
  8
_1-9_
  6
CONTINUOUS
 62
    7
 10
225.24458782059526
 20
207.92397403197489
 40
0.1
 50
102.75917649802213
 51
180
  0
LINE
  8
_1-9_
  6
CONTINUOUS
 62
    7
 10
225.28819918651345
 20
208.02150472808242
 11
225.22250245628345
 21
208.02150472808242
  0
ARC
  8
_1-9_
  6
CONTINUOUS
 62
    7
 10
225.28819918651345
 20
208.52467611025091
 40
0.5031713821685059
 50
270
 51
329.7744646495234
  0
ARC
  8
_1-9_
  6
CONTINUOUS
 62
    7
 10
86.111608018851143
 20
207.92397403197489
 40
0.1
 50
0.0000000000000063
 51
77.240823501977886
  0
LINE
  8
_1-9_
  6
CONTINUOUS
 62
    7
 10
86.067996652932948
 20
208.02150472808242
 11
86.133693383162949
 21
208.02150472808242
  0
ARC
  8
_1-9_
  6
CONTINUOUS
 62
    7
 10
84.50996546045269
 20
207.61695047068238
 40
1.3
 50
30.225535350474647
 51
90
  0
ARC
  8
_1-9_
  6
CONTINUOUS
 62
    7
 10
86.067996652932948
 20
208.52467611025091
 40
0.5031713821685059
 50
210.2255353504766
 51
270
  0
LINE
  8
_1-d_
  6
CONTINUOUS
 62
   18
 10
228.70041255021295
 20
244.46622835984417
 11
223.22878534239624
 21
255.69007904254485
  0
TEXT
  8
_1-d_
 62
    7
 10
221.28139714247152
 20
255.89175760949965
 40
4
 41
1
 50
0
  1
⑧
  0
ARC
  8
_1-c_
  6
CONTINUOUS
 62
    7
 10
227.50653132864238
 20
247.46704478508073
 40
0.7062102330932452
 50
35.836801351205516
 51
90
  0
ARC
  8
_1-c_
  6
CONTINUOUS
 62
    7
 10
228.48439150304159
 20
248.17325501817399
 40
0.5000001192093462
 50
215.83680135120306
 51
270
  0
ARC
  8
_1-c_
  6
CONTINUOUS
 62
    7
 10
227.50653132864238
 20
241.67946501284851
 40
0.7062102330932452
 50
270
 51
324.16319864879449
  0
ARC
  8
_1-c_
  6
CONTINUOUS
 62
    7
 10
228.48439150304159
 20
240.97325477975525
 40
0.5000001192093462
 50
90.000000000000014
 51
144.16319864879694
  0
ARC
  8
_1-c_
  6
CONTINUOUS
 62
    7
 10
83.849664498042443
 20
241.67946501284851
 40
0.7062102330932452
 50
215.83680135120551
 51
270
  0
ARC
  8
_1-c_
  6
CONTINUOUS
 62
    7
 10
82.871804323643232
 20
240.97325477975525
 40
0.5000001192093462
 50
35.836801351203064
 51
89.999999999999986
  0
ARC
  8
_1-c_
  6
CONTINUOUS
 62
    7
 10
83.849664498042443
 20
247.46704478508073
 40
0.7062102330932452
 50
90
 51
144.16319864879449
  0
ARC
  8
_1-c_
  6
CONTINUOUS
 62
    7
 10
82.871804323643232
 20
248.17325501817399
 40
0.5000001192093462
 50
270
 51
324.16319864879694
  0
ARC
  8
_1-c_
  6
CONTINUOUS
 62
    7
 10
83.525057923994268
 20
209.01846473498838
 40
0.2530399935940553
 50
45.219757044870263
 51
90
  0
LINE
  8
_1-c_
  6
CONTINUOUS
 62
    7
 10
83.703296636032633
 20
209.19807598154327
 11
83.882907882587347
 21
209.01983726950513
  0
LINE
  8
_1-c_
  6
CONTINUOUS
 62
    7
 10
84.509965455588485
 20
208.91695047068239
 11
84.132652175488261
 21
208.91695047068239
  0
ARC
  8
_1-c_
  6
CONTINUOUS
 62
    7
 10
84.132652175488261
 20
209.27150472858241
 40
0.3545542579000198
 50
225.21975704487107
 51
270
  0
ARC
  8
_1-c_
  6
CONTINUOUS
 62
    7
 10
82.120912746213548
 20
205.61431955720727
 40
1.3571851713751357
 50
4.2285035858026765
 51
90.000000000000028
  0
LINE
  8
_1-c_
  6
CONTINUOUS
 62
    7
 10
81.311971601342634
 20
241.4732548989646
 11
82.871804323643232
 21
241.4732548989646
  0
ARC
  8
_1-c_
  6
CONTINUOUS
 62
    7
 10
81.311971601342634
 20
241.57325489896462
 40
0.1
 50
180
 51
270
  0
LINE
  8
_1-c_
  6
CONTINUOUS
 62
    7
 10
81.311971601342407
 20
247.67325489896464
 11
82.871804323643232
 21
247.67325489896464
  0
ARC
  8
_1-c_
  6
CONTINUOUS
 62
    7
 10
81.311971601342407
 20
247.57325489896462
 40
0.1
 50
90
 51
180
  0
LINE
  8
_1-c_
  6
CONTINUOUS
 62
    7
 10
81.211971601342498
 20
241.57325489896462
 11
81.211971601342498
 21
247.57325489896462
  0
LINE
  8
_1-c_
  6
CONTINUOUS
 62
    7
 10
81.311971601342407
 20
209.27150472858241
 11
83.525057923994268
 21
209.27150472858241
  0
ARC
  8
_1-c_
  6
CONTINUOUS
 62
    7
 10
81.311971601342407
 20
209.17150472858239
 40
0.1
 50
90
 51
180
  0
LINE
  8
_1-c_
  6
CONTINUOUS
 62
    7
 10
81.211971601342498
 20
207.17045784786674
 11
81.211971601342498
 21
209.17150472858239
  0
ARC
  8
_1-c_
  6
CONTINUOUS
 62
    7
 10
81.411971601342543
 20
207.17045784786674
 40
0.2
 50
180
 51
264.13509672881599
  0
LINE
  8
_1-c_
  6
CONTINUOUS
 62
    7
 10
81.391534959567821
 20
206.9715047285824
 11
82.18391274621365
 21
206.9715047285824
  0
LINE
  8
_1-c_
  6
CONTINUOUS
 62
    7
 10
86.111608013986938
 20
248.17325501817399
 11
83.849664498042443
 21
248.17325501817399
  0
LINE
  8
_1-c_
  6
CONTINUOUS
 62
    7
 10
86.211608013986847
 20
248.07325501817397
 11
86.211608013986847
 21
244.57325489896462
  0
ARC
  8
_1-c_
  6
CONTINUOUS
 62
    7
 10
86.111608013986938
 20
248.07325501817397
 40
0.1
 50
0
 51
90
  0
LINE
  8
_1-c_
  6
CONTINUOUS
 62
    7
 10
86.211608013987075
 20
241.07325477975527
 11
86.211608013987075
 21
244.57325489896462
  0
LINE
  8
_1-c_
  6
CONTINUOUS
 62
    7
 10
86.111608013986938
 20
240.97325477975525
 11
83.849664498042443
 21
240.97325477975525
  0
ARC
  8
_1-c_
  6
CONTINUOUS
 62
    7
 10
86.111608013986938
 20
241.07325477975527
 40
0.1
 50
270
 51
0
  0
LINE
  8
_1-c_
  6
CONTINUOUS
 62
    7
 10
230.04422422534219
 20
247.67325489896464
 11
228.48439150304159
 21
247.67325489896464
  0
ARC
  8
_1-c_
  6
CONTINUOUS
 62
    7
 10
230.04422422534219
 20
247.57325489896462
 40
0.1
 50
0
 51
90
  0
LINE
  8
_1-c_
  6
CONTINUOUS
 62
    7
 10
230.04422422534242
 20
241.4732548989646
 11
228.48439150304159
 21
241.4732548989646
  0
ARC
  8
_1-c_
  6
CONTINUOUS
 62
    7
 10
230.04422422534242
 20
241.57325489896462
 40
0.1
 50
270
 51
0
  0
LINE
  8
_1-c_
  6
CONTINUOUS
 62
    7
 10
230.14422422534233
 20
247.57325489896462
 11
230.14422422534233
 21
241.57325489896462
  0
LINE
  8
_1-c_
  6
CONTINUOUS
 62
    7
 10
225.24458781269789
 20
240.97325477975525
 11
227.50653132864238
 21
240.97325477975525
  0
LINE
  8
_1-c_
  6
CONTINUOUS
 62
    7
 10
225.14458781269798
 20
241.07325477975527
 11
225.14458781269798
 21
244.57325489896462
  0
ARC
  8
_1-c_
  6
CONTINUOUS
 62
    7
 10
225.24458781269789
 20
241.07325477975527
 40
0.1
 50
180
 51
270
  0
LINE
  8
_1-c_
  6
CONTINUOUS
 62
    7
 10
225.14458781269775
 20
248.07325501817397
 11
225.14458781269775
 21
244.57325489896462
  0
LINE
  8
_1-c_
  6
CONTINUOUS
 62
    7
 10
225.24458781269789
 20
248.17325501817399
 11
227.50653132864238
 21
248.17325501817399
  0
ARC
  8
_1-c_
  6
CONTINUOUS
 62
    7
 10
225.24458781269789
 20
248.07325501817397
 40
0.1
 50
90
 51
180
  0
ARC
  8
_1-c_
  6
CONTINUOUS
 62
    7
 10
86.111608013986938
 20
207.92397403197489
 40
0.1
 50
0.0000000000000063
 51
77.240823501977886
  0
LINE
  8
_1-c_
  6
CONTINUOUS
 62
    7
 10
86.067996648068743
 20
208.02150472808242
 11
86.133693378298744
 21
208.02150472808242
  0
ARC
  8
_1-c_
  6
CONTINUOUS
 62
    7
 10
84.509965455588485
 20
207.61695047068238
 40
1.3
 50
30.225535350474647
 51
90
  0
ARC
  8
_1-c_
  6
CONTINUOUS
 62
    7
 10
86.067996648068743
 20
208.52467611025091
 40
0.5031713821685059
 50
210.2255353504766
 51
270
  0
ARC
  8
_1-c_
  6
CONTINUOUS
 62
    7
 10
83.66975008751308
 20
205.17838059000817
 40
0.2
 50
167.61612893984241
 51
270
  0
ARC
  8
_1-c_
  6
CONTINUOUS
 62
    7
 10
86.111608013986938
 20
205.07838059000821
 40
0.1
 50
270
 51
0
  0
LINE
  8
_1-c_
  6
CONTINUOUS
 62
    7
 10
86.211608013986847
 20
205.07838059000821
 11
86.211608013986847
 21
207.92397403197489
  0
LINE
  8
_1-c_
  6
CONTINUOUS
 62
    7
 10
86.111608013986938
 20
204.97838059000819
 11
83.66975008751308
 21
204.97838059000819
  0
LINE
  8
_1-c_
  6
CONTINUOUS
 62
    7
 10
83.474403549853719
 20
205.7143907012107
 11
83.474403549853719
 21
205.22127266648485
  0
ARC
  8
_1-c_
  6
CONTINUOUS
 62
    7
 10
227.83113790269056
 20
209.01846473498838
 40
0.2530399935940553
 50
90
 51
134.78024295512972
  0
LINE
  8
_1-c_
  6
CONTINUOUS
 62
    7
 10
227.65289919065219
 20
209.19807598154327
 11
227.47328794409748
 21
209.01983726950513
  0
LINE
  8
_1-c_
  6
CONTINUOUS
 62
    7
 10
226.84623037109634
 20
208.91695047068239
 11
227.22354365119656
 21
208.91695047068239
  0
ARC
  8
_1-c_
  6
CONTINUOUS
 62
    7
 10
227.22354365119656
 20
209.27150472858241
 40
0.3545542579000198
 50
270
 51
314.78024295512893
  0
ARC
  8
_1-c_
  6
CONTINUOUS
 62
    7
 10
229.23528308047128
 20
205.61431955720727
 40
1.3571851713751357
 50
89.999999999999972
 51
175.77149641419732
  0
LINE
  8
_1-c_
  6
CONTINUOUS
 62
    7
 10
230.04422422534242
 20
209.27150472858241
 11
227.83113790269056
 21
209.27150472858241
  0
ARC
  8
_1-c_
  6
CONTINUOUS
 62
    7
 10
230.04422422534242
 20
209.17150472858239
 40
0.1
 50
0
 51
90
  0
LINE
  8
_1-c_
  6
CONTINUOUS
 62
    7
 10
230.14422422534233
 20
207.17045784786674
 11
230.14422422534233
 21
209.17150472858239
  0
ARC
  8
_1-c_
  6
CONTINUOUS
 62
    7
 10
229.94422422534228
 20
207.17045784786674
 40
0.2
 50
275.86490327118406
 51
0
  0
LINE
  8
_1-c_
  6
CONTINUOUS
 62
    7
 10
229.964660867117
 20
206.9715047285824
 11
229.17228308047117
 21
206.9715047285824
  0
ARC
  8
_1-c_
  6
CONTINUOUS
 62
    7
 10
225.24458781269789
 20
207.92397403197489
 40
0.1
 50
102.75917649802213
 51
180
  0
LINE
  8
_1-c_
  6
CONTINUOUS
 62
    7
 10
225.28819917861608
 20
208.02150472808242
 11
225.22250244838608
 21
208.02150472808242
  0
ARC
  8
_1-c_
  6
CONTINUOUS
 62
    7
 10
226.84623037109634
 20
207.61695047068238
 40
1.3
 50
90
 51
149.77446464952536
  0
ARC
  8
_1-c_
  6
CONTINUOUS
 62
    7
 10
225.28819917861608
 20
208.52467611025091
 40
0.5031713821685059
 50
270
 51
329.7744646495234
  0
ARC
  8
_1-c_
  6
CONTINUOUS
 62
    7
 10
227.68644573917175
 20
205.17838059000817
 40
0.2
 50
270
 51
12.383871060157578
  0
ARC
  8
_1-c_
  6
CONTINUOUS
 62
    7
 10
225.24458781269789
 20
205.07838059000821
 40
0.1
 50
180
 51
270
  0
LINE
  8
_1-c_
  6
CONTINUOUS
 62
    7
 10
225.14458781269798
 20
205.07838059000821
 11
225.14458781269798
 21
207.92397403197489
  0
LINE
  8
_1-c_
  6
CONTINUOUS
 62
    7
 10
225.24458781269789
 20
204.97838059000819
 11
227.68644573917175
 21
204.97838059000819
  0
LINE
  8
_1-c_
  6
CONTINUOUS
 62
    7
 10
227.88179227683111
 20
205.7143907012107
 11
227.88179227683111
 21
205.22127266648485
  0
LINE
  8
_0-0_
  6
CONTINUOUS
 62
    7
 10
396.28582420887415
 20
99.296150624282276
 11
301.28583220887413
 21
99.296150624282276
  0
TEXT
  8
_0-0_
 62
    7
 10
357.79748670887409
 20
95.191548198938307
 40
2.5
 41
0.7199999999999999
 50
0
  1
スミチューブ C 6×0.25 透明 5㎜
  0
TEXT
  8
_0-0_
 62
    7
 10
390.28582420887409
 20
94.934553347087132
 40
4
 41
1
 50
0
  1
2
  0
TEXT
  8
_0-0_
 62
    7
 10
304.54077070887405
 20
94.87907797616451
 40
3.5
 41
1
 50
0
  1
⑧
  0
LINE
  8
_0-0_
  6
CONTINUOUS
 62
    7
 10
301.28583220887413
 20
99.296150624282276
 11
301.28583220887413
 21
24.29614462428232
  0
LINE
  8
_0-0_
  6
CONTINUOUS
 62
    7
 10
311.29570920887397
 20
99.296150624282276
 11
311.29570920887397
 21
59.296150624282276
  0
LINE
  8
_0-0_
  6
CONTINUOUS
 62
    7
 10
357.20914920887401
 20
59.296150624282276
 11
357.20914920887401
 21
99.296150624282276
  0
LINE
  8
_0-0_
  6
CONTINUOUS
 62
    7
 10
386.28582420887403
 20
99.296150624282276
 11
386.28582420887403
 21
54.296150624282276
  0
TEXT
  8
_1-8_
 62
    7
 10
216.09682136023963
 20
167.83198840690542
 40
3
 41
0.8333333333333333
 50
0
  1
LED基板
  0
LINE
  8
_1-7_
  6
CONTINUOUS
 62
    7
 10
176.53465068428142
 20
151.82020023580324
 11
216.53465068428142
 21
151.82020023580324
  0
LINE
  8
_1-7_
  6
CONTINUOUS
 62
   18
 10
216.42792355356283
 20
134.607136750123
 11
216.53465068428051
 21
134.71386388084062
  0
LINE
  8
_1-7_
  6
CONTINUOUS
 62
   18
 10
213.59949642881548
 20
134.60713675012224
 11
216.53465068428142
 21
137.54229100558823
  0
LINE
  8
_1-7_
  6
CONTINUOUS
 62
   18
 10
210.77106930407291
 20
134.60713675012266
 11
216.53465068428096
 21
140.37071813033089
  0
LINE
  8
_1-7_
  6
CONTINUOUS
 62
   18
 10
207.94264217932624
 20
134.60713675012289
 11
216.53465068428096
 21
143.19914525507744
  0
LINE
  8
_1-7_
  6
CONTINUOUS
 62
   18
 10
205.11421505458003
 20
134.60713675012309
 11
216.53465068428096
 21
146.02757237982399
  0
LINE
  8
_1-7_
  6
CONTINUOUS
 62
   18
 10
202.28578792983245
 20
134.60713675012227
 11
216.53465068428096
 21
148.85599950457075
  0
LINE
  8
_1-7_
  6
CONTINUOUS
 62
   18
 10
199.45736080508601
 20
134.60713675012246
 11
216.53465068428051
 21
151.68442662931713
  0
LINE
  8
_1-7_
  6
CONTINUOUS
 62
   18
 10
196.62893368033957
 20
134.60713675012269
 11
213.84199716602103
 21
151.82020023580415
  0
LINE
  8
_1-7_
  6
CONTINUOUS
 62
   18
 10
193.8005065555929
 20
134.60713675012289
 11
211.01357004127345
 21
151.82020023580333
  0
LINE
  8
_1-7_
  6
CONTINUOUS
 62
   18
 10
190.97207943084624
 20
134.60713675012275
 11
208.1851429165261
 21
151.8202002358027
  0
LINE
  8
_1-7_
  6
CONTINUOUS
 62
   18
 10
188.14365230610298
 20
134.60713675012258
 11
205.35671579178353
 21
151.82020023580299
  0
LINE
  8
_1-7_
  6
CONTINUOUS
 62
   18
 10
185.31522518135654
 20
134.60713675012278
 11
202.52828866703686
 21
151.82020023580321
  0
LINE
  8
_1-7_
  6
CONTINUOUS
 62
   18
 10
182.48679805660896
 20
134.60713675012195
 11
199.69986154229065
 21
151.82020023580341
  0
LINE
  8
_1-7_
  6
CONTINUOUS
 62
   18
 10
179.65837093186275
 20
134.60713675012215
 11
196.87143441754398
 21
151.82020023580364
  0
LINE
  8
_1-7_
  6
CONTINUOUS
 62
   18
 10
176.82994380711608
 20
134.60713675012238
 11
194.04300729279777
 21
151.82020023580384
  0
LINE
  8
_1-7_
  6
CONTINUOUS
 62
   18
 10
176.53465068428096
 20
137.1402707520337
 11
191.2145801680511
 21
151.82020023580407
  0
LINE
  8
_1-7_
  6
CONTINUOUS
 62
   18
 10
176.53465068428096
 20
139.96869787678042
 11
188.3861530433033
 21
151.82020023580293
  0
LINE
  8
_1-7_
  6
CONTINUOUS
 62
   18
 10
176.53465068428051
 20
142.79712500152306
 11
185.55772591856095
 21
151.8202002358035
  0
LINE
  8
_1-7_
  6
CONTINUOUS
 62
   18
 10
176.53465068428142
 20
145.62555212627069
 11
182.7292987938136
 21
151.8202002358029
  0
LINE
  8
_1-7_
  6
CONTINUOUS
 62
   18
 10
176.53465068428142
 20
148.45397925101724
 11
179.90087166906716
 21
151.8202002358031
  0
LINE
  8
_1-7_
  6
CONTINUOUS
 62
   18
 10
176.53465068428119
 20
151.28240637576383
 11
177.07244454432072
 21
151.82020023580333
  0
TEXT
  8
_1-8_
 62
    7
 10
217.02204921173421
 20
160.62651997103893
 40
3
 41
0.8333333333333333
 50
0
  1
アルミフレーム
  0
TEXT
  8
_1-8_
 62
    7
 10
216.57170743449234
 20
154.17162116390853
 40
3
 41
0.8333333333333333
 50
0
  1
両面テープ
  0
TEXT
  8
_1-8_
 62
    7
 10
191.53465068428119
 20
129.92822215573267
 40
3
 41
0.8333333333333333
 50
0
  1
取付寸法
  0
LINE
  8
_1-1_
  6
CONTINUOUS
 62
    7
 10
204.53465068428142
 20
154.62020023580297
 11
188.53465068428142
 21
154.62020023580297
  0
LINE
  8
_1-1_
  6
CONTINUOUS
 62
    7
 10
188.53465068428142
 20
154.62020023580297
 11
188.53465068428142
 21
152.62020023580297
  0
LINE
  8
_1-1_
  6
CONTINUOUS
 62
    7
 10
188.53465068428142
 20
152.62020023580297
 11
204.53465068428142
 21
152.62020023580297
  0
LINE
  8
_1-1_
  6
CONTINUOUS
 62
    7
 10
204.53465068428142
 20
152.62020023580297
 11
204.53465068428142
 21
154.62020023580297
  0
LINE
  8
_1-4_
  6
CONTINUOUS
 62
    7
 10
190.53465068428119
 20
154.62020023580297
 11
202.53465068428119
 21
154.62020023580297
  0
LINE
  8
_1-4_
  6
CONTINUOUS
 62
    7
 10
202.53465068428119
 20
154.62020023580297
 11
202.53465068428119
 21
156.22020023580333
  0
LINE
  8
_1-4_
  6
CONTINUOUS
 62
    7
 10
202.53465068428119
 20
156.22020023580333
 11
190.53465068428119
 21
156.22020023580333
  0
LINE
  8
_1-4_
  6
CONTINUOUS
 62
    7
 10
190.53465068428119
 20
156.22020023580333
 11
190.53465068428119
 21
154.62020023580297
  0
LINE
  8
_1-4_
  6
CONTINUOUS
 62
    7
 10
191.53465068428119
 20
152.62020023580342
 11
201.53465068428119
 21
152.62020023580342
  0
LINE
  8
_1-4_
  6
CONTINUOUS
 62
    7
 10
201.53465068428119
 20
152.62020023580342
 11
201.53465068428119
 21
151.82020023580324
  0
LINE
  8
_1-4_
  6
CONTINUOUS
 62
    7
 10
201.53465068428119
 20
151.82020023580324
 11
191.53465068428119
 21
151.82020023580324
  0
LINE
  8
_1-4_
  6
CONTINUOUS
 62
    7
 10
191.53465068428119
 20
151.82020023580324
 11
191.53465068428119
 21
152.62020023580342
  0
LINE
  8
_1-5_
  6
CONTINUOUS
 62
    7
 10
203.5346509227
 20
159.42021244283413
 11
203.5346509227
 21
156.22020023580288
  0
LINE
  8
_1-5_
  6
CONTINUOUS
 62
    7
 10
203.5346509227
 20
156.22020023580288
 11
189.53465044586284
 21
156.22020023580288
  0
LINE
  8
_1-5_
  6
CONTINUOUS
 62
    7
 10
189.53465044586284
 20
156.22020023580288
 11
189.53465044586284
 21
159.42021244283413
  0
LINE
  8
_1-5_
  6
CONTINUOUS
 62
    7
 10
189.53465044586284
 20
159.42021244283413
 11
203.5346509227
 21
159.42021244283413
  0
LINE
  8
_1-5_
  6
CONTINUOUS
 62
    7
 10
198.73466312973102
 20
160.92021244283413
 11
198.73466312973102
 21
159.42021244283413
  0
LINE
  8
_1-5_
  6
CONTINUOUS
 62
    7
 10
198.73466312973102
 20
159.42021244283413
 11
194.33466923324664
 21
159.42021244283413
  0
LINE
  8
_1-5_
  6
CONTINUOUS
 62
    7
 10
194.33466923324664
 20
159.42021244283413
 11
194.33466923324664
 21
160.92021244283413
  0
LINE
  8
_1-5_
  6
CONTINUOUS
 62
    7
 10
194.33466923324664
 20
160.92021244283413
 11
198.73466312973102
 21
160.92021244283413
  0
LINE
  8
_1-8_
  6
CONTINUOUS
 62
   18
 10
197.50459988386234
 20
158.70747343300309
 11
215.59851273425994
 21
168.89544981914344
  0
LINE
  8
_1-8_
  6
CONTINUOUS
 62
   18
 10
199.75606187216641
 20
153.23963717569313
 11
216.19896843724865
 21
162.14032316051862
  0
LINE
  8
_1-8_
  6
CONTINUOUS
 62
   18
 10
199.88471684292682
 20
152.14606992423114
 11
216.15696124815082
 21
155.69221963397757
  0
LINE
  8
_1-3_
  6
CONTINUOUS
 62
   18
 10
189.53465044586284
 20
168.99083470946201
 11
203.5346509227
 21
168.99083470946201
  0
LINE
  8
_1-3_
  6
CONTINUOUS
 62
   18
 10
189.53465044586284
 20
168.99083470946201
 11
190.50057627215193
 21
169.24965375456452
  0
LINE
  8
_1-3_
  6
CONTINUOUS
 62
   18
 10
189.53465044586284
 20
168.99083470946201
 11
190.50057627215193
 21
168.73201566435947
  0
LINE
  8
_1-3_
  6
CONTINUOUS
 62
   18
 10
203.5346509227
 20
168.99083470946201
 11
202.5687250964109
 21
168.73201566435947
  0
LINE
  8
_1-3_
  6
CONTINUOUS
 62
   18
 10
203.5346509227
 20
168.99083470946201
 11
202.5687250964109
 21
169.24965375456452
  0
LINE
  8
_1-3_
  6
CONTINUOUS
 62
   18
 10
189.53465044586284
 20
169.49083470946201
 11
189.53465044586284
 21
160.42021244283413
  0
LINE
  8
_1-3_
  6
CONTINUOUS
 62
   18
 10
203.5346509227
 20
169.49083470946201
 11
203.5346509227
 21
160.42021244283413
  0
TEXT
  8
_1-3_
 62
    7
 10
195.78465068428142
 20
169.49083470946201
 40
3
 41
1
 50
0
  1
7
  0
LINE
  8
_1-3_
  6
CONTINUOUS
 62
   18
 10
188.53465068428142
 20
177.39721455130626
 11
204.53465068428142
 21
177.39721455130626
  0
LINE
  8
_1-3_
  6
CONTINUOUS
 62
   18
 10
188.53465068428142
 20
177.39721455130626
 11
189.50057651057051
 21
177.65603359640878
  0
LINE
  8
_1-3_
  6
CONTINUOUS
 62
   18
 10
188.53465068428142
 20
177.39721455130626
 11
189.50057651057051
 21
177.13839550620372
  0
LINE
  8
_1-3_
  6
CONTINUOUS
 62
   18
 10
204.53465068428142
 20
177.39721455130626
 11
203.56872485799232
 21
177.13839550620372
  0
LINE
  8
_1-3_
  6
CONTINUOUS
 62
   18
 10
204.53465068428142
 20
177.39721455130626
 11
203.56872485799232
 21
177.65603359640878
  0
LINE
  8
_1-3_
  6
CONTINUOUS
 62
   18
 10
188.53465068428142
 20
177.89721455130626
 11
188.53465068428142
 21
155.620200235803
  0
LINE
  8
_1-3_
  6
CONTINUOUS
 62
   18
 10
204.53465068428142
 20
177.89721455130626
 11
204.53465068428142
 21
155.620200235803
  0
TEXT
  8
_1-3_
 62
    7
 10
195.78465068428142
 20
177.89721455130626
 40
3
 41
1
 50
0
  1
8
  0
LINE
  8
_1-3_
  6
CONTINUOUS
 62
   18
 10
172.50174286426937
 20
151.82020023580324
 11
172.50174286426937
 21
160.92021244283413
  0
LINE
  8
_1-3_
  6
CONTINUOUS
 62
   18
 10
172.50174286426937
 20
151.82020023580324
 11
172.24292381916672
 21
152.78612606209231
  0
LINE
  8
_1-3_
  6
CONTINUOUS
 62
   18
 10
172.50174286426937
 20
151.82020023580324
 11
172.7605619093718
 21
152.78612606209231
  0
LINE
  8
_1-3_
  6
CONTINUOUS
 62
   18
 10
172.50174286426937
 20
160.92021244283413
 11
172.7605619093718
 21
159.95428661654506
  0
LINE
  8
_1-3_
  6
CONTINUOUS
 62
   18
 10
172.50174286426937
 20
160.92021244283413
 11
172.24292381916672
 21
159.95428661654506
  0
LINE
  8
_1-3_
  6
CONTINUOUS
 62
   18
 10
172.00174286426937
 20
151.82020023580324
 11
175.53465068428142
 21
151.82020023580324
  0
LINE
  8
_1-3_
  6
CONTINUOUS
 62
   18
 10
172.00174286426937
 20
160.92021244283413
 11
193.33466923324664
 21
160.92021244283413
  0
TEXT
  8
_1-3_
 62
    7
 10
172.00174286426937
 20
152.12020633931871
 40
3
 41
1
 50
90
  1
(4.5)
  0
TEXT
  8
_1-0_
 62
    7
 10
55.761904761904646
 20
183.5891062834275
 40
4
 41
1
 50
0
  1
Ｓ=２：１
  0
LINE
  8
_1-0_
  6
CONTINUOUS
 62
    7
 10
93.199574535994287
 20
30.42065500595001
 11
90.949582535994267
 21
25.920653005950015
  0
LINE
  8
_1-0_
  6
CONTINUOUS
 62
    7
 10
93.199574535994287
 20
30.42065500595001
 11
95.449574535994287
 21
25.920653005950015
  0
TEXT
  8
_1-0_
 62
    7
 10
92.223137880553253
 20
25.941448741115153
 40
4
 41
1
 50
0
  1
1
  0
LINE
  8
_1-0_
  6
CONTINUOUS
 62
    7
 10
90.949582535994267
 20
25.920653005950015
 11
95.449574535994287
 21
25.920653005950015
  0
LINE
  8
_1-0_
  6
CONTINUOUS
 62
    7
 10
139.45471856891609
 20
30.308956005362148
 11
137.20472656891607
 21
25.808954005362153
  0
LINE
  8
_1-0_
  6
CONTINUOUS
 62
    7
 10
139.45471856891609
 20
30.308956005362148
 11
141.70471856891609
 21
25.808954005362153
  0
TEXT
  8
_1-0_
 62
    7
 10
138.47828191347506
 20
25.829749740527291
 40
4
 41
1
 50
0
  1
1
  0
LINE
  8
_1-0_
  6
CONTINUOUS
 62
    7
 10
137.20472656891607
 20
25.808954005362153
 11
141.70471856891609
 21
25.808954005362153
  0
TEXT
  8
_1-f_
 62
    7
 10
97.92104764649207
 20
26.08918495708113
 40
3.5
 41
1
 50
0
  1
100％
  0
TEXT
  8
_1-f_
 62
    7
 10
144.03629108999348
 20
26.08918495708113
 40
3.5
 41
1
 50
0
  1
100％
  0
TEXT
  8
_1-0_
 62
    7
 10
293.80997520887411
 20
271.76325769036225
 40
3
 41
1
 50
0
  1
2021.10.18
  0
TEXT
  8
_0-0_
 62
    7
 10
337.28585320887407
 20
47.501616696061134
 40
4
 41
1.0000000000000009
 50
0
  1
原田
  0
TEXT
  8
_1-f_
 62
    7
 10
353.94879887889709
 20
26.45294162475227
 40
5
 41
0.8
 50
0
  1
Ｆ９２１５０３０－１
  0
TEXT
  8
_1-0_
 62
    7
 10
318.1349752088741
 20
271.76325769036225
 40
3
 41
0.7666666666666666
 50
0
  1
Ra95 DN/NWの全光束比率追記
  0
TEXT
  8
_0-0_
 62
    7
 10
17.689707841301413
 20
183.29587914837674
 40
5.0000000000000107
 41
0.9999999999999973
 50
0
  1
◆固定仕様
  0
LINE
  8
_0-0_
  6
CONTINUOUS
 62
    7
 10
18.041492503388156
 20
183.19696960098938
 11
42.380952380952351
 21
183.19696960098938
  0
TEXT
  8
_1-0_
 62
    7
 10
377.30997520887405
 20
271.29247501469723
 40
4
 41
1.0000000000000009
 50
0
  1
難波
  0
TEXT
  8
_1-a_
 62
    7
 10
55.202310897254733
 20
250.48198049211433
 40
2.5
 41
1
 50
90
  1
AL-1000-N-K
  0
TEXT
  8
_0-0_
 62
    7
 10
326.25242920887399
 20
64.696987209520984
 40
4
 41
1
 50
0
  1
アルミ板
  0
TEXT
  8
_1-f_
 62
    7
 10
19.344470180158254
 20
104.10332242148316
 40
10
 41
1
 50
0
  1
AL-1000-NZ-□
  0
TEXT
  8
_0-0_
 62
    7
 10
313.8192182388741
 20
121.29614266091731
 40
3.5
 41
1
 50
0
  1
※本製品は入力電圧DC24V専用です。
  0
TEXT
  8
_0-0_
 62
    7
 10
313.8192182388741
 20
117.79614266091731
 40
3.5
 41
1
 50
0
  1
※電源の入力は必ず片側からだけにしてください。
  0
TEXT
  8
_0-0_
 62
    7
 10
313.8192182388741
 20
114.29614266091731
 40
3.5
 41
1
 50
0
  1
※定格表を参考にして最大連結長さを守って下さい。
  0
TEXT
  8
_0-0_
 62
    7
 10
313.8192182388741
 20
110.79614266091731
 40
3.5
 41
1
 50
0
  1
※取付箇所の下地・強度にご注意下さい。
  0
TEXT
  8
_0-0_
 62
    7
 10
313.8192182388741
 20
107.29614266091731
 40
3.5
 41
1
 50
0
  1
　落下等による破損の原因になります。
  0
TEXT
  8
_0-0_
 62
    7
 10
313.8192182388741
 20
103.79614266091731
 40
3.5
 41
1
 50
0
  1
※LEDには触れないでください。
  0
TEXT
  8
_1-f_
 62
    7
 10
289.52000573236819
 20
58.725547667917397
 40
4.5
 41
1
 50
0
  1
㎜
  0
TEXT
  8
_0-0_
 62
    7
 10
323.75242920887405
 20
94.890314412939247
 40
3.5000000000000142
 41
0.9999999999999954
 50
0
  1
収縮チューブ
  0
TEXT
  8
_0-0_
 62
    7
 10
313.8192182388741
 20
100.29614266091731
 40
3.5
 41
1
 50
0
  1
　LED素子の破損・不点灯の原因になります。
  0
TEXT
  8
_1-f_
 62
    7
 10
192.67593028992007
 20
43.221547667917406
 40
4.5
 41
1
 50
0
  1
19.0
  0
LINE
  8
_1-7_
  6
CONTINUOUS
 62
   18
 10
350.67828800329448
 20
226.67943484581383
 11
376.20084822474678
 21
238.12171538525945
  0
LINE
  8
_1-7_
  6
CONTINUOUS
 62
   18
 10
350.77503661066362
 20
220.46872123149387
 11
356.37174442959372
 21
208.66651337990334
  0
TEXT
  8
_1-7_
 62
    7
 10
356.5738640968741
 20
206.72308957691143
 40
4
 41
1
 50
0
  1
固定用両面テープ
  0
TEXT
  8
_1-7_
 62
    7
 10
376.8238640968741
 20
236.2496727004127
 40
4
 41
1
 50
0
  1
LED基板
  0
LINE
  8
_1-3_
  6
CONTINUOUS
 62
   18
 10
341.22033795775974
 20
243.45935312347751
 11
357.22033795775974
 21
243.45935312347751
  0
LINE
  8
_1-3_
  6
CONTINUOUS
 62
   18
 10
341.22033795775974
 20
243.45935312347751
 11
342.18626378404883
 21
243.71817216857994
  0
LINE
  8
_1-3_
  6
CONTINUOUS
 62
   18
 10
341.22033795775974
 20
243.45935312347751
 11
342.18626378404883
 21
243.20053407837509
  0
LINE
  8
_1-3_
  6
CONTINUOUS
 62
   18
 10
357.22033795775974
 20
243.45935312347751
 11
356.25441213147064
 21
243.20053407837509
  0
LINE
  8
_1-3_
  6
CONTINUOUS
 62
   18
 10
357.22033795775974
 20
243.45935312347751
 11
356.25441213147064
 21
243.71817216857994
  0
LINE
  8
_1-3_
  6
CONTINUOUS
 62
   18
 10
341.22033795775974
 20
243.95935312347751
 11
341.22033795775974
 21
223.88596886976939
  0
LINE
  8
_1-3_
  6
CONTINUOUS
 62
   18
 10
357.22033795775974
 20
243.95935312347751
 11
357.22033795775974
 21
223.88596886976939
  0
TEXT
  8
_1-3_
 62
    7
 10
348.47033795775974
 20
243.95935312347751
 40
3
 41
1
 50
0
  1
8
  0
LINE
  8
_1-3_
  6
CONTINUOUS
 62
   18
 10
328.79440040159375
 20
220.08596886976943
 11
328.79440040159375
 21
229.18598107680077
  0
LINE
  8
_1-3_
  6
CONTINUOUS
 62
   18
 10
328.79440040159375
 20
220.08596886976943
 11
328.53558135649132
 21
221.05189469605853
  0
LINE
  8
_1-3_
  6
CONTINUOUS
 62
   18
 10
328.79440040159375
 20
220.08596886976943
 11
329.05321944669618
 21
221.05189469605853
  0
LINE
  8
_1-3_
  6
CONTINUOUS
 62
   18
 10
328.79440040159375
 20
229.18598107680077
 11
329.05321944669618
 21
228.22005525051168
  0
LINE
  8
_1-3_
  6
CONTINUOUS
 62
   18
 10
328.79440040159375
 20
229.18598107680077
 11
328.53558135649132
 21
228.22005525051168
  0
LINE
  8
_1-3_
  6
CONTINUOUS
 62
   18
 10
328.29440040159375
 20
220.08596886976943
 11
343.22033795775974
 21
220.08596886976943
  0
LINE
  8
_1-3_
  6
CONTINUOUS
 62
   18
 10
328.29440040159375
 20
229.18598107680077
 11
346.02035650672519
 21
229.18598107680077
  0
TEXT
  8
_1-3_
 62
    7
 10
328.29440040159375
 20
220.3859749732851
 40
3
 41
1
 50
90
  1
(4.5)
  0
LINE
  8
_1-1_
  6
CONTINUOUS
 62
    7
 10
357.22033795775974
 20
222.88596886976939
 11
341.22033795775974
 21
222.88596886976939
  0
LINE
  8
_1-1_
  6
CONTINUOUS
 62
    7
 10
341.22033795775974
 20
222.88596886976939
 11
341.22033795775974
 21
220.88596886976939
  0
LINE
  8
_1-1_
  6
CONTINUOUS
 62
    7
 10
341.22033795775974
 20
220.88596886976939
 11
357.22033795775974
 21
220.88596886976939
  0
LINE
  8
_1-1_
  6
CONTINUOUS
 62
    7
 10
357.22033795775974
 20
220.88596886976939
 11
357.22033795775974
 21
222.88596886976939
  0
LINE
  8
_1-4_
  6
CONTINUOUS
 62
    7
 10
343.22033795775974
 20
222.88596886976961
 11
355.22033795775974
 21
222.88596886976961
  0
LINE
  8
_1-4_
  6
CONTINUOUS
 62
    7
 10
355.22033795775974
 20
222.88596886976961
 11
355.22033795775974
 21
224.48596886976952
  0
LINE
  8
_1-4_
  6
CONTINUOUS
 62
    7
 10
355.22033795775974
 20
224.48596886976952
 11
343.22033795775974
 21
224.48596886976952
  0
LINE
  8
_1-4_
  6
CONTINUOUS
 62
    7
 10
343.22033795775974
 20
224.48596886976952
 11
343.22033795775974
 21
222.88596886976961
  0
LINE
  8
_1-4_
  6
CONTINUOUS
 62
    7
 10
344.22033795775974
 20
220.88596886976961
 11
354.22033795775974
 21
220.88596886976961
  0
LINE
  8
_1-4_
  6
CONTINUOUS
 62
    7
 10
354.22033795775974
 20
220.88596886976961
 11
354.22033795775974
 21
220.08596886976943
  0
LINE
  8
_1-4_
  6
CONTINUOUS
 62
    7
 10
354.22033795775974
 20
220.08596886976943
 11
344.22033795775974
 21
220.08596886976943
  0
LINE
  8
_1-4_
  6
CONTINUOUS
 62
    7
 10
344.22033795775974
 20
220.08596886976943
 11
344.22033795775974
 21
220.88596886976961
  0
LINE
  8
_1-5_
  6
CONTINUOUS
 62
    7
 10
356.22033819617832
 20
227.68598107680077
 11
356.22033819617832
 21
224.48596886976952
  0
LINE
  8
_1-5_
  6
CONTINUOUS
 62
    7
 10
356.22033819617832
 20
224.48596886976952
 11
342.22033771934116
 21
224.48596886976952
  0
LINE
  8
_1-5_
  6
CONTINUOUS
 62
    7
 10
342.22033771934116
 20
224.48596886976952
 11
342.22033771934116
 21
227.68598107680077
  0
LINE
  8
_1-5_
  6
CONTINUOUS
 62
    7
 10
342.22033771934116
 20
227.68598107680077
 11
356.22033819617832
 21
227.68598107680077
  0
LINE
  8
_1-5_
  6
CONTINUOUS
 62
    7
 10
351.42035040320957
 20
229.18598107680077
 11
351.42035040320957
 21
227.68598107680077
  0
LINE
  8
_1-5_
  6
CONTINUOUS
 62
    7
 10
351.42035040320957
 20
227.68598107680077
 11
347.02035650672519
 21
227.68598107680077
  0
LINE
  8
_1-5_
  6
CONTINUOUS
 62
    7
 10
347.02035650672519
 20
227.68598107680077
 11
347.02035650672519
 21
229.18598107680077
  0
LINE
  8
_1-5_
  6
CONTINUOUS
 62
    7
 10
347.02035650672519
 20
229.18598107680077
 11
351.42035040320957
 21
229.18598107680077
  0
TEXT
  8
_1-7_
 62
    7
 10
368.86155158957172
 20
223.41185474109557
 40
4
 41
1
 50
0
  1
両面テープ
  0
TEXT
  8
_1-7_
 62
    7
 10
364.26432936734955
 20
217.399470899471
 40
4
 41
1
 50
0
  1
アルミ板 t=1
  0
LINE
  8
_1-7_
  6
CONTINUOUS
 62
   18
 10
354.37654277122942
 20
223.76626650328899
 11
368.55643695112371
 21
224.96556103591683
  0
LINE
  8
_1-7_
  6
CONTINUOUS
 62
   18
 10
353.03615476417485
 20
221.7909578613137
 11
364.6763664043865
 21
219.32182205884465
  0
LINE
  8
_1-0_
  6
CENTER2
 62
   18
 10
349.22033795775974
 20
229.72075975642502
 11
349.22033795775974
 21
219.84421654654847
  0
TEXT
  8
_1-0_
 62
    7
 10
387.29789970887407
 20
271.29247501469723
 40
4
 41
1.0000000000000009
 50
0
  1
原田
  0
ENDSEC
  0
EOF
