  0
SECTION
  2
HEADER
  9
$ACADVER
  1
AC1009
  9
$INSBASE
 10
0
 20
0
 30
0
  9
$EXTMIN
 10
0
 20
0
  9
$EXTMAX
 10
594
 20
420
  9
$LIMMIN
 10
0
 20
0
  9
$LIMMAX
 10
594
 20
420
  9
$LTSCALE
 40
2
  0
ENDSEC
  0
SECTION
  2
TABLES
  0
TABLE
  2
LTYPE
 70
     9
  0
LTYPE
  2
CONTINUOUS
 70
    64
  3
実線
 72
    65
 73
     0
 40
0.0
  0
LTYPE
  2
DASHED1
 70
    64
  3
--  --  --  --  --  --  --  --  
 72
    65
 73
     2
 40
2.5
 49
1.25
 49
-1.25
  0
LTYPE
  2
DASHED2
 70
    64
  3
----    ----    ----    ----    
 72
    65
 73
     2
 40
5.0
 49
2.5
 49
-2.5
  0
LTYPE
  2
DASHED3
 70
    64
  3
------  ------  ------  ------  
 72
    65
 73
     2
 40
5.0
 49
3.75
 49
-1.25
  0
LTYPE
  2
CENTER1
 70
    64
  3
----- - ----- - ----- - ----- - 
 72
    65
 73
     4
 40
10.0
 49
6.25
 49
-1.25
 49
1.25
 49
-1.25
  0
LTYPE
  2
CENTER2
 70
    64
  3
----------  --  ----------  --  
 72
    65
 73
     4
 40
20.0
 49
12.5
 49
-2.5
 49
2.5
 49
-2.5
  0
LTYPE
  2
PHANTOM1
 70
    64
  3
--- - - --- - - --- - - --- - - 
 72
    65
 73
     6
 40
10.0
 49
3.25
 49
-1.25
 49
1.25
 49
-1.25
 49
1.25
 49
-1.25
  0
LTYPE
  2
PHANTOM2
 70
    64
  3
--------  -  -  --------  -  -  
 72
    65
 73
     6
 40
20.0
 49
10.0
 49
-2.5
 49
1.25
 49
-2.5
 49
1.25
 49
-2.5
  0
LTYPE
  2
DOT
 70
    64
  3
-   -   -   -   -   -   -   -   
 72
    65
 73
     2
 40
2.5
 49
0.625
 49
-1.875
  0
LTYPE
  2
DUMMY
 70
    64
  3
ダミー
 72
    65
 73
     0
 40
0.0
  0
LTYPE
  2
RAND1
 70
    64
  3
ランダム線1
 72
    65
 73
     4
 40
10.0
 49
1.0
 49
-2.0
 49
3.0
 49
-4.0
  0
LTYPE
  2
RAND2
 70
    64
  3
ランダム線2
 72
    65
 73
     4
 40
14.0
 49
2.0
 49
-3.0
 49
4.0
 49
-5.0
  0
LTYPE
  2
RAND3
 70
    64
  3
ランダム線3
 72
    65
 73
     4
 40
18.0
 49
3.0
 49
-4.0
 49
5.0
 49
-6.0
  0
LTYPE
  2
RAND4
 70
    64
  3
ランダム線4
 72
    65
 73
     4
 40
22.0
 49
4.0
 49
-5.0
 49
6.0
 49
-7.0
  0
LTYPE
  2
RAND5
 70
    64
  3
ランダム線5
 72
    65
 73
     4
 40
26.0
 49
5.0
 49
-6.0
 49
7.0
 49
-8.0
  0
LTYPE
  2
LONG1
 70
    64
  3
----------  --  ----------  --  
 72
    65
 73
     4
 40
40.0
 49
32.5
 49
-2.5
 49
2.5
 49
-2.5
  0
LTYPE
  2
LONG2
 70
    64
  3
--------  -  -  --------  -  -  
 72
    65
 73
     6
 40
40.0
 49
30.0
 49
-2.5
 49
1.25
 49
-2.5
 49
1.25
 49
-2.5
  0
LTYPE
  2
LONG3
 70
    64
  3
+++++++++++++++..+++++++++++++++
 72
    65
 73
     2
 40
40.0
 49
37.5
 49
-2.5
  0
LTYPE
  2
LONG4
 70
    64
  3
+++++++++++++++..+++++++++++++++
 72
    65
 73
     2
 40
80.0
 49
75.0
 49
-5.0
  0
LTYPE
  2
LONG5
 70
    64
  3
----------  --  ----------  --  
 72
    65
 73
     4
 40
60.0
 49
37.5
 49
-7.5
 49
7.5
 49
-7.5
  0
LTYPE
  2
dashed
 70
   64
  3
-------   -------------   ------
 72
   65
 73
    2
 40
7.5
 49
6
 49
-1.5
  0
LTYPE
  2
dashed_spaced
 70
   64
  3
----        --------        ----
 72
   65
 73
    2
 40
12
 49
6
 49
-6
  0
LTYPE
  2
long_dashed_dotted
 70
   64
  3
------------- --- --------------
 72
   65
 73
    4
 40
15.25
 49
12
 49
-1.5
 49
0.25
 49
-1.5
  0
LTYPE
  2
long_dashed_double-dotted
 70
   64
  3
----------- --- --- ------------
 72
   65
 73
    6
 40
17
 49
12
 49
-1.5
 49
0.25
 49
-1.5
 49
0.25
 49
-1.5
  0
LTYPE
  2
long_dashed_triplicate-dotted
 70
   64
  3
--------- --- --- --- ----------
 72
   65
 73
    8
 40
18.75
 49
12
 49
-1.5
 49
0.25
 49
-1.5
 49
0.25
 49
-1.5
 49
0.25
 49
-1.5
  0
LTYPE
  2
dotted
 70
   64
  3
   -       -       -       -    
 72
   65
 73
    2
 40
1.75
 49
0.25
 49
-1.5
  0
LTYPE
  2
chain
 70
   64
  3
-------------- -- --------------
 72
   65
 73
    4
 40
18.5
 49
12
 49
-1.5
 49
3.5
 49
-1.5
  0
LTYPE
  2
chain_double_dash
 70
   64
  3
------------ -- -- -------------
 72
   65
 73
    6
 40
23.5
 49
12
 49
-1.5
 49
3.5
 49
-1.5
 49
3.5
 49
-1.5
  0
LTYPE
  2
dashed_dotted
 70
   64
  3
-----------     -     ----------
 72
   65
 73
    4
 40
9.25
 49
6
 49
-1.5
 49
0.25
 49
-1.5
  0
LTYPE
  2
double-dashed_dotted
 70
   64
  3
------   -----------   -   -----
 72
   65
 73
    6
 40
16.75
 49
6
 49
-1.5
 49
6
 49
-1.5
 49
0.25
 49
-1.5
  0
LTYPE
  2
dashed_double-dotted
 70
   64
  3
---------    -    -    ---------
 72
   65
 73
    6
 40
11
 49
6
 49
-1.5
 49
0.25
 49
-1.5
 49
0.25
 49
-1.5
  0
LTYPE
  2
double-dashed_double-dotted
 70
   64
  3
-----   ---------   -   -   ----
 72
   65
 73
    8
 40
18.5
 49
6
 49
-1.5
 49
6
 49
-1.5
 49
0.25
 49
-1.5
 49
0.25
 49
-1.5
  0
LTYPE
  2
dashed_triplicate-dotted
 70
   64
  3
-------    -    -    -    ------
 72
   65
 73
    8
 40
12.75
 49
6
 49
-1.5
 49
0.25
 49
-1.5
 49
0.25
 49
-1.5
 49
0.25
 49
-1.5
  0
LTYPE
  2
double-dashed_triplicate-dotted
 70
   64
  3
-----  ---------  -  -  -  -----
 72
   65
 73
   10
 40
20.25
 49
6
 49
-1.5
 49
6
 49
-1.5
 49
0.25
 49
-1.5
 49
0.25
 49
-1.5
 49
0.25
 49
-1.5
  0
LTYPE
  2
undefined
 70
   64
  3
--------------------------------
 72
   65
 73
    0
 40
0
  0
LTYPE
  2
_
 70
   64
  3
                                
 72
   65
 73
    0
 40
0
  0
LTYPE
  2
__18
 70
   64
  3
                                
 72
   65
 73
    0
 40
0
  0
LTYPE
  2
__19
 70
   64
  3
                                
 72
   65
 73
    0
 40
0
  0
LTYPE
  2
__20
 70
   64
  3
                                
 72
   65
 73
    0
 40
0
  0
LTYPE
  2
__21
 70
   64
  3
                                
 72
   65
 73
    0
 40
0
  0
LTYPE
  2
__22
 70
   64
  3
                                
 72
   65
 73
    0
 40
0
  0
LTYPE
  2
__23
 70
   64
  3
                                
 72
   65
 73
    0
 40
0
  0
LTYPE
  2
__24
 70
   64
  3
                                
 72
   65
 73
    0
 40
0
  0
LTYPE
  2
__25
 70
   64
  3
                                
 72
   65
 73
    0
 40
0
  0
LTYPE
  2
__26
 70
   64
  3
                                
 72
   65
 73
    0
 40
0
  0
LTYPE
  2
__27
 70
   64
  3
                                
 72
   65
 73
    0
 40
0
  0
LTYPE
  2
__28
 70
   64
  3
                                
 72
   65
 73
    0
 40
0
  0
LTYPE
  2
__29
 70
   64
  3
                                
 72
   65
 73
    0
 40
0
  0
LTYPE
  2
__30
 70
   64
  3
                                
 72
   65
 73
    0
 40
0
  0
LTYPE
  2
__31
 70
   64
  3
                                
 72
   65
 73
    0
 40
0
  0
LTYPE
  2
__32
 70
   64
  3
                                
 72
   65
 73
    0
 40
0
  0
ENDTAB
  0
TABLE
  2
STYLE
  5
3
100
AcDbSymbolTable
 70
     1
  0
STYLE
  5
10
100
AcDbSymbolTableRecord
100
AcDbTextStyleTableRecord
  2
STANDARD
 70
     0
 40
0.0
 41
1.0
 50
0.0
 71
     0
 42
0.2
  3
txt
  4
bigfont.shx
  0
STYLE
  5
26
100
AcDbSymbolTableRecord
100
AcDbTextStyleTableRecord
  2
TATEGAKI
 70
    68
 40
0.0
 41
1.0
 50
0.0
 71
     0
 42
1.0
  3
txt
  4
bigfont.shx
  0
ENDTAB
  0
TABLE
  2
LAYER
 70
    8
  0
LAYER
  2
_0-0_レイヤ_1
 70
   64
 62
    7
  6
CONTINUOUS
  0
LAYER
  2
_0-1_レイヤ_2
 70
   64
 62
    7
  6
CONTINUOUS
  0
LAYER
  2
_1-5_0
 70
   64
 62
    7
  6
CONTINUOUS
  0
LAYER
  2
_1-6__0-0_
 70
   64
 62
    7
  6
CONTINUOUS
  0
LAYER
  2
_2-0_
 70
   64
 62
    7
  6
CONTINUOUS
  0
LAYER
  2
_2-1_
 70
   64
 62
    7
  6
CONTINUOUS
  0
LAYER
  2
_a-0_
 70
   64
 62
    7
  6
CONTINUOUS
  0
LAYER
  2
ADD_LINE
 70
   64
 62
    7
  6
CONTINUOUS
  0
ENDTAB
  0
ENDSEC
  0
SECTION
  2
BLOCKS
  0
ENDSEC
  0
SECTION
  2
ENTITIES
  0
LINE
  8
_0-0_レイヤ_1
  6
CONTINUOUS
 62
    7
 10
202.56127943505305
 20
628.04638284882878
 11
202.56127943505305
 21
613.54638284961811
  0
LINE
  8
_0-0_レイヤ_1
  6
CONTINUOUS
 62
    7
 10
202.56127943505305
 20
628.04638284882878
 11
212.56127943505305
 21
628.04638284882878
  0
LINE
  8
_0-0_レイヤ_1
  6
CONTINUOUS
 62
    7
 10
212.56127943505305
 20
628.04638284882878
 11
212.56127943505305
 21
613.54638284961811
  0
LINE
  8
_0-0_レイヤ_1
  6
CONTINUOUS
 62
    7
 10
212.56127943505305
 20
613.54638284961811
 11
202.56127943505305
 21
613.54638284961811
  0
LINE
  8
_0-0_レイヤ_1
  6
CONTINUOUS
 62
    7
 10
202.56127943505305
 20
627.45833866705936
 11
212.56127943505305
 21
627.45833866705936
  0
LINE
  8
_0-0_レイヤ_1
  6
CONTINUOUS
 62
    7
 10
202.56127943505305
 20
625.49022316256616
 11
212.56127943505305
 21
625.49022316256616
  0
LINE
  8
_0-0_レイヤ_1
  6
CONTINUOUS
 62
    7
 10
202.56127943505305
 20
625.29638284942075
 11
212.56127943505305
 21
625.29638284942075
  0
LINE
  8
_1-6__0-0_
  6
CENTER1
 62
    7
 10
207.56127943505305
 20
622.79638284951147
 11
207.56127943505305
 21
618.7963828495275
  0
CIRCLE
  8
_0-0_レイヤ_1
  6
CONTINUOUS
 62
    7
 10
207.56127943505305
 20
620.79638284951943
 40
2.25
  0
LINE
  8
_0-0_レイヤ_1
  6
CONTINUOUS
 62
    7
 10
202.56127943505305
 20
614.13442703197961
 11
212.56127943505305
 21
614.13442703197961
  0
LINE
  8
_0-0_レイヤ_1
  6
CONTINUOUS
 62
    7
 10
202.56127943505305
 20
616.10254253647281
 11
212.56127943505305
 21
616.10254253647281
  0
LINE
  8
_0-0_レイヤ_1
  6
CONTINUOUS
 62
    7
 10
202.56127943505305
 20
616.29638284961811
 11
212.56127943505305
 21
616.29638284961811
  0
LINE
  8
_0-0_レイヤ_1
  6
CENTER2
 62
    7
 10
213.65401427194854
 20
620.79638284951943
 11
201.51823715328578
 21
620.79638284951943
  0
LINE
  8
_0-0_レイヤ_1
  6
CONTINUOUS
 62
    7
 10
206.11771468705489
 20
619.07051471482986
 11
205.2874669328967
 21
616.18768820830621
  0
LINE
  8
_0-0_レイヤ_1
  6
CONTINUOUS
 62
    7
 10
203.95728578725709
 20
616.98903760255632
 11
206.11771468705489
 21
619.07051471482986
  0
LINE
  8
_0-0_レイヤ_1
  6
CONTINUOUS
 62
    7
 10
206.11771468705489
 20
619.07051471482986
 11
194.66409951204229
 21
600.05835464516371
  0
LINE
  8
_0-0_レイヤ_1
  6
CONTINUOUS
 62
    7
 10
194.66409951204229
 20
600.05835464516371
 11
232.52663658710025
 21
600.05835464516371
  0
TEXT
  8
_0-0_レイヤ_1
 62
    7
 10
199.52663658710025
 20
599.73711348614028
 40
7
 41
0.857142857142857
 50
0
  1
φ4.5貫通穴
  0
LINE
  8
_0-0_レイヤ_1
  6
CONTINUOUS
 62
    7
 10
202.56127943505305
 20
620.54638306094489
 11
205.3252114339152
 21
620.54638306094489
  0
LINE
  8
_0-0_レイヤ_1
  6
CONTINUOUS
 62
    7
 10
205.32521145391868
 20
621.0463828170109
 11
202.56127943505305
 21
621.0463828170109
  0
LINE
  8
_0-0_レイヤ_1
  6
CONTINUOUS
 62
    7
 10
209.79734741618742
 20
621.0463828170109
 11
212.56127943505305
 21
621.0463828170109
  0
LINE
  8
_0-0_レイヤ_1
  6
CONTINUOUS
 62
    7
 10
212.56127943505305
 20
620.54638306094489
 11
209.7973474361909
 21
620.54638306094489
  0
LINE
  8
_0-1_レイヤ_2
  6
CONTINUOUS
 62
    7
 10
202.56127943505305
 20
638.42700213760554
 11
212.56127943505305
 21
638.42700213760554
  0
LINE
  8
_0-1_レイヤ_2
  6
CONTINUOUS
 62
    7
 10
202.56127943505305
 20
638.42700213760554
 11
202.56127943505305
 21
628.82407853088682
  0
LINE
  8
_0-1_レイヤ_2
  6
CONTINUOUS
 62
    7
 10
212.56127943505305
 20
638.42700213760554
 11
212.56127943505305
 21
628.82407853088682
  0
LINE
  8
_a-0_
  6
CONTINUOUS
 62
    7
 10
35.80777342074748
 20
531.45583260335979
 11
607.80777342074748
 21
531.45583260335979
  0
LINE
  8
_a-0_
  6
CONTINUOUS
 62
    7
 10
607.80777342074748
 20
531.45583260335979
 11
607.80777342074748
 21
931.45583260335979
  0
LINE
  8
_a-0_
  6
CONTINUOUS
 62
    7
 10
607.80777342074748
 20
931.45583260335979
 11
35.80777342074748
 21
931.45583260335979
  0
LINE
  8
_a-0_
  6
CONTINUOUS
 62
    7
 10
35.80777342074748
 20
931.45583260335979
 11
35.80777342074748
 21
531.45583260335979
  0
LINE
  8
_1-6__0-0_
  6
CONTINUOUS
 62
    7
 10
377.70180901751609
 20
920.35042350223807
 11
373.20182427630516
 21
911.35041944912222
  0
LINE
  8
_1-6__0-0_
  6
CONTINUOUS
 62
    7
 10
373.20182427630516
 20
911.35041944912222
 11
382.20180901751609
 21
911.35041944912222
  0
LINE
  8
_1-6__0-0_
  6
CONTINUOUS
 62
    7
 10
377.70180901751609
 20
920.35042350223807
 11
382.20180901751609
 21
911.35041944912222
  0
LINE
  8
_1-6__0-0_
  6
CONTINUOUS
 62
    7
 10
367.85606011614891
 20
931.45583260335979
 11
367.85606011614891
 21
920.66204898288992
  0
LINE
  8
_1-6__0-0_
  6
CONTINUOUS
 62
    7
 10
387.85607537493797
 20
931.45583260335979
 11
387.85607537493797
 21
920.66204898288992
  0
LINE
  8
_1-6__0-0_
  6
CONTINUOUS
 62
    7
 10
447.85607603058906
 20
931.45583260335979
 11
447.85607603058906
 21
920.66204898288992
  0
LINE
  8
_1-6__0-0_
  6
CONTINUOUS
 62
    7
 10
607.80777342074748
 20
920.66204898288992
 11
367.85609063372703
 21
920.66204898288992
  0
LINE
  8
_1-6__0-0_
  6
CONTINUOUS
 62
    7
 10
367.85606011614891
 20
910.66208975246695
 11
607.80777342074748
 21
910.66208975246695
  0
TEXT
  8
_1-6__0-0_
 62
    7
 10
371.60724199583796
 20
922.97244501930515
 40
6
 41
1
 50
0
  1
Ｎｏ
  0
TEXT
  8
_1-6__0-0_
 62
    7
 10
374.83445402760412
 20
911.0868592437763
 40
6
 41
2
 50
0
  1
1
  0
TEXT
  8
_1-6__0-0_
 62
    7
 10
402.33135003809911
 20
922.89373253072551
 40
6
 41
1
 50
0
  1
年　月　日
  0
TEXT
  8
_1-6__0-0_
 62
    7
 10
483.56263825230951
 20
922.89373253072551
 40
6
 41
1
 50
0
  1
訂　正　記　事
  0
TEXT
  8
_1-6__0-0_
 62
    7
 10
569.83152573561824
 20
921.51626398058147
 40
8
 41
1
 50
0
  1
担当
  0
TEXT
  8
_1-6__0-0_
 62
    7
 10
589.50964788053363
 20
921.67368895774075
 40
8
 41
1
 50
0
  1
検印
  0
LINE
  8
_0-0_レイヤ_1
  6
CONTINUOUS
 62
    7
 10
367.85606011614891
 20
900.66213052246689
 11
607.80777342074748
 21
900.66213052246689
  0
TEXT
  8
_1-6__0-0_
 62
    7
 10
390.60226617702295
 20
912.30664245183675
 40
6
 41
2
 50
0
  1
2018.7.9
  0
TEXT
  8
_1-6__0-0_
 62
    7
 10
390.60226617702295
 20
902.16672475636346
 40
6
 41
2
 50
0
  1
2018.8.17
  0
LINE
  8
_1-6__0-0_
  6
CONTINUOUS
 62
    7
 10
377.70180901751609
 20
910.03611578992376
 11
373.20182427630516
 21
901.03611173680792
  0
LINE
  8
_1-6__0-0_
  6
CONTINUOUS
 62
    7
 10
373.20182427630516
 20
901.03611173680792
 11
382.20180901751609
 21
901.03611173680792
  0
LINE
  8
_1-6__0-0_
  6
CONTINUOUS
 62
    7
 10
377.70180901751609
 20
910.03611578992376
 11
382.20180901751609
 21
901.03611173680792
  0
TEXT
  8
_1-6__0-0_
 62
    7
 10
374.83445402760412
 20
900.77255153146188
 40
6
 41
2
 50
0
  1
2
  0
TEXT
  8
_1-6__0-0_
 62
    7
 10
467.28630824378103
 20
911.38757523647325
 40
8
 41
1
 50
0
  1
品名、型式、図面変更
  0
TEXT
  8
_1-6__0-0_
 62
    7
 10
569.83152573561824
 20
911.36562736267353
 40
8
 41
1
 50
0
  1
吉田
  0
TEXT
  8
_1-6__0-0_
 62
    7
 10
589.50964788053363
 20
911.19004437227579
 40
8
 41
1
 50
0
  1
吉田
  0
TEXT
  8
_1-6__0-0_
 62
    7
 10
589.50964788053363
 20
901.26960541479979
 40
8
 41
1
 50
0
  1
吉田
  0
TEXT
  8
_1-6__0-0_
 62
    7
 10
569.83152573561824
 20
901.44518840519754
 40
8
 41
1
 50
0
  1
吉田
  0
TEXT
  8
_1-6__0-0_
 62
    7
 10
467.28630824378103
 20
901.42324053139782
 40
8
 41
1
 50
0
  1
型式変更
  0
LINE
  8
_1-6__0-0_
  6
CONTINUOUS
 62
    7
 10
367.85606011614891
 20
920.66204898288992
 11
367.85606011614891
 21
890.66217129246695
  0
LINE
  8
_1-6__0-0_
  6
CONTINUOUS
 62
    7
 10
387.85607537493797
 20
920.66204898288992
 11
387.85607537493797
 21
890.66217129246695
  0
LINE
  8
_1-6__0-0_
  6
CONTINUOUS
 62
    7
 10
447.85607603058906
 20
920.66204898288992
 11
447.85607603058906
 21
890.66217129246695
  0
LINE
  8
_1-6__0-0_
  6
CONTINUOUS
 62
    7
 10
567.85607537493774
 20
931.45583260335979
 11
567.85607537493774
 21
890.66217129246695
  0
LINE
  8
_1-6__0-0_
  6
CONTINUOUS
 62
    7
 10
587.85607537493774
 20
931.45583260335979
 11
587.85607537493774
 21
890.66217129246695
  0
LINE
  8
_a-0_
  6
CONTINUOUS
 62
    7
 10
367.85606011614891
 20
890.66217129246695
 11
607.80777342074748
 21
890.66217129246695
  0
LINE
  8
_1-6__0-0_
  6
CONTINUOUS
 62
    7
 10
377.70180901751609
 20
900.33296355848563
 11
373.20182427630516
 21
891.33295950536978
  0
LINE
  8
_1-6__0-0_
  6
CONTINUOUS
 62
    7
 10
373.20182427630516
 20
891.33295950536978
 11
382.20180901751609
 21
891.33295950536978
  0
LINE
  8
_1-6__0-0_
  6
CONTINUOUS
 62
    7
 10
377.70180901751609
 20
900.33296355848563
 11
382.20180901751609
 21
891.33295950536978
  0
TEXT
  8
_1-6__0-0_
 62
    7
 10
374.83445402760412
 20
891.06939930002386
 40
6
 41
2
 50
0
  1
3
  0
TEXT
  8
_1-6__0-0_
 62
    7
 10
390.60226617702295
 20
892.43889941624149
 40
6
 41
2
 50
0
  1
2023.11.6
  0
TEXT
  8
_1-6__0-0_
 62
    7
 10
569.83152573561824
 20
891.46547958103315
 40
8
 41
1
 50
0
  1
谷山
  0
LINE
  8
_1-6__0-0_
  6
CONTINUOUS
 62
    7
 10
517.80777342074748
 20
571.45584085135385
 11
517.80777342074748
 21
531.45583260335979
  0
LINE
  8
_1-6__0-0_
  6
CONTINUOUS
 62
    7
 10
517.80777342074748
 20
591.45584497535094
 11
517.80777342074748
 21
571.45584085135385
  0
LINE
  8
_1-6__0-0_
  6
CONTINUOUS
 62
    7
 10
507.80778991673582
 20
571.45584085135385
 11
507.80778991673582
 21
531.45583260335979
  0
LINE
  8
_1-6__0-0_
  6
CONTINUOUS
 62
    7
 10
437.8537312438051
 20
564.01424902148687
 11
437.8537312438051
 21
558.01425397028333
  0
LINE
  8
_1-6__0-0_
  6
CONTINUOUS
 62
    7
 10
437.8537312438051
 20
564.01424902148687
 11
451.85372794460738
 21
567.01424654708876
  0
LINE
  8
_1-6__0-0_
  6
CONTINUOUS
 62
    7
 10
451.85372794460738
 20
567.01424654708876
 11
451.85372794460738
 21
555.01424407269041
  0
LINE
  8
_1-6__0-0_
  6
CONTINUOUS
 62
    7
 10
437.8537312438051
 20
558.01425397028333
 11
451.85372794460738
 21
555.01424407269041
  0
LINE
  8
_1-6__0-0_
  6
CENTER1
 62
    7
 10
455.85369165343342
 20
561.0142514958851
 11
419.85372134621229
 21
561.0142514958851
  0
LINE
  8
_1-6__0-0_
  6
CENTER1
 62
    7
 10
427.85369825182863
 20
569.01425314548396
 11
427.85369825182863
 21
553.01424675328848
  0
LINE
  8
_1-6__0-0_
  6
CONTINUOUS
 62
    7
 10
507.80778991673582
 20
591.45584497535094
 11
507.80778991673582
 21
531.45583260335979
  0
LINE
  8
_1-6__0-0_
  6
CONTINUOUS
 62
    7
 10
567.80778991673582
 20
591.45584497535094
 11
567.80778991673582
 21
571.45584085135385
  0
LINE
  8
_1-6__0-0_
  6
CONTINUOUS
 62
    7
 10
577.80787239667665
 20
591.45584497535094
 11
577.80787239667665
 21
571.45584085135385
  0
LINE
  8
_1-6__0-0_
  6
CONTINUOUS
 62
    7
 10
457.80782290871229
 20
571.45584085135385
 11
457.80782290871229
 21
551.45583363435912
  0
LINE
  8
_1-6__0-0_
  6
CONTINUOUS
 62
    7
 10
467.80780641272406
 20
571.45584085135385
 11
467.80780641272406
 21
551.45583363435912
  0
LINE
  8
_1-6__0-0_
  6
CONTINUOUS
 62
    7
 10
487.80787239667665
 20
591.45584497535094
 11
487.80787239667665
 21
571.45584085135385
  0
LINE
  8
_1-6__0-0_
  6
CONTINUOUS
 62
    7
 10
477.80778991673582
 20
591.45584497535094
 11
477.80778991673582
 21
571.45584085135385
  0
LINE
  8
_1-6__0-0_
  6
CONTINUOUS
 62
    7
 10
457.80782290871229
 20
591.45584497535094
 11
457.80782290871229
 21
571.45584085135385
  0
LINE
  8
_1-6__0-0_
  6
CONTINUOUS
 62
    7
 10
447.80778991673571
 20
591.45584497535094
 11
447.80778991673571
 21
571.45584085135385
  0
LINE
  8
_1-6__0-0_
  6
CONTINUOUS
 62
    7
 10
427.80777342074759
 20
591.45584497535094
 11
427.80777342074759
 21
571.45584085135385
  0
LINE
  8
_1-6__0-0_
  6
CONTINUOUS
 62
    7
 10
607.80777342074748
 20
591.45584497535094
 11
417.80778991673571
 21
591.45584497535094
  0
LINE
  8
_1-6__0-0_
  6
CONTINUOUS
 62
    7
 10
607.80777342074748
 20
571.45584085135385
 11
417.80778991673571
 21
571.45584085135385
  0
LINE
  8
_1-6__0-0_
  6
CONTINUOUS
 62
    7
 10
607.80777342074748
 20
551.45583363435912
 11
417.80778991673571
 21
551.45583363435912
  0
CIRCLE
  8
_1-6__0-0_
  6
CONTINUOUS
 62
    7
 10
427.85369825182863
 20
561.0142514958851
 40
6.0000000773249446
  0
CIRCLE
  8
_1-6__0-0_
  6
CONTINUOUS
 62
    7
 10
427.85369825182863
 20
561.0142514958851
 40
3.0000000386624723
  0
LINE
  8
_1-6__0-0_
  6
CONTINUOUS
 62
    7
 10
417.80778991673571
 20
591.45584497535094
 11
417.80778991673571
 21
531.45583260335979
  0
TEXT
  8
_1-6__0-0_
 62
    7
 10
422.58847047289191
 20
587.45035546818644
 40
7.2000000000000001
 41
1
 50
0
  1
設計
  7
TATEGAKI
  0
TEXT
  8
_1-6__0-0_
 62
    7
 10
429.69336891972579
 20
577.21773195283049
 40
8
 41
1
 50
0
  1
吉田
  0
TEXT
  8
_1-6__0-0_
 62
    7
 10
452.34179115600386
 20
587.45035546818644
 40
7.2000000000000001
 41
1
 50
0
  1
製図
  7
TATEGAKI
  0
TEXT
  8
_1-6__0-0_
 62
    7
 10
482.09511183911581
 20
587.45035546818644
 40
7.2000000000000001
 41
1
 50
0
  1
検図
  7
TATEGAKI
  0
TEXT
  8
_1-6__0-0_
 62
    7
 10
512.83233862947361
 20
587.60778044534572
 40
7.2000000000000001
 41
1
 50
0
  1
作図
  7
TATEGAKI
  0
TEXT
  8
_1-6__0-0_
 62
    7
 10
522.14118675653799
 20
578.00485683862711
 40
6
 41
1
 50
0
  1
2018年04月18日
  0
TEXT
  8
_1-6__0-0_
 62
    7
 10
572.79157680503055
 20
587.35196485746178
 40
7.2000000000000001
 41
1
 50
0
  1
尺度
  7
TATEGAKI
  0
TEXT
  8
_1-6__0-0_
 62
    7
 10
585.95733687249833
 20
577.4341912964245
 40
6
 41
1
 50
0
  1
1：2
  0
TEXT
  8
_1-6__0-0_
 62
    7
 10
513.04879797306773
 20
547.91700807905158
 40
7.2000000000000001
 41
1
 50
0
  1
図番
  7
TATEGAKI
  0
TEXT
  8
_1-6__0-0_
 62
    7
 10
473.08362824926416
 20
557.12636924287187
 40
8
 41
1
 50
0
  1
PC(透明）
  0
TEXT
  8
_1-6__0-0_
 62
    7
 10
512.8126605073287
 20
568.22483013260421
 40
7.2000000000000001
 41
1
 50
0
  1
品名
  7
TATEGAKI
  0
TEXT
  8
_1-6__0-0_
 62
    7
 10
462.98765523640304
 20
567.75255520112614
 40
7.2000000000000001
 41
1
 50
0
  1
材質
  7
TATEGAKI
  0
TEXT
  8
_1-6__0-0_
 62
    7
 10
429.16205962181322
 20
537.99923451801419
 40
8
 41
1
 50
0
  1
ＦＫＫ株式会社
  0
TEXT
  8
_1-6__0-0_
 62
    7
 10
489.77174898374664
 20
576.2673517496247
 40
8
 41
1
 50
0
  1
吉田
  0
TEXT
  8
_2-1_
 62
    7
 10
464.19736103647733
 20
576.79465871760953
 40
8
 41
1
 50
0
  1
朴
  0
LINE
  8
_1-6__0-0_
  6
CONTINUOUS
 62
    7
 10
526.43403466420568
 20
570.09938986566862
 11
530.93403466420568
 21
561.09938581255278
  0
TEXT
  8
_1-6__0-0_
 62
    7
 10
523.5666796742937
 20
560.83582560720674
 40
6
 41
2
 50
0
  1
1
  0
LINE
  8
_1-6__0-0_
  6
CONTINUOUS
 62
    7
 10
521.93404992299474
 20
561.09938581255278
 11
530.93403466420568
 21
561.09938581255278
  0
LINE
  8
_1-6__0-0_
  6
CONTINUOUS
 62
    7
 10
526.43403466420568
 20
570.09938986566862
 11
521.93404992299474
 21
561.09938581255278
  0
TEXT
  8
_0-0_レイヤ_1
 62
    7
 10
407.26422707846796
 20
659.19354139278448
 40
10
 41
1
 50
0
  1
注記）
  0
TEXT
  8
_0-0_レイヤ_1
 62
    7
 10
524.18021399372503
 20
552.36412270305265
 40
8
 41
1
 50
0
  1
FM-MRL/FM-MC　加工図
  0
TEXT
  8
_0-0_レイヤ_1
 62
    7
 10
532.69845959266058
 20
534.07465976385367
 40
12
 41
1
 50
0
  1
F6184050-3
  0
LINE
  8
_0-0_レイヤ_1
  6
CENTER2
 62
    7
 10
86.20639022758965
 20
817.91886142704981
 11
68.073437079063893
 21
817.91886142704981
  0
TEXT
  8
_0-1_レイヤ_2
 62
    7
 10
71.337297448672217
 20
834.71265448856456
 40
6
 41
1
 50
0
  1
15.5
  0
LINE
  8
_0-1_レイヤ_2
  6
CONTINUOUS
 62
    7
 10
70.33729744867216
 20
833.71265448856456
 11
85.837297448672217
 21
833.71265448856456
  0
LINE
  8
_0-1_レイヤ_2
  6
CONTINUOUS
 62
    7
 10
70.33729744867216
 20
833.71265448856456
 11
73.235074927539386
 21
834.48911162387219
  0
LINE
  8
_0-1_レイヤ_2
  6
CONTINUOUS
 62
    7
 10
70.33729744867216
 20
833.71265448856456
 11
73.235074927539386
 21
832.93619735325694
  0
LINE
  8
_0-1_レイヤ_2
  6
CONTINUOUS
 62
    7
 10
85.837297448672217
 20
833.71265448856456
 11
82.93951996980499
 21
832.93619735325694
  0
LINE
  8
_0-1_レイヤ_2
  6
CONTINUOUS
 62
    7
 10
85.837297448672217
 20
833.71265448856456
 11
82.93951996980499
 21
834.48911162387219
  0
LINE
  8
_0-1_レイヤ_2
  6
CONTINUOUS
 62
    7
 10
70.33729744867216
 20
833.71265448856456
 11
70.33729744867216
 21
825.63150566105275
  0
LINE
  8
_0-1_レイヤ_2
  6
CONTINUOUS
 62
    7
 10
85.837297448672217
 20
833.71265448856456
 11
85.837297448672217
 21
825.63150566105275
  0
LINE
  8
_2-1_
  6
CONTINUOUS
 62
    7
 10
77.264486000940252
 20
823.74477224361612
 11
84.302354374040334
 21
823.31431777361615
  0
ARC
  8
_2-1_
  6
CONTINUOUS
 62
    7
 10
75.961512186740293
 20
824.31431777361615
 40
1
 50
270
 51
308.38646547690001
  0
ARC
  8
_2-1_
  6
CONTINUOUS
 62
    7
 10
85.505011968240324
 20
813.0756145490161
 40
0.300000000000004
 50
0.2452316935000074
 51
128.62342378690001
  0
ARC
  8
_2-1_
  6
CONTINUOUS
 62
    7
 10
84.306173068540289
 20
812.80176938881606
 40
1.500000000000017
 50
273.5
 51
0.2452316934999692
  0
ARC
  8
_2-1_
  6
CONTINUOUS
 62
    7
 10
70.602354374040288
 20
810.95652528521611
 40
0.3000000000000114
 50
180
 51
270
  0
ARC
  8
_2-1_
  6
CONTINUOUS
 62
    7
 10
70.602354374040288
 20
824.85652528521609
 40
0.3000000000000114
 50
90
 51
180
  0
ARC
  8
_2-1_
  6
CONTINUOUS
 62
    7
 10
84.302354374040334
 20
823.01151474311609
 40
1.5000000000000035
 50
0
 51
86.5
  0
ARC
  8
_2-1_
  6
CONTINUOUS
 62
    7
 10
85.502354374040379
 20
822.83931942501612
 40
0.300000000000006
 50
234.96329735159997
 51
359.99999999999994
  0
ARC
  8
_2-1_
  6
CONTINUOUS
 62
    7
 10
77.203437461440245
 20
822.74663744521615
 40
1.0000000000000071
 50
86.499999999999985
 51
128.38646547689998
  0
ARC
  8
_2-1_
  6
CONTINUOUS
 62
    7
 10
73.502354374040265
 20
822.70652528521611
 40
0.3000000000000396
 50
270
 51
0
  0
ARC
  8
_2-1_
  6
CONTINUOUS
 62
    7
 10
71.952354374040311
 20
822.10652528521609
 40
0.3000000000000114
 50
90
 51
180
  0
ARC
  8
_2-1_
  6
CONTINUOUS
 62
    7
 10
71.952354374040311
 20
813.70652528521611
 40
0.3000000000000114
 50
180
 51
270
  0
ARC
  8
_2-1_
  6
CONTINUOUS
 62
    7
 10
73.502354374040265
 20
813.10652528521609
 40
0.3000000000000396
 50
0
 51
90
  0
ARC
  8
_2-1_
  6
CONTINUOUS
 62
    7
 10
75.961512186740293
 20
811.49873279681605
 40
1
 50
51.613534523099978
 51
90
  0
ARC
  8
_2-1_
  6
CONTINUOUS
 62
    7
 10
77.203437461440245
 20
813.0664131253161
 40
1.0000000000000071
 50
231.61353452310001
 51
273.5
  0
LINE
  8
_2-1_
  6
CONTINUOUS
 62
    7
 10
77.264486000940252
 20
812.06827832681608
 11
84.302354374040334
 21
812.49873279681605
  0
LINE
  8
_2-1_
  6
CONTINUOUS
 62
    7
 10
84.302354374040334
 20
812.49873279681605
 11
85.317752254040357
 21
813.30999415441613
  0
LINE
  8
_2-1_
  6
CONTINUOUS
 62
    7
 10
85.806159329140342
 20
812.80818951991614
 11
85.805009220340281
 21
813.07689857521609
  0
LINE
  8
_2-1_
  6
CONTINUOUS
 62
    7
 10
73.802354374040334
 20
810.65652528521604
 11
84.397745877840321
 21
811.30456719111612
  0
LINE
  8
_2-1_
  6
CONTINUOUS
 62
    7
 10
70.302354374040334
 20
824.85652528521609
 11
70.302354374040334
 21
810.95652528521611
  0
LINE
  8
_2-1_
  6
CONTINUOUS
 62
    7
 10
70.602354374040288
 20
825.15652528521616
 11
73.802354374040334
 21
825.15652528521616
  0
LINE
  8
_2-1_
  6
CONTINUOUS
 62
    7
 10
73.802354374040334
 20
825.15652528521616
 11
84.393927183340366
 21
824.50871694071611
  0
LINE
  8
_2-1_
  6
CONTINUOUS
 62
    7
 10
85.802354374040334
 20
823.01151474311609
 11
85.802354374040334
 21
822.83931942501612
  0
LINE
  8
_2-1_
  6
CONTINUOUS
 62
    7
 10
84.302354374040334
 20
823.31431777361615
 11
85.330124058240272
 21
822.59368408901605
  0
LINE
  8
_2-1_
  6
CONTINUOUS
 62
    7
 10
73.502354374040265
 20
822.40652528521616
 11
71.952354374040311
 21
822.40652528521616
  0
LINE
  8
_2-1_
  6
CONTINUOUS
 62
    7
 10
71.652354374040243
 20
822.10652528521609
 11
71.652354374040243
 21
818.15652528521616
  0
LINE
  8
_2-1_
  6
CONTINUOUS
 62
    7
 10
71.652354374040243
 20
818.15652528521616
 11
71.402354374040243
 21
817.90652528521616
  0
LINE
  8
_2-1_
  6
CONTINUOUS
 62
    7
 10
71.402354374040243
 20
817.90652528521616
 11
71.652354374040243
 21
817.65652528521616
  0
LINE
  8
_2-1_
  6
CONTINUOUS
 62
    7
 10
71.652354374040243
 20
817.65652528521616
 11
71.652354374040243
 21
813.70652528521611
  0
LINE
  8
_2-1_
  6
CONTINUOUS
 62
    4
 10
74.850077545435652
 20
812.49873279681605
 11
74.000030464456386
 21
812.49873279681605
  0
LINE
  8
_2-1_
  6
CONTINUOUS
 62
    7
 10
71.952354374040311
 20
813.40652528521604
 11
73.539812277377592
 21
813.40652528521604
  0
LINE
  8
_2-1_
  6
CONTINUOUS
 62
    7
 10
74.039610132706599
 20
810.65652528521604
 11
70.602354374040288
 21
810.65652528521604
  0
LINE
  8
_2-1_
  6
CONTINUOUS
 62
    7
 10
74.102354374040288
 20
823.31431777361615
 11
75.961512186740293
 21
823.31431777361615
  0
LINE
  8
_2-1_
  6
CONTINUOUS
 62
    7
 10
73.802354374040334
 20
823.01431777361608
 11
73.802354374040334
 21
822.70652528521611
  0
ARC
  8
_2-1_
  6
CONTINUOUS
 62
    7
 10
74.102354374040288
 20
823.01431777361608
 40
0.2999999999999998
 50
90
 51
180
  0
LINE
  8
_2-1_
  6
CONTINUOUS
 62
    7
 10
73.802354374040334
 20
812.79873279681612
 11
73.802354374040334
 21
813.1293358400934
  0
LINE
  8
_2-1_
  6
CONTINUOUS
 62
    7
 10
74.102354374040288
 20
812.49873279681605
 11
75.961512186740293
 21
812.49873279681605
  0
ARC
  8
_2-1_
  6
CONTINUOUS
 62
    7
 10
74.102354374040288
 20
812.79873279681612
 40
0.2999999999999998
 50
180
 51
270
  0
LINE
  8
_1-6__0-0_
  6
CENTER1
 62
    7
 10
149.37958497828677
 20
819.91886142704186
 11
149.37958497828677
 21
815.91886142705789
  0
LINE
  8
_1-6__0-0_
  6
CENTER1
 62
    7
 10
309.37958497828674
 20
819.91886142704186
 11
309.37958497828674
 21
815.91886142705789
  0
LINE
  8
_1-6__0-0_
  6
CENTER1
 62
    7
 10
229.37958497828674
 20
819.91886142704186
 11
229.37958497828674
 21
815.91886142705789
  0
LINE
  8
_1-6__0-0_
  6
CENTER1
 62
    7
 10
508.46118659388548
 20
819.91886142704186
 11
508.46118659388548
 21
815.91886142705789
  0
LINE
  8
_1-6__0-0_
  6
CENTER1
 62
    7
 10
428.46118659388548
 20
819.91886142704186
 11
428.46118659388548
 21
815.91886142705789
  0
LINE
  8
_1-6__0-0_
  6
CENTER1
 62
    7
 10
348.46118659388548
 20
819.91886142704186
 11
348.46118659388548
 21
815.91886142705789
  0
LINE
  8
_0-0_レイヤ_1
  6
CONTINUOUS
 62
    7
 10
114.37958497842683
 20
830.26886142701641
 11
114.37958497842683
 21
842.74072377522804
  0
LINE
  8
_0-0_レイヤ_1
  6
CONTINUOUS
 62
    7
 10
114.37958497842683
 20
838.74072377522804
 11
117.27736245729406
 21
839.51718091053555
  0
LINE
  8
_0-0_レイヤ_1
  6
CONTINUOUS
 62
    7
 10
117.27736245729406
 20
837.96426663992042
 11
114.37958497842683
 21
838.74072377522804
  0
LINE
  8
_0-0_レイヤ_1
  6
CONTINUOUS
 62
    7
 10
149.37958497828682
 20
838.74072377522804
 11
146.4818074994196
 21
837.96426663992042
  0
LINE
  8
_0-0_レイヤ_1
  6
CONTINUOUS
 62
    7
 10
146.4818074994196
 20
839.51718091053555
 11
149.37958497828682
 21
838.74072377522804
  0
LINE
  8
_0-0_レイヤ_1
  6
CONTINUOUS
 62
    7
 10
114.37958497842683
 20
838.74072377522804
 11
149.37958497828682
 21
838.74072377522804
  0
LINE
  8
_0-0_レイヤ_1
  6
CONTINUOUS
 62
    7
 10
149.37958497828682
 20
838.74072377522804
 11
152.27736245715399
 21
839.51718091053555
  0
LINE
  8
_0-0_レイヤ_1
  6
CONTINUOUS
 62
    7
 10
152.27736245715399
 20
837.96426663992042
 11
149.37958497828682
 21
838.74072377522804
  0
LINE
  8
_0-0_レイヤ_1
  6
CONTINUOUS
 62
    7
 10
229.3795849782868
 20
838.74072377522804
 11
226.48180749941963
 21
837.96426663992042
  0
LINE
  8
_0-0_レイヤ_1
  6
CONTINUOUS
 62
    7
 10
226.48180749941963
 20
839.51718091053555
 11
229.3795849782868
 21
838.74072377522804
  0
LINE
  8
_0-0_レイヤ_1
  6
CONTINUOUS
 62
    7
 10
149.37958497828682
 20
838.74072377522804
 11
229.3795849782868
 21
838.74072377522804
  0
LINE
  8
_0-0_レイヤ_1
  6
CONTINUOUS
 62
    7
 10
229.3795849782868
 20
838.74072377522804
 11
232.27736245715402
 21
839.51718091053555
  0
LINE
  8
_0-0_レイヤ_1
  6
CONTINUOUS
 62
    7
 10
232.27736245715402
 20
837.96426663992042
 11
229.3795849782868
 21
838.74072377522804
  0
LINE
  8
_0-0_レイヤ_1
  6
CONTINUOUS
 62
    7
 10
309.37958497828685
 20
838.74072377522804
 11
306.48180749941963
 21
837.96426663992042
  0
LINE
  8
_0-0_レイヤ_1
  6
CONTINUOUS
 62
    7
 10
306.48180749941963
 20
839.51718091053555
 11
309.37958497828685
 21
838.74072377522804
  0
LINE
  8
_0-0_レイヤ_1
  6
CONTINUOUS
 62
    7
 10
229.3795849782868
 20
838.74072377522804
 11
309.37958497828685
 21
838.74072377522804
  0
LINE
  8
_0-0_レイヤ_1
  6
CONTINUOUS
 62
    7
 10
309.37958497828685
 20
838.74072377522804
 11
312.27736245715408
 21
839.51718091053555
  0
LINE
  8
_0-0_レイヤ_1
  6
CONTINUOUS
 62
    7
 10
312.27736245715408
 20
837.96426663992042
 11
309.37958497828685
 21
838.74072377522804
  0
LINE
  8
_0-0_レイヤ_1
  6
CONTINUOUS
 62
    7
 10
348.46118659388548
 20
838.74072377522804
 11
345.56340911501825
 21
837.96426663992042
  0
LINE
  8
_0-0_レイヤ_1
  6
CONTINUOUS
 62
    7
 10
345.56340911501825
 20
839.51718091053555
 11
348.46118659388548
 21
838.74072377522804
  0
LINE
  8
_0-0_レイヤ_1
  6
CONTINUOUS
 62
    7
 10
309.37958497828685
 20
838.74072377522804
 11
348.46118659388548
 21
838.74072377522804
  0
LINE
  8
_0-0_レイヤ_1
  6
CONTINUOUS
 62
    7
 10
348.46118659388548
 20
838.74072377522804
 11
351.35896407275276
 21
839.51718091053555
  0
LINE
  8
_0-0_レイヤ_1
  6
CONTINUOUS
 62
    7
 10
351.35896407275276
 20
837.96426663992042
 11
348.46118659388548
 21
838.74072377522804
  0
LINE
  8
_0-0_レイヤ_1
  6
CONTINUOUS
 62
    7
 10
428.46118659388548
 20
838.74072377522804
 11
425.5634091150182
 21
837.96426663992042
  0
LINE
  8
_0-0_レイヤ_1
  6
CONTINUOUS
 62
    7
 10
425.5634091150182
 20
839.51718091053555
 11
428.46118659388548
 21
838.74072377522804
  0
LINE
  8
_0-0_レイヤ_1
  6
CONTINUOUS
 62
    7
 10
348.46118659388548
 20
838.74072377522804
 11
428.46118659388548
 21
838.74072377522804
  0
LINE
  8
_0-0_レイヤ_1
  6
CONTINUOUS
 62
    7
 10
428.46118659388548
 20
838.74072377522804
 11
431.35896407275265
 21
839.51718091053555
  0
LINE
  8
_0-0_レイヤ_1
  6
CONTINUOUS
 62
    7
 10
431.35896407275265
 20
837.96426663992042
 11
428.46118659388548
 21
838.74072377522804
  0
LINE
  8
_0-0_レイヤ_1
  6
CONTINUOUS
 62
    7
 10
508.46118659388548
 20
838.74072377522804
 11
505.56340911501831
 21
837.96426663992042
  0
LINE
  8
_0-0_レイヤ_1
  6
CONTINUOUS
 62
    7
 10
505.56340911501831
 20
839.51718091053555
 11
508.46118659388548
 21
838.74072377522804
  0
LINE
  8
_0-0_レイヤ_1
  6
CONTINUOUS
 62
    7
 10
428.46118659388548
 20
838.74072377522804
 11
508.46118659388548
 21
838.74072377522804
  0
LINE
  8
_0-0_レイヤ_1
  6
CONTINUOUS
 62
    7
 10
543.46118659374542
 20
830.26886142701641
 11
543.46118659374542
 21
842.74072377522804
  0
LINE
  8
_0-0_レイヤ_1
  6
CONTINUOUS
 62
    7
 10
543.46118659374542
 20
838.74072377522804
 11
540.56340911487825
 21
837.96426663992042
  0
LINE
  8
_0-0_レイヤ_1
  6
CONTINUOUS
 62
    7
 10
540.56340911487825
 20
839.51718091053555
 11
543.46118659374542
 21
838.74072377522804
  0
LINE
  8
_0-0_レイヤ_1
  6
CONTINUOUS
 62
    7
 10
508.46118659388548
 20
838.74072377522804
 11
511.35896407275265
 21
839.51718091053555
  0
LINE
  8
_0-0_レイヤ_1
  6
CONTINUOUS
 62
    7
 10
511.35896407275265
 20
837.96426663992042
 11
508.46118659388548
 21
838.74072377522804
  0
LINE
  8
_0-0_レイヤ_1
  6
CONTINUOUS
 62
    7
 10
543.46118659374542
 20
838.74072377522804
 11
508.46118659388548
 21
838.74072377522804
  0
LINE
  8
_0-0_レイヤ_1
  6
CONTINUOUS
 62
    7
 10
114.37958497842689
 20
847.91968379547108
 11
117.27736245729406
 21
848.69614093077871
  0
LINE
  8
_0-0_レイヤ_1
  6
CONTINUOUS
 62
    7
 10
117.27736245729406
 20
847.14322666016357
 11
114.37958497842689
 21
847.91968379547108
  0
LINE
  8
_0-0_レイヤ_1
  6
CONTINUOUS
 62
    7
 10
543.46118659374542
 20
847.91968379547108
 11
540.56340911487825
 21
847.14322666016357
  0
LINE
  8
_0-0_レイヤ_1
  6
CONTINUOUS
 62
    7
 10
540.56340911487825
 20
848.69614093077871
 11
543.46118659374542
 21
847.91968379547108
  0
LINE
  8
_0-0_レイヤ_1
  6
CONTINUOUS
 62
    7
 10
114.37958497842689
 20
847.91968379547108
 11
543.46118659374542
 21
847.91968379547108
  0
LINE
  8
_1-6__0-0_
  6
CONTINUOUS
 62
    7
 10
114.37958497842683
 20
825.16886142695113
 11
114.37958497842683
 21
810.66886142714849
  0
LINE
  8
_0-0_レイヤ_1
  6
CONTINUOUS
 62
    7
 10
543.46118659374542
 20
825.16886142695113
 11
543.46118659374542
 21
810.66886142714849
  0
LINE
  8
_0-0_レイヤ_1
  6
CONTINUOUS
 62
    7
 10
328.62137286583333
 20
825.16886142695113
 11
328.85231361684077
 21
824.74804274000928
  0
LINE
  8
_0-0_レイヤ_1
  6
CONTINUOUS
 62
    7
 10
328.85231361684077
 20
824.74804274000928
 11
329.10707394959524
 21
824.26483186615769
  0
LINE
  8
_0-0_レイヤ_1
  6
CONTINUOUS
 62
    7
 10
329.10707394959524
 20
824.26483186615769
 11
329.36270476135109
 21
823.74924465322817
  0
LINE
  8
_0-0_レイヤ_1
  6
CONTINUOUS
 62
    7
 10
329.36270476135109
 20
823.74924465322817
 11
329.60383086859883
 21
823.21721107353573
  0
LINE
  8
_0-0_レイヤ_1
  6
CONTINUOUS
 62
    7
 10
329.60383086859883
 20
823.21721107353573
 11
329.81609125804948
 21
822.68497234317476
  0
LINE
  8
_0-0_レイヤ_1
  6
CONTINUOUS
 62
    7
 10
329.81609125804948
 20
822.68497234317476
 11
329.98803492454385
 21
822.16830384910997
  0
LINE
  8
_0-0_レイヤ_1
  6
CONTINUOUS
 62
    7
 10
329.98803492454385
 20
822.16830384910997
 11
330.11279784572479
 21
821.68178176199432
  0
LINE
  8
_0-0_レイヤ_1
  6
CONTINUOUS
 62
    7
 10
330.11279784572479
 20
821.68178176199432
 11
330.1891864046513
 21
821.23818639676892
  0
LINE
  8
_0-0_レイヤ_1
  6
CONTINUOUS
 62
    7
 10
330.1891864046513
 20
821.23818639676892
 11
330.22188134724569
 21
820.84811553216752
  0
LINE
  8
_0-0_レイヤ_1
  6
CONTINUOUS
 62
    7
 10
330.22188134724569
 20
820.84811553216752
 11
330.22063910292797
 21
820.51984435697636
  0
LINE
  8
_0-0_レイヤ_1
  6
CONTINUOUS
 62
    7
 10
330.22063910292797
 20
820.51984435697636
 11
330.19857001524951
 21
820.2594230349315
  0
LINE
  8
_0-0_レイヤ_1
  6
CONTINUOUS
 62
    7
 10
330.19857001524951
 20
820.2594230349315
 11
330.16977092298611
 21
820.07095803953257
  0
LINE
  8
_0-0_レイヤ_1
  6
CONTINUOUS
 62
    7
 10
330.16977092298611
 20
820.07095803953257
 11
330.14673734970358
 21
819.95698947919106
  0
LINE
  8
_0-0_レイヤ_1
  6
CONTINUOUS
 62
    7
 10
330.14673734970358
 20
819.95698947919106
 11
330.13804324861132
 21
819.91886142704981
  0
LINE
  8
_0-0_レイヤ_1
  6
CONTINUOUS
 62
    7
 10
330.13804324861132
 20
819.91886142704981
 11
330.12886922433108
 21
819.88084003171695
  0
LINE
  8
_0-0_レイヤ_1
  6
CONTINUOUS
 62
    7
 10
330.12886922433108
 20
819.88084003171695
 11
330.09881922124532
 21
819.7684339937158
  0
LINE
  8
_0-0_レイヤ_1
  6
CONTINUOUS
 62
    7
 10
330.09881922124532
 20
819.7684339937158
 11
330.04105548283621
 21
819.58644468922796
  0
LINE
  8
_0-0_レイヤ_1
  6
CONTINUOUS
 62
    7
 10
330.04105548283621
 20
819.58644468922796
 11
329.94648416637983
 21
819.342330686644
  0
LINE
  8
_0-0_レイヤ_1
  6
CONTINUOUS
 62
    7
 10
329.94648416637983
 20
819.342330686644
 11
329.80660835253138
 21
819.04550073964196
  0
LINE
  8
_0-0_レイヤ_1
  6
CONTINUOUS
 62
    7
 10
329.80660835253138
 20
819.04550073964196
 11
329.6164709901443
 21
818.70651588888472
  0
LINE
  8
_0-0_レイヤ_1
  6
CONTINUOUS
 62
    7
 10
329.6164709901443
 20
818.70651588888472
 11
329.37694950839386
 21
818.33633972628047
  0
LINE
  8
_0-0_レイヤ_1
  6
CONTINUOUS
 62
    7
 10
329.37694950839386
 20
818.33633972628047
 11
329.09581412633156
 21
817.94575421256661
  0
LINE
  8
_0-0_レイヤ_1
  6
CONTINUOUS
 62
    7
 10
329.09581412633156
 20
817.94575421256661
 11
328.78725539588936
 21
817.54501176044243
  0
LINE
  8
_0-0_レイヤ_1
  6
CONTINUOUS
 62
    7
 10
328.78725539588936
 20
817.54501176044243
 11
328.46995258636616
 21
817.14373399590215
  0
LINE
  8
_0-0_レイヤ_1
  6
CONTINUOUS
 62
    7
 10
328.46995258636616
 20
817.14373399590215
 11
328.16410492399427
 21
816.75100811019262
  0
LINE
  8
_0-0_レイヤ_1
  6
CONTINUOUS
 62
    7
 10
328.16410492399427
 20
816.75100811019262
 11
327.88809789178026
 21
816.37558700994725
  0
LINE
  8
_0-0_レイヤ_1
  6
CONTINUOUS
 62
    7
 10
327.88809789178026
 20
816.37558700994725
 11
327.65556630537571
 21
816.02607980836603
  0
LINE
  8
_0-0_レイヤ_1
  6
CONTINUOUS
 62
    7
 10
327.65556630537571
 20
816.02607980836603
 11
327.47352292021207
 21
815.71102866354738
  0
LINE
  8
_0-0_レイヤ_1
  6
CONTINUOUS
 62
    7
 10
327.47352292021207
 20
815.71102866354738
 11
327.34196805744136
 21
815.43880357899126
  0
LINE
  8
_0-0_レイヤ_1
  6
CONTINUOUS
 62
    7
 10
327.34196805744136
 20
815.43880357899126
 11
327.25504296175472
 21
815.21729927673084
  0
LINE
  8
_0-0_レイヤ_1
  6
CONTINUOUS
 62
    7
 10
327.25504296175472
 20
815.21729927673084
 11
327.2034221271441
 21
815.05347439858871
  0
LINE
  8
_0-0_レイヤ_1
  6
CONTINUOUS
 62
    7
 10
327.2034221271441
 20
815.05347439858871
 11
327.17734603194151
 21
814.95281911551023
  0
LINE
  8
_0-0_レイヤ_1
  6
CONTINUOUS
 62
    7
 10
327.17734603194151
 20
814.95281911551023
 11
327.16954628504868
 21
814.91886142704981
  0
LINE
  8
_0-0_レイヤ_1
  6
CONTINUOUS
 62
    7
 10
327.16954628504868
 20
814.91886142704981
 11
327.16224531194188
 21
814.88485282256988
  0
LINE
  8
_0-0_レイヤ_1
  6
CONTINUOUS
 62
    7
 10
327.16224531194188
 20
814.88485282256988
 11
327.14346329964769
 21
814.78345603104696
  0
LINE
  8
_0-0_レイヤ_1
  6
CONTINUOUS
 62
    7
 10
327.14346329964769
 20
814.78345603104696
 11
327.1219695981606
 21
814.61659290945874
  0
LINE
  8
_0-0_レイヤ_1
  6
CONTINUOUS
 62
    7
 10
327.1219695981606
 20
814.61659290945874
 11
327.11051933987732
 21
814.38757122360516
  0
LINE
  8
_0-0_レイヤ_1
  6
CONTINUOUS
 62
    7
 10
327.11051933987732
 20
814.38757122360516
 11
327.12344853541344
 21
814.1012046726579
  0
LINE
  8
_0-0_レイヤ_1
  6
CONTINUOUS
 62
    7
 10
327.12344853541344
 20
814.1012046726579
 11
327.17399339853648
 21
813.76391561571051
  0
LINE
  8
_0-0_レイヤ_1
  6
CONTINUOUS
 62
    7
 10
327.17399339853648
 20
813.76391561571051
 11
327.27184073524449
 21
813.38377336667815
  0
LINE
  8
_0-0_レイヤ_1
  6
CONTINUOUS
 62
    7
 10
327.27184073524449
 20
813.38377336667815
 11
327.42135103107
 21
812.9704287016317
  0
LINE
  8
_0-0_レイヤ_1
  6
CONTINUOUS
 62
    7
 10
327.42135103107
 20
812.9704287016317
 11
327.62074221292266
 21
812.53492188410746
  0
LINE
  8
_0-0_レイヤ_1
  6
CONTINUOUS
 62
    7
 10
327.62074221292266
 20
812.53492188410746
 11
327.86231637472496
 21
812.08936330962637
  0
LINE
  8
_0-0_レイヤ_1
  6
CONTINUOUS
 62
    7
 10
327.86231637472496
 20
812.08936330962637
 11
328.13360106540119
 21
811.64650797288902
  0
LINE
  8
_0-0_レイヤ_1
  6
CONTINUOUS
 62
    7
 10
328.13360106540119
 20
811.64650797288902
 11
328.41910760165001
 21
811.21926259549718
  0
LINE
  8
_0-0_レイヤ_1
  6
CONTINUOUS
 62
    7
 10
328.41910760165001
 20
811.21926259549718
 11
328.70231660753188
 21
810.82017379886167
  0
LINE
  8
_0-0_レイヤ_1
  6
CONTINUOUS
 62
    7
 10
328.70231660753188
 20
810.82017379886167
 11
328.81401659079347
 21
810.66886142714849
  0
LINE
  8
_0-0_レイヤ_1
  6
CONTINUOUS
 62
    7
 10
330.57532023425437
 20
825.16886142695113
 11
330.80626098526181
 21
824.74804274000928
  0
LINE
  8
_0-0_レイヤ_1
  6
CONTINUOUS
 62
    7
 10
330.80626098526181
 20
824.74804274000928
 11
331.06102131801628
 21
824.26483186615769
  0
LINE
  8
_0-0_レイヤ_1
  6
CONTINUOUS
 62
    7
 10
331.06102131801628
 20
824.26483186615769
 11
331.31665212977213
 21
823.74924465322817
  0
LINE
  8
_0-0_レイヤ_1
  6
CONTINUOUS
 62
    7
 10
331.31665212977213
 20
823.74924465322817
 11
331.55777823701987
 21
823.21721107353573
  0
LINE
  8
_0-0_レイヤ_1
  6
CONTINUOUS
 62
    7
 10
331.55777823701987
 20
823.21721107353573
 11
331.77003862647052
 21
822.68497234317476
  0
LINE
  8
_0-0_レイヤ_1
  6
CONTINUOUS
 62
    7
 10
331.77003862647052
 20
822.68497234317476
 11
331.94198229296489
 21
822.16830384910997
  0
LINE
  8
_0-0_レイヤ_1
  6
CONTINUOUS
 62
    7
 10
331.94198229296489
 20
822.16830384910997
 11
332.06674521414583
 21
821.68178176199432
  0
LINE
  8
_0-0_レイヤ_1
  6
CONTINUOUS
 62
    7
 10
332.06674521414583
 20
821.68178176199432
 11
332.14313377307234
 21
821.23818639676892
  0
LINE
  8
_0-0_レイヤ_1
  6
CONTINUOUS
 62
    7
 10
332.14313377307234
 20
821.23818639676892
 11
332.17582871566673
 21
820.84811553216752
  0
LINE
  8
_0-0_レイヤ_1
  6
CONTINUOUS
 62
    7
 10
332.17582871566673
 20
820.84811553216752
 11
332.17458647134901
 21
820.51984435697636
  0
LINE
  8
_0-0_レイヤ_1
  6
CONTINUOUS
 62
    7
 10
332.17458647134901
 20
820.51984435697636
 11
332.15251738367055
 21
820.2594230349315
  0
LINE
  8
_0-0_レイヤ_1
  6
CONTINUOUS
 62
    7
 10
332.15251738367055
 20
820.2594230349315
 11
332.12371829140715
 21
820.07095803953257
  0
LINE
  8
_0-0_レイヤ_1
  6
CONTINUOUS
 62
    7
 10
332.12371829140715
 20
820.07095803953257
 11
332.10068471812462
 21
819.95698947919106
  0
LINE
  8
_0-0_レイヤ_1
  6
CONTINUOUS
 62
    7
 10
332.10068471812462
 20
819.95698947919106
 11
332.09199061703236
 21
819.91886142704981
  0
LINE
  8
_0-0_レイヤ_1
  6
CONTINUOUS
 62
    7
 10
332.09199061703236
 20
819.91886142704981
 11
332.08281659275212
 21
819.88084003171695
  0
LINE
  8
_0-0_レイヤ_1
  6
CONTINUOUS
 62
    7
 10
332.08281659275212
 20
819.88084003171695
 11
332.05276658966636
 21
819.7684339937158
  0
LINE
  8
_0-0_レイヤ_1
  6
CONTINUOUS
 62
    7
 10
332.05276658966636
 20
819.7684339937158
 11
331.99500285125725
 21
819.58644468922796
  0
LINE
  8
_0-0_レイヤ_1
  6
CONTINUOUS
 62
    7
 10
331.99500285125725
 20
819.58644468922796
 11
331.90043153480087
 21
819.342330686644
  0
LINE
  8
_0-0_レイヤ_1
  6
CONTINUOUS
 62
    7
 10
331.90043153480087
 20
819.342330686644
 11
331.76055572095242
 21
819.04550073964196
  0
LINE
  8
_0-0_レイヤ_1
  6
CONTINUOUS
 62
    7
 10
331.76055572095242
 20
819.04550073964196
 11
331.57041835856534
 21
818.70651588888472
  0
LINE
  8
_0-0_レイヤ_1
  6
CONTINUOUS
 62
    7
 10
331.57041835856534
 20
818.70651588888472
 11
331.3308968768149
 21
818.33633972628047
  0
LINE
  8
_0-0_レイヤ_1
  6
CONTINUOUS
 62
    7
 10
331.3308968768149
 20
818.33633972628047
 11
331.0497614947526
 21
817.94575421256661
  0
LINE
  8
_0-0_レイヤ_1
  6
CONTINUOUS
 62
    7
 10
331.0497614947526
 20
817.94575421256661
 11
330.7412027643104
 21
817.54501176044243
  0
LINE
  8
_0-0_レイヤ_1
  6
CONTINUOUS
 62
    7
 10
330.7412027643104
 20
817.54501176044243
 11
330.4238999547872
 21
817.14373399590215
  0
LINE
  8
_0-0_レイヤ_1
  6
CONTINUOUS
 62
    7
 10
330.4238999547872
 20
817.14373399590215
 11
330.11805229241531
 21
816.75100811019262
  0
LINE
  8
_0-0_レイヤ_1
  6
CONTINUOUS
 62
    7
 10
330.11805229241531
 20
816.75100811019262
 11
329.8420452602013
 21
816.37558700994725
  0
LINE
  8
_0-0_レイヤ_1
  6
CONTINUOUS
 62
    7
 10
329.8420452602013
 20
816.37558700994725
 11
329.60951367379675
 21
816.02607980836603
  0
LINE
  8
_0-0_レイヤ_1
  6
CONTINUOUS
 62
    7
 10
329.60951367379675
 20
816.02607980836603
 11
329.42747028863311
 21
815.71102866354738
  0
LINE
  8
_0-0_レイヤ_1
  6
CONTINUOUS
 62
    7
 10
329.42747028863311
 20
815.71102866354738
 11
329.2959154258624
 21
815.43880357899126
  0
LINE
  8
_0-0_レイヤ_1
  6
CONTINUOUS
 62
    7
 10
329.2959154258624
 20
815.43880357899126
 11
329.20899033017576
 21
815.21729927673084
  0
LINE
  8
_0-0_レイヤ_1
  6
CONTINUOUS
 62
    7
 10
329.20899033017576
 20
815.21729927673084
 11
329.15736949556514
 21
815.05347439858871
  0
LINE
  8
_0-0_レイヤ_1
  6
CONTINUOUS
 62
    7
 10
329.15736949556514
 20
815.05347439858871
 11
329.13129340036255
 21
814.95281911551023
  0
LINE
  8
_0-0_レイヤ_1
  6
CONTINUOUS
 62
    7
 10
329.13129340036255
 20
814.95281911551023
 11
329.12349365346972
 21
814.91886142704981
  0
LINE
  8
_0-0_レイヤ_1
  6
CONTINUOUS
 62
    7
 10
329.12349365346972
 20
814.91886142704981
 11
329.11619268036292
 21
814.88485282256988
  0
LINE
  8
_0-0_レイヤ_1
  6
CONTINUOUS
 62
    7
 10
329.11619268036292
 20
814.88485282256988
 11
329.09741066806873
 21
814.78345603104696
  0
LINE
  8
_0-0_レイヤ_1
  6
CONTINUOUS
 62
    7
 10
329.09741066806873
 20
814.78345603104696
 11
329.07591696658164
 21
814.61659290945874
  0
LINE
  8
_0-0_レイヤ_1
  6
CONTINUOUS
 62
    7
 10
329.07591696658164
 20
814.61659290945874
 11
329.06446670829836
 21
814.38757122360516
  0
LINE
  8
_0-0_レイヤ_1
  6
CONTINUOUS
 62
    7
 10
329.06446670829836
 20
814.38757122360516
 11
329.07739590383448
 21
814.1012046726579
  0
LINE
  8
_0-0_レイヤ_1
  6
CONTINUOUS
 62
    7
 10
329.07739590383448
 20
814.1012046726579
 11
329.12794076695752
 21
813.76391561571051
  0
LINE
  8
_0-0_レイヤ_1
  6
CONTINUOUS
 62
    7
 10
329.12794076695752
 20
813.76391561571051
 11
329.22578810366553
 21
813.38377336667815
  0
LINE
  8
_0-0_レイヤ_1
  6
CONTINUOUS
 62
    7
 10
329.22578810366553
 20
813.38377336667815
 11
329.37529839949104
 21
812.9704287016317
  0
LINE
  8
_0-0_レイヤ_1
  6
CONTINUOUS
 62
    7
 10
329.37529839949104
 20
812.9704287016317
 11
329.5746895813437
 21
812.53492188410746
  0
LINE
  8
_0-0_レイヤ_1
  6
CONTINUOUS
 62
    7
 10
329.5746895813437
 20
812.53492188410746
 11
329.816263743146
 21
812.08936330962637
  0
LINE
  8
_0-0_レイヤ_1
  6
CONTINUOUS
 62
    7
 10
329.816263743146
 20
812.08936330962637
 11
330.08754843382223
 21
811.64650797288902
  0
LINE
  8
_0-0_レイヤ_1
  6
CONTINUOUS
 62
    7
 10
330.08754843382223
 20
811.64650797288902
 11
330.37305497007105
 21
811.21926259549718
  0
LINE
  8
_0-0_レイヤ_1
  6
CONTINUOUS
 62
    7
 10
330.37305497007105
 20
811.21926259549718
 11
330.65626397595292
 21
810.82017379886167
  0
LINE
  8
_0-0_レイヤ_1
  6
CONTINUOUS
 62
    7
 10
330.65626397595292
 20
810.82017379886167
 11
330.76796395921451
 21
810.66886142714849
  0
LINE
  8
_0-0_レイヤ_1
  6
CONTINUOUS
 62
    7
 10
543.46118659374542
 20
810.66886142714849
 11
330.76796395921451
 21
810.66886142714849
  0
LINE
  8
_0-0_レイヤ_1
  6
CONTINUOUS
 62
    7
 10
328.81401659079347
 20
810.66886142714849
 11
114.37958497842683
 21
810.66886142714849
  0
LINE
  8
_0-0_レイヤ_1
  6
CONTINUOUS
 62
    7
 10
543.46118659374542
 20
811.25690560950999
 11
330.34790004244996
 21
811.25690560950999
  0
LINE
  8
_0-0_レイヤ_1
  6
CONTINUOUS
 62
    7
 10
328.39395267402892
 20
811.25690560950999
 11
114.37958497842683
 21
811.25690560950999
  0
LINE
  8
_0-0_レイヤ_1
  6
CONTINUOUS
 62
    7
 10
543.46118659374542
 20
813.41886142714849
 11
329.2167565548807
 21
813.41886142714849
  0
LINE
  8
_0-0_レイヤ_1
  6
CONTINUOUS
 62
    7
 10
327.26280918645966
 20
813.41886142714849
 11
114.37958497842683
 21
813.41886142714849
  0
LINE
  8
_0-0_レイヤ_1
  6
CONTINUOUS
 62
    7
 10
543.46118659374542
 20
813.22502111400319
 11
329.28321014940001
 21
813.22502111400319
  0
LINE
  8
_0-0_レイヤ_1
  6
CONTINUOUS
 62
    7
 10
327.32926278097897
 20
813.22502111400319
 11
114.37958497842683
 21
813.22502111400319
  0
LINE
  8
_0-0_レイヤ_1
  6
CONTINUOUS
 62
    7
 10
543.46118659374542
 20
825.16886142695113
 11
330.57532023425437
 21
825.16886142695113
  0
LINE
  8
_0-0_レイヤ_1
  6
CONTINUOUS
 62
    7
 10
328.62137286583333
 20
825.16886142695113
 11
114.37958497842683
 21
825.16886142695113
  0
LINE
  8
_0-0_レイヤ_1
  6
CONTINUOUS
 62
    7
 10
543.46118659374542
 20
824.58081724458975
 11
330.89442626705385
 21
824.58081724458975
  0
LINE
  8
_0-0_レイヤ_1
  6
CONTINUOUS
 62
    7
 10
328.94047889863281
 20
824.58081724458975
 11
114.37958497842683
 21
824.58081724458975
  0
LINE
  8
_0-0_レイヤ_1
  6
CONTINUOUS
 62
    7
 10
543.46118659374542
 20
822.61270174009655
 11
331.79408977844855
 21
822.61270174009655
  0
LINE
  8
_0-0_レイヤ_1
  6
CONTINUOUS
 62
    7
 10
329.84014241002751
 20
822.61270174009655
 11
114.37958497842683
 21
822.61270174009655
  0
LINE
  8
_0-0_レイヤ_1
  6
CONTINUOUS
 62
    7
 10
543.46118659374542
 20
822.41886142695113
 11
331.85859848091354
 21
822.41886142695113
  0
LINE
  8
_0-0_レイヤ_1
  6
CONTINUOUS
 62
    7
 10
329.9046511124925
 20
822.41886142695113
 11
114.37958497842683
 21
822.41886142695113
  0
CIRCLE
  8
_0-0_レイヤ_1
  6
CONTINUOUS
 62
    7
 10
149.37958497828677
 20
817.91886142704981
 40
2.25
  0
CIRCLE
  8
_0-0_レイヤ_1
  6
CONTINUOUS
 62
    7
 10
229.37958497828674
 20
817.91886142704981
 40
2.25
  0
CIRCLE
  8
_0-0_レイヤ_1
  6
CONTINUOUS
 62
    7
 10
309.37958497828674
 20
817.91886142704981
 40
2.25
  0
CIRCLE
  8
_0-0_レイヤ_1
  6
CONTINUOUS
 62
    7
 10
348.46118659388548
 20
817.91886142704981
 40
2.25
  0
CIRCLE
  8
_0-0_レイヤ_1
  6
CONTINUOUS
 62
    7
 10
428.46118659388548
 20
817.91886142704981
 40
2.25
  0
CIRCLE
  8
_0-0_レイヤ_1
  6
CONTINUOUS
 62
    7
 10
508.46118659388548
 20
817.91886142704981
 40
2.25
  0
LINE
  8
_0-0_レイヤ_1
  6
CONTINUOUS
 62
    7
 10
307.93602023028859
 20
816.19299329236025
 11
307.10577247613036
 21
813.31016678583659
  0
LINE
  8
_0-0_レイヤ_1
  6
CONTINUOUS
 62
    7
 10
305.77559133049078
 20
814.11151618008682
 11
307.93602023028859
 21
816.19299329236025
  0
LINE
  8
_0-0_レイヤ_1
  6
CONTINUOUS
 62
    7
 10
307.93602023028859
 20
816.19299329236025
 11
296.48240505527598
 21
797.1808332226941
  0
LINE
  8
_0-0_レイヤ_1
  6
CONTINUOUS
 62
    7
 10
296.48240505527598
 20
797.1808332226941
 11
334.34494213033394
 21
797.1808332226941
  0
LINE
  8
_1-5_0
  6
CENTER1
 62
    7
 10
112.9860616542962
 20
817.91886142704981
 11
545.20934859617022
 21
817.91886142704981
  0
LINE
  8
_0-0_レイヤ_1
  6
CONTINUOUS
 62
    7
 10
543.46118659374542
 20
818.16886139454129
 11
510.69725457501988
 21
818.16886139454129
  0
LINE
  8
_0-0_レイヤ_1
  6
CONTINUOUS
 62
    7
 10
543.46118659374542
 20
817.66886163847527
 11
510.6972545950233
 21
817.66886163847527
  0
LINE
  8
_0-0_レイヤ_1
  6
CONTINUOUS
 62
    7
 10
506.22511861275108
 20
818.16886139454129
 11
430.69725457501976
 21
818.16886139454129
  0
LINE
  8
_0-0_レイヤ_1
  6
CONTINUOUS
 62
    7
 10
506.22511859274766
 20
817.66886163847527
 11
430.6972545950233
 21
817.66886163847527
  0
LINE
  8
_0-0_レイヤ_1
  6
CONTINUOUS
 62
    7
 10
426.22511861275108
 20
818.16886139454129
 11
350.69725457501988
 21
818.16886139454129
  0
LINE
  8
_0-0_レイヤ_1
  6
CONTINUOUS
 62
    7
 10
346.2251186127512
 20
818.16886139454129
 11
331.21034943425109
 21
818.16886139454129
  0
LINE
  8
_0-0_レイヤ_1
  6
CONTINUOUS
 62
    7
 10
426.22511859274766
 20
817.66886163847527
 11
350.69725459502342
 21
817.66886163847527
  0
LINE
  8
_0-0_レイヤ_1
  6
CONTINUOUS
 62
    7
 10
346.22511859274766
 20
817.66886163847527
 11
330.8365631658068
 21
817.66886163847527
  0
LINE
  8
_0-0_レイヤ_1
  6
CONTINUOUS
 62
    7
 10
329.25640206583005
 20
818.16886139454129
 11
311.61565295942114
 21
818.16886139454129
  0
LINE
  8
_0-0_レイヤ_1
  6
CONTINUOUS
 62
    7
 10
328.88261579738576
 20
817.66886163847527
 11
311.61565297942456
 21
817.66886163847527
  0
LINE
  8
_0-0_レイヤ_1
  6
CONTINUOUS
 62
    7
 10
307.14351699715234
 20
818.16886139454129
 11
231.61565295942114
 21
818.16886139454129
  0
LINE
  8
_0-0_レイヤ_1
  6
CONTINUOUS
 62
    7
 10
307.14351697714891
 20
817.66886163847527
 11
231.61565297942456
 21
817.66886163847527
  0
LINE
  8
_0-0_レイヤ_1
  6
CONTINUOUS
 62
    7
 10
227.14351697714891
 20
817.66886163847527
 11
151.61565297942459
 21
817.66886163847527
  0
LINE
  8
_0-0_レイヤ_1
  6
CONTINUOUS
 62
    7
 10
147.14351697714889
 20
817.66886163847527
 11
114.37958497842683
 21
817.66886163847527
  0
LINE
  8
_0-0_レイヤ_1
  6
CONTINUOUS
 62
    7
 10
227.14351699715234
 20
818.16886139454129
 11
151.61565295942111
 21
818.16886139454129
  0
LINE
  8
_0-0_レイヤ_1
  6
CONTINUOUS
 62
    7
 10
147.14351699715237
 20
818.16886139454129
 11
114.37958497842683
 21
818.16886139454129
  0
TEXT
  8
_0-0_レイヤ_1
 62
    7
 10
320.99369661091304
 20
848.59651192109038
 40
6
 41
1
 50
0
  1
L寸法
  0
TEXT
  8
_0-0_レイヤ_1
 62
    7
 10
130.3864859847271
 20
839.37239216566138
 40
6
 41
1
 50
0
  1
A
  0
TEXT
  8
_0-0_レイヤ_1
 62
    7
 10
187.76789015930012
 20
838.66397976844439
 40
6
 41
1
 50
0
  1
B
  0
TEXT
  8
_0-0_レイヤ_1
 62
    7
 10
267.62170982336652
 20
838.19170483696655
 40
6
 41
1
 50
0
  1
B
  0
TEXT
  8
_0-0_レイヤ_1
 62
    7
 10
327.48911676224719
 20
838.7295735089275
 40
6
 41
1
 50
0
  1
B
  0
TEXT
  8
_0-0_レイヤ_1
 62
    7
 10
386.90392689179481
 20
838.78204850131385
 40
6
 41
1
 50
0
  1
B
  0
TEXT
  8
_0-0_レイヤ_1
 62
    7
 10
467.09883400637306
 20
838.76892975321732
 40
6
 41
1
 50
0
  1
B
  0
TEXT
  8
_0-0_レイヤ_1
 62
    7
 10
524.71637564668515
 20
838.45407979889864
 40
6
 41
1
 50
0
  1
A
  0
TEXT
  8
_0-0_レイヤ_1
 62
    7
 10
299.11326462927934
 20
797.37490659237994
 40
6
 41
1
 50
0
  1
φ4.5貫通穴
  0
LINE
  8
_a-0_
  6
CONTINUOUS
 62
    7
 10
254.70412923177738
 20
789.03857071423885
 11
254.70412923177738
 21
703.53857071423863
  0
LINE
  8
_a-0_
  6
CONTINUOUS
 62
    7
 10
300.35886101315463
 20
789.03857071423885
 11
300.35886101315463
 21
703.79465624055501
  0
LINE
  8
_a-0_
  6
CONTINUOUS
 62
    7
 10
145.64004775404484
 20
789.03857071423885
 11
145.64004775404484
 21
703.53857071423863
  0
TEXT
  8
_a-0_
 62
    7
 10
258.92641211665858
 20
721.81974143994182
 40
12
 41
1.0000000000000006
 50
0
  1
1450
  0
TEXT
  8
_a-0_
 62
    7
 10
258.92641211665858
 20
705.24723673184394
 40
12
 41
1.0000000000000006
 50
0
  1
1950
  0
LINE
  8
_a-0_
  6
CONTINUOUS
 62
    7
 10
158.04646201220333
 20
784.70078884397798
 11
153.54647727099239
 21
775.70078479086214
  0
LINE
  8
_a-0_
  6
CONTINUOUS
 62
    7
 10
153.54647727099239
 20
775.70078479086214
 11
162.54646201220333
 21
775.70078479086214
  0
LINE
  8
_a-0_
  6
CONTINUOUS
 62
    7
 10
158.04646201220333
 20
784.70078884397798
 11
162.54646201220333
 21
775.70078479086214
  0
TEXT
  8
_a-0_
 62
    7
 10
155.17910702229139
 20
775.43722458551621
 40
6
 41
2
 50
0
  1
1
  0
LINE
  8
_a-0_
  6
CONTINUOUS
 62
    7
 10
350.87710483877651
 20
789.03857071423885
 11
350.87710483877651
 21
703.53857071423863
  0
LINE
  8
_a-0_
  6
CONTINUOUS
 62
    7
 10
402.66133640857515
 20
789.03857071423885
 11
402.66133640857515
 21
703.53857071423863
  0
LINE
  8
_a-0_
  6
CONTINUOUS
 62
    7
 10
448.3160681899526
 20
789.03857071423885
 11
448.3160681899526
 21
703.53857071423863
  0
TEXT
  8
_a-0_
 62
    7
 10
363.7265224996845
 20
773.82122123658018
 40
12
 41
1
 50
0
  1
B寸法
  0
TEXT
  8
_a-0_
 62
    7
 10
413.78766523634908
 20
773.76218687014545
 40
12
 41
1
 50
0
  1
穴数
  0
LINE
  8
_a-0_
  6
CONTINUOUS
 62
    7
 10
145.64004775404484
 20
789.03857071423885
 11
534.24344789330575
 21
789.03857071423885
  0
LINE
  8
_a-0_
  6
CONTINUOUS
 62
    7
 10
145.64004775404484
 20
771.93857071423883
 11
534.24344789330575
 21
771.93857071423883
  0
LINE
  8
_a-0_
  6
CONTINUOUS
 62
    7
 10
145.64004775404484
 20
754.83857071423869
 11
534.24344789330575
 21
754.83857071423869
  0
LINE
  8
_a-0_
  6
CONTINUOUS
 62
    7
 10
145.64004775404484
 20
737.73857071423867
 11
534.24344789330575
 21
737.73857071423867
  0
LINE
  8
_a-0_
  6
CONTINUOUS
 62
    7
 10
145.64004775404484
 20
720.63857071423865
 11
534.24344789330575
 21
720.63857071423865
  0
LINE
  8
_a-0_
  6
CONTINUOUS
 62
    7
 10
534.24344789330575
 20
789.03857071423885
 11
534.24344789330575
 21
703.53857071423863
  0
LINE
  8
_a-0_
  6
CONTINUOUS
 62
    7
 10
145.64004775404484
 20
703.53857071423863
 11
534.24344789330575
 21
703.53857071423863
  0
LINE
  8
_0-0_レイヤ_1
  6
CONTINUOUS
 62
    7
 10
114.37958497842689
 20
875.20198048836653
 11
250.987387853167
 21
875.20198048836653
  0
TEXT
  8
_0-0_レイヤ_1
 62
    7
 10
114.48859419668539
 20
876.12277907657039
 40
16
 41
1
 50
0
  1
◆ FM-MRLシリーズ
  0
TEXT
  8
_0-0_レイヤ_1
 62
    7
 10
112.8563612453295
 20
666.43671365529382
 40
16
 41
1
 50
0
  1
◆ FM-MC
  0
LINE
  8
_0-0_レイヤ_1
  6
CONTINUOUS
 62
    7
 10
114.37958497842689
 20
665.24396025705846
 11
176.8563612453295
 21
665.24396025705846
  0
LINE
  8
_0-0_レイヤ_1
  6
CONTINUOUS
 62
    7
 10
114.37958497842683
 20
830.26886142701641
 11
114.37958497842689
 21
847.91968379547108
  0
LINE
  8
_0-0_レイヤ_1
  6
CONTINUOUS
 62
    7
 10
149.37958497828677
 20
821.91886142704981
 11
149.37958497828682
 21
838.74072377522804
  0
LINE
  8
_0-0_レイヤ_1
  6
CONTINUOUS
 62
    7
 10
229.37958497828674
 20
821.91886142704981
 11
229.3795849782868
 21
838.74072377522804
  0
LINE
  8
_0-0_レイヤ_1
  6
CONTINUOUS
 62
    7
 10
309.37958497828674
 20
821.91886142704981
 11
309.37958497828685
 21
838.74072377522804
  0
LINE
  8
_0-0_レイヤ_1
  6
CONTINUOUS
 62
    7
 10
348.46118659388548
 20
821.91886142704981
 11
348.46118659388548
 21
838.74072377522804
  0
LINE
  8
_0-0_レイヤ_1
  6
CONTINUOUS
 62
    7
 10
428.46118659388548
 20
821.91886142704981
 11
428.46118659388548
 21
838.74072377522804
  0
LINE
  8
_0-0_レイヤ_1
  6
CONTINUOUS
 62
    7
 10
508.46118659388548
 20
821.91886142704981
 11
508.46118659388548
 21
838.74072377522804
  0
LINE
  8
_0-0_レイヤ_1
  6
CONTINUOUS
 62
    7
 10
543.46118659374542
 20
830.26886142701641
 11
543.46118659374542
 21
847.91968379547108
  0
LINE
  8
_0-0_レイヤ_1
  6
CONTINUOUS
 62
    7
 10
145.64004775404484
 20
591.45584497535094
 11
145.64004775404484
 21
557.25584497535078
  0
LINE
  8
_0-0_レイヤ_1
  6
CONTINUOUS
 62
    7
 10
254.70412923177732
 20
591.45584497535094
 11
254.70412923177738
 21
557.25584497535078
  0
LINE
  8
_0-0_レイヤ_1
  6
CONTINUOUS
 62
    7
 10
145.64004775404484
 20
591.45584497535094
 11
351.62452076779692
 21
591.45584497535094
  0
LINE
  8
_0-0_レイヤ_1
  6
CONTINUOUS
 62
    7
 10
145.64004775404484
 20
574.35584497535091
 11
351.62452076779692
 21
574.35584497535091
  0
LINE
  8
_0-0_レイヤ_1
  6
CONTINUOUS
 62
    7
 10
351.62452076779692
 20
591.45584497535094
 11
351.62452076779692
 21
557.25584497535078
  0
LINE
  8
_0-0_レイヤ_1
  6
CONTINUOUS
 62
    7
 10
145.64004775404484
 20
557.25584497535078
 11
351.62452076779692
 21
557.25584497535078
  0
TEXT
  8
_a-0_
 62
    7
 10
188.17208849291111
 20
773.79170405336276
 40
11.999999999999992
 41
1.0000000000000006
 50
0
  1
型式
  0
TEXT
  8
_a-0_
 62
    7
 10
161.67208849291111
 20
719.99995887129409
 40
14
 41
1.0000000000000002
 50
0
  1
FM-MRL-1450
  0
TEXT
  8
_a-0_
 62
    7
 10
161.67208849291111
 20
703.68819369634138
 40
13.999999999999998
 41
1
 50
0
  1
FM-MRL-1950
  0
TEXT
  8
_a-0_
 62
    7
 10
287.61054959889133
 20
712.29668919749235
 40
8
 41
0.9999999999999982
 50
0
  1
+0
  0
TEXT
  8
_a-0_
 62
    7
 10
287.61054959889133
 20
703.67898674928142
 40
8
 41
1
 50
0
  1
-5
  0
TEXT
  8
_a-0_
 62
    7
 10
287.61054959889133
 20
720.62590730448812
 40
7.9999999999999982
 41
1.0000000000000019
 50
0
  1
-4
  0
TEXT
  8
_a-0_
 62
    7
 10
287.61054959889133
 20
729.18836807033881
 40
8
 41
1.0000000000000017
 50
0
  1
+0
  0
TEXT
  8
_a-0_
 62
    7
 10
262.53149512246602
 20
773.34894630510223
 40
12
 41
0.9999999999999998
 50
0
  1
L寸法
  0
TEXT
  8
_a-0_
 62
    7
 10
161.67208849291111
 20
737.16465320669919
 40
14
 41
0.9999999999999997
 50
0
  1
FM-MRL-950
  0
TEXT
  8
_a-0_
 62
    7
 10
161.67208849291111
 20
754.53834012188713
 40
14
 41
0.9999999999999997
 50
0
  1
FM-MRL-450
  0
TEXT
  8
_a-0_
 62
    7
 10
285.3565249722302
 20
745.87749410786409
 40
8
 41
0.9999999999999982
 50
0
  1
+0
  0
TEXT
  8
_a-0_
 62
    7
 10
285.3565249722302
 20
754.49519655607502
 40
7.9999999999999964
 41
1.0000000000000004
 50
0
  1
-2
  0
TEXT
  8
_a-0_
 62
    7
 10
285.3565249722302
 20
763.00241563956524
 40
8
 41
1.0000000000000017
 50
0
  1
+0
  0
TEXT
  8
_a-0_
 62
    7
 10
262.6723874899975
 20
756.37341375632604
 40
12
 41
1
 50
0
  1
450
  0
TEXT
  8
_a-0_
 62
    7
 10
262.6723874899975
 20
738.64083371866126
 40
12
 41
1
 50
0
  1
950
  0
TEXT
  8
_a-0_
 62
    7
 10
285.3565249722302
 20
737.57282785969493
 40
8
 41
1.0000000000000017
 50
0
  1
-3
  0
TEXT
  8
_a-0_
 62
    7
 10
310.61798292596557
 20
773.82122123658018
 40
12
 41
0.9999999999999996
 50
0
  1
A寸法
  0
TEXT
  8
_0-1_レイヤ_2
 62
    7
 10
56.229082514576703
 20
811.16886142734585
 40
6
 41
1
 50
90
  1
14.5
  0
LINE
  8
_0-1_レイヤ_2
  6
CONTINUOUS
 62
    7
 10
57.229082514576703
 20
825.16886142695113
 11
57.229082514576703
 21
810.66886142774058
  0
LINE
  8
_0-1_レイヤ_2
  6
CONTINUOUS
 62
    7
 10
57.229082514576703
 20
825.16886142695113
 11
58.005539649884269
 21
822.27108394808396
  0
LINE
  8
_0-1_レイヤ_2
  6
CONTINUOUS
 62
    7
 10
57.229082514576703
 20
825.16886142695113
 11
56.452625379269136
 21
822.27108394808396
  0
LINE
  8
_0-1_レイヤ_2
  6
CONTINUOUS
 62
    7
 10
57.229082514576703
 20
810.66886142774058
 11
56.452625379269136
 21
813.56663890660774
  0
LINE
  8
_0-1_レイヤ_2
  6
CONTINUOUS
 62
    7
 10
57.229082514576703
 20
810.66886142774058
 11
58.005539649884269
 21
813.56663890660774
  0
LINE
  8
_2-0_
  6
CONTINUOUS
 62
    4
 10
64.774754970212853
 20
822.40652528521604
 11
64.774754970212853
 21
813.40652528521616
  0
LINE
  8
_2-0_
  6
CONTINUOUS
 62
    4
 10
64.774754970212853
 20
822.40652528521604
 11
65.55121210552042
 21
819.50874780634887
  0
LINE
  8
_2-0_
  6
CONTINUOUS
 62
    4
 10
64.774754970212853
 20
822.40652528521604
 11
63.998297834905287
 21
819.50874780634887
  0
LINE
  8
_2-0_
  6
CONTINUOUS
 62
    4
 10
64.774754970212853
 20
813.40652528521616
 11
63.998297834905287
 21
816.30430276408333
  0
LINE
  8
_2-0_
  6
CONTINUOUS
 62
    4
 10
64.774754970212853
 20
813.40652528521616
 11
65.55121210552042
 21
816.30430276408333
  0
LINE
  8
_2-0_
  6
CONTINUOUS
 62
    4
 10
64.774754970212853
 20
822.40652528521604
 11
71.301450575440043
 21
822.40652528521604
  0
LINE
  8
_2-0_
  6
CONTINUOUS
 62
    4
 10
64.774754970212853
 20
813.40652528521616
 11
71.301450575440043
 21
813.40652528521616
  0
TEXT
  8
_2-0_
 62
    7
 10
64.117546024386001
 20
816.65652528521604
 40
5
 41
1
 50
90
  1
9
  0
LINE
  8
_0-1_レイヤ_2
  6
CONTINUOUS
 62
    7
 10
57.229082514576703
 20
825.16886142695113
 11
69.901857066149602
 21
825.16886142695113
  0
LINE
  8
_0-1_レイヤ_2
  6
CONTINUOUS
 62
    7
 10
57.229082514576703
 20
810.66886142774058
 11
69.901857066149602
 21
810.66886142774058
  0
LINE
  8
_0-0_レイヤ_1
  6
CENTER2
 62
    7
 10
151.71161285621994
 20
621.11143429688388
 11
133.57865970769418
 21
621.11143429688388
  0
TEXT
  8
_0-1_レイヤ_2
 62
    7
 10
136.8425200773025
 20
637.90522735839863
 40
6
 41
1
 50
0
  1
15.5
  0
LINE
  8
_0-1_レイヤ_2
  6
CONTINUOUS
 62
    7
 10
135.84252007730245
 20
636.90522735839863
 11
151.3425200773025
 21
636.90522735839863
  0
LINE
  8
_0-1_レイヤ_2
  6
CONTINUOUS
 62
    7
 10
135.84252007730245
 20
636.90522735839863
 11
138.74029755616967
 21
637.68168449370625
  0
LINE
  8
_0-1_レイヤ_2
  6
CONTINUOUS
 62
    7
 10
135.84252007730245
 20
636.90522735839863
 11
138.74029755616967
 21
636.128770223091
  0
LINE
  8
_0-1_レイヤ_2
  6
CONTINUOUS
 62
    7
 10
151.3425200773025
 20
636.90522735839863
 11
148.44474259843528
 21
636.128770223091
  0
LINE
  8
_0-1_レイヤ_2
  6
CONTINUOUS
 62
    7
 10
151.3425200773025
 20
636.90522735839863
 11
148.44474259843528
 21
637.68168449370625
  0
LINE
  8
_0-1_レイヤ_2
  6
CONTINUOUS
 62
    7
 10
135.84252007730245
 20
636.90522735839863
 11
135.84252007730245
 21
628.82407853088682
  0
LINE
  8
_0-1_レイヤ_2
  6
CONTINUOUS
 62
    7
 10
151.3425200773025
 20
636.90522735839863
 11
151.3425200773025
 21
628.82407853088682
  0
LINE
  8
_2-1_
  6
CONTINUOUS
 62
    7
 10
142.76970862957054
 20
626.93734511345019
 11
149.80757700267062
 21
626.50689064345021
  0
ARC
  8
_2-1_
  6
CONTINUOUS
 62
    7
 10
141.46673481537058
 20
627.50689064345021
 40
1
 50
270
 51
308.38646547690001
  0
ARC
  8
_2-1_
  6
CONTINUOUS
 62
    7
 10
151.01023459687061
 20
616.26818741885017
 40
0.300000000000004
 50
0.2452316935000074
 51
128.62342378690001
  0
ARC
  8
_2-1_
  6
CONTINUOUS
 62
    7
 10
149.81139569717058
 20
615.99434225865013
 40
1.500000000000017
 50
273.5
 51
0.2452316934999692
  0
ARC
  8
_2-1_
  6
CONTINUOUS
 62
    7
 10
136.10757700267058
 20
614.14909815505018
 40
0.3000000000000114
 50
180
 51
270
  0
ARC
  8
_2-1_
  6
CONTINUOUS
 62
    7
 10
136.10757700267058
 20
628.04909815505016
 40
0.3000000000000114
 50
90
 51
180
  0
ARC
  8
_2-1_
  6
CONTINUOUS
 62
    7
 10
149.80757700267062
 20
626.20408761295016
 40
1.5000000000000035
 50
0
 51
86.5
  0
ARC
  8
_2-1_
  6
CONTINUOUS
 62
    7
 10
151.00757700267067
 20
626.03189229485019
 40
0.300000000000006
 50
234.96329735159997
 51
359.99999999999994
  0
ARC
  8
_2-1_
  6
CONTINUOUS
 62
    7
 10
142.70866009007053
 20
625.93921031505021
 40
1.0000000000000071
 50
86.499999999999985
 51
128.38646547689998
  0
ARC
  8
_2-1_
  6
CONTINUOUS
 62
    7
 10
139.00757700267055
 20
625.89909815505018
 40
0.3000000000000396
 50
270
 51
0
  0
ARC
  8
_2-1_
  6
CONTINUOUS
 62
    7
 10
137.4575770026706
 20
625.29909815505016
 40
0.3000000000000114
 50
90
 51
180
  0
ARC
  8
_2-1_
  6
CONTINUOUS
 62
    7
 10
137.4575770026706
 20
616.89909815505018
 40
0.3000000000000114
 50
180
 51
270
  0
ARC
  8
_2-1_
  6
CONTINUOUS
 62
    7
 10
139.00757700267055
 20
616.29909815505016
 40
0.3000000000000396
 50
0
 51
90
  0
ARC
  8
_2-1_
  6
CONTINUOUS
 62
    7
 10
141.46673481537058
 20
614.69130566665012
 40
1
 50
51.613534523099978
 51
90
  0
ARC
  8
_2-1_
  6
CONTINUOUS
 62
    7
 10
142.70866009007053
 20
616.25898599515016
 40
1.0000000000000071
 50
231.61353452310001
 51
273.5
  0
LINE
  8
_2-1_
  6
CONTINUOUS
 62
    7
 10
142.76970862957054
 20
615.26085119665015
 11
149.80757700267062
 21
615.69130566665012
  0
LINE
  8
_2-1_
  6
CONTINUOUS
 62
    7
 10
149.80757700267062
 20
615.69130566665012
 11
150.82297488267064
 21
616.50256702425019
  0
LINE
  8
_2-1_
  6
CONTINUOUS
 62
    7
 10
151.31138195777063
 20
616.0007623897502
 11
151.31023184897057
 21
616.26947144505015
  0
LINE
  8
_2-1_
  6
CONTINUOUS
 62
    7
 10
139.30757700267062
 20
613.84909815505011
 11
149.90296850647061
 21
614.49714006095018
  0
LINE
  8
_2-1_
  6
CONTINUOUS
 62
    7
 10
135.80757700267062
 20
628.04909815505016
 11
135.80757700267062
 21
614.14909815505018
  0
LINE
  8
_2-1_
  6
CONTINUOUS
 62
    7
 10
136.10757700267058
 20
628.34909815505022
 11
139.30757700267062
 21
628.34909815505022
  0
LINE
  8
_2-1_
  6
CONTINUOUS
 62
    7
 10
139.30757700267062
 20
628.34909815505022
 11
149.89914981197065
 21
627.70128981055017
  0
LINE
  8
_2-1_
  6
CONTINUOUS
 62
    7
 10
151.30757700267062
 20
626.20408761295016
 11
151.30757700267062
 21
626.03189229485019
  0
LINE
  8
_2-1_
  6
CONTINUOUS
 62
    7
 10
149.80757700267062
 20
626.50689064345021
 11
150.83534668687056
 21
625.78625695885011
  0
LINE
  8
_2-1_
  6
CONTINUOUS
 62
    7
 10
139.00757700267055
 20
625.59909815505022
 11
137.4575770026706
 21
625.59909815505022
  0
LINE
  8
_2-1_
  6
CONTINUOUS
 62
    7
 10
137.15757700267053
 20
625.29909815505016
 11
137.15757700267053
 21
621.34909815505022
  0
LINE
  8
_2-1_
  6
CONTINUOUS
 62
    7
 10
137.15757700267053
 20
621.34909815505022
 11
136.90757700267053
 21
621.09909815505022
  0
LINE
  8
_2-1_
  6
CONTINUOUS
 62
    7
 10
136.90757700267053
 20
621.09909815505022
 11
137.15757700267053
 21
620.84909815505022
  0
LINE
  8
_2-1_
  6
CONTINUOUS
 62
    7
 10
137.15757700267053
 20
620.84909815505022
 11
137.15757700267053
 21
616.89909815505018
  0
LINE
  8
_2-1_
  6
CONTINUOUS
 62
    4
 10
140.35530017406594
 20
615.69130566665012
 11
139.50525309308667
 21
615.69130566665012
  0
LINE
  8
_2-1_
  6
CONTINUOUS
 62
    7
 10
137.4575770026706
 20
616.59909815505011
 11
139.04503490600788
 21
616.59909815505011
  0
LINE
  8
_2-1_
  6
CONTINUOUS
 62
    7
 10
139.54483276133689
 20
613.84909815505011
 11
136.10757700267058
 21
613.84909815505011
  0
LINE
  8
_2-1_
  6
CONTINUOUS
 62
    7
 10
139.60757700267058
 20
626.50689064345021
 11
141.46673481537058
 21
626.50689064345021
  0
LINE
  8
_2-1_
  6
CONTINUOUS
 62
    7
 10
139.30757700267062
 20
626.20689064345015
 11
139.30757700267062
 21
625.89909815505018
  0
ARC
  8
_2-1_
  6
CONTINUOUS
 62
    7
 10
139.60757700267058
 20
626.20689064345015
 40
0.2999999999999998
 50
90
 51
180
  0
LINE
  8
_2-1_
  6
CONTINUOUS
 62
    7
 10
139.30757700267062
 20
615.99130566665019
 11
139.30757700267062
 21
616.32190870992747
  0
LINE
  8
_2-1_
  6
CONTINUOUS
 62
    7
 10
139.60757700267058
 20
615.69130566665012
 11
141.46673481537058
 21
615.69130566665012
  0
ARC
  8
_2-1_
  6
CONTINUOUS
 62
    7
 10
139.60757700267058
 20
615.99130566665019
 40
0.2999999999999998
 50
180
 51
270
  0
TEXT
  8
_0-1_レイヤ_2
 62
    7
 10
121.73430514320699
 20
614.36143429717992
 40
6
 41
1
 50
90
  1
14.5
  0
LINE
  8
_0-1_レイヤ_2
  6
CONTINUOUS
 62
    7
 10
122.73430514320699
 20
628.3614342967852
 11
122.73430514320699
 21
613.86143429757464
  0
LINE
  8
_0-1_レイヤ_2
  6
CONTINUOUS
 62
    7
 10
122.73430514320699
 20
628.3614342967852
 11
123.51076227851456
 21
625.46365681791803
  0
LINE
  8
_0-1_レイヤ_2
  6
CONTINUOUS
 62
    7
 10
122.73430514320699
 20
628.3614342967852
 11
121.95784800789942
 21
625.46365681791803
  0
LINE
  8
_0-1_レイヤ_2
  6
CONTINUOUS
 62
    7
 10
122.73430514320699
 20
613.86143429757464
 11
121.95784800789942
 21
616.75921177644181
  0
LINE
  8
_0-1_レイヤ_2
  6
CONTINUOUS
 62
    7
 10
122.73430514320699
 20
613.86143429757464
 11
123.51076227851456
 21
616.75921177644181
  0
LINE
  8
_2-0_
  6
CONTINUOUS
 62
    4
 10
130.27997759884314
 20
625.59909815505011
 11
130.27997759884314
 21
616.59909815505022
  0
LINE
  8
_2-0_
  6
CONTINUOUS
 62
    4
 10
130.27997759884314
 20
625.59909815505011
 11
131.05643473415071
 21
622.70132067618294
  0
LINE
  8
_2-0_
  6
CONTINUOUS
 62
    4
 10
130.27997759884314
 20
625.59909815505011
 11
129.50352046353557
 21
622.70132067618294
  0
LINE
  8
_2-0_
  6
CONTINUOUS
 62
    4
 10
130.27997759884314
 20
616.59909815505022
 11
129.50352046353557
 21
619.49687563391739
  0
LINE
  8
_2-0_
  6
CONTINUOUS
 62
    4
 10
130.27997759884314
 20
616.59909815505022
 11
131.05643473415071
 21
619.49687563391739
  0
LINE
  8
_2-0_
  6
CONTINUOUS
 62
    4
 10
130.27997759884314
 20
625.59909815505011
 11
136.80667320407033
 21
625.59909815505011
  0
LINE
  8
_2-0_
  6
CONTINUOUS
 62
    4
 10
130.27997759884314
 20
616.59909815505022
 11
136.80667320407033
 21
616.59909815505022
  0
TEXT
  8
_2-0_
 62
    7
 10
129.62276865301629
 20
619.84909815505011
 40
5
 41
1
 50
90
  1
9
  0
LINE
  8
_0-1_レイヤ_2
  6
CONTINUOUS
 62
    7
 10
122.73430514320699
 20
628.3614342967852
 11
135.40707969477989
 21
628.3614342967852
  0
LINE
  8
_0-1_レイヤ_2
  6
CONTINUOUS
 62
    7
 10
122.73430514320699
 20
613.86143429757464
 11
135.40707969477989
 21
613.86143429757464
  0
TEXT
  8
_0-0_レイヤ_1
 62
    7
 10
188.17208849291108
 20
576.40186490684152
 40
12
 41
1
 50
0
  1
型式
  0
TEXT
  8
_0-0_レイヤ_1
 62
    7
 10
182.67208849291108
 20
558.58124307394643
 40
14
 41
1
 50
0
  1
FM-MC
  0
TEXT
  8
_0-0_レイヤ_1
 62
    7
 10
291.16432499978714
 20
576.22476180753722
 40
12
 41
1
 50
0
  1
図番
  0
TEXT
  8
_a-0_
 62
    7
 10
479.27975804162917
 20
774.23446180162341
 40
11.999999999999992
 41
1.0000000000000006
 50
0
  1
図番
  0
TEXT
  8
_0-1_レイヤ_2
 62
    7
 10
220.95604586436618
 20
639.42700213760554
 40
5
 41
1
 50
0
  1
±0.3
  0
TEXT
  8
_0-1_レイヤ_2
 62
    7
 10
213.41411572284255
 20
639.42700213760554
 40
6
 41
1
 50
0
  1
10
  0
LINE
  8
_a-0_
  6
CONTINUOUS
 62
    7
 10
212.56127943505305
 20
638.42700213760554
 11
233.45604586436618
 21
638.42700213760554
  0
LINE
  8
_a-0_
  6
CONTINUOUS
 62
    7
 10
212.56127943505305
 20
638.42700213760554
 11
215.45905691392025
 21
639.20345927291305
  0
LINE
  8
_a-0_
  6
CONTINUOUS
 62
    7
 10
212.56127943505305
 20
638.42700213760554
 11
215.45905691392025
 21
637.65054500229791
  0
LINE
  8
_a-0_
  6
CONTINUOUS
 62
    7
 10
202.56127943505305
 20
638.42700213760554
 11
194.33460334522717
 21
638.42700213760554
  0
LINE
  8
_a-0_
  6
CONTINUOUS
 62
    7
 10
202.56127943505305
 20
638.42700213760554
 11
199.66350195618585
 21
637.65054500229791
  0
LINE
  8
_a-0_
  6
CONTINUOUS
 62
    7
 10
202.56127943505305
 20
638.42700213760554
 11
199.66350195618585
 21
639.20345927291305
  0
TEXT
  8
_a-0_
 62
    7
 10
309.59004392993614
 20
757.26208145163388
 40
12
 41
0.9999999999999994
 50
0
  1
70
  0
TEXT
  8
_a-0_
 62
    7
 10
309.59004392993614
 20
739.43370278834061
 40
12
 41
1
 50
0
  1
75
  0
TEXT
  8
_a-0_
 62
    7
 10
309.59004392993614
 20
722.43180525513378
 40
12
 41
1
 50
0
  1
85
  0
TEXT
  8
_a-0_
 62
    7
 10
309.59004392993614
 20
705.42990772192695
 40
12
 41
1
 50
0
  1
95
  0
TEXT
  8
_a-0_
 62
    7
 10
324.35328610781243
 20
757.26208145163388
 40
7.9999999999999964
 41
1.0000000000000004
 50
0
  1
±0.5
  0
TEXT
  8
_a-0_
 62
    7
 10
324.35328610781243
 20
739.43370278834061
 40
7.9999999999999964
 41
1.0000000000000004
 50
0
  1
±0.5
  0
TEXT
  8
_a-0_
 62
    7
 10
324.35328610781243
 20
722.43180525513378
 40
7.9999999999999964
 41
1.0000000000000004
 50
0
  1
±0.5
  0
TEXT
  8
_a-0_
 62
    7
 10
324.35328610781243
 20
705.42990772192695
 40
7.9999999999999964
 41
1.0000000000000004
 50
0
  1
±0.5
  0
TEXT
  8
_a-0_
 62
    7
 10
355.86343279326234
 20
756.43560032154744
 40
12
 41
1
 50
0
  1
155
  0
TEXT
  8
_a-0_
 62
    7
 10
355.86343279326234
 20
739.43370278834061
 40
12
 41
1
 50
0
  1
160
  0
TEXT
  8
_a-0_
 62
    7
 10
355.86343279326234
 20
722.43180525513378
 40
12
 41
1
 50
0
  1
160
  0
TEXT
  8
_a-0_
 62
    7
 10
355.86343279326234
 20
705.42990772192695
 40
12
 41
1
 50
0
  1
160
  0
TEXT
  8
_a-0_
 62
    7
 10
378.58815050883708
 20
757.26208145163388
 40
7.9999999999999964
 41
1.0000000000000004
 50
0
  1
±1.5
  0
TEXT
  8
_a-0_
 62
    7
 10
378.58815050883708
 20
739.43370278834061
 40
7.9999999999999964
 41
1.0000000000000004
 50
0
  1
±1.5
  0
TEXT
  8
_a-0_
 62
    7
 10
378.58815050883708
 20
722.43180525513378
 40
7.9999999999999964
 41
1.0000000000000004
 50
0
  1
±1.5
  0
TEXT
  8
_a-0_
 62
    7
 10
378.58815050883708
 20
705.42990772192695
 40
7.9999999999999964
 41
1.0000000000000004
 50
0
  1
±1.5
  0
TEXT
  8
_a-0_
 62
    7
 10
423.06247145724171
 20
722.43180525513378
 40
12
 41
1
 50
0
  1
9
  0
TEXT
  8
_a-0_
 62
    7
 10
423.06247145724171
 20
739.43370278834061
 40
12
 41
1
 50
0
  1
6
  0
TEXT
  8
_a-0_
 62
    7
 10
423.06247145724171
 20
756.43560032154744
 40
12
 41
1
 50
0
  1
3
  0
TEXT
  8
_a-0_
 62
    7
 10
419.48870229926387
 20
705.42990772192695
 40
12
 41
1
 50
0
  1
12
  0
TEXT
  8
_a-0_
 62
    7
 10
428.82794735442485
 20
652.03562183304893
 40
1.6
 41
1
 50
0
  1
2
  0
TEXT
  8
_1-6__0-0_
 62
    7
 10
467.28630824378103
 20
891.58811515082311
 40
8
 41
1
 50
0
  1
公差誤記修正、図面修正
  0
TEXT
  8
_0-0_レイヤ_1
 62
    7
 10
404.2724200423882
 20
644.46389427575536
 40
10
 41
1
 50
0
  1
0.5㎜以上のバリ、かけ、汚れ、異物無き事
  0
TEXT
  8
_0-0_レイヤ_1
 62
    7
 10
404.2724200423882
 20
628.63651761517621
 40
10
 41
1
 50
0
  1
切断、貫通穴加工
  0
TEXT
  8
_0-0_レイヤ_1
 62
    7
 10
404.2724200423882
 20
612.14969820152759
 40
10
 41
1
 50
0
  1
指示なき公差は、±0.3
  0
LINE
  8
_1-6__0-0_
  6
CONTINUOUS
 62
    7
 10
218.98453479727933
 20
657.21468538402064
 11
214.4845500560684
 21
648.21468133090479
  0
LINE
  8
_1-6__0-0_
  6
CONTINUOUS
 62
    7
 10
214.4845500560684
 20
648.21468133090479
 11
223.48453479727933
 21
648.21468133090479
  0
LINE
  8
_1-6__0-0_
  6
CONTINUOUS
 62
    7
 10
218.98453479727933
 20
657.21468538402064
 11
223.48453479727933
 21
648.21468133090479
  0
TEXT
  8
_1-6__0-0_
 62
    7
 10
216.11717980736736
 20
647.95112112555898
 40
6
 41
2
 50
0
  1
3
  0
LINE
  8
_1-6__0-0_
  6
CONTINUOUS
 62
    7
 10
440.57359614243824
 20
668.28637791912797
 11
436.07361140122731
 21
659.28637386601212
  0
LINE
  8
_1-6__0-0_
  6
CONTINUOUS
 62
    7
 10
436.07361140122731
 20
659.28637386601212
 11
445.07359614243824
 21
659.28637386601212
  0
LINE
  8
_1-6__0-0_
  6
CONTINUOUS
 62
    7
 10
440.57359614243824
 20
668.28637791912797
 11
445.07359614243824
 21
659.28637386601212
  0
TEXT
  8
_1-6__0-0_
 62
    7
 10
437.70624115252627
 20
659.02281366066608
 40
6
 41
2
 50
0
  1
3
  0
TEXT
  8
_a-0_
 62
    7
 10
456.27975804162917
 20
755.41508364594074
 40
14
 41
1
 50
0
  1
F6184051-3
  0
TEXT
  8
_a-0_
 62
    7
 10
456.27975804162917
 20
737.88021316487038
 40
13.999999999999996
 41
1.0000000000000002
 50
0
  1
F6184052-3
  0
TEXT
  8
_a-0_
 62
    7
 10
456.27975804162917
 20
720.66415851072861
 40
13.999999999999998
 41
1.0000000000000002
 50
0
  1
F6184053-3
  0
TEXT
  8
_a-0_
 62
    7
 10
456.27975804162917
 20
703.44810385658684
 40
13.999999999999998
 41
1.0000000000000002
 50
0
  1
F6184054-3
  0
TEXT
  8
_0-0_レイヤ_1
 62
    7
 10
268.16432499978714
 20
558.05393610596149
 40
14
 41
1
 50
0
  1
F6184055-3
  0
TEXT
  8
_1-6__0-0_
 62
    7
 10
589.51457666091823
 20
891.46547958103315
 40
8
 41
1
 50
0
  1
原田
  0
ENDSEC
  0
EOF
