  0
SECTION
  2
HEADER
  9
$ACADVER
  1
AC1009
  9
$INSBASE
 10
0
 20
0
 30
0
  9
$EXTMIN
 10
0
 20
0
  9
$EXTMAX
 10
148.5
 20
105
  9
$LIMMIN
 10
0
 20
0
  9
$LIMMAX
 10
148.5
 20
105
  9
$LTSCALE
 40
0.5
  0
ENDSEC
  0
SECTION
  2
TABLES
  0
TABLE
  2
LTYPE
 70
     9
  0
LTYPE
  2
CONTINUOUS
 70
    64
  3
実線
 72
    65
 73
     0
 40
0.0
  0
LTYPE
  2
DASHED1
 70
    64
  3
--  --  --  --  --  --  --  --  
 72
    65
 73
     2
 40
2.5
 49
1.25
 49
-1.25
  0
LTYPE
  2
DASHED2
 70
    64
  3
----    ----    ----    ----    
 72
    65
 73
     2
 40
5.0
 49
2.5
 49
-2.5
  0
LTYPE
  2
DASHED3
 70
    64
  3
------  ------  ------  ------  
 72
    65
 73
     2
 40
5.0
 49
3.75
 49
-1.25
  0
LTYPE
  2
CENTER1
 70
    64
  3
----- - ----- - ----- - ----- - 
 72
    65
 73
     4
 40
10.0
 49
6.25
 49
-1.25
 49
1.25
 49
-1.25
  0
LTYPE
  2
CENTER2
 70
    64
  3
----------  --  ----------  --  
 72
    65
 73
     4
 40
20.0
 49
12.5
 49
-2.5
 49
2.5
 49
-2.5
  0
LTYPE
  2
PHANTOM1
 70
    64
  3
--- - - --- - - --- - - --- - - 
 72
    65
 73
     6
 40
10.0
 49
3.25
 49
-1.25
 49
1.25
 49
-1.25
 49
1.25
 49
-1.25
  0
LTYPE
  2
PHANTOM2
 70
    64
  3
--------  -  -  --------  -  -  
 72
    65
 73
     6
 40
20.0
 49
10.0
 49
-2.5
 49
1.25
 49
-2.5
 49
1.25
 49
-2.5
  0
LTYPE
  2
DOT
 70
    64
  3
-   -   -   -   -   -   -   -   
 72
    65
 73
     2
 40
2.5
 49
0.625
 49
-1.875
  0
LTYPE
  2
DUMMY
 70
    64
  3
ダミー
 72
    65
 73
     0
 40
0.0
  0
LTYPE
  2
RAND1
 70
    64
  3
ランダム線1
 72
    65
 73
     4
 40
10.0
 49
1.0
 49
-2.0
 49
3.0
 49
-4.0
  0
LTYPE
  2
RAND2
 70
    64
  3
ランダム線2
 72
    65
 73
     4
 40
14.0
 49
2.0
 49
-3.0
 49
4.0
 49
-5.0
  0
LTYPE
  2
RAND3
 70
    64
  3
ランダム線3
 72
    65
 73
     4
 40
18.0
 49
3.0
 49
-4.0
 49
5.0
 49
-6.0
  0
LTYPE
  2
RAND4
 70
    64
  3
ランダム線4
 72
    65
 73
     4
 40
22.0
 49
4.0
 49
-5.0
 49
6.0
 49
-7.0
  0
LTYPE
  2
RAND5
 70
    64
  3
ランダム線5
 72
    65
 73
     4
 40
26.0
 49
5.0
 49
-6.0
 49
7.0
 49
-8.0
  0
LTYPE
  2
LONG1
 70
    64
  3
----------  --  ----------  --  
 72
    65
 73
     4
 40
40.0
 49
32.5
 49
-2.5
 49
2.5
 49
-2.5
  0
LTYPE
  2
LONG2
 70
    64
  3
--------  -  -  --------  -  -  
 72
    65
 73
     6
 40
40.0
 49
30.0
 49
-2.5
 49
1.25
 49
-2.5
 49
1.25
 49
-2.5
  0
LTYPE
  2
LONG3
 70
    64
  3
+++++++++++++++..+++++++++++++++
 72
    65
 73
     2
 40
40.0
 49
37.5
 49
-2.5
  0
LTYPE
  2
LONG4
 70
    64
  3
+++++++++++++++..+++++++++++++++
 72
    65
 73
     2
 40
80.0
 49
75.0
 49
-5.0
  0
LTYPE
  2
LONG5
 70
    64
  3
----------  --  ----------  --  
 72
    65
 73
     4
 40
60.0
 49
37.5
 49
-7.5
 49
7.5
 49
-7.5
  0
LTYPE
  2
dashed
 70
   64
  3
-------   -------------   ------
 72
   65
 73
    2
 40
7.5
 49
6
 49
-1.5
  0
LTYPE
  2
dashed_spaced
 70
   64
  3
----        --------        ----
 72
   65
 73
    2
 40
12
 49
6
 49
-6
  0
LTYPE
  2
long_dashed_dotted
 70
   64
  3
------------- --- --------------
 72
   65
 73
    4
 40
15.25
 49
12
 49
-1.5
 49
0.25
 49
-1.5
  0
LTYPE
  2
long_dashed_double-dotted
 70
   64
  3
----------- --- --- ------------
 72
   65
 73
    6
 40
17
 49
12
 49
-1.5
 49
0.25
 49
-1.5
 49
0.25
 49
-1.5
  0
LTYPE
  2
long_dashed_triplicate-dotted
 70
   64
  3
--------- --- --- --- ----------
 72
   65
 73
    8
 40
18.75
 49
12
 49
-1.5
 49
0.25
 49
-1.5
 49
0.25
 49
-1.5
 49
0.25
 49
-1.5
  0
LTYPE
  2
dotted
 70
   64
  3
   -       -       -       -    
 72
   65
 73
    2
 40
1.75
 49
0.25
 49
-1.5
  0
LTYPE
  2
chain
 70
   64
  3
-------------- -- --------------
 72
   65
 73
    4
 40
18.5
 49
12
 49
-1.5
 49
3.5
 49
-1.5
  0
LTYPE
  2
chain_double_dash
 70
   64
  3
------------ -- -- -------------
 72
   65
 73
    6
 40
23.5
 49
12
 49
-1.5
 49
3.5
 49
-1.5
 49
3.5
 49
-1.5
  0
LTYPE
  2
dashed_dotted
 70
   64
  3
-----------     -     ----------
 72
   65
 73
    4
 40
9.25
 49
6
 49
-1.5
 49
0.25
 49
-1.5
  0
LTYPE
  2
double-dashed_dotted
 70
   64
  3
------   -----------   -   -----
 72
   65
 73
    6
 40
16.75
 49
6
 49
-1.5
 49
6
 49
-1.5
 49
0.25
 49
-1.5
  0
LTYPE
  2
dashed_double-dotted
 70
   64
  3
---------    -    -    ---------
 72
   65
 73
    6
 40
11
 49
6
 49
-1.5
 49
0.25
 49
-1.5
 49
0.25
 49
-1.5
  0
LTYPE
  2
double-dashed_double-dotted
 70
   64
  3
-----   ---------   -   -   ----
 72
   65
 73
    8
 40
18.5
 49
6
 49
-1.5
 49
6
 49
-1.5
 49
0.25
 49
-1.5
 49
0.25
 49
-1.5
  0
LTYPE
  2
dashed_triplicate-dotted
 70
   64
  3
-------    -    -    -    ------
 72
   65
 73
    8
 40
12.75
 49
6
 49
-1.5
 49
0.25
 49
-1.5
 49
0.25
 49
-1.5
 49
0.25
 49
-1.5
  0
LTYPE
  2
double-dashed_triplicate-dotted
 70
   64
  3
-----  ---------  -  -  -  -----
 72
   65
 73
   10
 40
20.25
 49
6
 49
-1.5
 49
6
 49
-1.5
 49
0.25
 49
-1.5
 49
0.25
 49
-1.5
 49
0.25
 49
-1.5
  0
LTYPE
  2
undefined
 70
   64
  3
--------------------------------
 72
   65
 73
    0
 40
0
  0
LTYPE
  2
HIDDEN
 70
   64
  3
------     -----------     -----
 72
   65
 73
    2
 40
12.600000000000001
 49
8.4000000000000003
 49
-4.2000000000000001
  0
LTYPE
  2
DOT_18
 70
   64
  3
------    ------------    ------
 72
   65
 73
    2
 40
8
 49
6
 49
-2
  0
LTYPE
  2
CENTER
 70
   64
  3
---------      --      ---------
 72
   65
 73
    4
 40
50.5
 49
30
 49
-9
 49
2.5
 49
-9
  0
LTYPE
  2
PHANTOM
 70
   64
  3
---------     -   -     --------
 72
   65
 73
    6
 40
58
 49
30
 49
-9
 49
2.5
 49
-5
 49
2.5
 49
-9
  0
LTYPE
  2
ACAD_ISO06W100
 70
   64
  3
---------   -   -   -   --------
 72
   65
 73
    8
 40
37.5
 49
24
 49
-3
 49
0.5
 49
-3
 49
0.5
 49
-3
 49
0.5
 49
-3
  0
LTYPE
  2
ACAD_ISO14W100
 70
   64
  3
-------    -    -    -    ------
 72
   65
 73
    8
 40
25.5
 49
12
 49
-3
 49
0.5
 49
-3
 49
0.5
 49
-3
 49
0.5
 49
-3
  0
LTYPE
  2
_
 70
   64
  3
                                
 72
   65
 73
    0
 40
0
  0
LTYPE
  2
__24
 70
   64
  3
                                
 72
   65
 73
    0
 40
0
  0
LTYPE
  2
__25
 70
   64
  3
                                
 72
   65
 73
    0
 40
0
  0
LTYPE
  2
__26
 70
   64
  3
                                
 72
   65
 73
    0
 40
0
  0
LTYPE
  2
__27
 70
   64
  3
                                
 72
   65
 73
    0
 40
0
  0
LTYPE
  2
__28
 70
   64
  3
                                
 72
   65
 73
    0
 40
0
  0
LTYPE
  2
__29
 70
   64
  3
                                
 72
   65
 73
    0
 40
0
  0
LTYPE
  2
__30
 70
   64
  3
                                
 72
   65
 73
    0
 40
0
  0
LTYPE
  2
__31
 70
   64
  3
                                
 72
   65
 73
    0
 40
0
  0
LTYPE
  2
__32
 70
   64
  3
                                
 72
   65
 73
    0
 40
0
  0
ENDTAB
  0
TABLE
  2
STYLE
  5
3
100
AcDbSymbolTable
 70
     1
  0
STYLE
  5
10
100
AcDbSymbolTableRecord
100
AcDbTextStyleTableRecord
  2
STANDARD
 70
     0
 40
0.0
 41
1.0
 50
0.0
 71
     0
 42
0.2
  3
txt
  4
bigfont.shx
  0
STYLE
  5
26
100
AcDbSymbolTableRecord
100
AcDbTextStyleTableRecord
  2
TATEGAKI
 70
    68
 40
0.0
 41
1.0
 50
0.0
 71
     0
 42
1.0
  3
txt
  4
bigfont.shx
  0
ENDTAB
  0
TABLE
  2
LAYER
 70
    4
  0
LAYER
  2
_0-0_0
 70
   64
 62
    7
  6
CONTINUOUS
  0
LAYER
  2
_1-7_23
 70
   64
 62
    7
  6
CONTINUOUS
  0
LAYER
  2
_2-0_
 70
   64
 62
    7
  6
CONTINUOUS
  0
LAYER
  2
ADD_LINE
 70
   64
 62
    7
  6
CONTINUOUS
  0
ENDTAB
  0
ENDSEC
  0
SECTION
  2
BLOCKS
  0
BLOCK
  2
-000-_G0
 70
   64
 10
0
 20
0
 30
0
  0
ENDBLK
  0
ENDSEC
  0
SECTION
  2
ENTITIES
  0
CIRCLE
  8
_0-0_0
  6
CONTINUOUS
 62
    7
 10
91.242940054388256
 20
30.816777639193723
 40
1
  0
INSERT
  2
-000-_G0
  8
_0-0_0
 10
-30.75
 20
-96
 41
2
 42
2
 50
0
  0
LINE
  8
_1-7_23
  6
CONTINUOUS
 62
    7
 10
97.548583000000007
 20
-4.249998000000005
 11
97.548583000000007
 21
-14.25
  0
LINE
  8
_1-7_23
  6
CONTINUOUS
 62
    7
 10
97.548583000000007
 20
0.7500029999999995
 11
97.548583000000007
 21
-4.249998000000005
  0
LINE
  8
_1-7_23
  6
CONTINUOUS
 62
    7
 10
95.048586999999997
 20
-4.249998000000005
 11
95.048586999999997
 21
-14.25
  0
LINE
  8
_1-7_23
  6
CONTINUOUS
 62
    7
 10
77.560072499999989
 20
-6.1103960000000014
 11
77.560072499999989
 21
-7.6103944999999981
  0
LINE
  8
_1-7_23
  6
CONTINUOUS
 62
    7
 10
77.560072499999989
 20
-6.1103960000000014
 11
81.060071499999992
 21
-5.3603965000000002
  0
LINE
  8
_1-7_23
  6
CONTINUOUS
 62
    7
 10
81.060071499999992
 20
-5.3603965000000002
 11
81.060071499999992
 21
-8.3603969999999989
  0
LINE
  8
_1-7_23
  6
CONTINUOUS
 62
    7
 10
77.560072499999989
 20
-7.6103944999999981
 11
81.060071499999992
 21
-8.3603969999999989
  0
LINE
  8
_1-7_23
  6
CENTER
 62
    7
 10
82.0600625
 20
-6.8603954999999956
 11
73.060069999999996
 21
-6.8603954999999956
  0
LINE
  8
_1-7_23
  6
CENTER
 62
    7
 10
75.060063999999997
 20
-4.8603949999999969
 11
75.060063999999997
 21
-8.8603965000000002
  0
LINE
  8
_1-7_23
  6
CONTINUOUS
 62
    7
 10
95.048586999999997
 20
0.7500029999999995
 11
95.048586999999997
 21
-14.25
  0
LINE
  8
_1-7_23
  6
CONTINUOUS
 62
    7
 10
110.04858699999999
 20
0.7500029999999995
 11
110.04858699999999
 21
-4.249998000000005
  0
LINE
  8
_1-7_23
  6
CONTINUOUS
 62
    7
 10
112.5486075
 20
0.7500029999999995
 11
112.5486075
 21
-4.249998000000005
  0
LINE
  8
_1-7_23
  6
CONTINUOUS
 62
    7
 10
82.548595500000004
 20
-4.249998000000005
 11
82.548595500000004
 21
-9.2499995000000012
  0
LINE
  8
_1-7_23
  6
CONTINUOUS
 62
    7
 10
85.048591000000001
 20
-4.249998000000005
 11
85.048591000000001
 21
-9.2499995000000012
  0
LINE
  8
_1-7_23
  6
CONTINUOUS
 62
    7
 10
90.048607500000002
 20
0.7500029999999995
 11
90.048607500000002
 21
-4.249998000000005
  0
LINE
  8
_1-7_23
  6
CONTINUOUS
 62
    7
 10
87.548586999999997
 20
0.7500029999999995
 11
87.548586999999997
 21
-4.249998000000005
  0
LINE
  8
_1-7_23
  6
CONTINUOUS
 62
    7
 10
82.548595500000004
 20
0.7500029999999995
 11
82.548595500000004
 21
-4.249998000000005
  0
LINE
  8
_1-7_23
  6
CONTINUOUS
 62
    7
 10
80.048586999999997
 20
0.7500029999999995
 11
80.048586999999997
 21
-4.249998000000005
  0
LINE
  8
_1-7_23
  6
CONTINUOUS
 62
    7
 10
75.048583000000007
 20
0.7500029999999995
 11
75.048583000000007
 21
-4.249998000000005
  0
LINE
  8
_1-7_23
  6
CONTINUOUS
 62
    7
 10
120.048583
 20
0.7500029999999995
 11
72.548586999999997
 21
0.7500029999999995
  0
LINE
  8
_1-7_23
  6
CONTINUOUS
 62
    7
 10
120.048583
 20
-4.249998000000005
 11
72.548586999999997
 21
-4.249998000000005
  0
LINE
  8
_1-7_23
  6
CONTINUOUS
 62
    7
 10
120.048583
 20
-9.2499995000000012
 11
72.548586999999997
 21
-9.2499995000000012
  0
CIRCLE
  8
_1-7_23
  6
CONTINUOUS
 62
    7
 10
75.060063999999997
 20
-6.8603954999999956
 40
1.5
  0
CIRCLE
  8
_1-7_23
  6
CONTINUOUS
 62
    7
 10
75.060063999999997
 20
-6.8603954999999956
 40
0.75
  0
TEXT
  8
_1-7_23
 62
    7
 10
75.359575000000006
 20
-12.668902500000001
 40
2
 41
1
 50
0
  1
ＦＫＫ株式会社
  0
LINE
  8
_1-7_23
  6
CONTINUOUS
 62
    7
 10
120.048583
 20
3.2500029999999995
 11
72.548586999999997
 21
3.2500029999999995
  0
LINE
  8
_1-7_23
  6
CONTINUOUS
 62
    7
 10
72.548586999999997
 20
3.2500029999999995
 11
72.548586999999997
 21
-14.25
  0
LINE
  8
_1-7_23
  6
CONTINUOUS
 62
    7
 10
82.548595500000004
 20
0.7500029999999995
 11
82.548595500000004
 21
3.2500029999999995
  0
TEXT
  8
_1-7_23
 62
    7
 10
75.41830250000001
 20
0.9479405000000014
 40
2
 41
1
 50
0
  1
出図
  0
LINE
  8
_1-7_23
  6
CONTINUOUS
 62
    7
 10
97.548586999999997
 20
0.7500029999999995
 11
97.548586999999997
 21
3.2500029999999995
  0
LINE
  8
_1-7_23
  6
CONTINUOUS
 62
    7
 10
115.048583
 20
3.2500029999999995
 11
115.048583
 21
0.7500029999999995
  0
TEXT
  8
_1-7_23
 62
    7
 10
73.72921500000001
 20
-0.2525114999999971
 40
1.5
 41
1
 50
0
  1
設計
  7
TATEGAKI
  0
TEXT
  8
_1-7_23
 62
    7
 10
81.205595999999999
 20
-0.2525114999999971
 40
1.5
 41
1
 50
0
  1
製図
  7
TATEGAKI
  0
TEXT
  8
_1-7_23
 62
    7
 10
88.637212000000005
 20
-0.2525114999999971
 40
1.5
 41
1
 50
0
  1
検図
  7
TATEGAKI
  0
TEXT
  8
_1-7_23
 62
    7
 10
96.312902500000006
 20
-0.2119964999999979
 40
1.5
 41
1
 50
0
  1
作図
  7
TATEGAKI
  0
TEXT
  8
_1-7_23
 62
    7
 10
111.31163800000001
 20
-0.2431030000000049
 40
1.5
 41
1
 50
0
  1
尺度
  7
TATEGAKI
  0
TEXT
  8
_1-7_23
 62
    7
 10
83.866893500000003
 20
-5.1111195000000009
 40
1.5
 41
1
 50
0
  1
材質
  7
TATEGAKI
  0
TEXT
  8
_1-7_23
 62
    7
 10
96.304850000000001
 20
-5.1111195000000009
 40
1.5
 41
1
 50
0
  1
品名
  7
TATEGAKI
  0
TEXT
  8
_1-7_23
 62
    7
 10
96.410979999999995
 20
-10.186962999999998
 40
1.5
 41
1
 50
0
  1
図番
  7
TATEGAKI
  0
LINE
  8
_1-7_23
  6
CONTINUOUS
 62
    7
 10
120.048583
 20
-14.25
 11
32.192177499999999
 21
-14.25
  0
LINE
  8
_1-7_23
  6
CONTINUOUS
 62
    7
 10
62.522092
 20
114.172097
 11
61.397095500000006
 21
111.92209600000001
  0
LINE
  8
_1-7_23
  6
CONTINUOUS
 62
    7
 10
61.397095500000006
 20
111.92209600000001
 11
63.647092
 21
111.92209600000001
  0
LINE
  8
_1-7_23
  6
CONTINUOUS
 62
    7
 10
62.522092
 20
114.172097
 11
63.647092
 21
111.92209600000001
  0
TEXT
  8
_1-7_23
 62
    7
 10
110.31065849999998
 20
114.50000349999999
 40
2
 41
1
 50
0
  1
担当
  0
TEXT
  8
_1-7_23
 62
    7
 10
115.31065849999998
 20
114.50000349999999
 40
2
 41
1
 50
0
  1
検印
  0
TEXT
  8
_1-7_23
 62
    7
 10
60.945561499999996
 20
114.84455149999999
 40
1.5
 41
1
 50
0
  1
Ｎｏ
  0
TEXT
  8
_1-7_23
 62
    7
 10
68.636376499999997
 20
114.8564785
 40
1.5
 41
1
 50
0
  1
年　月　日
  0
TEXT
  8
_1-7_23
 62
    7
 10
89.035382499999997
 20
114.8564785
 40
1.5
 41
1
 50
0
  1
訂　正　記　事
  0
LINE
  8
_1-7_23
  6
CONTINUOUS
 62
    7
 10
60.060654499999998
 20
116.94844900000001
 11
60.060654499999998
 21
114.25000349999999
  0
LINE
  8
_1-7_23
  6
CONTINUOUS
 62
    7
 10
65.060658500000002
 20
116.94844900000001
 11
65.060658500000002
 21
114.25000349999999
  0
LINE
  8
_1-7_23
  6
CONTINUOUS
 62
    7
 10
80.060658500000002
 20
116.94844900000001
 11
80.060658500000002
 21
114.25000349999999
  0
LINE
  8
_1-7_23
  6
CONTINUOUS
 62
    7
 10
120.048583
 20
114.25000349999999
 11
60.060662500000006
 21
114.25000349999999
  0
LINE
  8
_1-7_23
  6
CONTINUOUS
 62
    7
 10
60.060654499999998
 20
111.75001349999999
 11
120.048583
 21
111.75001349999999
  0
LINE
  8
_1-7_23
  6
CONTINUOUS
 62
    7
 10
120.048583
 20
116.94844900000001
 11
120.048583
 21
-14.25
  0
LINE
  8
_1-7_23
  6
CONTINUOUS
 62
    7
 10
32.190561000000002
 20
116.94844900000001
 11
120.048583
 21
116.94844900000001
  0
LINE
  8
_1-7_23
  6
CONTINUOUS
 62
    7
 10
32.192177499999999
 20
-14.25
 11
32.190561000000002
 21
116.94844900000001
  0
TEXT
  8
_1-7_23
 62
    7
 10
62.14917695473251
 20
111.87825788751712
 40
1.5
 41
1
 50
0
  1
1
  0
TEXT
  8
_2-0_
 62
    7
 10
114.25130284027653
 20
-2.8540810667124247
 40
2
 41
1
 50
0
  1
2：1
  0
TEXT
  8
_2-0_
 62
    7
 10
75.450298446051789
 20
-3.0298500560407433
 40
2
 41
1
 50
0
  1
谷山
  0
LINE
  8
_1-7_23
  6
CONTINUOUS
 62
    7
 10
65.060658500000002
 20
114.25000349999999
 11
65.060658500000002
 21
111.75001349999999
  0
LINE
  8
_1-7_23
  6
CONTINUOUS
 62
    7
 10
60.060654499999998
 20
114.25000349999999
 11
60.060654499999998
 21
111.75001349999999
  0
LINE
  8
_1-7_23
  6
CONTINUOUS
 62
    7
 10
80.060658500000002
 20
114.25000349999999
 11
80.060658500000002
 21
111.75001349999999
  0
LINE
  8
_1-7_23
  6
CONTINUOUS
 62
    7
 10
110.06065849999998
 20
116.94844900000001
 11
110.06065849999998
 21
111.75001349999999
  0
LINE
  8
_1-7_23
  6
CONTINUOUS
 62
    7
 10
115.06065849999998
 20
116.94844900000001
 11
115.06065849999998
 21
111.75001349999999
  0
TEXT
  8
_2-0_
 62
    7
 10
103.94684584090427
 20
-8.4457320397193385
 40
3
 41
1
 50
0
  1
FM-A-CR
  0
TEXT
  8
_2-0_
 62
    3
 10
88.682098765432101
 20
-8.0987654320987658
 40
2.5
 41
1
 50
0
  1
PC
  0
LINE
  8
_0-0_0
  6
CONTINUOUS
 62
    7
 10
81.877499841343848
 20
65.376179754252177
 11
82.056299769662246
 21
55.132738721308555
  0
LINE
  8
_0-0_0
  6
CONTINUOUS
 62
    7
 10
93.142940054388247
 20
54.167453551033538
 11
93.142940054388247
 21
56.167453551033538
  0
LINE
  8
_0-0_0
  6
CONTINUOUS
 62
    7
 10
82.645857249339684
 20
54.532800671406789
 11
93.142940054388247
 21
54.166234462435895
  0
ARC
  8
_0-0_0
  6
CONTINUOUS
 62
    7
 10
82.652837148680177
 20
54.732678836810606
 40
0.2
 50
224.50000000000002
 51
268
  0
LINE
  8
_0-0_0
  6
CONTINUOUS
 62
    7
 10
82.113619218862694
 20
54.996047349736038
 11
82.510187058849339
 21
54.592496983950638
  0
ARC
  8
_0-0_0
  6
CONTINUOUS
 62
    7
 10
82.256269308693532
 20
55.136229202596013
 40
0.2
 50
181
 51
224.50000000000008
  0
ARC
  8
_0-0_0
  6
CONTINUOUS
 62
    7
 10
70.034755417817407
 20
55.430964155205892
 40
0.2
 50
314.00000000000011
 51
359
  0
LINE
  8
_0-0_0
  6
CONTINUOUS
 62
    7
 10
69.479031131136281
 20
54.616274731466916
 11
70.173687091909201
 21
55.287096195138161
  0
ARC
  8
_0-0_0
  6
CONTINUOUS
 62
    7
 10
69.340099457044473
 20
54.760142691534646
 40
0.2
 50
268.99999999999988
 51
314.00000000000005
  0
LINE
  8
_0-0_0
  6
CONTINUOUS
 62
    7
 10
69.219469531853988
 20
54.562217829102351
 11
69.336608975757016
 21
54.560173152503367
  0
ARC
  8
_0-0_0
  6
CONTINUOUS
 62
    7
 10
69.224705253785174
 20
54.862172137649267
 40
0.3
 50
179
 51
268.99999999999965
  0
LINE
  8
_0-0_0
  6
CONTINUOUS
 62
    7
 10
70.408380267432661
 20
65.376179754252177
 11
70.23472495684868
 21
55.427473673918434
  0
ARC
  8
_0-0_0
  6
CONTINUOUS
 62
    7
 10
70.908304115010849
 20
65.367453551033534
 40
0.5
 50
90
 51
179
  0
LINE
  8
_0-0_0
  6
CONTINUOUS
 62
    7
 10
81.37757599376566
 20
65.867453551033534
 11
70.908304115010849
 21
65.867453551033534
  0
ARC
  8
_0-0_0
  6
CONTINUOUS
 62
    7
 10
81.37757599376566
 20
65.367453551033534
 40
0.5
 50
1.0000000000000395
 51
90.000000000000056
  0
LINE
  8
_0-0_0
  6
CONTINUOUS
 62
    7
 10
68.919515223307072
 20
38.81677763919373
 11
68.919515223307072
 21
28.816777639193727
  0
LINE
  8
_0-0_0
  6
CONTINUOUS
 62
    7
 10
82.645857249339684
 20
38.81677763919373
 11
82.645857249339684
 21
28.816777639193727
  0
LINE
  8
_0-0_0
  6
CONTINUOUS
 62
    7
 10
82.056299769662246
 20
38.81677763919373
 11
82.056299769662246
 21
28.816777639193727
  0
CIRCLE
  8
_0-0_0
  6
CONTINUOUS
 62
    7
 10
88.84294005438825
 20
33.816777639193723
 40
2.3999999999999999
  0
LINE
  8
_0-0_0
  6
CENTER1
 62
    4
 10
67.064888259447698
 20
33.816777639193723
 11
91.856842469894701
 21
33.816777639193723
  0
LINE
  8
_0-0_0
  6
CONTINUOUS
 62
    7
 10
69.479031131136281
 20
33.816777639193723
 11
69.479031131136281
 21
35.816777639193723
  0
LINE
  8
_0-0_0
  6
CONTINUOUS
 62
    7
 10
69.479031131136281
 20
38.81677763919373
 11
69.479031131136281
 21
31.816777639193723
  0
LINE
  8
_0-0_0
  6
CONTINUOUS
 62
    7
 10
70.23472495684868
 20
35.816777639193723
 11
70.23472495684868
 21
31.816777639193723
  0
LINE
  8
_0-0_0
  6
CONTINUOUS
 62
    7
 10
69.479031131136281
 20
31.816777639193723
 11
69.479031131136281
 21
28.816777639193727
  0
LINE
  8
_0-0_0
  6
CONTINUOUS
 62
    7
 10
70.23472495684868
 20
31.816777639193723
 11
70.23472495684868
 21
28.816777639193727
  0
LINE
  8
_0-0_0
  6
CONTINUOUS
 62
    7
 10
70.23472495684868
 20
35.816777639193723
 11
70.23472495684868
 21
38.81677763919373
  0
LINE
  8
_0-0_0
  6
CONTINUOUS
 62
    7
 10
69.336608975757016
 20
35.816777639193723
 11
70.136608975757013
 21
35.816777639193723
  0
LINE
  8
_0-0_0
  6
CONTINUOUS
 62
    7
 10
70.136608975757013
 20
31.816777639193723
 11
70.136608975757013
 21
35.816777639193723
  0
LINE
  8
_0-0_0
  6
CONTINUOUS
 62
    7
 10
69.479031131136281
 20
35.816777639193723
 11
69.336608975757016
 21
35.816777639193723
  0
LINE
  8
_0-0_0
  6
CONTINUOUS
 62
    7
 10
69.336608975757016
 20
31.816777639193723
 11
70.136608975757013
 21
31.816777639193723
  0
LINE
  8
_0-0_0
  6
CONTINUOUS
 62
    7
 10
69.479031131136281
 20
31.816777639193723
 11
69.336608975757016
 21
31.816777639193723
  0
LINE
  8
_0-0_0
  6
CONTINUOUS
 62
    7
 10
69.336608975757016
 20
38.81677763919373
 11
69.336608975757016
 21
28.816777639193727
  0
LINE
  8
_0-0_0
  6
CONTINUOUS
 62
    7
 10
40.96688739859563
 20
67.367453551033534
 11
40.96688739859563
 21
54.166234462435895
  0
LINE
  8
_0-0_0
  6
CONTINUOUS
 62
    7
 10
40.96688739859563
 20
54.166234462435895
 11
50.96688739859563
 21
54.166234462435895
  0
LINE
  8
_0-0_0
  6
CONTINUOUS
 62
    7
 10
40.96688739859563
 20
67.367453551033534
 11
50.96688739859563
 21
67.367453551033534
  0
LINE
  8
_0-0_0
  6
CONTINUOUS
 62
    7
 10
50.96688739859563
 20
67.367453551033534
 11
50.96688739859563
 21
54.166234462435895
  0
CIRCLE
  8
_0-0_0
  6
CONTINUOUS
 62
    7
 10
91.242940054388256
 20
36.816777639193723
 40
1
  0
CIRCLE
  8
_0-0_0
  6
CONTINUOUS
 62
    7
 10
84.742940054388256
 20
33.816777639193723
 40
1
  0
CIRCLE
  8
_0-0_0
  6
CONTINUOUS
 62
    7
 10
88.84294005438825
 20
33.816777639193723
 40
2.7999999999999998
  0
LINE
  8
_0-0_0
  6
DASHED1
 62
    7
 10
86.442940054388259
 20
56.401422706628245
 11
86.442940054388259
 21
54.400203618030602
  0
LINE
  8
_0-0_0
  6
DASHED1
 62
    7
 10
86.042940054388253
 20
56.41539101442494
 11
86.042940054388253
 21
54.414171925827304
  0
LINE
  8
_0-0_0
  6
DASHED1
 62
    7
 10
91.242940054388256
 20
56.233803013067856
 11
91.242940054388256
 21
54.232583924470219
  0
LINE
  8
_0-0_0
  6
DASHED1
 62
    7
 10
91.642940054388247
 20
56.219834705271168
 11
91.642940054388247
 21
54.218615616673517
  0
LINE
  8
_0-0_0
  6
CENTER1
 62
    4
 10
88.84294005438825
 20
30.904382569898327
 11
88.84294005438825
 21
36.833872852479444
  0
LINE
  8
_0-0_0
  6
CENTER1
 62
    4
 10
91.242940054388256
 20
38.006513918526479
 11
91.242940054388256
 21
35.644359253107985
  0
LINE
  8
_0-0_0
  6
CENTER1
 62
    4
 10
90.054227611830626
 20
36.816777639193723
 11
92.512796753388641
 21
36.816777639193723
  0
LINE
  8
_0-0_0
  6
CENTER1
 62
    4
 10
91.242940054388256
 20
31.983019521709319
 11
91.242940054388256
 21
29.611223408676877
  0
LINE
  8
_0-0_0
  6
CENTER1
 62
    4
 10
90.01325145947132
 20
30.816777639193723
 11
92.471820601029335
 21
30.816777639193723
  0
LINE
  8
_0-0_0
  6
CENTER1
 62
    4
 10
84.742940054388256
 20
34.964637196324275
 11
84.742940054388256
 21
32.573558188063927
  0
LINE
  8
_0-0_0
  6
CONTINUOUS
 62
    7
 10
69.134364838367901
 20
66.876179754252177
 11
68.924750945238258
 21
54.867407859580453
  0
ARC
  8
_0-0_0
  6
CONTINUOUS
 62
    7
 10
69.634288685946103
 20
66.867453551033534
 40
0.5
 50
90
 51
179
  0
LINE
  8
_0-0_0
  6
CONTINUOUS
 62
    7
 10
82.651591422830406
 20
67.367453551033534
 11
69.634288685946103
 21
67.367453551033534
  0
ARC
  8
_0-0_0
  6
CONTINUOUS
 62
    7
 10
82.651591422830406
 20
66.867453551033534
 40
0.5
 50
1.0000000000000395
 51
90.000000000000056
  0
LINE
  8
_0-0_0
  6
CONTINUOUS
 62
    7
 10
40.96688739859563
 20
66.876179754252177
 11
50.96688739859563
 21
66.876179754252177
  0
LINE
  8
_0-0_0
  6
CONTINUOUS
 62
    7
 10
40.96688739859563
 20
54.867407859580453
 11
50.96688739859563
 21
54.867407859580453
  0
LINE
  8
_0-0_0
  6
CONTINUOUS
 62
    4
 10
59.953874422435163
 20
67.367453551033534
 11
59.953874422435163
 21
54.567453551033537
  0
LINE
  8
_0-0_0
  6
CONTINUOUS
 62
    4
 10
59.953874422435163
 20
67.367453551033534
 11
60.147988706262054
 21
66.643009181316742
  0
LINE
  8
_0-0_0
  6
CONTINUOUS
 62
    4
 10
59.953874422435163
 20
67.367453551033534
 11
59.759760138608271
 21
66.643009181316742
  0
LINE
  8
_0-0_0
  6
CONTINUOUS
 62
    4
 10
59.953874422435163
 20
54.567453551033537
 11
59.759760138608271
 21
55.291897920750336
  0
LINE
  8
_0-0_0
  6
CONTINUOUS
 62
    4
 10
59.953874422435163
 20
54.567453551033537
 11
60.147988706262054
 21
55.291897920750336
  0
LINE
  8
_0-0_0
  6
CONTINUOUS
 62
    4
 10
59.953874422435163
 20
67.367453551033534
 11
68.134288685946103
 21
67.367453551033534
  0
LINE
  8
_0-0_0
  6
CONTINUOUS
 62
    4
 10
59.953874422435163
 20
54.567453551033537
 11
67.668661032823266
 21
54.567453551033537
  0
TEXT
  8
_0-0_0
 62
    7
 10
59.703874422435163
 20
59.717453551033543
 40
1.25
 41
1
 50
90
  1
12.8
  0
LINE
  8
_0-0_0
  6
CONTINUOUS
 62
    4
 10
36.191422028642165
 20
54.166234462435895
 11
36.191422028642165
 21
67.367453551033534
  0
LINE
  8
_0-0_0
  6
CONTINUOUS
 62
    4
 10
36.191422028642165
 20
54.166234462435895
 11
35.997307744815273
 21
54.890678832152694
  0
LINE
  8
_0-0_0
  6
CONTINUOUS
 62
    4
 10
36.191422028642165
 20
54.166234462435895
 11
36.385536312469056
 21
54.890678832152694
  0
LINE
  8
_0-0_0
  6
CONTINUOUS
 62
    4
 10
36.191422028642165
 20
67.367453551033534
 11
36.385536312469056
 21
66.643009181316742
  0
LINE
  8
_0-0_0
  6
CONTINUOUS
 62
    4
 10
36.191422028642165
 20
67.367453551033534
 11
35.997307744815273
 21
66.643009181316742
  0
LINE
  8
_0-0_0
  6
CONTINUOUS
 62
    4
 10
36.191422028642165
 20
54.166234462435895
 11
39.46688739859563
 21
54.166234462435895
  0
LINE
  8
_0-0_0
  6
CONTINUOUS
 62
    4
 10
36.191422028642165
 20
67.367453551033534
 11
39.46688739859563
 21
67.367453551033534
  0
TEXT
  8
_0-0_0
 62
    7
 10
35.941422028642165
 20
59.516844006734714
 40
1.25
 41
1
 50
90
  1
(13.2)
  0
LINE
  8
_0-0_0
  6
CONTINUOUS
 62
    4
 10
70.294512973114564
 20
55.335624173069284
 11
72.107328635909553
 21
56.180431472235888
  0
LINE
  8
_0-0_0
  6
CONTINUOUS
 62
    4
 10
70.149891258905256
 20
54.921041925669307
 11
71.614743200215585
 21
53.559348571775203
  0
LINE
  8
_0-0_0
  6
CONTINUOUS
 62
    4
 10
70.294512973114564
 20
55.335624173069284
 11
70.57149909489064
 21
55.751891741279266
  0
LINE
  8
_0-0_0
  6
CONTINUOUS
 62
    4
 10
70.294512973114564
 20
55.335624173069284
 11
70.794300336728895
 21
55.321043666513276
  0
LINE
  8
_0-0_0
  6
CONTINUOUS
 62
    4
 10
70.149891258905256
 20
54.921041925669307
 11
70.284686766950585
 21
54.439554468915964
  0
LINE
  8
_0-0_0
  6
CONTINUOUS
 62
    4
 10
70.149891258905256
 20
54.921041925669307
 11
70.647286888460087
 21
54.870075390572608
  0
LINE
  8
_0-0_0
  6
CONTINUOUS
 62
    4
 10
69.426782687858789
 20
54.448610992585606
 11
69.28548096641812
 21
53.968992578095601
  0
LINE
  8
_0-0_0
  6
CONTINUOUS
 62
    4
 10
69.426782687858789
 20
54.448610992585606
 11
69.791106016347882
 21
54.106166088522741
  0
LINE
  8
_0-0_0
  6
CONTINUOUS
 62
    4
 10
68.897038705069917
 20
54.477535335427468
 11
68.854266773522752
 21
53.979368132701594
  0
LINE
  8
_0-0_0
  6
CONTINUOUS
 62
    4
 10
68.897038705069917
 20
54.477535335427468
 11
68.400953321643484
 21
54.415091021429731
  0
LINE
  8
_0-0_0
  6
CONTINUOUS
 62
    4
 10
68.897038705069917
 20
54.477535335427468
 11
65.968285531158585
 21
51.222577207521176
  0
LINE
  8
_0-0_0
  6
CONTINUOUS
 62
    4
 10
65.968285531158585
 20
51.222577207521176
 11
63.666586851749059
 21
51.222577207521176
  0
LINE
  8
_0-0_0
  6
CONTINUOUS
 62
    4
 10
67.213434392732025
 20
60.28530234188242
 11
68.645189363404057
 21
59.667044513637684
  0
LINE
  8
_0-0_0
  6
CONTINUOUS
 62
    4
 10
68.645189363404057
 20
59.667044513637684
 11
68.396396100946958
 21
60.100751687380466
  0
LINE
  8
_0-0_0
  6
CONTINUOUS
 62
    4
 10
68.645189363404057
 20
59.667044513637684
 11
68.154714952509152
 21
59.569911345989872
  0
LINE
  8
_0-0_0
  6
CONTINUOUS
 62
    4
 10
67.213434392732025
 20
60.28530234188242
 11
65.557515765035589
 21
60.28530234188242
  0
TEXT
  8
_0-0_0
 62
    7
 10
66.013074164794872
 20
60.2901230656894
 40
1.25
 41
1
 50
0
  1
1°
  0
TEXT
  8
_0-0_0
 62
    7
 10
72.716290618395717
 20
56.32025701064424
 40
1.25
 41
1
 50
0
  1
R0.2
  0
TEXT
  8
_0-0_0
 62
    7
 10
71.447235076209153
 20
50.788476442138687
 40
1.25
 41
1
 50
0
  1
R0.2
  0
TEXT
  8
_0-0_0
 62
    7
 10
62.98686479496537
 20
51.406734270383431
 40
1.25
 41
1
 50
0
  1
R0.3
  0
TEXT
  8
_0-0_0
 62
    7
 10
71.902793475968437
 20
53.717066154876924
 40
1.25
 41
1
 50
0
  1
C0.8
  0
LINE
  8
_0-0_0
  6
CONTINUOUS
 62
    4
 10
71.614743200215585
 20
53.559348571775203
 11
74.473444446038655
 21
53.559348571775203
  0
LINE
  8
_0-0_0
  6
CONTINUOUS
 62
    4
 10
69.426782687858789
 20
54.448610992585606
 11
70.279510120498287
 21
50.572577207860632
  0
LINE
  8
_0-0_0
  6
CONTINUOUS
 62
    4
 10
70.279510120498287
 20
50.572577207860632
 11
74.440904560341564
 21
50.572577207860632
  0
LINE
  8
_0-0_0
  6
CONTINUOUS
 62
    4
 10
69.074225320165211
 20
63.430789063927193
 11
68.635727477336814
 21
63.671038188451831
  0
LINE
  8
_0-0_0
  6
CONTINUOUS
 62
    4
 10
69.074225320165211
 20
63.430789063927193
 11
68.62807958914341
 21
63.205059166281742
  0
LINE
  8
_0-0_0
  6
CONTINUOUS
 62
    4
 10
70.374027323868517
 20
63.408100935558728
 11
70.819784671221938
 21
63.6345968235577
  0
LINE
  8
_0-0_0
  6
CONTINUOUS
 62
    4
 10
70.374027323868517
 20
63.408100935558728
 11
70.829948479779801
 21
63.202830626959283
  0
LINE
  8
_0-0_0
  6
CONTINUOUS
 62
    4
 10
65.171163415120886
 20
63.498917262898594
 11
71.324445006534233
 21
63.39151133319887
  0
TEXT
  8
_0-0_0
 62
    7
 10
65.475593217871363
 20
63.562100077011614
 40
1.25
 41
1
 50
0
  1
1.3
  0
LINE
  8
_0-0_0
  6
CONTINUOUS
 62
    4
 10
70.616895158011814
 20
61.441584192417813
 11
72.280044871418709
 21
59.951980536062073
  0
LINE
  8
_0-0_0
  6
CONTINUOUS
 62
    4
 10
70.616895158011814
 20
61.441584192417813
 11
70.723478695620173
 21
60.95307631171282
  0
LINE
  8
_0-0_0
  6
CONTINUOUS
 62
    4
 10
70.616895158011814
 20
61.441584192417813
 11
71.116760004610227
 21
61.453208956292201
  0
TEXT
  8
_0-0_0
 62
    7
 10
73.274319156607617
 20
60.082140078850443
 40
1.25
 41
1
 50
0
  1
1°
  0
LINE
  8
_0-0_0
  6
CONTINUOUS
 62
    4
 10
72.280044871418709
 20
59.951980536062073
 11
74.592184527339824
 21
59.951980536062073
  0
LINE
  8
_0-0_0
  6
CONTINUOUS
 62
    4
 10
70.757901329365878
 20
65.592829980700471
 11
70.81151204903702
 21
65.095712398295319
  0
LINE
  8
_0-0_0
  6
CONTINUOUS
 62
    4
 10
70.757901329365878
 20
65.592829980700471
 11
71.256350403692607
 21
65.553478737990459
  0
LINE
  8
_0-0_0
  6
CONTINUOUS
 62
    4
 10
70.757901329365878
 20
65.592829980700471
 11
72.439775899803791
 21
63.813455435164698
  0
LINE
  8
_0-0_0
  6
CONTINUOUS
 62
    4
 10
72.439775899803791
 20
63.813455435164698
 11
74.985676108084277
 21
63.813455435164698
  0
TEXT
  8
_0-0_0
 62
    7
 10
72.628342166472762
 20
63.81398289592613
 40
1.25
 41
1
 50
0
  1
R0.5
  0
LINE
  8
_0-0_0
  6
CONTINUOUS
 62
    4
 10
76.489741935860948
 20
69.871824949867999
 11
76.489741935860948
 21
64.752216266858937
  0
LINE
  8
_0-0_0
  6
CONTINUOUS
 62
    4
 10
76.489741935860948
 20
67.367453551033534
 11
76.730700020111044
 21
67.805562215219183
  0
LINE
  8
_0-0_0
  6
CONTINUOUS
 62
    4
 10
76.489741935860948
 20
67.367453551033534
 11
76.240508987217893
 21
67.800908205306257
  0
LINE
  8
_0-0_0
  6
CONTINUOUS
 62
    4
 10
76.489741935860948
 20
65.867453551033534
 11
76.231222353938349
 21
65.439472680243071
  0
LINE
  8
_0-0_0
  6
CONTINUOUS
 62
    4
 10
76.489741935860948
 20
65.867453551033534
 11
76.751616633270515
 21
65.441517355275721
  0
TEXT
  8
_0-0_0
 62
    7
 10
76.336683954989439
 20
67.973664950870997
 40
1.25
 41
1
 50
90
  1
1.5
  0
LINE
  8
_0-0_0
  6
CONTINUOUS
 62
    4
 10
81.50736218082865
 20
65.522778837880338
 11
80.477521372981343
 21
63.813455435164698
  0
TEXT
  8
_0-0_0
 62
    7
 10
77.978592354121843
 20
63.823473695921123
 40
1.25
 41
1
 50
0
  1
R0.5
  0
LINE
  8
_0-0_0
  6
CONTINUOUS
 62
    4
 10
81.50736218082865
 20
65.522778837880338
 11
81.047319786967634
 21
65.326919204850398
  0
LINE
  8
_0-0_0
  6
CONTINUOUS
 62
    4
 10
81.50736218082865
 20
65.522778837880338
 11
81.56172547647148
 21
65.025742992003159
  0
LINE
  8
_0-0_0
  6
CONTINUOUS
 62
    4
 10
77.76165978280791
 20
63.813455435164698
 11
80.477521372981343
 21
63.813455435164698
  0
LINE
  8
_0-0_0
  6
CONTINUOUS
 62
    4
 10
83.092777722848055
 20
67.318799751217028
 11
84.307600122206139
 21
68.815634493283241
  0
LINE
  8
_0-0_0
  6
CONTINUOUS
 62
    4
 10
84.307600122206139
 20
68.815634493283241
 11
86.910790977973448
 21
68.815634493283241
  0
LINE
  8
_0-0_0
  6
CONTINUOUS
 62
    4
 10
83.092777722848055
 20
67.318799751217028
 11
83.163488400966713
 21
67.813774498047607
  0
LINE
  8
_0-0_0
  6
CONTINUOUS
 62
    4
 10
83.092777722848055
 20
67.318799751217028
 11
83.590898016945899
 21
67.362114559399444
  0
TEXT
  8
_0-0_0
 62
    7
 10
84.329293379337528
 20
68.83732775041463
 40
1.25
 41
1
 50
0
  1
R0.5
  0
LINE
  8
_0-0_0
  6
CONTINUOUS
 62
    4
 10
69.134364838367901
 20
72.616172624608338
 11
83.151515270408609
 21
72.616172624608338
  0
LINE
  8
_0-0_0
  6
CONTINUOUS
 62
    4
 10
69.134364838367901
 20
72.616172624608338
 11
69.858809208084707
 21
72.81028690843523
  0
LINE
  8
_0-0_0
  6
CONTINUOUS
 62
    4
 10
69.134364838367901
 20
72.616172624608338
 11
69.858809208084707
 21
72.422058340781447
  0
LINE
  8
_0-0_0
  6
CONTINUOUS
 62
    4
 10
83.151515270408609
 20
72.616172624608338
 11
82.427070900691802
 21
72.422058340781447
  0
LINE
  8
_0-0_0
  6
CONTINUOUS
 62
    4
 10
83.151515270408609
 20
72.616172624608338
 11
82.427070900691802
 21
72.81028690843523
  0
LINE
  8
_0-0_0
  6
CONTINUOUS
 62
    4
 10
69.134364838367901
 20
72.616172624608338
 11
69.134364838367901
 21
68.376179754252177
  0
LINE
  8
_0-0_0
  6
CONTINUOUS
 62
    4
 10
83.151515270408609
 20
72.616172624608338
 11
83.151515270408609
 21
68.376179754252177
  0
TEXT
  8
_0-0_0
 62
    7
 10
75.517940054388247
 20
72.866172624608338
 40
1.25
 41
1
 50
0
  1
14
  0
LINE
  8
_0-0_0
  6
CONTINUOUS
 62
    7
 10
68.919515223307072
 20
95.888110852309367
 11
68.919515223307072
 21
85.888110852309367
  0
LINE
  8
_0-0_0
  6
CONTINUOUS
 62
    7
 10
83.142940054388247
 20
85.888110852309367
 11
83.142940054388247
 21
95.888110852309367
  0
LINE
  8
_0-0_0
  6
CONTINUOUS
 62
    7
 10
83.932781998457386
 20
85.888110852309367
 11
83.932781998457386
 21
95.888110852309367
  0
LINE
  8
_0-0_0
  6
CONTINUOUS
 62
    7
 10
69.142940054388247
 20
85.888110852309367
 11
69.142940054388247
 21
95.888110852309367
  0
CIRCLE
  8
_0-0_0
  6
DASHED1
 62
    7
 10
88.84294005438825
 20
90.888110852309367
 40
2.7999999999999998
  0
CIRCLE
  8
_0-0_0
  6
CONTINUOUS
 62
    7
 10
88.84294005438825
 20
90.888110852309367
 40
2.3999999999999999
  0
LINE
  8
_0-0_0
  6
CENTER1
 62
    4
 10
88.84294005438825
 20
87.851427430299281
 11
88.84294005438825
 21
93.817876595400548
  0
LINE
  8
_0-0_0
  6
CONTINUOUS
 62
    4
 10
69.134364838367901
 20
76.459946622577263
 11
93.142940054388247
 21
76.459946622577263
  0
LINE
  8
_0-0_0
  6
CONTINUOUS
 62
    4
 10
69.134364838367901
 20
76.459946622577263
 11
69.858809208084707
 21
76.654060906404168
  0
LINE
  8
_0-0_0
  6
CONTINUOUS
 62
    4
 10
69.134364838367901
 20
76.459946622577263
 11
69.858809208084707
 21
76.265832338750385
  0
LINE
  8
_0-0_0
  6
CONTINUOUS
 62
    4
 10
93.142940054388247
 20
76.459946622577263
 11
92.418495684671455
 21
76.265832338750385
  0
LINE
  8
_0-0_0
  6
CONTINUOUS
 62
    4
 10
93.142940054388247
 20
76.459946622577263
 11
92.418495684671455
 21
76.654060906404168
  0
LINE
  8
_0-0_0
  6
CONTINUOUS
 62
    4
 10
69.134364838367901
 20
76.459946622577263
 11
69.134364838367901
 21
68.376179754252177
  0
LINE
  8
_0-0_0
  6
CONTINUOUS
 62
    4
 10
93.142940054388247
 20
76.459946622577263
 11
93.142940054388247
 21
57.667453551033538
  0
TEXT
  8
_0-0_0
 62
    7
 10
80.513652446378074
 20
76.709946622577263
 40
1.25
 41
1
 50
0
  1
(24)
  0
LINE
  8
_0-0_0
  6
CONTINUOUS
 62
    4
 10
81.927538702278539
 20
62.509455331257164
 11
81.49657816052877
 21
62.762976556117614
  0
LINE
  8
_0-0_0
  6
CONTINUOUS
 62
    4
 10
81.927538702278539
 20
62.509455331257164
 11
81.512971539497911
 21
62.229930614024461
  0
LINE
  8
_0-0_0
  6
CONTINUOUS
 62
    4
 10
83.227340705981845
 20
62.532143459625629
 11
83.666915360033144
 21
62.770416671539344
  0
LINE
  8
_0-0_0
  6
CONTINUOUS
 62
    4
 10
83.227340705981845
 20
62.532143459625629
 11
83.634953087258111
 21
62.242571108337934
  0
LINE
  8
_0-0_0
  6
CONTINUOUS
 62
    4
 10
80.814673838897476
 20
62.490030202810515
 11
86.039687035588457
 21
62.581233147409548
  0
TEXT
  8
_0-0_0
 62
    7
 10
84.023855331879872
 20
62.580706163244471
 40
1.25
 41
1
 50
0
  1
1.3
  0
LINE
  8
_0-0_0
  6
CONTINUOUS
 62
    7
 10
83.313469536467948
 20
57.597826065774924
 11
83.151515270408609
 21
66.876179754252177
  0
ARC
  8
_0-0_0
  6
CONTINUOUS
 62
    7
 10
83.613423845014864
 20
57.603061787706103
 40
0.3
 50
181
 51
211
  0
LINE
  8
_0-0_0
  6
CONTINUOUS
 62
    7
 10
84.095569482166297
 20
56.483394693292524
 11
93.142940054388247
 21
56.167453551033538
  0
LINE
  8
_0-0_0
  6
CONTINUOUS
 62
    7
 10
83.848889140966406
 20
56.628700518925235
 11
83.356273654804226
 21
57.448550365233089
  0
ARC
  8
_0-0_0
  6
CONTINUOUS
 62
    7
 10
84.106039331177044
 20
56.783211941398249
 40
0.3
 50
211
 51
268
  0
LINE
  8
_0-0_0
  6
CONTINUOUS
 62
    4
 10
83.462575780853697
 20
57.529591930992879
 11
85.40264929517248
 21
58.194316180377086
  0
LINE
  8
_0-0_0
  6
CONTINUOUS
 62
    4
 10
85.40264929517248
 20
58.194316180377086
 11
84.044812089540755
 21
56.585801336782587
  0
LINE
  8
_0-0_0
  6
CONTINUOUS
 62
    4
 10
83.462575780853697
 20
57.529591930992879
 11
83.786845637083189
 21
57.91018234119906
  0
LINE
  8
_0-0_0
  6
CONTINUOUS
 62
    4
 10
83.462575780853697
 20
57.529591930992879
 11
83.962359658085887
 21
57.544291456793828
  0
LINE
  8
_0-0_0
  6
CONTINUOUS
 62
    4
 10
84.044812089540755
 20
56.585801336782587
 11
84.15892914616451
 21
57.072604477063677
  0
LINE
  8
_0-0_0
  6
CONTINUOUS
 62
    4
 10
84.044812089540755
 20
56.585801336782587
 11
84.4792493201669
 21
56.833317584018764
  0
LINE
  8
_0-0_0
  6
CONTINUOUS
 62
    4
 10
83.383002280333371
 20
61.675502246479808
 11
85.046151993740267
 21
60.185898590124068
  0
LINE
  8
_0-0_0
  6
CONTINUOUS
 62
    4
 10
83.383002280333371
 20
61.675502246479808
 11
83.48958581794173
 21
61.186994365774815
  0
LINE
  8
_0-0_0
  6
CONTINUOUS
 62
    4
 10
83.383002280333371
 20
61.675502246479808
 11
83.882867126931799
 21
61.687127010354195
  0
TEXT
  8
_0-0_0
 62
    7
 10
86.040426278929174
 20
60.316058132912438
 40
1.25
 41
1
 50
0
  1
1°
  0
LINE
  8
_0-0_0
  6
CONTINUOUS
 62
    4
 10
85.046151993740267
 20
60.185898590124068
 11
87.358291649661381
 21
60.185898590124068
  0
TEXT
  8
_0-0_0
 62
    7
 10
85.485405053858897
 20
58.271514715786025
 40
1.25
 41
1
 50
0
  1
R0.3
  0
LINE
  8
_0-0_0
  6
CONTINUOUS
 62
    4
 10
85.40264929517248
 20
58.194316180377086
 11
88.040388671556456
 21
58.194316180377086
  0
LINE
  8
_0-0_0
  6
CONTINUOUS
 62
    4
 10
82.280025449203435
 20
54.747163885902281
 11
81.168045157727505
 21
53.60947306745583
  0
LINE
  8
_0-0_0
  6
CONTINUOUS
 62
    4
 10
82.020509817594529
 20
55.074571377792771
 11
81.782226675206189
 21
55.51414064884517
  0
LINE
  8
_0-0_0
  6
CONTINUOUS
 62
    4
 10
82.020509817594529
 20
55.074571377792771
 11
81.523148002306982
 21
55.12586684244485
  0
LINE
  8
_0-0_0
  6
CONTINUOUS
 62
    4
 10
82.280025449203435
 20
54.747163885902281
 11
82.202178536585449
 21
54.253261205006694
  0
LINE
  8
_0-0_0
  6
CONTINUOUS
 62
    4
 10
82.280025449203435
 20
54.747163885902281
 11
81.799588808682145
 21
54.608669718354974
  0
LINE
  8
_0-0_0
  6
CONTINUOUS
 62
    4
 10
82.594979404592564
 20
54.457920457483695
 11
82.570034753863055
 21
53.958543080743432
  0
LINE
  8
_0-0_0
  6
CONTINUOUS
 62
    4
 10
82.594979404592564
 20
54.457920457483695
 11
82.926685051763499
 21
54.083792987715824
  0
LINE
  8
_0-0_0
  6
CONTINUOUS
 62
    4
 10
82.594979404592564
 20
54.457920457483695
 11
83.333741084275814
 21
51.782259973976323
  0
LINE
  8
_0-0_0
  6
CONTINUOUS
 62
    4
 10
83.333741084275814
 20
51.782259973976323
 11
86.263996585017153
 21
51.782259973976323
  0
LINE
  8
_0-0_0
  6
CONTINUOUS
 62
    4
 10
82.020509817594529
 20
55.074571377792771
 11
80.934153273087332
 21
55.72532716500568
  0
LINE
  8
_0-0_0
  6
CONTINUOUS
 62
    4
 10
72.107328635909553
 20
56.180431472235888
 11
75.196819905150817
 21
56.180431472235888
  0
TEXT
  8
_0-0_0
 62
    7
 10
78.364035446334384
 20
55.752731162972352
 40
1.25
 41
1
 50
0
  1
R0.2
  0
LINE
  8
_0-0_0
  6
CONTINUOUS
 62
    4
 10
80.934153273087332
 20
55.72532716500568
 11
78.277262417808813
 21
55.72532716500568
  0
TEXT
  8
_0-0_0
 62
    7
 10
78.59362241764164
 20
53.659331849792799
 40
1.25
 41
1
 50
0
  1
C0.5
  0
LINE
  8
_0-0_0
  6
CONTINUOUS
 62
    4
 10
81.168045157727505
 20
53.60947306745583
 11
78.477925046274208
 21
53.60947306745583
  0
TEXT
  8
_0-0_0
 62
    7
 10
83.561378300730936
 20
51.829867165045214
 40
1.25
 41
1
 50
0
  1
R0.2
  0
LINE
  8
_0-0_0
  6
CONTINUOUS
 62
    4
 10
80.666232359403608
 20
58.521634399604486
 11
83.385120586538363
 21
57.065775809897573
  0
LINE
  8
_0-0_0
  6
CONTINUOUS
 62
    4
 10
83.385120586538363
 20
57.065775809897573
 11
83.051057899729428
 21
57.437800165662082
  0
LINE
  8
_0-0_0
  6
CONTINUOUS
 62
    4
 10
83.385120586538363
 20
57.065775809897573
 11
82.89116082334425
 21
57.143259694320185
  0
LINE
  8
_0-0_0
  6
CONTINUOUS
 62
    4
 10
80.666232359403608
 20
58.521634399604486
 11
78.221522798790658
 21
58.521634399604486
  0
TEXT
  8
_0-0_0
 62
    7
 10
78.674670836646441
 20
58.37761527587105
 40
1.25
 41
1
 50
0
  1
30°
  0
LINE
  8
_0-0_0
  6
CONTINUOUS
 62
    4
 10
80.308282457652722
 20
60.520755710301799
 11
81.740037428324754
 21
59.902497882057062
  0
LINE
  8
_0-0_0
  6
CONTINUOUS
 62
    4
 10
81.740037428324754
 20
59.902497882057062
 11
81.491244165867641
 21
60.336205055799844
  0
LINE
  8
_0-0_0
  6
CONTINUOUS
 62
    4
 10
81.740037428324754
 20
59.902497882057062
 11
81.249563017429849
 21
59.80536471440925
  0
LINE
  8
_0-0_0
  6
CONTINUOUS
 62
    4
 10
80.308282457652722
 20
60.520755710301799
 11
78.652363829956286
 21
60.520755710301799
  0
TEXT
  8
_0-0_0
 62
    7
 10
79.107922229715569
 20
60.525576434108778
 40
1.25
 41
1
 50
0
  1
1°
  0
LINE
  8
_0-0_0
  6
CONTINUOUS
 62
    4
 10
96.207643322620029
 20
56.167453551033538
 11
96.207643322620029
 21
54.167453551033538
  0
LINE
  8
_0-0_0
  6
CONTINUOUS
 62
    4
 10
96.207643322620029
 20
56.167453551033538
 11
96.013529038793137
 21
56.891897920750338
  0
LINE
  8
_0-0_0
  6
CONTINUOUS
 62
    4
 10
96.207643322620029
 20
56.167453551033538
 11
96.401757606446921
 21
56.891897920750338
  0
LINE
  8
_0-0_0
  6
CONTINUOUS
 62
    4
 10
96.207643322620029
 20
54.167453551033538
 11
96.401757606446921
 21
53.443009181316739
  0
LINE
  8
_0-0_0
  6
CONTINUOUS
 62
    4
 10
96.207643322620029
 20
54.167453551033538
 11
96.013529038793137
 21
53.443009181316739
  0
LINE
  8
_0-0_0
  6
CONTINUOUS
 62
    4
 10
96.207643322620029
 20
56.167453551033538
 11
94.642940054388247
 21
56.167453551033538
  0
LINE
  8
_0-0_0
  6
CONTINUOUS
 62
    4
 10
96.207643322620029
 20
54.167453551033538
 11
94.642940054388247
 21
54.167453551033538
  0
LINE
  8
_0-0_0
  6
CONTINUOUS
 62
    4
 10
96.207643322620029
 20
56.167453551033538
 11
96.207643322620029
 21
57.997380685595786
  0
TEXT
  8
_0-0_0
 62
    7
 10
95.996736656064811
 20
52.144720688688359
 40
1.25
 41
1
 50
90
  1
2
  0
LINE
  8
_0-0_0
  6
CONTINUOUS
 62
    4
 10
96.207643322620029
 20
54.167453551033538
 11
96.207643322620029
 21
51.519231774733157
  0
LINE
  8
_0-0_0
  6
CONTINUOUS
 62
    4
 10
83.151515270408609
 20
72.616172624608338
 11
93.142940054388247
 21
72.616172624608338
  0
LINE
  8
_0-0_0
  6
CONTINUOUS
 62
    4
 10
83.151515270408609
 20
72.616172624608338
 11
83.875959640125401
 21
72.81028690843523
  0
LINE
  8
_0-0_0
  6
CONTINUOUS
 62
    4
 10
83.151515270408609
 20
72.616172624608338
 11
83.875959640125401
 21
72.422058340781447
  0
LINE
  8
_0-0_0
  6
CONTINUOUS
 62
    4
 10
93.142940054388247
 20
72.616172624608338
 11
92.418495684671455
 21
72.422058340781447
  0
LINE
  8
_0-0_0
  6
CONTINUOUS
 62
    4
 10
93.142940054388247
 20
72.616172624608338
 11
92.418495684671455
 21
72.81028690843523
  0
LINE
  8
_0-0_0
  6
CONTINUOUS
 62
    4
 10
83.151515270408609
 20
72.616172624608338
 11
83.151515270408609
 21
68.376179754252177
  0
TEXT
  8
_0-0_0
 62
    7
 10
87.522227662398435
 20
72.866172624608338
 40
1.25
 41
1
 50
0
  1
(10)
  0
POINT
  8
_0-0_0
 62
    9
 10
83.325897794344982
 20
57.51745355103354
  0
LINE
  8
_0-0_0
  6
CONTINUOUS
 62
    4
 10
104.40665114403719
 20
67.367453551033534
 11
104.40665114403719
 21
57.517453551033533
  0
LINE
  8
_0-0_0
  6
CONTINUOUS
 62
    4
 10
104.40665114403719
 20
67.367453551033534
 11
104.60076542786408
 21
66.643009181316728
  0
LINE
  8
_0-0_0
  6
CONTINUOUS
 62
    4
 10
104.40665114403719
 20
67.367453551033534
 11
104.2125368602103
 21
66.643009181316728
  0
LINE
  8
_0-0_0
  6
CONTINUOUS
 62
    4
 10
104.40665114403719
 20
57.517453551033533
 11
104.2125368602103
 21
58.241897920750339
  0
LINE
  8
_0-0_0
  6
CONTINUOUS
 62
    4
 10
104.40665114403719
 20
57.517453551033533
 11
104.60076542786408
 21
58.241897920750339
  0
LINE
  8
_0-0_0
  6
CONTINUOUS
 62
    4
 10
104.40665114403719
 20
67.367453551033534
 11
84.151591422830406
 21
67.367453551033534
  0
ARC
  8
_0-0_0
  6
CONTINUOUS
 62
    4
 10
83.332456857482924
 20
56.510043173355335
 40
7.8923551017905548
 50
358
 51
90.999999999999985
  0
LINE
  8
_0-0_0
  6
CONTINUOUS
 62
    4
 10
91.220004149789772
 20
56.23460395250543
 11
91.051290859031865
 21
56.965381501094356
  0
LINE
  8
_0-0_0
  6
CONTINUOUS
 62
    4
 10
91.220004149789772
 20
56.23460395250543
 11
91.43928292833182
 21
56.951832519477704
  0
LINE
  8
_0-0_0
  6
CONTINUOUS
 62
    4
 10
83.194716268499121
 20
64.401196231236411
 11
83.915662540452856
 21
64.607924248099152
  0
LINE
  8
_0-0_0
  6
CONTINUOUS
 62
    4
 10
83.194716268499121
 20
64.401196231236411
 11
83.922438063206115
 21
64.219754809536652
  0
LINE
  8
_0-0_0
  6
CONTINUOUS
 62
    4
 10
90.757646795437665
 20
56.250749827099575
 11
91.220004149789772
 21
56.23460395250543
  0
LINE
  8
_0-0_0
  6
CONTINUOUS
 62
    4
 10
83.16853839873201
 20
65.900925384635868
 11
83.194716268499121
 21
64.401196231236411
  0
TEXT
  8
_0-0_0
 62
    7
 10
88.015487178095213
 20
63.02528960498487
 40
1.25
 41
1
 50
-45.499999999999985
  1
( 93°)
  0
LINE
  8
_0-0_0
  6
CONTINUOUS
 62
    4
 10
69.133917207119949
 20
67.355002605871632
 11
67.253834922399107
 21
70.035325042550581
  0
LINE
  8
_0-0_0
  6
CONTINUOUS
 62
    4
 10
67.253834922399107
 20
70.035325042550581
 11
64.527715609553894
 21
70.035325042550581
  0
LINE
  8
_0-0_0
  6
CONTINUOUS
 62
    4
 10
69.133917207119949
 20
67.355002605871632
 11
69.038906253837026
 21
67.845892531166782
  0
LINE
  8
_0-0_0
  6
CONTINUOUS
 62
    4
 10
69.133917207119949
 20
67.355002605871632
 11
68.693272195686546
 21
67.591290510553307
  0
TEXT
  8
_0-0_0
 62
    7
 10
64.561460676202727
 20
70.058223480633714
 40
1.25
 41
1
 50
0
  1
R0.5
  0
LINE
  8
_0-0_0
  6
CONTINUOUS
 62
    7
 10
69.336608975757016
 20
35.816777639193723
 11
70.136608975757013
 21
31.816777639193723
  0
LINE
  8
_0-0_0
  6
CONTINUOUS
 62
    7
 10
69.336608975757016
 20
31.816777639193723
 11
70.136608975757013
 21
35.816777639193723
  0
LINE
  8
_0-0_0
  6
CONTINUOUS
 62
    7
 10
69.73199302361823
 20
33.83985739988762
 11
69.743532903965174
 21
33.851397280234564
  0
LINE
  8
_0-0_0
  6
CONTINUOUS
 62
    7
 10
69.73199302361823
 20
33.83985739988762
 11
69.743532903965174
 21
33.851397280234564
  0
LINE
  8
_0-0_0
  6
CONTINUOUS
 62
    7
 10
69.830233606484441
 20
31.816777639193837
 11
70.085546414211492
 21
32.072090446920888
  0
LINE
  8
_0-0_0
  6
CONTINUOUS
 62
    7
 10
69.389979513371599
 20
32.083630327267663
 11
69.967695284013686
 21
32.661346097909742
  0
LINE
  8
_0-0_0
  6
CONTINUOUS
 62
    7
 10
69.566756208668309
 20
32.967513803751032
 11
69.849844153815979
 21
33.250601748898702
  0
LINE
  8
_0-0_0
  6
CONTINUOUS
 62
    7
 10
69.73199302361823
 20
33.83985739988762
 11
69.743532903965174
 21
33.851397280234564
  0
LINE
  8
_0-0_0
  6
CONTINUOUS
 62
    7
 10
69.389979513371599
 20
32.083630327267663
 11
69.967695284013686
 21
32.661346097909742
  0
LINE
  8
_0-0_0
  6
CONTINUOUS
 62
    7
 10
69.566756208668309
 20
32.967513803751032
 11
69.849844153815979
 21
33.250601748898702
  0
LINE
  8
_0-0_0
  6
CONTINUOUS
 62
    7
 10
69.73199302361823
 20
33.83985739988762
 11
69.743532903965174
 21
33.851397280234564
  0
LINE
  8
_0-0_0
  6
CONTINUOUS
 62
    7
 10
69.614141893420693
 20
34.429113050875841
 11
69.920309599261827
 21
34.735280756716967
  0
LINE
  8
_0-0_0
  6
CONTINUOUS
 62
    7
 10
69.496290763222873
 20
35.018368701864694
 11
70.097086294558408
 21
35.619164233200223
  0
LINE
  8
_0-0_0
  6
CONTINUOUS
 62
    7
 10
69.378439633025067
 20
35.607624352853548
 11
69.587592919365221
 21
35.816777639193702
  0
LINE
  8
_0-0_0
  6
CONTINUOUS
 62
    4
 10
69.699270753323276
 20
31.706731122650783
 11
67.565297014768347
 21
28.664050946480777
  0
LINE
  8
_0-0_0
  6
CONTINUOUS
 62
    4
 10
69.699270753323276
 20
31.706731122650783
 11
69.292583989844388
 21
31.415860229622513
  0
LINE
  8
_0-0_0
  6
CONTINUOUS
 62
    4
 10
69.699270753323276
 20
31.706731122650783
 11
69.575570145773951
 21
31.222274561448514
  0
LINE
  8
_0-0_0
  6
CONTINUOUS
 62
    4
 10
67.565297014768347
 20
28.664050946480777
 11
57.449008105828127
 21
28.664050946480777
  0
TEXT
  8
_0-0_0
 62
    1
 10
58.132345705467052
 20
28.871609888170045
 40
1.25
 41
1
 50
0
  1
角EP(0.8×4.0)
  0
LINE
  8
_0-0_0
  6
CONTINUOUS
 62
    4
 10
98.325883684228557
 20
36.816777639193723
 11
98.325883684228557
 21
33.816777639193723
  0
LINE
  8
_0-0_0
  6
CONTINUOUS
 62
    4
 10
98.325883684228557
 20
36.816777639193723
 11
98.519997968055449
 21
36.092333269476924
  0
LINE
  8
_0-0_0
  6
CONTINUOUS
 62
    4
 10
98.325883684228557
 20
36.816777639193723
 11
98.131769400401665
 21
36.092333269476924
  0
LINE
  8
_0-0_0
  6
CONTINUOUS
 62
    4
 10
98.325883684228557
 20
33.816777639193723
 11
98.131769400401665
 21
34.541222008910523
  0
LINE
  8
_0-0_0
  6
CONTINUOUS
 62
    4
 10
98.325883684228557
 20
33.816777639193723
 11
98.519997968055449
 21
34.541222008910523
  0
LINE
  8
_0-0_0
  6
CONTINUOUS
 62
    4
 10
98.325883684228557
 20
36.816777639193723
 11
94.012796753388641
 21
36.816777639193723
  0
LINE
  8
_0-0_0
  6
CONTINUOUS
 62
    4
 10
98.325883684228557
 20
33.816777639193723
 11
93.356842469894701
 21
33.816777639193723
  0
LINE
  8
_0-0_0
  6
CONTINUOUS
 62
    4
 10
98.325883684228557
 20
33.816777639193723
 11
98.325883684228557
 21
30.816777639193723
  0
LINE
  8
_0-0_0
  6
CONTINUOUS
 62
    4
 10
98.325883684228557
 20
33.816777639193723
 11
98.519997968055449
 21
33.092333269476924
  0
LINE
  8
_0-0_0
  6
CONTINUOUS
 62
    4
 10
98.325883684228557
 20
33.816777639193723
 11
98.131769400401665
 21
33.092333269476924
  0
LINE
  8
_0-0_0
  6
CONTINUOUS
 62
    4
 10
98.325883684228557
 20
30.816777639193723
 11
98.131769400401665
 21
31.541222008910523
  0
LINE
  8
_0-0_0
  6
CONTINUOUS
 62
    4
 10
98.325883684228557
 20
30.816777639193723
 11
98.519997968055449
 21
31.541222008910523
  0
LINE
  8
_0-0_0
  6
CONTINUOUS
 62
    4
 10
98.325883684228557
 20
30.816777639193723
 11
93.971820601029335
 21
30.816777639193723
  0
LINE
  8
_0-0_0
  6
CONTINUOUS
 62
    4
 10
84.742940054388256
 20
42.307532066784716
 11
88.84294005438825
 21
42.307532066784716
  0
LINE
  8
_0-0_0
  6
CONTINUOUS
 62
    4
 10
84.742940054388256
 20
42.307532066784716
 11
85.467384424105063
 21
42.501646350611601
  0
LINE
  8
_0-0_0
  6
CONTINUOUS
 62
    4
 10
84.742940054388256
 20
42.307532066784716
 11
85.467384424105063
 21
42.113417782957824
  0
LINE
  8
_0-0_0
  6
CONTINUOUS
 62
    4
 10
88.84294005438825
 20
42.307532066784716
 11
88.118495684671458
 21
42.113417782957824
  0
LINE
  8
_0-0_0
  6
CONTINUOUS
 62
    4
 10
88.84294005438825
 20
42.307532066784716
 11
88.118495684671458
 21
42.501646350611601
  0
LINE
  8
_0-0_0
  6
CONTINUOUS
 62
    4
 10
84.742940054388256
 20
42.307532066784716
 11
84.742940054388256
 21
36.464637196324275
  0
LINE
  8
_0-0_0
  6
CONTINUOUS
 62
    4
 10
88.84294005438825
 20
42.307532066784716
 11
88.84294005438825
 21
38.333872852479444
  0
LINE
  8
_0-0_0
  6
CONTINUOUS
 62
    4
 10
91.242940054388256
 20
42.307532066784716
 11
88.84294005438825
 21
42.307532066784716
  0
LINE
  8
_0-0_0
  6
CONTINUOUS
 62
    4
 10
91.242940054388256
 20
42.307532066784716
 11
91.967384424105063
 21
42.501646350611601
  0
LINE
  8
_0-0_0
  6
CONTINUOUS
 62
    4
 10
91.242940054388256
 20
42.307532066784716
 11
91.967384424105063
 21
42.113417782957824
  0
LINE
  8
_0-0_0
  6
CONTINUOUS
 62
    4
 10
88.84294005438825
 20
42.307532066784716
 11
88.118495684671458
 21
42.113417782957824
  0
LINE
  8
_0-0_0
  6
CONTINUOUS
 62
    4
 10
88.84294005438825
 20
42.307532066784716
 11
88.118495684671458
 21
42.501646350611601
  0
LINE
  8
_0-0_0
  6
CONTINUOUS
 62
    4
 10
91.242940054388256
 20
42.307532066784716
 11
91.242940054388256
 21
39.506513918526479
  0
LINE
  8
_0-0_0
  6
CONTINUOUS
 62
    4
 10
91.242940054388256
 20
42.307532066784716
 11
95.870930085525785
 21
42.307532066784716
  0
TEXT
  8
_0-0_0
 62
    7
 10
85.371393633930935
 20
42.654624180887005
 40
1.25
 41
1
 50
0
  1
(4.1)
  0
TEXT
  8
_0-0_0
 62
    7
 10
92.595248258685245
 20
42.524464638098642
 40
1.25
 41
1
 50
0
  1
(2.4)
  0
TEXT
  8
_0-0_0
 62
    7
 10
97.88659522731784
 20
34.418417556667634
 40
1.25
 41
1
 50
90
  1
(3)
  0
TEXT
  8
_0-0_0
 62
    7
 10
97.915519570159688
 20
31.569369786744513
 40
1.25
 41
1
 50
90
  1
(3)
  0
LINE
  8
_0-0_0
  6
CONTINUOUS
 62
    7
 10
90.872099717459306
 20
35.888081001691418
 11
91.242940054388384
 21
36.258921338620488
  0
LINE
  8
_0-0_0
  6
CONTINUOUS
 62
    7
 10
91.800796354961562
 20
36.816777639193674
 11
92.171636691889418
 21
37.187617976121529
  0
LINE
  8
_0-0_0
  6
CONTINUOUS
 62
    7
 10
90.465156884801146
 20
36.188244950219925
 11
91.093689573774966
 21
36.816777639193745
  0
LINE
  8
_0-0_0
  6
CONTINUOUS
 62
    7
 10
91.242940054388355
 20
36.966028119807134
 11
91.871472743361138
 21
37.594560808779917
  0
LINE
  8
_0-0_0
  6
CONTINUOUS
 62
    7
 10
90.252033194196812
 20
36.682228040802257
 11
90.38658279258837
 21
36.816777639193816
  0
LINE
  8
_0-0_0
  6
CONTINUOUS
 62
    7
 10
91.242940054388327
 20
37.673134900993773
 11
91.377489652778805
 21
37.807684499384251
  0
LINE
  8
_0-0_0
  6
CONTINUOUS
 62
    7
 10
84.346990280095198
 20
32.898505470260644
 11
84.742940054388171
 21
33.294455244553617
  0
LINE
  8
_0-0_0
  6
CONTINUOUS
 62
    7
 10
85.265262449028298
 20
33.816777639193745
 11
85.661212223321328
 21
34.212727413486774
  0
LINE
  8
_0-0_0
  6
CONTINUOUS
 62
    7
 10
83.949503153109546
 20
33.20812512446075
 11
84.558155667842413
 21
33.816777639193617
  0
LINE
  8
_0-0_0
  6
CONTINUOUS
 62
    7
 10
84.74294005438827
 20
34.001562025739474
 11
85.351592569119858
 21
34.610214540471062
  0
LINE
  8
_0-0_0
  6
CONTINUOUS
 62
    7
 10
83.748239027514884
 20
33.713967780052755
 11
83.851048886655803
 21
33.816777639193674
  0
LINE
  8
_0-0_0
  6
CONTINUOUS
 62
    7
 10
84.742940054388171
 20
34.708668806926041
 11
84.845749913529218
 21
34.811478666067088
  0
LINE
  8
_0-0_0
  6
CONTINUOUS
 62
    7
 10
91.167599522392194
 20
29.819619775945213
 11
91.242940054388299
 21
29.894960307941317
  0
LINE
  8
_0-0_0
  6
CONTINUOUS
 62
    7
 10
92.164757385640768
 20
30.816777639193784
 11
92.240097917637214
 21
30.892118171190233
  0
LINE
  8
_0-0_0
  6
CONTINUOUS
 62
    7
 10
90.651385574930756
 20
30.010512609670442
 11
91.242940054388469
 21
30.602067089128148
  0
LINE
  8
_0-0_0
  6
CONTINUOUS
 62
    7
 10
91.457650604454158
 20
30.816777639193851
 11
92.049205083911985
 21
31.408332118651674
  0
LINE
  8
_0-0_0
  6
CONTINUOUS
 62
    7
 10
90.333879594223773
 20
30.40011341015013
 11
90.750543823267577
 21
30.816777639193922
  0
LINE
  8
_0-0_0
  6
CONTINUOUS
 62
    7
 10
91.242940054388554
 20
31.309173870314904
 11
91.659604283432528
 21
31.725838099358885
  0
LINE
  8
_0-0_0
  6
CONTINUOUS
 62
    4
 10
91.950046835574795
 20
30.109670858007177
 11
92.599565888413124
 21
29.734670858007177
  0
LINE
  8
_0-0_0
  6
CONTINUOUS
 62
    4
 10
91.950046835574795
 20
30.109670858007177
 11
92.325046835574795
 21
29.460151805168848
  0
LINE
  8
_0-0_0
  6
CONTINUOUS
 62
    7
 10
91.142940054388247
 20
28.816777639193727
 11
68.919515223307072
 21
28.816777639193727
  0
ARC
  8
_0-0_0
  6
CONTINUOUS
 62
    7
 10
91.142940054388247
 20
30.816777639193727
 40
2
 50
270
 51
0
  0
LINE
  8
_0-0_0
  6
CONTINUOUS
 62
    7
 10
91.142940054388247
 20
38.81677763919373
 11
68.919515223307072
 21
38.81677763919373
  0
LINE
  8
_0-0_0
  6
CONTINUOUS
 62
    7
 10
93.142940054388247
 20
36.81677763919373
 11
93.142940054388247
 21
30.816777639193727
  0
ARC
  8
_0-0_0
  6
CONTINUOUS
 62
    7
 10
91.142940054388247
 20
36.81677763919373
 40
2
 50
0
 51
90
  0
LINE
  8
_0-0_0
  6
CONTINUOUS
 62
    7
 10
91.142940054388247
 20
95.888110852309367
 11
68.919515223307072
 21
95.888110852309367
  0
ARC
  8
_0-0_0
  6
CONTINUOUS
 62
    7
 10
91.142940054388247
 20
93.888110852309367
 40
2
 50
0
 51
90
  0
LINE
  8
_0-0_0
  6
CONTINUOUS
 62
    7
 10
91.142940054388247
 20
85.888110852309367
 11
68.919515223307072
 21
85.888110852309367
  0
LINE
  8
_0-0_0
  6
CONTINUOUS
 62
    7
 10
93.142940054388247
 20
87.888110852309367
 11
93.142940054388247
 21
93.888110852309367
  0
ARC
  8
_0-0_0
  6
CONTINUOUS
 62
    7
 10
91.142940054388247
 20
87.888110852309367
 40
2
 50
270
 51
0
  0
TEXT
  8
_0-0_0
 62
    1
 10
97.84272747760562
 20
26.321925091236881
 40
1.25
 41
1
 50
0
  1
3箇所　φ2EP
  0
LINE
  8
_0-0_0
  6
CONTINUOUS
 62
    4
 10
91.950046835574795
 20
30.109670858007177
 11
96.009862202201347
 21
26.049855491380633
  0
LINE
  8
_0-0_0
  6
CONTINUOUS
 62
    4
 10
96.009862202201347
 20
26.049855491380633
 11
105.7426886162884
 21
26.049855491380633
  0
LINE
  8
_0-0_0
  6
CONTINUOUS
 62
    4
 10
88.01487854311614
 20
93.789260382570958
 11
83.741306888231449
 21
99.581360036653251
  0
LINE
  8
_0-0_0
  6
CONTINUOUS
 62
    4
 10
88.01487854311614
 20
93.789260382570958
 11
88.005577827038067
 21
94.289173871767275
  0
LINE
  8
_0-0_0
  6
CONTINUOUS
 62
    4
 10
88.01487854311614
 20
93.789260382570958
 11
87.536567941129703
 21
93.934927702266833
  0
LINE
  8
_0-0_0
  6
CONTINUOUS
 62
    4
 10
83.741306888231449
 20
99.581360036653251
 11
79.776261556993262
 21
99.581360036653251
  0
TEXT
  8
_0-0_0
 62
    7
 10
79.385782928628174
 20
99.83685839842299
 40
1.25
 41
1
 50
0
  1
(φ5.6)
  0
LINE
  8
_0-0_0
  6
CONTINUOUS
 62
    4
 10
93.142940054388247
 20
82.450793410547561
 11
88.84294005438825
 21
82.450793410547561
  0
LINE
  8
_0-0_0
  6
CONTINUOUS
 62
    4
 10
93.142940054388247
 20
82.450793410547561
 11
92.418495684671455
 21
82.256679126720669
  0
LINE
  8
_0-0_0
  6
CONTINUOUS
 62
    4
 10
93.142940054388247
 20
82.450793410547561
 11
92.418495684671455
 21
82.644907694374452
  0
LINE
  8
_0-0_0
  6
CONTINUOUS
 62
    4
 10
88.84294005438825
 20
82.450793410547561
 11
89.567384424105057
 21
82.644907694374452
  0
LINE
  8
_0-0_0
  6
CONTINUOUS
 62
    4
 10
88.84294005438825
 20
82.450793410547561
 11
89.567384424105057
 21
82.256679126720669
  0
LINE
  8
_0-0_0
  6
CONTINUOUS
 62
    4
 10
88.84294005438825
 20
82.450793410547561
 11
88.84294005438825
 21
86.351427430299281
  0
TEXT
  8
_0-0_0
 62
    7
 10
90.055440054388256
 20
82.700793410547561
 40
1.25
 41
1
 50
0
  1
4.3
  0
LINE
  8
_0-0_0
  6
CONTINUOUS
 62
    4
 10
93.142940054388247
 20
82.450793410547561
 11
93.142940054388247
 21
87.044091356858245
  0
LINE
  8
_0-0_0
  6
CONTINUOUS
 62
    4
 10
87.099591349845113
 20
89.098798392716872
 11
83.167300403173229
 21
83.164613873193857
  0
LINE
  8
_0-0_0
  6
CONTINUOUS
 62
    4
 10
87.099591349845113
 20
89.098798392716872
 11
87.062066864017367
 21
88.600208468066
  0
LINE
  8
_0-0_0
  6
CONTINUOUS
 62
    4
 10
87.099591349845113
 20
89.098798392716872
 11
86.642562398961871
 21
88.896006533771398
  0
LINE
  8
_0-0_0
  6
CONTINUOUS
 62
    4
 10
83.167300403173229
 20
83.164613873193857
 11
78.732234500754842
 21
83.164613873193857
  0
TEXT
  8
_0-0_0
 62
    7
 10
79.610811414576303
 20
83.198961530318555
 40
1.25
 41
1
 50
0
  1
φ4.8
  0
LINE
  8
_0-0_0
  6
CONTINUOUS
 62
    4
 10
104.40665114403719
 20
57.517453551033533
 11
84.409201712040839
 21
57.51745355103354
  0
TEXT
  8
_1-7_23
 62
    7
 10
86.297908572947648
 20
1.2261875664904664
 40
1.5
 41
1
 50
0
  1
2020.12.7
  0
TEXT
  8
_2-0_
 62
    7
 10
99.401991708880501
 20
-2.816893231373136
 40
1.5
 41
1
 50
0
  1
2020年12月7日
  0
TEXT
  8
_2-0_
 62
    7
 10
83.270343374547408
 20
-3.0229791741213816
 40
2
 41
1
 50
0
  1
森西
  0
TEXT
  8
_0-0_0
 62
    7
 10
90.580971027827288
 20
-2.9578994027272003
 40
2
 41
1
 50
0
  1
谷山
  0
LINE
  8
_0-0_0
  6
CONTINUOUS
 62
    4
 10
59.953874422435163
 20
85.888110852309367
 11
59.953874422435163
 21
95.888110852309367
  0
LINE
  8
_0-0_0
  6
CONTINUOUS
 62
    4
 10
59.953874422435163
 20
85.888110852309367
 11
59.759760138608271
 21
86.612555222026173
  0
LINE
  8
_0-0_0
  6
CONTINUOUS
 62
    4
 10
59.953874422435163
 20
85.888110852309367
 11
60.147988706262054
 21
86.612555222026173
  0
LINE
  8
_0-0_0
  6
CONTINUOUS
 62
    4
 10
59.953874422435163
 20
95.888110852309367
 11
60.147988706262054
 21
95.16366648259256
  0
LINE
  8
_0-0_0
  6
CONTINUOUS
 62
    4
 10
59.953874422435163
 20
95.888110852309367
 11
59.759760138608271
 21
95.16366648259256
  0
LINE
  8
_0-0_0
  6
CONTINUOUS
 62
    4
 10
59.953874422435163
 20
85.888110852309367
 11
67.419515223307072
 21
85.888110852309367
  0
LINE
  8
_0-0_0
  6
CONTINUOUS
 62
    4
 10
59.953874422435163
 20
95.888110852309367
 11
67.419515223307072
 21
95.888110852309367
  0
TEXT
  8
_0-0_0
 62
    7
 10
59.703874422435163
 20
90.263110852309367
 40
1.25
 41
1
 50
90
  1
10
  0
TEXT
  8
_2-0_
 62
    7
 10
102.78609873793615
 20
-13.182535263548629
 40
2.5
 41
1
 50
0
  1
FB20C010
  0
TEXT
  8
_0-0_0
 62
    7
 10
102.98041875698963
 20
1.0384618023038854
 40
1.5
 41
1
 50
0
  1
F6184033-3
  0
TEXT
  8
_0-0_0
 62
    7
 10
115.93942823585631
 20
1.1848912879408004
 40
1.5
 41
1
 50
0
  1
吉田
  0
TEXT
  8
_0-0_0
 62
    7
 10
104.156123037404
 20
61.155391295990511
 40
1.25
 41
1
 50
90
  1
(9.8)
  0
LINE
  8
_0-0_0
  6
CONTINUOUS
 62
    4
 10
104.40665114403719
 20
95.888110852309367
 11
104.40665114403719
 21
90.888110852309367
  0
LINE
  8
_0-0_0
  6
CONTINUOUS
 62
    4
 10
104.40665114403719
 20
95.888110852309367
 11
104.60076542786408
 21
95.16366648259256
  0
LINE
  8
_0-0_0
  6
CONTINUOUS
 62
    4
 10
104.40665114403719
 20
95.888110852309367
 11
104.2125368602103
 21
95.16366648259256
  0
LINE
  8
_0-0_0
  6
CONTINUOUS
 62
    4
 10
104.40665114403719
 20
90.888110852309367
 11
104.2125368602103
 21
91.612555222026173
  0
LINE
  8
_0-0_0
  6
CONTINUOUS
 62
    4
 10
104.40665114403719
 20
90.888110852309367
 11
104.60076542786408
 21
91.612555222026173
  0
LINE
  8
_0-0_0
  6
CONTINUOUS
 62
    4
 10
104.40665114403719
 20
95.888110852309367
 11
92.642940054388247
 21
95.888110852309367
  0
LINE
  8
_0-0_0
  6
CONTINUOUS
 62
    4
 10
104.40665114403719
 20
90.888110852309367
 11
94.788059290713221
 21
90.888110852309367
  0
TEXT
  8
_0-0_0
 62
    7
 10
104.15665114403719
 20
93.075610852309367
 40
1.25
 41
1
 50
90
  1
5
  0
LINE
  8
_0-0_0
  6
CONTINUOUS
 62
    4
 10
104.40665114403719
 20
90.888110852309367
 11
104.40665114403719
 21
85.888110852309367
  0
LINE
  8
_0-0_0
  6
CONTINUOUS
 62
    4
 10
104.40665114403719
 20
90.888110852309367
 11
104.60076542786408
 21
90.16366648259256
  0
LINE
  8
_0-0_0
  6
CONTINUOUS
 62
    4
 10
104.40665114403719
 20
90.888110852309367
 11
104.2125368602103
 21
90.16366648259256
  0
LINE
  8
_0-0_0
  6
CONTINUOUS
 62
    4
 10
104.40665114403719
 20
85.888110852309367
 11
104.2125368602103
 21
86.612555222026173
  0
LINE
  8
_0-0_0
  6
CONTINUOUS
 62
    4
 10
104.40665114403719
 20
85.888110852309367
 11
104.60076542786408
 21
86.612555222026173
  0
LINE
  8
_0-0_0
  6
CONTINUOUS
 62
    4
 10
104.40665114403719
 20
85.888110852309367
 11
92.642940054388247
 21
85.888110852309367
  0
TEXT
  8
_0-0_0
 62
    7
 10
104.15665114403719
 20
88.075610852309367
 40
1.25
 41
1
 50
90
  1
5
  0
LINE
  8
_0-0_0
  6
CENTER1
 62
    4
 10
67.628181436921707
 20
90.888110852309367
 11
94.060172079368811
 21
90.888110852309367
  0
TEXT
  8
_0-0_0
 62
    7
 10
93.283212991766845
 20
98.285555716751929
 40
1.25
 41
1
 50
0
  1
2-R2
  0
LINE
  8
_0-0_0
  6
CONTINUOUS
 62
    4
 10
91.737704924000809
 20
96.066033291685954
 11
91.737704924000809
 21
96.566033291685954
  0
LINE
  8
_0-0_0
  6
CONTINUOUS
 62
    4
 10
91.737704924000809
 20
96.066033291685954
 11
92.163534082353081
 21
96.328082004518122
  0
LINE
  8
_0-0_0
  6
CONTINUOUS
 62
    4
 10
91.737704924000809
 20
96.066033291685954
 11
92.554553498940663
 21
98.202406487682495
  0
LINE
  8
_0-0_0
  6
CONTINUOUS
 62
    4
 10
92.554553498940663
 20
98.202406487682495
 11
96.705411411342737
 21
98.202406487682495
  0
TEXT
  8
_2-0_
 62
    7
 10
72.340240862136141
 20
13.532466202927061
 40
2
 41
1
 50
0
  1
普通公差　JIS　B　0405m（中級）：1991適用
  0
TEXT
  8
_2-0_
 62
    7
 10
82.095419769857429
 20
11.555065072983559
 40
2
 41
1
 50
0
  1
（ISO　2786－1：1989）
  0
TEXT
  8
_2-0_
 62
    7
 10
72.50265716261741
 20
15.912671266747949
 40
2
 41
1
 50
0
  1
0.5mm以上のバリ、かけ、汚れ、異物無き事
  0
TEXT
  8
_2-0_
 62
    7
 10
72.356183004843828
 20
18.461321612008461
 40
2
 41
1
 50
0
  1
注記）
  0
TEXT
  8
_0-0_0
 62
    7
 10
72.532754711540974
 20
9.1806676628705901
 40
2
 41
1
 50
0
  1
ユーピロンS3000UVR-5355(カラーアイスブルー)
  0
TEXT
  8
_0-0_0
 62
    7
 10
72.505039065040762
 20
6.2247171611120108
 40
2
 41
1
 50
0
  1
金型番号1または2を明記（φ2EP）
  0
ENDSEC
  0
EOF
