  0
SECTION
  2
HEADER
  9
$ACADVER
  1
AC1009
  9
$INSBASE
 10
0
 20
0
 30
0
  9
$EXTMIN
 10
0
 20
0
  9
$EXTMAX
 10
297
 20
210
  9
$LIMMIN
 10
0
 20
0
  9
$LIMMAX
 10
297
 20
210
  9
$LTSCALE
 40
1
  0
ENDSEC
  0
SECTION
  2
TABLES
  0
TABLE
  2
LTYPE
 70
     9
  0
LTYPE
  2
CONTINUOUS
 70
    64
  3
実線
 72
    65
 73
     0
 40
0.0
  0
LTYPE
  2
DASHED1
 70
    64
  3
--  --  --  --  --  --  --  --  
 72
    65
 73
     2
 40
2.5
 49
1.25
 49
-1.25
  0
LTYPE
  2
DASHED2
 70
    64
  3
----    ----    ----    ----    
 72
    65
 73
     2
 40
5.0
 49
2.5
 49
-2.5
  0
LTYPE
  2
DASHED3
 70
    64
  3
------  ------  ------  ------  
 72
    65
 73
     2
 40
5.0
 49
3.75
 49
-1.25
  0
LTYPE
  2
CENTER1
 70
    64
  3
----- - ----- - ----- - ----- - 
 72
    65
 73
     4
 40
10.0
 49
6.25
 49
-1.25
 49
1.25
 49
-1.25
  0
LTYPE
  2
CENTER2
 70
    64
  3
----------  --  ----------  --  
 72
    65
 73
     4
 40
20.0
 49
12.5
 49
-2.5
 49
2.5
 49
-2.5
  0
LTYPE
  2
PHANTOM1
 70
    64
  3
--- - - --- - - --- - - --- - - 
 72
    65
 73
     6
 40
10.0
 49
3.25
 49
-1.25
 49
1.25
 49
-1.25
 49
1.25
 49
-1.25
  0
LTYPE
  2
PHANTOM2
 70
    64
  3
--------  -  -  --------  -  -  
 72
    65
 73
     6
 40
20.0
 49
10.0
 49
-2.5
 49
1.25
 49
-2.5
 49
1.25
 49
-2.5
  0
LTYPE
  2
DOT
 70
    64
  3
-   -   -   -   -   -   -   -   
 72
    65
 73
     2
 40
2.5
 49
0.625
 49
-1.875
  0
LTYPE
  2
DUMMY
 70
    64
  3
ダミー
 72
    65
 73
     0
 40
0.0
  0
LTYPE
  2
RAND1
 70
    64
  3
ランダム線1
 72
    65
 73
     4
 40
10.0
 49
1.0
 49
-2.0
 49
3.0
 49
-4.0
  0
LTYPE
  2
RAND2
 70
    64
  3
ランダム線2
 72
    65
 73
     4
 40
14.0
 49
2.0
 49
-3.0
 49
4.0
 49
-5.0
  0
LTYPE
  2
RAND3
 70
    64
  3
ランダム線3
 72
    65
 73
     4
 40
18.0
 49
3.0
 49
-4.0
 49
5.0
 49
-6.0
  0
LTYPE
  2
RAND4
 70
    64
  3
ランダム線4
 72
    65
 73
     4
 40
22.0
 49
4.0
 49
-5.0
 49
6.0
 49
-7.0
  0
LTYPE
  2
RAND5
 70
    64
  3
ランダム線5
 72
    65
 73
     4
 40
26.0
 49
5.0
 49
-6.0
 49
7.0
 49
-8.0
  0
LTYPE
  2
LONG1
 70
    64
  3
----------  --  ----------  --  
 72
    65
 73
     4
 40
40.0
 49
32.5
 49
-2.5
 49
2.5
 49
-2.5
  0
LTYPE
  2
LONG2
 70
    64
  3
--------  -  -  --------  -  -  
 72
    65
 73
     6
 40
40.0
 49
30.0
 49
-2.5
 49
1.25
 49
-2.5
 49
1.25
 49
-2.5
  0
LTYPE
  2
LONG3
 70
    64
  3
+++++++++++++++..+++++++++++++++
 72
    65
 73
     2
 40
40.0
 49
37.5
 49
-2.5
  0
LTYPE
  2
LONG4
 70
    64
  3
+++++++++++++++..+++++++++++++++
 72
    65
 73
     2
 40
80.0
 49
75.0
 49
-5.0
  0
LTYPE
  2
LONG5
 70
    64
  3
----------  --  ----------  --  
 72
    65
 73
     4
 40
60.0
 49
37.5
 49
-7.5
 49
7.5
 49
-7.5
  0
LTYPE
  2
dashed
 70
   64
  3
-------   -------------   ------
 72
   65
 73
    2
 40
7.5
 49
6
 49
-1.5
  0
LTYPE
  2
dashed_spaced
 70
   64
  3
----        --------        ----
 72
   65
 73
    2
 40
12
 49
6
 49
-6
  0
LTYPE
  2
long_dashed_dotted
 70
   64
  3
------------- --- --------------
 72
   65
 73
    4
 40
15.25
 49
12
 49
-1.5
 49
0.25
 49
-1.5
  0
LTYPE
  2
long_dashed_double-dotted
 70
   64
  3
----------- --- --- ------------
 72
   65
 73
    6
 40
17
 49
12
 49
-1.5
 49
0.25
 49
-1.5
 49
0.25
 49
-1.5
  0
LTYPE
  2
long_dashed_triplicate-dotted
 70
   64
  3
--------- --- --- --- ----------
 72
   65
 73
    8
 40
18.75
 49
12
 49
-1.5
 49
0.25
 49
-1.5
 49
0.25
 49
-1.5
 49
0.25
 49
-1.5
  0
LTYPE
  2
dotted
 70
   64
  3
   -       -       -       -    
 72
   65
 73
    2
 40
1.75
 49
0.25
 49
-1.5
  0
LTYPE
  2
chain
 70
   64
  3
-------------- -- --------------
 72
   65
 73
    4
 40
18.5
 49
12
 49
-1.5
 49
3.5
 49
-1.5
  0
LTYPE
  2
chain_double_dash
 70
   64
  3
------------ -- -- -------------
 72
   65
 73
    6
 40
23.5
 49
12
 49
-1.5
 49
3.5
 49
-1.5
 49
3.5
 49
-1.5
  0
LTYPE
  2
dashed_dotted
 70
   64
  3
-----------     -     ----------
 72
   65
 73
    4
 40
9.25
 49
6
 49
-1.5
 49
0.25
 49
-1.5
  0
LTYPE
  2
double-dashed_dotted
 70
   64
  3
------   -----------   -   -----
 72
   65
 73
    6
 40
16.75
 49
6
 49
-1.5
 49
6
 49
-1.5
 49
0.25
 49
-1.5
  0
LTYPE
  2
dashed_double-dotted
 70
   64
  3
---------    -    -    ---------
 72
   65
 73
    6
 40
11
 49
6
 49
-1.5
 49
0.25
 49
-1.5
 49
0.25
 49
-1.5
  0
LTYPE
  2
double-dashed_double-dotted
 70
   64
  3
-----   ---------   -   -   ----
 72
   65
 73
    8
 40
18.5
 49
6
 49
-1.5
 49
6
 49
-1.5
 49
0.25
 49
-1.5
 49
0.25
 49
-1.5
  0
LTYPE
  2
dashed_triplicate-dotted
 70
   64
  3
-------    -    -    -    ------
 72
   65
 73
    8
 40
12.75
 49
6
 49
-1.5
 49
0.25
 49
-1.5
 49
0.25
 49
-1.5
 49
0.25
 49
-1.5
  0
LTYPE
  2
double-dashed_triplicate-dotted
 70
   64
  3
-----  ---------  -  -  -  -----
 72
   65
 73
   10
 40
20.25
 49
6
 49
-1.5
 49
6
 49
-1.5
 49
0.25
 49
-1.5
 49
0.25
 49
-1.5
 49
0.25
 49
-1.5
  0
LTYPE
  2
undefined
 70
   64
  3
--------------------------------
 72
   65
 73
    0
 40
0
  0
LTYPE
  2
_
 70
   64
  3
                                
 72
   65
 73
    0
 40
0
  0
LTYPE
  2
__18
 70
   64
  3
                                
 72
   65
 73
    0
 40
0
  0
LTYPE
  2
__19
 70
   64
  3
                                
 72
   65
 73
    0
 40
0
  0
LTYPE
  2
__20
 70
   64
  3
                                
 72
   65
 73
    0
 40
0
  0
LTYPE
  2
__21
 70
   64
  3
                                
 72
   65
 73
    0
 40
0
  0
LTYPE
  2
__22
 70
   64
  3
                                
 72
   65
 73
    0
 40
0
  0
LTYPE
  2
__23
 70
   64
  3
                                
 72
   65
 73
    0
 40
0
  0
LTYPE
  2
__24
 70
   64
  3
                                
 72
   65
 73
    0
 40
0
  0
LTYPE
  2
__25
 70
   64
  3
                                
 72
   65
 73
    0
 40
0
  0
LTYPE
  2
__26
 70
   64
  3
                                
 72
   65
 73
    0
 40
0
  0
LTYPE
  2
__27
 70
   64
  3
                                
 72
   65
 73
    0
 40
0
  0
LTYPE
  2
__28
 70
   64
  3
                                
 72
   65
 73
    0
 40
0
  0
LTYPE
  2
__29
 70
   64
  3
                                
 72
   65
 73
    0
 40
0
  0
LTYPE
  2
__30
 70
   64
  3
                                
 72
   65
 73
    0
 40
0
  0
LTYPE
  2
__31
 70
   64
  3
                                
 72
   65
 73
    0
 40
0
  0
LTYPE
  2
__32
 70
   64
  3
                                
 72
   65
 73
    0
 40
0
  0
ENDTAB
  0
TABLE
  2
STYLE
  5
3
100
AcDbSymbolTable
 70
     1
  0
STYLE
  5
10
100
AcDbSymbolTableRecord
100
AcDbTextStyleTableRecord
  2
STANDARD
 70
     0
 40
0.0
 41
1.0
 50
0.0
 71
     0
 42
0.2
  3
txt
  4
bigfont.shx
  0
STYLE
  5
26
100
AcDbSymbolTableRecord
100
AcDbTextStyleTableRecord
  2
TATEGAKI
 70
    68
 40
0.0
 41
1.0
 50
0.0
 71
     0
 42
1.0
  3
txt
  4
bigfont.shx
  0
ENDTAB
  0
TABLE
  2
LAYER
 70
    4
  0
LAYER
  2
_0-0_
 70
   64
 62
    7
  6
CONTINUOUS
  0
LAYER
  2
_6-0_
 70
   64
 62
    7
  6
CONTINUOUS
  0
LAYER
  2
_6-f_
 70
   64
 62
    7
  6
CONTINUOUS
  0
LAYER
  2
ADD_LINE
 70
   64
 62
    7
  6
CONTINUOUS
  0
ENDTAB
  0
ENDSEC
  0
SECTION
  2
BLOCKS
  0
ENDSEC
  0
SECTION
  2
ENTITIES
  0
LINE
  8
_0-0_
  6
CONTINUOUS
 62
    7
 10
333.49996700802364
 20
6.5000061859955735
 11
238.49997525601776
 21
6.5000061859955735
  0
CIRCLE
  8
_6-0_
  6
CONTINUOUS
 62
    7
 10
-22.448390898162926
 20
128.75917396924549
 40
0.2857142857142856
  0
LINE
  8
_6-0_
  6
CENTER1
 62
    2
 10
-22.734105183877204
 20
128.75917396924549
 11
-22.162676612448649
 21
128.75917396924549
  0
LINE
  8
_6-0_
  6
CENTER1
 62
    2
 10
-22.448390898162926
 20
129.0448882549598
 11
-22.448390898162926
 21
128.47345968353124
  0
TEXT
  8
_6-f_
 62
    7
 10
-6.103448275862064
 20
149.73656776263032
 40
4
 41
1
 50
0
  1
450
  0
TEXT
  8
_6-f_
 62
    7
 10
1.6178829190056092
 20
150.26704089815558
 40
3
 41
1
 50
0
  1
－2
  0
LINE
  8
_0-0_
  6
CONTINUOUS
 62
    7
 10
213.52411035572424
 20
218.10313517294878
 11
333.49996700802364
 21
218.10313517294878
  0
LINE
  8
_0-0_
  6
CONTINUOUS
 62
    7
 10
-46.5
 20
228.50000659839525
 11
333.49996700802364
 21
228.50000659839525
  0
LINE
  8
_0-0_
  6
CONTINUOUS
 62
    7
 10
333.49996700802364
 20
228.50000659839525
 11
333.49996700802364
 21
-28.5
  0
LINE
  8
_0-0_
  6
CONTINUOUS
 62
    7
 10
218.44698480640784
 20
222.94730204783434
 11
216.19699243580237
 21
218.44730002127641
  0
LINE
  8
_0-0_
  6
CONTINUOUS
 62
    7
 10
216.19699243580237
 20
218.44730002127641
 11
220.69698480640784
 21
218.44730002127641
  0
LINE
  8
_0-0_
  6
CONTINUOUS
 62
    7
 10
218.44698480640784
 20
222.94730204783434
 11
220.69698480640784
 21
218.44730002127641
  0
TEXT
  8
_0-0_
 62
    7
 10
314.02411798511877
 20
223.60311478816026
 40
4
 41
1
 50
0
  1
担当
  0
TEXT
  8
_0-0_
 62
    7
 10
324.02411798511877
 20
223.60311478816026
 40
4
 41
1
 50
0
  1
検印
  0
TEXT
  8
_0-0_
 62
    7
 10
215.2939238933219
 20
224.2922115965938
 40
3
 41
1
 50
0
  1
Ｎｏ
  0
TEXT
  8
_0-0_
 62
    7
 10
230.67555383716955
 20
224.31606489859575
 40
3
 41
1
 50
0
  1
年　月　日
  0
TEXT
  8
_0-0_
 62
    7
 10
217.83104852711096
 20
218.68189722739214
 40
3
 41
1
 50
0
  1
1
  0
TEXT
  8
_0-0_
 62
    7
 10
271.47356561695471
 20
224.31606489859575
 40
3
 41
1
 50
0
  1
訂　正　記　事
  0
TEXT
  8
_0-0_
 62
    7
 10
236.45645633474799
 20
218.96271130286214
 40
3
 41
1
 50
0
  1
.   .
  0
LINE
  8
_0-0_
  6
CONTINUOUS
 62
    7
 10
213.52411035572424
 20
228.50000659839525
 11
213.52411035572424
 21
223.10311478816026
  0
LINE
  8
_0-0_
  6
CONTINUOUS
 62
    7
 10
223.52411798511877
 20
228.50000659839525
 11
223.52411798511877
 21
223.10311478816026
  0
LINE
  8
_0-0_
  6
CONTINUOUS
 62
    7
 10
253.52411831294432
 20
228.50000659839525
 11
253.52411831294432
 21
223.10311478816026
  0
LINE
  8
_0-0_
  6
CONTINUOUS
 62
    7
 10
333.49996700802364
 20
223.10311478816026
 11
213.5241256145133
 21
223.10311478816026
  0
LINE
  8
_0-0_
  6
CONTINUOUS
 62
    2
 10
288.49996700802364
 20
-8.4999958760029556
 11
288.49996700802364
 21
-28.5
  0
LINE
  8
_0-0_
  6
CONTINUOUS
 62
    2
 10
288.49996700802364
 20
1.5000061859955735
 11
288.49996700802364
 21
-8.4999958760029556
  0
LINE
  8
_0-0_
  6
CONTINUOUS
 62
    7
 10
283.49997525601776
 20
-8.4999958760029556
 11
283.49997525601776
 21
-28.5
  0
LINE
  8
_0-0_
  6
CONTINUOUS
 62
    7
 10
248.52294591955239
 20
-12.220791790936445
 11
248.52294591955239
 21
-15.220789316538215
  0
LINE
  8
_0-0_
  6
CONTINUOUS
 62
    7
 10
248.52294591955239
 20
-12.220791790936445
 11
255.52294426995354
 21
-10.720793028135545
  0
LINE
  8
_0-0_
  6
CONTINUOUS
 62
    7
 10
255.52294426995354
 20
-10.720793028135545
 11
255.52294426995354
 21
-16.72079426533466
  0
LINE
  8
_0-0_
  6
CONTINUOUS
 62
    7
 10
248.52294591955239
 20
-15.220789316538215
 11
255.52294426995354
 21
-16.72079426533466
  0
LINE
  8
_0-0_
  6
CENTER2
 62
    2
 10
257.52292612436656
 20
-13.72079055373733
 11
239.52294097075593
 21
-13.72079055373733
  0
LINE
  8
_0-0_
  6
CENTER2
 62
    2
 10
243.52292942356422
 20
-9.7207897289379161
 11
243.52292942356422
 21
-17.720792925035624
  0
LINE
  8
_0-0_
  6
CONTINUOUS
 62
    7
 10
283.49997525601776
 20
1.5000061859955735
 11
283.49997525601776
 21
-28.5
  0
LINE
  8
_0-0_
  6
CONTINUOUS
 62
    7
 10
313.49997525601776
 20
1.5000061859955735
 11
313.49997525601776
 21
-8.4999958760029556
  0
LINE
  8
_0-0_
  6
CONTINUOUS
 62
    2
 10
318.50001649598817
 20
1.5000061859955735
 11
318.50001649598817
 21
-8.4999958760029556
  0
LINE
  8
_0-0_
  6
CONTINUOUS
 62
    7
 10
258.49999175200593
 20
-8.4999958760029556
 11
258.49999175200593
 21
-18.499999484500364
  0
LINE
  8
_0-0_
  6
CONTINUOUS
 62
    2
 10
263.49998350401182
 20
-8.4999958760029556
 11
263.49998350401182
 21
-18.499999484500364
  0
LINE
  8
_0-0_
  6
CONTINUOUS
 62
    2
 10
273.50001649598817
 20
1.5000061859955735
 11
273.50001649598817
 21
-8.4999958760029556
  0
LINE
  8
_0-0_
  6
CONTINUOUS
 62
    7
 10
268.49997525601776
 20
1.5000061859955735
 11
268.49997525601776
 21
-8.4999958760029556
  0
LINE
  8
_0-0_
  6
CONTINUOUS
 62
    2
 10
258.49999175200593
 20
1.5000061859955735
 11
258.49999175200593
 21
-8.4999958760029556
  0
LINE
  8
_0-0_
  6
CONTINUOUS
 62
    7
 10
253.49997525601776
 20
1.5000061859955735
 11
253.49997525601776
 21
-8.4999958760029556
  0
LINE
  8
_0-0_
  6
CONTINUOUS
 62
    2
 10
243.49996700802364
 20
1.5000061859955735
 11
243.49996700802364
 21
-8.4999958760029556
  0
LINE
  8
_0-0_
  6
CONTINUOUS
 62
    7
 10
333.49996700802364
 20
1.5000061859955735
 11
238.49997525601776
 21
1.5000061859955735
  0
LINE
  8
_0-0_
  6
CONTINUOUS
 62
    7
 10
333.49996700802364
 20
-8.4999958760029556
 11
238.49997525601776
 21
-8.4999958760029556
  0
LINE
  8
_0-0_
  6
CONTINUOUS
 62
    7
 10
333.49996700802364
 20
-18.499999484500364
 11
238.49997525601776
 21
-18.499999484500364
  0
CIRCLE
  8
_0-0_
  6
CONTINUOUS
 62
    7
 10
243.52292942356422
 20
-13.72079055373733
 40
3.0000000386624723
  0
CIRCLE
  8
_0-0_
  6
CONTINUOUS
 62
    7
 10
243.52292942356422
 20
-13.72079055373733
 40
1.5000000193312361
  0
TEXT
  8
_0-0_
 62
    7
 10
286.1258264490076
 20
-20.373926111169765
 40
3
 41
1
 50
0
  1
図番
  7
TATEGAKI
  0
TEXT
  8
_0-0_
 62
    7
 10
286.00309629698057
 20
-10.222238798399217
 40
3
 41
1
 50
0
  1
品名
  7
TATEGAKI
  0
TEXT
  8
_0-0_
 62
    7
 10
286.07888711465375
 20
-0.4239929817818222
 40
3
 41
1
 50
0
  1
作図
  7
TATEGAKI
  0
TEXT
  8
_0-0_
 62
    7
 10
315.7779260583826
 20
-0.4862055391878641
 40
3
 41
1
 50
0
  1
尺度
  7
TATEGAKI
  0
TEXT
  8
_0-0_
 62
    7
 10
324.43899783572635
 20
-5.9054470577755466
 40
3
 41
1
 50
0
  1
：
  0
TEXT
  8
_0-0_
 62
    7
 10
261.06749663481843
 20
-10.222238798399217
 40
3
 41
1
 50
0
  1
材質
  7
TATEGAKI
  0
TEXT
  8
_0-0_
 62
    7
 10
241.0010425464527
 20
-0.5050233376992707
 40
3
 41
1
 50
0
  1
設計
  7
TATEGAKI
  0
TEXT
  8
_0-0_
 62
    7
 10
255.98364752692145
 20
-0.5050233376992707
 40
3
 41
1
 50
0
  1
製図
  7
TATEGAKI
  0
TEXT
  8
_0-0_
 62
    7
 10
270.9662525073902
 20
-0.5050233376992707
 40
3
 41
1
 50
0
  1
検図
  7
TATEGAKI
  0
TEXT
  8
_0-0_
 62
    7
 10
244.12195121951219
 20
-25.337804878048785
 40
4
 41
1
 50
0
  1
ＦＫＫ株式会社
  0
LINE
  8
_0-0_
  6
CONTINUOUS
 62
    7
 10
238.49997525601776
 20
6.5000061859955735
 11
238.49997525601776
 21
-28.5
  0
LINE
  8
_0-0_
  6
CONTINUOUS
 62
    7
 10
258.49999175200593
 20
1.5000061859955735
 11
258.49999175200593
 21
6.5000061859955735
  0
TEXT
  8
_0-0_
 62
    7
 10
244.23940582397756
 20
1.895881365276665
 40
4
 41
1
 50
0
  1
出図
  0
LINE
  8
_0-0_
  6
CONTINUOUS
 62
    7
 10
288.49997525601776
 20
1.5000061859955735
 11
288.49997525601776
 21
6.5000061859955735
  0
LINE
  8
_0-0_
  6
CONTINUOUS
 62
    7
 10
323.49996700802364
 20
6.5000061859955735
 11
323.49996700802364
 21
1.5000061859955735
  0
LINE
  8
_0-0_
  6
CONTINUOUS
 62
    7
 10
333.49996700802364
 20
-28.5
 11
-46.496832770270259
 21
-28.5
  0
LINE
  8
_0-0_
  6
CONTINUOUS
 62
    7
 10
-46.496832770270259
 20
-28.5
 11
-46.5
 21
228.50000659839525
  0
CIRCLE
  8
_6-0_
  6
CONTINUOUS
 62
    7
 10
-1.019819469591539
 20
157.73317522002241
 40
0.2857142857142856
  0
LINE
  8
_6-0_
  6
CENTER1
 62
    2
 10
-1.3055337553058166
 20
157.73317522002241
 11
-0.7341051838772614
 21
157.73317522002241
  0
LINE
  8
_6-0_
  6
CENTER1
 62
    2
 10
-1.019819469591539
 20
158.01888950573669
 11
-1.019819469591539
 21
157.44746093430811
  0
CIRCLE
  8
_6-0_
  6
CONTINUOUS
 62
    7
 10
-21.019819469591539
 20
89.361082196766574
 40
0.2857142857142856
  0
LINE
  8
_6-0_
  6
CENTER1
 62
    2
 10
-21.305533755305816
 20
89.361082196766574
 11
-20.734105183877261
 21
89.361082196766574
  0
LINE
  8
_6-0_
  6
CENTER1
 62
    2
 10
-21.019819469591539
 20
89.64679648248088
 11
-21.019819469591539
 21
89.075367911052296
  0
CIRCLE
  8
_6-0_
  6
CONTINUOUS
 62
    7
 10
1.8373233875513506
 20
89.361082196766574
 40
0.2857142857142856
  0
LINE
  8
_6-0_
  6
CENTER1
 62
    2
 10
1.551609101837073
 20
89.361082196766574
 11
2.1230376732656282
 21
89.361082196766574
  0
LINE
  8
_6-0_
  6
CENTER1
 62
    2
 10
1.8373233875513506
 20
89.64679648248088
 11
1.8373233875513506
 21
89.075367911052296
  0
CIRCLE
  8
_6-0_
  6
CONTINUOUS
 62
    7
 10
24.694466244694183
 20
89.361082196766574
 40
0.2857142857142856
  0
LINE
  8
_6-0_
  6
CENTER1
 62
    2
 10
24.408751958979905
 20
89.361082196766574
 11
24.98018053040846
 21
89.361082196766574
  0
LINE
  8
_6-0_
  6
CENTER1
 62
    2
 10
24.694466244694183
 20
89.64679648248088
 11
24.694466244694183
 21
89.075367911052296
  0
CIRCLE
  8
_6-0_
  6
CONTINUOUS
 62
    7
 10
47.551609101837044
 20
89.361082196766574
 40
0.2857142857142856
  0
LINE
  8
_6-0_
  6
CENTER1
 62
    2
 10
47.265894816122752
 20
89.361082196766574
 11
47.837323387551307
 21
89.361082196766574
  0
LINE
  8
_6-0_
  6
CENTER1
 62
    2
 10
47.551609101837044
 20
89.64679648248088
 11
47.551609101837044
 21
89.075367911052296
  0
CIRCLE
  8
_6-0_
  6
CONTINUOUS
 62
    7
 10
70.408751958979905
 20
89.361082196766574
 40
0.2857142857142856
  0
LINE
  8
_6-0_
  6
CENTER1
 62
    2
 10
70.123037673265628
 20
89.361082196766574
 11
70.694466244694183
 21
89.361082196766574
  0
LINE
  8
_6-0_
  6
CENTER1
 62
    2
 10
70.408751958979905
 20
89.64679648248088
 11
70.408751958979905
 21
89.075367911052296
  0
CIRCLE
  8
_6-0_
  6
CONTINUOUS
 62
    7
 10
93.265894816122766
 20
89.361082196766574
 40
0.2857142857142856
  0
LINE
  8
_6-0_
  6
CENTER1
 62
    2
 10
92.980180530408489
 20
89.361082196766574
 11
93.551609101837044
 21
89.361082196766574
  0
LINE
  8
_6-0_
  6
CENTER1
 62
    2
 10
93.265894816122766
 20
89.64679648248088
 11
93.265894816122766
 21
89.075367911052296
  0
CIRCLE
  8
_6-0_
  6
CONTINUOUS
 62
    7
 10
116.12303767326562
 20
89.361082196766574
 40
0.2857142857142856
  0
LINE
  8
_6-0_
  6
CENTER1
 62
    2
 10
115.83732338755135
 20
89.361082196766574
 11
116.4087519589799
 21
89.361082196766574
  0
LINE
  8
_6-0_
  6
CENTER1
 62
    2
 10
116.12303767326562
 20
89.64679648248088
 11
116.12303767326562
 21
89.075367911052296
  0
CIRCLE
  8
_6-0_
  6
CONTINUOUS
 62
    7
 10
138.98018053040851
 20
89.361082196766574
 40
0.2857142857142856
  0
LINE
  8
_6-0_
  6
CENTER1
 62
    2
 10
138.69446624469424
 20
89.361082196766574
 11
139.26589481612276
 21
89.361082196766574
  0
LINE
  8
_6-0_
  6
CENTER1
 62
    2
 10
138.98018053040851
 20
89.64679648248088
 11
138.98018053040851
 21
89.075367911052296
  0
CIRCLE
  8
_6-0_
  6
CONTINUOUS
 62
    7
 10
161.83732338755135
 20
89.361082196766574
 40
0.2857142857142856
  0
LINE
  8
_6-0_
  6
CENTER1
 62
    2
 10
161.55160910183704
 20
89.361082196766574
 11
162.12303767326562
 21
89.361082196766574
  0
LINE
  8
_6-0_
  6
CENTER1
 62
    2
 10
161.83732338755135
 20
89.64679648248088
 11
161.83732338755135
 21
89.075367911052296
  0
CIRCLE
  8
_6-0_
  6
CONTINUOUS
 62
    7
 10
-19.591248041020094
 20
51.966737872869856
 40
0.2857142857142856
  0
LINE
  8
_6-0_
  6
CENTER1
 62
    2
 10
-19.876962326734371
 20
51.966737872869856
 11
-19.305533755305816
 21
51.966737872869856
  0
LINE
  8
_6-0_
  6
CENTER1
 62
    2
 10
-19.591248041020094
 20
52.252452158584191
 11
-19.591248041020094
 21
51.681023587155578
  0
CIRCLE
  8
_6-0_
  6
CONTINUOUS
 62
    7
 10
3.2658948161227954
 20
51.966737872869856
 40
0.2857142857142856
  0
LINE
  8
_6-0_
  6
CENTER1
 62
    2
 10
2.9801805304085178
 20
51.966737872869856
 11
3.551609101837073
 21
51.966737872869856
  0
LINE
  8
_6-0_
  6
CENTER1
 62
    2
 10
3.2658948161227954
 20
52.252452158584191
 11
3.2658948161227954
 21
51.681023587155578
  0
CIRCLE
  8
_6-0_
  6
CONTINUOUS
 62
    7
 10
26.123037673265628
 20
51.966737872869856
 40
0.2857142857142856
  0
LINE
  8
_6-0_
  6
CENTER1
 62
    2
 10
25.83732338755135
 20
51.966737872869856
 11
26.408751958979905
 21
51.966737872869856
  0
LINE
  8
_6-0_
  6
CENTER1
 62
    2
 10
26.123037673265628
 20
52.252452158584191
 11
26.123037673265628
 21
51.681023587155578
  0
CIRCLE
  8
_6-0_
  6
CONTINUOUS
 62
    7
 10
48.980180530408489
 20
51.966737872869856
 40
0.2857142857142856
  0
LINE
  8
_6-0_
  6
CENTER1
 62
    2
 10
48.694466244694197
 20
51.966737872869856
 11
49.265894816122752
 21
51.966737872869856
  0
LINE
  8
_6-0_
  6
CENTER1
 62
    2
 10
48.980180530408489
 20
52.252452158584191
 11
48.980180530408489
 21
51.681023587155578
  0
CIRCLE
  8
_6-0_
  6
CONTINUOUS
 62
    7
 10
71.83732338755135
 20
51.966737872869856
 40
0.2857142857142856
  0
LINE
  8
_6-0_
  6
CENTER1
 62
    2
 10
71.551609101837073
 20
51.966737872869856
 11
72.123037673265628
 21
51.966737872869856
  0
LINE
  8
_6-0_
  6
CENTER1
 62
    2
 10
71.83732338755135
 20
52.252452158584191
 11
71.83732338755135
 21
51.681023587155578
  0
CIRCLE
  8
_6-0_
  6
CONTINUOUS
 62
    7
 10
94.694466244694211
 20
51.966737872869856
 40
0.2857142857142856
  0
LINE
  8
_6-0_
  6
CENTER1
 62
    2
 10
94.408751958979934
 20
51.966737872869856
 11
94.980180530408489
 21
51.966737872869856
  0
LINE
  8
_6-0_
  6
CENTER1
 62
    2
 10
94.694466244694211
 20
52.252452158584191
 11
94.694466244694211
 21
51.681023587155578
  0
CIRCLE
  8
_6-0_
  6
CONTINUOUS
 62
    7
 10
117.55160910183704
 20
51.966737872869856
 40
0.2857142857142856
  0
LINE
  8
_6-0_
  6
CENTER1
 62
    2
 10
117.26589481612276
 20
51.966737872869856
 11
117.83732338755135
 21
51.966737872869856
  0
LINE
  8
_6-0_
  6
CENTER1
 62
    2
 10
117.55160910183704
 20
52.252452158584191
 11
117.55160910183704
 21
51.681023587155578
  0
CIRCLE
  8
_6-0_
  6
CONTINUOUS
 62
    7
 10
140.4087519589799
 20
51.966737872869856
 40
0.2857142857142856
  0
LINE
  8
_6-0_
  6
CENTER1
 62
    2
 10
140.12303767326562
 20
51.966737872869856
 11
140.69446624469415
 21
51.966737872869856
  0
LINE
  8
_6-0_
  6
CENTER1
 62
    2
 10
140.4087519589799
 20
52.252452158584191
 11
140.4087519589799
 21
51.681023587155578
  0
CIRCLE
  8
_6-0_
  6
CONTINUOUS
 62
    7
 10
163.26589481612276
 20
51.966737872869856
 40
0.2857142857142856
  0
LINE
  8
_6-0_
  6
CENTER1
 62
    2
 10
162.98018053040848
 20
51.966737872869856
 11
163.55160910183701
 21
51.966737872869856
  0
LINE
  8
_6-0_
  6
CENTER1
 62
    2
 10
163.26589481612276
 20
52.252452158584191
 11
163.26589481612276
 21
51.681023587155578
  0
CIRCLE
  8
_6-0_
  6
CONTINUOUS
 62
    7
 10
186.12303767326562
 20
51.966737872869856
 40
0.2857142857142856
  0
LINE
  8
_6-0_
  6
CENTER1
 62
    2
 10
185.83732338755135
 20
51.966737872869856
 11
186.4087519589799
 21
51.966737872869856
  0
LINE
  8
_6-0_
  6
CENTER1
 62
    2
 10
186.12303767326562
 20
52.252452158584191
 11
186.12303767326562
 21
51.681023587155578
  0
CIRCLE
  8
_6-0_
  6
CONTINUOUS
 62
    7
 10
208.98018053040846
 20
51.966737872869856
 40
0.2857142857142856
  0
LINE
  8
_6-0_
  6
CENTER1
 62
    2
 10
208.69446624469418
 20
51.966737872869856
 11
209.26589481612279
 21
51.966737872869856
  0
LINE
  8
_6-0_
  6
CENTER1
 62
    2
 10
208.98018053040846
 20
52.252452158584191
 11
208.98018053040846
 21
51.681023587155578
  0
CIRCLE
  8
_6-0_
  6
CONTINUOUS
 62
    7
 10
231.83732338755135
 20
51.966737872869856
 40
0.2857142857142856
  0
LINE
  8
_6-0_
  6
CENTER1
 62
    2
 10
231.55160910183707
 20
51.966737872869856
 11
232.12303767326562
 21
51.966737872869856
  0
LINE
  8
_6-0_
  6
CENTER1
 62
    2
 10
231.83732338755135
 20
52.252452158584191
 11
231.83732338755135
 21
51.681023587155578
  0
CIRCLE
  8
_6-0_
  6
CONTINUOUS
 62
    7
 10
0.4087519589799057
 20
128.75917396924549
 40
0.2857142857142856
  0
LINE
  8
_6-0_
  6
CENTER1
 62
    2
 10
0.1230376732656282
 20
128.75917396924549
 11
0.6944662446941833
 21
128.75917396924549
  0
LINE
  8
_6-0_
  6
CENTER1
 62
    2
 10
0.4087519589799057
 20
129.0448882549598
 11
0.4087519589799057
 21
128.47345968353124
  0
CIRCLE
  8
_6-0_
  6
CONTINUOUS
 62
    7
 10
23.265894816122781
 20
128.75917396924549
 40
0.2857142857142856
  0
LINE
  8
_6-0_
  6
CENTER1
 62
    2
 10
22.980180530408503
 20
128.75917396924549
 11
23.551609101837058
 21
128.75917396924549
  0
LINE
  8
_6-0_
  6
CENTER1
 62
    2
 10
23.265894816122781
 20
129.0448882549598
 11
23.265894816122781
 21
128.47345968353124
  0
CIRCLE
  8
_6-0_
  6
CONTINUOUS
 62
    7
 10
46.123037673265628
 20
128.75917396924549
 40
0.2857142857142856
  0
LINE
  8
_6-0_
  6
CENTER1
 62
    2
 10
45.837323387551364
 20
128.75917396924549
 11
46.40875195897992
 21
128.75917396924549
  0
LINE
  8
_6-0_
  6
CENTER1
 62
    2
 10
46.123037673265628
 20
129.0448882549598
 11
46.123037673265628
 21
128.47345968353124
  0
CIRCLE
  8
_6-0_
  6
CONTINUOUS
 62
    7
 10
68.980180530408517
 20
128.75917396924549
 40
0.2857142857142856
  0
LINE
  8
_6-0_
  6
CENTER1
 62
    2
 10
68.694466244694211
 20
128.75917396924549
 11
69.265894816122766
 21
128.75917396924549
  0
LINE
  8
_6-0_
  6
CENTER1
 62
    2
 10
68.980180530408517
 20
129.0448882549598
 11
68.980180530408517
 21
128.47345968353124
  0
CIRCLE
  8
_6-0_
  6
CONTINUOUS
 62
    7
 10
91.83732338755135
 20
128.75917396924549
 40
0.2857142857142856
  0
LINE
  8
_6-0_
  6
CENTER1
 62
    2
 10
91.551609101837044
 20
128.75917396924549
 11
92.123037673265628
 21
128.75917396924549
  0
LINE
  8
_6-0_
  6
CENTER1
 62
    2
 10
91.83732338755135
 20
129.0448882549598
 11
91.83732338755135
 21
128.47345968353124
  0
LINE
  8
_6-f_
  6
CONTINUOUS
 62
    7
 10
201.12464084438482
 20
170.8551518695983
 11
201.12464084438482
 21
154.15515186959828
  0
LINE
  8
_6-f_
  6
CONTINUOUS
 62
    7
 10
201.12464084438482
 20
154.15515186959828
 11
283.97054601679883
 21
154.15515186959828
  0
LINE
  8
_6-f_
  6
CONTINUOUS
 62
    7
 10
201.12464084438482
 20
156.14214080712338
 11
283.97054601679883
 21
156.14214080712338
  0
LINE
  8
_6-f_
  6
CONTINUOUS
 62
    7
 10
201.12464084438482
 20
159.00515186959836
 11
283.97054601679883
 21
159.00515186959836
  0
LINE
  8
_6-f_
  6
CONTINUOUS
 62
    7
 10
201.12464084438482
 20
166.00515186959825
 11
283.97054601679883
 21
166.00515186959825
  0
LINE
  8
_6-f_
  6
CONTINUOUS
 62
    7
 10
201.12464084438482
 20
168.86816293207317
 11
283.97054601679883
 21
168.86816293207317
  0
LINE
  8
_6-f_
  6
CONTINUOUS
 62
    7
 10
201.12464084438482
 20
170.8551518695983
 11
283.97054601679883
 21
170.8551518695983
  0
CIRCLE
  8
_6-f_
  6
CONTINUOUS
 62
    7
 10
236.12464084438482
 20
162.5051518695983
 40
2
  0
LINE
  8
_6-f_
  6
CENTER1
 62
    2
 10
234.12464084438488
 20
162.5051518695983
 11
238.12464084438477
 21
162.5051518695983
  0
LINE
  8
_6-f_
  6
CENTER1
 62
    2
 10
236.12464084438482
 20
164.5051518695983
 11
236.12464084438482
 21
160.5051518695983
  0
LINE
  8
_6-f_
  6
CONTINUOUS
 62
    7
 10
183.98034334388947
 20
170.8551518695983
 11
187.78034334388948
 21
170.8551518695983
  0
ARC
  8
_6-f_
  6
CONTINUOUS
 62
    7
 10
187.78034334388948
 20
169.85515186959827
 40
1
 50
0
 51
90.000000000000028
  0
LINE
  8
_6-f_
  6
CONTINUOUS
 62
    7
 10
188.78034334388965
 20
169.85515186959827
 11
188.78034334388965
 21
169.04340611380854
  0
ARC
  8
_6-f_
  6
CONTINUOUS
 62
    7
 10
188.58034334388958
 20
169.04340611380854
 40
0.2
 50
241.18920625702708
 51
0
  0
LINE
  8
_6-f_
  6
CONTINUOUS
 62
    7
 10
188.48395959393539
 20
168.86816293207317
 11
187.78034334388948
 21
169.2551518695983
  0
LINE
  8
_6-f_
  6
CONTINUOUS
 62
    7
 10
187.78034334388948
 20
169.2551518695983
 11
185.28034334388965
 21
169.2551518695983
  0
LINE
  8
_6-f_
  6
CONTINUOUS
 62
    7
 10
185.28034334388965
 20
166.20515186959826
 11
185.28034334388965
 21
169.2551518695983
  0
ARC
  8
_6-f_
  6
CONTINUOUS
 62
    7
 10
185.08034334388977
 20
166.20515186959826
 40
0.2
 50
270
 51
0
  0
LINE
  8
_6-f_
  6
CONTINUOUS
 62
    7
 10
185.08034334388977
 20
166.0051518695983
 11
182.58034334388995
 21
166.0051518695983
  0
LINE
  8
_6-f_
  6
CONTINUOUS
 62
    7
 10
182.58034334388995
 20
166.0051518695983
 11
182.58034334388995
 21
162.5051518695983
  0
LINE
  8
_6-f_
  6
CONTINUOUS
 62
    7
 10
182.58034334388995
 20
159.00515186959836
 11
182.58034334388995
 21
162.5051518695983
  0
LINE
  8
_6-f_
  6
CONTINUOUS
 62
    7
 10
185.08034334388977
 20
159.00515186959836
 11
182.58034334388995
 21
159.00515186959836
  0
ARC
  8
_6-f_
  6
CONTINUOUS
 62
    7
 10
185.08034334388977
 20
158.80515186959826
 40
0.2
 50
0.0000000000000127
 51
90
  0
LINE
  8
_6-f_
  6
CONTINUOUS
 62
    7
 10
185.28034334388965
 20
158.80515186959826
 11
185.28034334388965
 21
155.7551518695983
  0
LINE
  8
_6-f_
  6
CONTINUOUS
 62
    7
 10
187.78034334388948
 20
155.7551518695983
 11
185.28034334388965
 21
155.7551518695983
  0
LINE
  8
_6-f_
  6
CONTINUOUS
 62
    7
 10
188.48395959393539
 20
156.14214080712338
 11
187.78034334388948
 21
155.7551518695983
  0
ARC
  8
_6-f_
  6
CONTINUOUS
 62
    7
 10
188.58034334388958
 20
155.96689762538804
 40
0.2
 50
0
 51
118.81079374297293
  0
LINE
  8
_6-f_
  6
CONTINUOUS
 62
    7
 10
188.78034334388965
 20
155.15515186959831
 11
188.78034334388965
 21
155.96689762538804
  0
ARC
  8
_6-f_
  6
CONTINUOUS
 62
    7
 10
187.78034334388948
 20
155.15515186959831
 40
1
 50
270
 51
0
  0
LINE
  8
_6-f_
  6
CONTINUOUS
 62
    7
 10
183.98034334388947
 20
154.15515186959828
 11
187.78034334388948
 21
154.15515186959828
  0
ARC
  8
_6-f_
  6
CONTINUOUS
 62
    7
 10
183.98034334388947
 20
154.65515186959828
 40
0.5
 50
180
 51
270
  0
LINE
  8
_6-f_
  6
CONTINUOUS
 62
    7
 10
183.48034334388938
 20
154.65515186959828
 11
183.48034334388938
 21
157.20515186959829
  0
LINE
  8
_6-f_
  6
CONTINUOUS
 62
    7
 10
180.98034334388935
 20
157.20515186959829
 11
183.48034334388938
 21
157.20515186959829
  0
ARC
  8
_6-f_
  6
CONTINUOUS
 62
    7
 10
180.98034334388935
 20
157.40515186959834
 40
0.2
 50
180
 51
270
  0
LINE
  8
_6-f_
  6
CONTINUOUS
 62
    7
 10
180.78034334388968
 20
157.40515186959834
 11
180.78034334388968
 21
162.5051518695983
  0
LINE
  8
_6-f_
  6
CONTINUOUS
 62
    7
 10
180.78034334388968
 20
167.6051518695983
 11
180.78034334388968
 21
162.5051518695983
  0
ARC
  8
_6-f_
  6
CONTINUOUS
 62
    7
 10
180.98034334388935
 20
167.6051518695983
 40
0.2
 50
90
 51
180
  0
LINE
  8
_6-f_
  6
CONTINUOUS
 62
    7
 10
180.98034334388935
 20
167.80515186959826
 11
183.48034334388938
 21
167.80515186959826
  0
LINE
  8
_6-f_
  6
CONTINUOUS
 62
    7
 10
183.48034334388938
 20
170.35515186959833
 11
183.48034334388938
 21
167.80515186959826
  0
ARC
  8
_6-f_
  6
CONTINUOUS
 62
    7
 10
183.98034334388947
 20
170.35515186959833
 40
0.5
 50
90
 51
180
  0
LINE
  8
_6-f_
  6
CONTINUOUS
 62
    4
 10
237.32627476579642
 20
164.25817701300712
 11
250.96701253644596
 21
175.20444806352836
  0
LINE
  8
_6-f_
  6
CONTINUOUS
 62
    4
 10
237.32627476579642
 20
164.25817701300712
 11
238.21332437813771
 21
165.46778148771988
  0
LINE
  8
_6-f_
  6
CONTINUOUS
 62
    4
 10
237.32627476579642
 20
164.25817701300712
 11
238.6992845018575
 21
164.86220041046908
  0
LINE
  8
_6-f_
  6
CONTINUOUS
 62
    4
 10
174.58440678263684
 20
154.15515186959828
 11
174.58440678263684
 21
162.5051518695983
  0
LINE
  8
_6-f_
  6
CONTINUOUS
 62
    4
 10
174.58440678263684
 20
154.15515186959828
 11
174.19617821498309
 21
155.60404060903186
  0
LINE
  8
_6-f_
  6
CONTINUOUS
 62
    4
 10
174.58440678263684
 20
154.15515186959828
 11
174.97263535029065
 21
155.60404060903186
  0
LINE
  8
_6-f_
  6
CONTINUOUS
 62
    4
 10
174.58440678263684
 20
162.5051518695983
 11
174.19617821498309
 21
161.05626313016469
  0
LINE
  8
_6-f_
  6
CONTINUOUS
 62
    4
 10
174.58440678263684
 20
162.5051518695983
 11
174.97263535029065
 21
161.05626313016469
  0
LINE
  8
_6-f_
  6
CONTINUOUS
 62
    4
 10
174.33440678263684
 20
154.15515186959828
 11
180.21910505849893
 21
154.15515186959828
  0
TEXT
  8
_6-f_
 62
    7
 10
175.33440678263684
 20
155.08015186959829
 40
4
 41
1
 50
90
  1
8.4
  0
LINE
  8
_6-f_
  6
CONTINUOUS
 62
    4
 10
174.58440678263684
 20
162.5051518695983
 11
174.58440678263684
 21
170.85515186959833
  0
LINE
  8
_6-f_
  6
CONTINUOUS
 62
    4
 10
174.58440678263684
 20
162.5051518695983
 11
174.19617821498309
 21
163.95404060903189
  0
LINE
  8
_6-f_
  6
CONTINUOUS
 62
    4
 10
174.58440678263684
 20
162.5051518695983
 11
174.97263535029065
 21
163.95404060903189
  0
LINE
  8
_6-f_
  6
CONTINUOUS
 62
    4
 10
174.58440678263684
 20
170.85515186959833
 11
174.19617821498309
 21
169.40626313016471
  0
LINE
  8
_6-f_
  6
CONTINUOUS
 62
    4
 10
174.58440678263684
 20
170.85515186959833
 11
174.97263535029065
 21
169.40626313016471
  0
LINE
  8
_6-f_
  6
CONTINUOUS
 62
    4
 10
174.33440678263684
 20
170.85515186959833
 11
180.21910505849893
 21
170.85515186959833
  0
TEXT
  8
_6-f_
 62
    7
 10
175.33440678263684
 20
163.43015186959831
 40
4
 41
1
 50
90
  1
8.4
  0
LINE
  8
_6-f_
  6
CONTINUOUS
 62
    4
 10
170.32562320204343
 20
154.15515186959828
 11
170.32562320204343
 21
170.85515186959833
  0
LINE
  8
_6-f_
  6
CONTINUOUS
 62
    4
 10
170.32562320204343
 20
154.15515186959828
 11
169.93739463438964
 21
155.60404060903186
  0
LINE
  8
_6-f_
  6
CONTINUOUS
 62
    4
 10
170.32562320204343
 20
154.15515186959828
 11
170.71385176969721
 21
155.60404060903186
  0
LINE
  8
_6-f_
  6
CONTINUOUS
 62
    4
 10
170.32562320204343
 20
170.85515186959833
 11
169.93739463438964
 21
169.40626313016471
  0
LINE
  8
_6-f_
  6
CONTINUOUS
 62
    4
 10
170.32562320204343
 20
170.85515186959833
 11
170.71385176969721
 21
169.40626313016471
  0
LINE
  8
_6-f_
  6
CONTINUOUS
 62
    4
 10
170.07562320204343
 20
154.15515186959828
 11
179.82598657413643
 21
154.15515186959828
  0
LINE
  8
_6-f_
  6
CONTINUOUS
 62
    4
 10
170.07562320204343
 20
170.85515186959833
 11
179.82598657413643
 21
170.85515186959833
  0
LINE
  8
_6-f_
  6
CENTER1
 62
    2
 10
185.41444017191307
 20
162.5051518695983
 11
179.65344800535439
 21
162.5051518695983
  0
LINE
  8
_6-f_
  6
CONTINUOUS
 62
    4
 10
174.33440678263684
 20
162.5051518695983
 11
178.09168675456947
 21
162.5051518695983
  0
TEXT
  8
_6-f_
 62
    7
 10
170.16361768243785
 20
157.94732357658381
 40
4
 41
1
 50
90
  1
16.7
  0
TEXT
  8
_6-f_
 62
    7
 10
321.45742982838044
 20
-6.5119205097848293
 40
4
 41
1
 50
0
  1
1
  0
TEXT
  8
_6-f_
 62
    7
 10
328.35214233486749
 20
-6.4090143529715817
 40
4
 41
1
 50
0
  1
7
  0
POINT
  8
_6-f_
 62
    4
 10
-1.019819469591539
 20
164.28921317687129
  0
POINT
  8
_6-f_
 62
    4
 10
-21.019819469591539
 20
96.152102716417374
  0
LINE
  8
_6-f_
  6
CONTINUOUS
 62
    4
 10
-21.019819469591539
 20
96.652102716417374
 11
-21.019819469591539
 21
92.301629825263688
  0
LINE
  8
_6-f_
  6
CONTINUOUS
 62
    4
 10
-21.019819469591539
 20
96.152102716417374
 11
1.8373233875513506
 21
96.152102716417374
  0
POINT
  8
_6-f_
 62
    4
 10
1.8373233875513506
 20
96.152102716417374
  0
LINE
  8
_6-f_
  6
CONTINUOUS
 62
    4
 10
1.8373233875513506
 20
96.652102716417374
 11
1.8373233875513506
 21
92.301629825263688
  0
TEXT
  8
_6-f_
 62
    7
 10
-12.841248041020094
 20
96.652102716417374
 40
4
 41
1
 50
0
  1
160
  0
LINE
  8
_6-f_
  6
CONTINUOUS
 62
    4
 10
1.8373233875513506
 20
96.152102716417374
 11
24.694466244694197
 21
96.152102716417374
  0
POINT
  8
_6-f_
 62
    4
 10
24.694466244694197
 20
96.152102716417374
  0
LINE
  8
_6-f_
  6
CONTINUOUS
 62
    4
 10
24.694466244694197
 20
96.652102716417374
 11
24.694466244694197
 21
92.301629825263688
  0
TEXT
  8
_6-f_
 62
    7
 10
10.015894816122766
 20
96.652102716417374
 40
4
 41
1
 50
0
  1
160
  0
LINE
  8
_6-f_
  6
CONTINUOUS
 62
    4
 10
24.694466244694197
 20
96.152102716417374
 11
47.551609101837058
 21
96.152102716417374
  0
POINT
  8
_6-f_
 62
    4
 10
47.551609101837058
 20
96.152102716417374
  0
LINE
  8
_6-f_
  6
CONTINUOUS
 62
    4
 10
47.551609101837058
 20
96.652102716417374
 11
47.551609101837058
 21
92.301629825263688
  0
TEXT
  8
_6-f_
 62
    7
 10
32.873037673265628
 20
96.652102716417374
 40
4
 41
1
 50
0
  1
160
  0
LINE
  8
_6-f_
  6
CONTINUOUS
 62
    4
 10
47.551609101837058
 20
96.152102716417374
 11
70.408751958979905
 21
96.152102716417374
  0
POINT
  8
_6-f_
 62
    4
 10
70.408751958979905
 20
96.152102716417374
  0
LINE
  8
_6-f_
  6
CONTINUOUS
 62
    4
 10
70.408751958979905
 20
96.652102716417374
 11
70.408751958979905
 21
92.301629825263688
  0
TEXT
  8
_6-f_
 62
    7
 10
55.730180530408489
 20
96.652102716417374
 40
4
 41
1
 50
0
  1
160
  0
LINE
  8
_6-f_
  6
CONTINUOUS
 62
    4
 10
70.408751958979905
 20
96.152102716417374
 11
93.265894816122795
 21
96.152102716417374
  0
POINT
  8
_6-f_
 62
    4
 10
93.265894816122795
 20
96.152102716417374
  0
LINE
  8
_6-f_
  6
CONTINUOUS
 62
    4
 10
93.265894816122795
 20
96.652102716417374
 11
93.265894816122795
 21
92.301629825263688
  0
TEXT
  8
_6-f_
 62
    7
 10
78.58732338755135
 20
96.652102716417374
 40
4
 41
1
 50
0
  1
160
  0
LINE
  8
_6-f_
  6
CONTINUOUS
 62
    4
 10
93.265894816122795
 20
96.152102716417374
 11
116.12303767326562
 21
96.152102716417374
  0
POINT
  8
_6-f_
 62
    4
 10
116.12303767326562
 20
96.152102716417374
  0
LINE
  8
_6-f_
  6
CONTINUOUS
 62
    4
 10
116.12303767326562
 20
96.652102716417374
 11
116.12303767326562
 21
92.301629825263688
  0
TEXT
  8
_6-f_
 62
    7
 10
101.44446624469418
 20
96.652102716417374
 40
4
 41
1
 50
0
  1
160
  0
LINE
  8
_6-f_
  6
CONTINUOUS
 62
    4
 10
116.12303767326562
 20
96.152102716417374
 11
138.98018053040851
 21
96.152102716417374
  0
POINT
  8
_6-f_
 62
    4
 10
138.98018053040851
 20
96.152102716417374
  0
LINE
  8
_6-f_
  6
CONTINUOUS
 62
    4
 10
138.98018053040851
 20
96.652102716417374
 11
138.98018053040851
 21
92.301629825263688
  0
TEXT
  8
_6-f_
 62
    7
 10
124.30160910183707
 20
96.652102716417374
 40
4
 41
1
 50
0
  1
160
  0
LINE
  8
_6-f_
  6
CONTINUOUS
 62
    4
 10
138.98018053040851
 20
96.152102716417374
 11
161.83732338755135
 21
96.152102716417374
  0
POINT
  8
_6-f_
 62
    4
 10
161.83732338755135
 20
96.152102716417374
  0
LINE
  8
_6-f_
  6
CONTINUOUS
 62
    4
 10
161.83732338755135
 20
96.652102716417374
 11
161.83732338755135
 21
92.301629825263688
  0
TEXT
  8
_6-f_
 62
    7
 10
147.1587519589799
 20
96.652102716417374
 40
4
 41
1
 50
0
  1
160
  0
POINT
  8
_6-f_
 62
    4
 10
-19.591248041020094
 20
58.683959204064706
  0
LINE
  8
_6-f_
  6
CONTINUOUS
 62
    4
 10
-19.591248041020094
 20
59.183959204064706
 11
-19.591248041020094
 21
54.099155675596392
  0
LINE
  8
_6-f_
  6
CONTINUOUS
 62
    4
 10
-19.591248041020094
 20
58.683959204064706
 11
3.2658948161227669
 21
58.683959204064706
  0
POINT
  8
_6-f_
 62
    4
 10
3.2658948161227669
 20
58.683959204064706
  0
LINE
  8
_6-f_
  6
CONTINUOUS
 62
    4
 10
3.2658948161227669
 20
59.183959204064706
 11
3.2658948161227669
 21
54.099155675596392
  0
TEXT
  8
_6-f_
 62
    7
 10
-11.412676612448649
 20
59.183959204064706
 40
4
 41
1
 50
0
  1
160
  0
LINE
  8
_6-f_
  6
CONTINUOUS
 62
    4
 10
3.2658948161227669
 20
58.683959204064706
 11
26.123037673265628
 21
58.683959204064706
  0
POINT
  8
_6-f_
 62
    4
 10
26.123037673265628
 20
58.683959204064706
  0
LINE
  8
_6-f_
  6
CONTINUOUS
 62
    4
 10
26.123037673265628
 20
59.183959204064706
 11
26.123037673265628
 21
54.099155675596392
  0
TEXT
  8
_6-f_
 62
    7
 10
11.444466244694183
 20
59.183959204064706
 40
4
 41
1
 50
0
  1
160
  0
LINE
  8
_6-f_
  6
CONTINUOUS
 62
    4
 10
26.123037673265628
 20
58.683959204064706
 11
48.980180530408489
 21
58.683959204064706
  0
POINT
  8
_6-f_
 62
    4
 10
48.980180530408489
 20
58.683959204064706
  0
LINE
  8
_6-f_
  6
CONTINUOUS
 62
    4
 10
48.980180530408489
 20
59.183959204064706
 11
48.980180530408489
 21
54.099155675596392
  0
TEXT
  8
_6-f_
 62
    7
 10
34.301609101837073
 20
59.183959204064706
 40
4
 41
1
 50
0
  1
160
  0
LINE
  8
_6-f_
  6
CONTINUOUS
 62
    4
 10
48.980180530408489
 20
58.683959204064706
 11
71.83732338755135
 21
58.683959204064706
  0
POINT
  8
_6-f_
 62
    4
 10
71.83732338755135
 20
58.683959204064706
  0
LINE
  8
_6-f_
  6
CONTINUOUS
 62
    4
 10
71.83732338755135
 20
59.183959204064706
 11
71.83732338755135
 21
54.099155675596392
  0
TEXT
  8
_6-f_
 62
    7
 10
57.158751958979905
 20
59.183959204064706
 40
4
 41
1
 50
0
  1
160
  0
LINE
  8
_6-f_
  6
CONTINUOUS
 62
    4
 10
71.83732338755135
 20
58.683959204064706
 11
94.694466244694211
 21
58.683959204064706
  0
POINT
  8
_6-f_
 62
    4
 10
94.694466244694211
 20
58.683959204064706
  0
LINE
  8
_6-f_
  6
CONTINUOUS
 62
    4
 10
94.694466244694211
 20
59.183959204064706
 11
94.694466244694211
 21
54.099155675596392
  0
TEXT
  8
_6-f_
 62
    7
 10
80.01589481612271
 20
59.183959204064706
 40
4
 41
1
 50
0
  1
160
  0
LINE
  8
_6-f_
  6
CONTINUOUS
 62
    4
 10
94.694466244694211
 20
58.683959204064706
 11
117.55160910183704
 21
58.683959204064706
  0
POINT
  8
_6-f_
 62
    4
 10
117.55160910183704
 20
58.683959204064706
  0
LINE
  8
_6-f_
  6
CONTINUOUS
 62
    4
 10
117.55160910183704
 20
59.183959204064706
 11
117.55160910183704
 21
54.099155675596392
  0
TEXT
  8
_6-f_
 62
    7
 10
102.87303767326562
 20
59.183959204064706
 40
4
 41
1
 50
0
  1
160
  0
LINE
  8
_6-f_
  6
CONTINUOUS
 62
    4
 10
117.55160910183704
 20
58.683959204064706
 11
140.4087519589799
 21
58.683959204064706
  0
POINT
  8
_6-f_
 62
    4
 10
140.4087519589799
 20
58.683959204064706
  0
LINE
  8
_6-f_
  6
CONTINUOUS
 62
    4
 10
140.4087519589799
 20
59.183959204064706
 11
140.4087519589799
 21
54.099155675596392
  0
TEXT
  8
_6-f_
 62
    7
 10
125.73018053040848
 20
59.183959204064706
 40
4
 41
1
 50
0
  1
160
  0
LINE
  8
_6-f_
  6
CONTINUOUS
 62
    4
 10
140.4087519589799
 20
58.683959204064706
 11
163.26589481612276
 21
58.683959204064706
  0
POINT
  8
_6-f_
 62
    4
 10
163.26589481612276
 20
58.683959204064706
  0
LINE
  8
_6-f_
  6
CONTINUOUS
 62
    4
 10
163.26589481612276
 20
59.183959204064706
 11
163.26589481612276
 21
54.099155675596392
  0
TEXT
  8
_6-f_
 62
    7
 10
148.58732338755135
 20
59.183959204064706
 40
4
 41
1
 50
0
  1
160
  0
LINE
  8
_6-f_
  6
CONTINUOUS
 62
    4
 10
163.26589481612276
 20
58.683959204064706
 11
186.12303767326562
 21
58.683959204064706
  0
POINT
  8
_6-f_
 62
    4
 10
186.12303767326562
 20
58.683959204064706
  0
LINE
  8
_6-f_
  6
CONTINUOUS
 62
    4
 10
186.12303767326562
 20
59.183959204064706
 11
186.12303767326562
 21
54.099155675596392
  0
TEXT
  8
_6-f_
 62
    7
 10
171.44446624469418
 20
59.183959204064706
 40
4
 41
1
 50
0
  1
160
  0
LINE
  8
_6-f_
  6
CONTINUOUS
 62
    4
 10
186.12303767326562
 20
58.683959204064706
 11
208.98018053040851
 21
58.683959204064706
  0
POINT
  8
_6-f_
 62
    4
 10
208.98018053040851
 20
58.683959204064706
  0
LINE
  8
_6-f_
  6
CONTINUOUS
 62
    4
 10
208.98018053040851
 20
59.183959204064706
 11
208.98018053040851
 21
54.099155675596392
  0
TEXT
  8
_6-f_
 62
    7
 10
194.30160910183707
 20
59.183959204064706
 40
4
 41
1
 50
0
  1
160
  0
LINE
  8
_6-f_
  6
CONTINUOUS
 62
    4
 10
208.98018053040851
 20
58.683959204064706
 11
231.83732338755135
 21
58.683959204064706
  0
POINT
  8
_6-f_
 62
    4
 10
231.83732338755135
 20
58.683959204064706
  0
LINE
  8
_6-f_
  6
CONTINUOUS
 62
    4
 10
231.83732338755135
 20
59.183959204064706
 11
231.83732338755135
 21
54.099155675596392
  0
TEXT
  8
_6-f_
 62
    7
 10
217.1587519589799
 20
59.183959204064706
 40
4
 41
1
 50
0
  1
160
  0
POINT
  8
_6-f_
 62
    4
 10
161.83732338755135
 20
96.152102716417374
  0
LINE
  8
_6-f_
  6
CONTINUOUS
 62
    4
 10
161.83732338755135
 20
96.652102716417374
 11
161.83732338755135
 21
92.364793205668576
  0
TEXT
  8
_6-f_
 62
    7
 10
28.241055099990688
 20
143.82142167212759
 40
4
 41
1
 50
0
  1
3-Φ4.0
  0
LINE
  8
_6-f_
  6
CONTINUOUS
 62
    4
 10
21.157006068763209
 20
156.82379014716536
 11
27.613354552919901
 21
146.87025290075715
  0
TEXT
  8
_6-f_
 62
    7
 10
-10.83573480926384
 20
118.65478919604549
 40
4
 41
1
 50
0
  1
6-Φ4.0
  0
TEXT
  8
_6-f_
 62
    7
 10
-6.4572263890553358
 20
78.574596734136918
 40
4
 41
1
 50
0
  1
9-Φ4.0
  0
TEXT
  8
_6-f_
 62
    7
 10
-8.4780764291515993
 20
41.525679332372646
 40
4
 41
1
 50
0
  1
12-Φ4.0
  0
LINE
  8
_6-f_
  6
CONTINUOUS
 62
    4
 10
-20.762029165719354
 20
89.118276565732713
 11
-7.53869691832557
 21
81.284285612444818
  0
LINE
  8
_6-f_
  6
CONTINUOUS
 62
    4
 10
-19.475260368279919
 20
51.598598524480223
 11
-9.3240136552383887
 21
44.455128615302839
  0
POINT
  8
_6-f_
 62
    4
 10
-1.019819469591539
 20
164.28921317687129
  0
LINE
  8
_6-f_
  6
CONTINUOUS
 62
    4
 10
-11.172543149279874
 20
121.58153752997793
 11
-22.147849401526627
 21
128.89840836480914
  0
POINT
  8
_6-f_
 62
    4
 10
-22.448390898162926
 20
136.16882287687948
  0
LINE
  8
_6-f_
  6
CONTINUOUS
 62
    4
 10
-22.448390898162926
 20
136.66882287687948
 11
-22.448390898162926
 21
130.77988943662285
  0
LINE
  8
_6-f_
  6
CONTINUOUS
 62
    4
 10
-22.448390898162926
 20
136.16882287687948
 11
0.4087519589799057
 21
136.16882287687948
  0
POINT
  8
_6-f_
 62
    4
 10
0.4087519589799057
 20
136.16882287687948
  0
LINE
  8
_6-f_
  6
CONTINUOUS
 62
    4
 10
0.4087519589799057
 20
136.66882287687948
 11
0.4087519589799057
 21
130.77988943662285
  0
TEXT
  8
_6-f_
 62
    7
 10
-14.269819469591482
 20
136.66882287687946
 40
4
 41
1
 50
0
  1
160
  0
LINE
  8
_6-f_
  6
CONTINUOUS
 62
    4
 10
0.4087519589799057
 20
136.16882287687948
 11
23.265894816122781
 21
136.16882287687948
  0
POINT
  8
_6-f_
 62
    4
 10
23.265894816122781
 20
136.16882287687948
  0
LINE
  8
_6-f_
  6
CONTINUOUS
 62
    4
 10
23.265894816122781
 20
136.66882287687948
 11
23.265894816122781
 21
130.77988943662285
  0
TEXT
  8
_6-f_
 62
    7
 10
8.5873233875513506
 20
136.66882287687946
 40
4
 41
1
 50
0
  1
160
  0
LINE
  8
_6-f_
  6
CONTINUOUS
 62
    4
 10
23.265894816122781
 20
136.16882287687948
 11
46.123037673265628
 21
136.16882287687948
  0
POINT
  8
_6-f_
 62
    4
 10
46.123037673265628
 20
136.16882287687948
  0
LINE
  8
_6-f_
  6
CONTINUOUS
 62
    4
 10
46.123037673265628
 20
136.66882287687948
 11
46.123037673265628
 21
130.77988943662285
  0
TEXT
  8
_6-f_
 62
    7
 10
31.444466244694211
 20
136.66882287687946
 40
4
 41
1
 50
0
  1
160
  0
LINE
  8
_6-f_
  6
CONTINUOUS
 62
    4
 10
46.123037673265628
 20
136.16882287687948
 11
68.980180530408517
 21
136.16882287687948
  0
POINT
  8
_6-f_
 62
    4
 10
68.980180530408517
 20
136.16882287687948
  0
LINE
  8
_6-f_
  6
CONTINUOUS
 62
    4
 10
68.980180530408517
 20
136.66882287687948
 11
68.980180530408517
 21
130.77988943662285
  0
TEXT
  8
_6-f_
 62
    7
 10
54.301609101837058
 20
136.66882287687946
 40
4
 41
1
 50
0
  1
160
  0
LINE
  8
_6-f_
  6
CONTINUOUS
 62
    4
 10
68.980180530408517
 20
136.16882287687948
 11
91.83732338755135
 21
136.16882287687948
  0
POINT
  8
_6-f_
 62
    4
 10
91.83732338755135
 20
136.16882287687948
  0
LINE
  8
_6-f_
  6
CONTINUOUS
 62
    4
 10
91.83732338755135
 20
136.66882287687948
 11
91.83732338755135
 21
130.77988943662285
  0
TEXT
  8
_6-f_
 62
    7
 10
77.158751958979934
 20
136.66882287687946
 40
4
 41
1
 50
0
  1
160
  0
TEXT
  8
_6-f_
 62
    7
 10
252.91058540497192
 20
174.71932638331998
 40
4
 41
1
 50
0
  1
Φ4.0
  0
TEXT
  8
_6-f_
 62
    7
 10
38.892040898155585
 20
117.08194667201283
 40
3
 41
1
 50
0
  1
－3
  0
TEXT
  8
_6-f_
 62
    7
 10
77.601844426623898
 20
77.613271852445876
 40
3
 41
1
 50
0
  1
-4
  0
TEXT
  8
_6-f_
 62
    7
 10
112.54570970328788
 20
39.01187850842021
 40
3
 41
1
 50
0
  1
-5
  0
TEXT
  8
_6-f_
 62
    7
 10
5.0954290296712088
 20
153.27305533279871
 40
3
 41
1
 50
0
  1
0
  0
TEXT
  8
_6-f_
 62
    7
 10
42.295714365640336
 20
120.19715963058735
 40
3
 41
1
 50
0
  1
0
  0
TEXT
  8
_6-f_
 62
    7
 10
79.520193452256535
 20
80.613941784259765
 40
3
 41
1
 50
0
  1
0
  0
TEXT
  8
_6-f_
 62
    7
 10
114.25080192461908
 20
42.168404170008017
 40
3
 41
1
 50
0
  1
0
  0
CIRCLE
  8
_6-0_
  6
CONTINUOUS
 62
    7
 10
-23.876962326734371
 20
157.73317522002241
 40
0.2857142857142856
  0
LINE
  8
_6-0_
  6
CENTER1
 62
    2
 10
-24.162676612448649
 20
157.73317522002241
 11
-23.591248041020094
 21
157.73317522002241
  0
LINE
  8
_6-0_
  6
CENTER1
 62
    2
 10
-23.876962326734371
 20
158.01888950573669
 11
-23.876962326734371
 21
157.44746093430811
  0
CIRCLE
  8
_6-0_
  6
CONTINUOUS
 62
    7
 10
21.837323387551336
 20
157.73317522002241
 40
0.2857142857142856
  0
LINE
  8
_6-0_
  6
CENTER1
 62
    2
 10
21.551609101837058
 20
157.73317522002241
 11
22.123037673265613
 21
157.73317522002241
  0
LINE
  8
_6-0_
  6
CENTER1
 62
    2
 10
21.837323387551336
 20
158.01888950573669
 11
21.837323387551336
 21
157.44746093430811
  0
POINT
  8
_6-f_
 62
    7
 10
-1.019819469591539
 20
164.28921317687129
  0
LINE
  8
_6-f_
  6
CONTINUOUS
 62
    7
 10
-33.162676612448649
 20
158.92603236287953
 11
-33.162676612448649
 21
156.54031807716523
  0
LINE
  8
_6-0_
  6
CONTINUOUS
 62
    7
 10
-33.162676612448649
 20
158.92603236287953
 11
31.123037673265628
 21
158.92603236287953
  0
LINE
  8
_6-0_
  6
CONTINUOUS
 62
    7
 10
-33.162676612448649
 20
158.64217680037597
 11
31.123037673265628
 21
158.64217680037597
  0
LINE
  8
_6-0_
  6
CONTINUOUS
 62
    7
 10
-33.162676612448649
 20
158.23317522002241
 11
31.123037673265628
 21
158.23317522002241
  0
LINE
  8
_6-0_
  6
CONTINUOUS
 62
    7
 10
-33.162676612448649
 20
157.23317522002241
 11
31.123037673265628
 21
157.23317522002241
  0
LINE
  8
_6-0_
  6
CONTINUOUS
 62
    7
 10
-33.162676612448649
 20
156.82417363966885
 11
31.123037673265628
 21
156.82417363966885
  0
LINE
  8
_6-0_
  6
CONTINUOUS
 62
    7
 10
-33.162676612448649
 20
156.54031807716523
 11
31.123037673265628
 21
156.54031807716523
  0
LINE
  8
_6-f_
  6
CONTINUOUS
 62
    7
 10
31.123037673265628
 20
158.92603236287953
 11
31.123037673265628
 21
156.54031807716523
  0
LINE
  8
_6-f_
  6
CONTINUOUS
 62
    4
 10
-33.162676612448649
 20
164.28921317687129
 11
-23.876962326734371
 21
164.28921317687129
  0
POINT
  8
_6-f_
 62
    4
 10
-33.162676612448649
 20
164.28921317687129
  0
POINT
  8
_6-f_
 62
    4
 10
-23.876962326734371
 20
164.28921317687129
  0
LINE
  8
_6-f_
  6
CONTINUOUS
 62
    4
 10
-33.162676612448649
 20
164.78921317687129
 11
-33.162676612448649
 21
160.28856752144423
  0
LINE
  8
_6-f_
  6
CONTINUOUS
 62
    4
 10
-23.876962326734371
 20
164.78921317687129
 11
-23.876962326734371
 21
160.28856752144423
  0
TEXT
  8
_6-f_
 62
    7
 10
-30.64481946959151
 20
164.78921317687129
 40
4
 41
1
 50
0
  1
65
  0
LINE
  8
_6-f_
  6
CONTINUOUS
 62
    4
 10
-1.019819469591539
 20
164.28921317687129
 11
-23.876962326734371
 21
164.28921317687129
  0
POINT
  8
_6-f_
 62
    4
 10
-1.019819469591539
 20
164.28921317687129
  0
LINE
  8
_6-f_
  6
CONTINUOUS
 62
    4
 10
-1.019819469591539
 20
164.78921317687129
 11
-1.019819469591539
 21
160.28856752144423
  0
TEXT
  8
_6-f_
 62
    7
 10
-15.698390898162955
 20
164.78921317687129
 40
4
 41
1
 50
0
  1
160
  0
LINE
  8
_6-f_
  6
CONTINUOUS
 62
    4
 10
-23.876962326734371
 20
164.28921317687129
 11
-1.019819469591539
 21
164.28921317687129
  0
TEXT
  8
_6-f_
 62
    7
 10
-15.698390898162955
 20
164.78921317687129
 40
4
 41
1
 50
0
  1
160
  0
LINE
  8
_6-f_
  6
CONTINUOUS
 62
    4
 10
-1.019819469591539
 20
164.28921317687129
 11
21.837323387551336
 21
164.28921317687129
  0
POINT
  8
_6-f_
 62
    4
 10
21.837323387551336
 20
164.28921317687129
  0
LINE
  8
_6-f_
  6
CONTINUOUS
 62
    4
 10
21.837323387551336
 20
164.78921317687129
 11
21.837323387551336
 21
160.28856752144423
  0
TEXT
  8
_6-f_
 62
    7
 10
7.1587519589799057
 20
164.78921317687129
 40
4
 41
1
 50
0
  1
160
  0
LINE
  8
_6-f_
  6
CONTINUOUS
 62
    4
 10
21.837323387551336
 20
164.28921317687129
 11
31.123037673265628
 21
164.28921317687129
  0
POINT
  8
_6-f_
 62
    4
 10
31.123037673265628
 20
164.28921317687129
  0
LINE
  8
_6-f_
  6
CONTINUOUS
 62
    4
 10
31.123037673265628
 20
164.78921317687129
 11
31.123037673265628
 21
160.28856752144423
  0
TEXT
  8
_6-f_
 62
    7
 10
24.355180530408489
 20
164.78921317687129
 40
4
 41
1
 50
0
  1
65
  0
LINE
  8
_6-f_
  6
CONTINUOUS
 62
    4
 10
-33.162676612448649
 20
149.64977505963747
 11
31.123037673265628
 21
149.64977505963747
  0
POINT
  8
_6-f_
 62
    4
 10
-33.162676612448649
 20
149.64977505963747
  0
POINT
  8
_6-f_
 62
    4
 10
31.123037673265628
 20
149.64977505963747
  0
LINE
  8
_6-f_
  6
CONTINUOUS
 62
    4
 10
-33.162676612448649
 20
149.14977505963747
 11
-33.162676612448649
 21
154.02828347984598
  0
LINE
  8
_6-f_
  6
CONTINUOUS
 62
    4
 10
31.123037673265628
 20
149.14977505963747
 11
31.123037673265628
 21
154.02828347984598
  0
LINE
  8
_6-f_
  6
CONTINUOUS
 62
    4
 10
-33.162676612448649
 20
149.64977505963747
 11
31.123037673265628
 21
149.64977505963747
  0
LINE
  8
_6-f_
  6
CONTINUOUS
 62
    7
 10
-33.01981946959151
 20
128.75917396924549
 11
-33.01981946959151
 21
129.95203111210264
  0
LINE
  8
_6-f_
  6
CONTINUOUS
 62
    7
 10
-33.01981946959151
 20
128.75917396924549
 11
-33.01981946959151
 21
127.56631682638834
  0
LINE
  8
_6-0_
  6
CONTINUOUS
 62
    7
 10
-33.01981946959151
 20
129.95203111210264
 11
102.40875195897993
 21
129.95203111210264
  0
LINE
  8
_6-0_
  6
CONTINUOUS
 62
    7
 10
-33.01981946959151
 20
129.66817554959905
 11
102.40875195897993
 21
129.66817554959905
  0
LINE
  8
_6-0_
  6
CONTINUOUS
 62
    7
 10
-33.01981946959151
 20
129.25917396924549
 11
102.40875195897993
 21
129.25917396924549
  0
LINE
  8
_6-0_
  6
CONTINUOUS
 62
    7
 10
-33.01981946959151
 20
128.25917396924549
 11
102.40875195897993
 21
128.25917396924549
  0
LINE
  8
_6-0_
  6
CONTINUOUS
 62
    7
 10
-33.01981946959151
 20
127.85017238889193
 11
102.40875195897993
 21
127.85017238889193
  0
LINE
  8
_6-0_
  6
CONTINUOUS
 62
    7
 10
-33.01981946959151
 20
127.56631682638834
 11
102.40875195897993
 21
127.56631682638834
  0
LINE
  8
_6-f_
  6
CONTINUOUS
 62
    7
 10
102.4087519589799
 20
128.75917396924549
 11
102.4087519589799
 21
127.56631682638834
  0
LINE
  8
_6-f_
  6
CONTINUOUS
 62
    7
 10
102.4087519589799
 20
128.75917396924549
 11
102.4087519589799
 21
129.95203111210264
  0
LINE
  8
_6-f_
  6
CONTINUOUS
 62
    4
 10
-22.448390898162926
 20
136.16882287687948
 11
-33.01981946959151
 21
136.16882287687948
  0
POINT
  8
_6-f_
 62
    4
 10
-22.448390898162926
 20
136.16882287687948
  0
POINT
  8
_6-f_
 62
    4
 10
-33.01981946959151
 20
136.16882287687948
  0
LINE
  8
_6-f_
  6
CONTINUOUS
 62
    4
 10
-22.448390898162926
 20
136.66882287687948
 11
-22.448390898162926
 21
130.76743318099809
  0
LINE
  8
_6-f_
  6
CONTINUOUS
 62
    4
 10
-33.01981946959151
 20
136.66882287687948
 11
-33.01981946959151
 21
130.76743318099809
  0
TEXT
  8
_6-f_
 62
    7
 10
-29.859105183877204
 20
136.66882287687948
 40
4
 41
1
 50
0
  1
74
  0
LINE
  8
_6-f_
  6
CONTINUOUS
 62
    4
 10
-33.01981946959151
 20
136.16882287687948
 11
91.83732338755135
 21
136.16882287687948
  0
POINT
  8
_6-f_
 62
    4
 10
91.83732338755135
 20
136.16882287687948
  0
LINE
  8
_6-f_
  6
CONTINUOUS
 62
    4
 10
91.83732338755135
 20
136.66882287687948
 11
91.83732338755135
 21
130.76743318099809
  0
LINE
  8
_6-f_
  6
CONTINUOUS
 62
    4
 10
91.83732338755135
 20
136.16882287687948
 11
102.4087519589799
 21
136.16882287687948
  0
POINT
  8
_6-f_
 62
    4
 10
102.4087519589799
 20
136.16882287687948
  0
LINE
  8
_6-f_
  6
CONTINUOUS
 62
    4
 10
102.4087519589799
 20
136.66882287687948
 11
102.4087519589799
 21
130.76743318099809
  0
TEXT
  8
_6-f_
 62
    7
 10
94.998037673265628
 20
136.66882287687948
 40
4
 41
1
 50
0
  1
74
  0
LINE
  8
_6-f_
  6
CONTINUOUS
 62
    4
 10
91.83732338755135
 20
136.16882287687948
 11
102.4087519589799
 21
136.16882287687948
  0
LINE
  8
_6-f_
  6
CONTINUOUS
 62
    4
 10
-33.01981946959151
 20
136.16882287687948
 11
-22.448390898162926
 21
136.16882287687948
  0
LINE
  8
_6-f_
  6
CONTINUOUS
 62
    4
 10
-33.01981946959151
 20
115.17443634921306
 11
102.4087519589799
 21
115.17443634921306
  0
POINT
  8
_6-f_
 62
    4
 10
-33.01981946959151
 20
115.17443634921306
  0
POINT
  8
_6-f_
 62
    4
 10
102.4087519589799
 20
115.17443634921306
  0
LINE
  8
_6-f_
  6
CONTINUOUS
 62
    4
 10
-33.01981946959151
 20
114.67443634921306
 11
-33.01981946959151
 21
124.72595789845061
  0
LINE
  8
_6-f_
  6
CONTINUOUS
 62
    4
 10
102.4087519589799
 20
114.67443634921306
 11
102.4087519589799
 21
124.72595789845061
  0
TEXT
  8
_6-f_
 62
    7
 10
31.444466244694197
 20
115.67443634921306
 40
4
 41
1
 50
0
  1
948
  0
LINE
  8
_6-f_
  6
CONTINUOUS
 62
    4
 10
-33.01981946959151
 20
115.17443634921306
 11
102.4087519589799
 21
115.17443634921306
  0
LINE
  8
_6-f_
  6
CONTINUOUS
 62
    7
 10
173.69446624469421
 20
89.361082196766574
 11
173.69446624469421
 21
90.553939339623724
  0
LINE
  8
_6-f_
  6
CONTINUOUS
 62
    7
 10
173.69446624469421
 20
89.361082196766574
 11
173.69446624469421
 21
88.168225053909424
  0
LINE
  8
_6-0_
  6
CONTINUOUS
 62
    7
 10
-32.8769623267344
 20
90.553939339623724
 11
173.69446624469421
 21
90.553939339623724
  0
LINE
  8
_6-0_
  6
CONTINUOUS
 62
    7
 10
-32.8769623267344
 20
90.270083777120134
 11
173.69446624469421
 21
90.270083777120134
  0
LINE
  8
_6-0_
  6
CONTINUOUS
 62
    7
 10
-32.8769623267344
 20
89.861082196766574
 11
173.69446624469421
 21
89.861082196766574
  0
LINE
  8
_6-0_
  6
CONTINUOUS
 62
    7
 10
-32.8769623267344
 20
88.861082196766574
 11
173.69446624469421
 21
88.861082196766574
  0
LINE
  8
_6-0_
  6
CONTINUOUS
 62
    7
 10
-32.8769623267344
 20
88.452080616413013
 11
173.69446624469421
 21
88.452080616413013
  0
LINE
  8
_6-0_
  6
CONTINUOUS
 62
    7
 10
-32.8769623267344
 20
88.168225053909424
 11
173.69446624469421
 21
88.168225053909424
  0
LINE
  8
_6-f_
  6
CONTINUOUS
 62
    7
 10
-32.8769623267344
 20
89.361082196766574
 11
-32.8769623267344
 21
88.168225053909424
  0
LINE
  8
_6-f_
  6
CONTINUOUS
 62
    7
 10
-32.8769623267344
 20
89.361082196766574
 11
-32.8769623267344
 21
90.553939339623724
  0
LINE
  8
_6-f_
  6
CONTINUOUS
 62
    4
 10
-32.8769623267344
 20
96.152102716417374
 11
-21.019819469591539
 21
96.152102716417374
  0
POINT
  8
_6-f_
 62
    4
 10
-32.8769623267344
 20
96.152102716417374
  0
POINT
  8
_6-f_
 62
    4
 10
-21.019819469591539
 20
96.152102716417374
  0
LINE
  8
_6-f_
  6
CONTINUOUS
 62
    4
 10
-32.8769623267344
 20
96.652102716417374
 11
-32.8769623267344
 21
92.301629825263688
  0
LINE
  8
_6-f_
  6
CONTINUOUS
 62
    4
 10
-21.019819469591539
 20
96.652102716417374
 11
-21.019819469591539
 21
92.301629825263688
  0
TEXT
  8
_6-f_
 62
    7
 10
-29.073390898162983
 20
96.652102716417374
 40
4
 41
1
 50
0
  1
83
  0
LINE
  8
_6-f_
  6
CONTINUOUS
 62
    4
 10
161.83732338755135
 20
96.152102716417374
 11
173.69446624469421
 21
96.152102716417374
  0
POINT
  8
_6-f_
 62
    4
 10
161.83732338755135
 20
96.152102716417374
  0
POINT
  8
_6-f_
 62
    4
 10
173.69446624469421
 20
96.152102716417374
  0
LINE
  8
_6-f_
  6
CONTINUOUS
 62
    4
 10
161.83732338755135
 20
96.652102716417374
 11
161.83732338755135
 21
92.301629825263688
  0
LINE
  8
_6-f_
  6
CONTINUOUS
 62
    4
 10
173.69446624469421
 20
96.652102716417374
 11
173.69446624469421
 21
92.301629825263688
  0
TEXT
  8
_6-f_
 62
    7
 10
165.64089481612279
 20
96.652102716417374
 40
4
 41
1
 50
0
  1
83
  0
LINE
  8
_6-f_
  6
CONTINUOUS
 62
    4
 10
-32.8769623267344
 20
75.804139654225224
 11
173.69446624469421
 21
75.804139654225224
  0
POINT
  8
_6-f_
 62
    4
 10
-32.8769623267344
 20
75.804139654225224
  0
POINT
  8
_6-f_
 62
    4
 10
173.69446624469421
 20
75.804139654225224
  0
LINE
  8
_6-f_
  6
CONTINUOUS
 62
    4
 10
-32.8769623267344
 20
75.304139654225224
 11
-32.8769623267344
 21
87.450747393238117
  0
LINE
  8
_6-f_
  6
CONTINUOUS
 62
    4
 10
173.69446624469421
 20
75.304139654225224
 11
173.69446624469421
 21
87.450747393238117
  0
TEXT
  8
_6-f_
 62
    7
 10
64.908751958979905
 20
76.304139654225224
 40
4
 41
1
 50
0
  1
1,446
  0
LINE
  8
_6-f_
  6
CONTINUOUS
 62
    7
 10
244.98018053040846
 20
51.966737872869856
 11
244.98018053040846
 21
50.773880730012706
  0
LINE
  8
_6-f_
  6
CONTINUOUS
 62
    7
 10
244.98018053040846
 20
51.966737872869856
 11
244.98018053040846
 21
53.159595015727035
  0
LINE
  8
_6-0_
  6
CONTINUOUS
 62
    7
 10
-32.734105183877233
 20
53.159595015727035
 11
244.98018053040846
 21
53.159595015727035
  0
LINE
  8
_6-0_
  6
CONTINUOUS
 62
    7
 10
-32.734105183877233
 20
52.875739453223388
 11
244.98018053040846
 21
52.875739453223388
  0
LINE
  8
_6-0_
  6
CONTINUOUS
 62
    7
 10
-32.734105183877233
 20
52.466737872869828
 11
244.98018053040846
 21
52.466737872869828
  0
LINE
  8
_6-0_
  6
CONTINUOUS
 62
    7
 10
-32.734105183877233
 20
51.466737872869856
 11
244.98018053040846
 21
51.466737872869856
  0
LINE
  8
_6-0_
  6
CONTINUOUS
 62
    7
 10
-32.734105183877233
 20
51.057736292516267
 11
244.98018053040846
 21
51.057736292516267
  0
LINE
  8
_6-0_
  6
CONTINUOUS
 62
    7
 10
-32.734105183877233
 20
50.773880730012706
 11
244.98018053040846
 21
50.773880730012706
  0
LINE
  8
_6-f_
  6
CONTINUOUS
 62
    7
 10
-32.734105183877233
 20
51.966737872869856
 11
-32.734105183877233
 21
50.773880730012706
  0
LINE
  8
_6-f_
  6
CONTINUOUS
 62
    7
 10
-32.734105183877233
 20
51.966737872869856
 11
-32.734105183877233
 21
53.159595015727035
  0
LINE
  8
_6-f_
  6
CONTINUOUS
 62
    4
 10
-32.734105183877233
 20
58.683959204064706
 11
-19.591248041020094
 21
58.683959204064706
  0
POINT
  8
_6-f_
 62
    4
 10
-32.734105183877233
 20
58.683959204064706
  0
POINT
  8
_6-f_
 62
    4
 10
-19.591248041020094
 20
58.683959204064706
  0
LINE
  8
_6-f_
  6
CONTINUOUS
 62
    4
 10
-32.734105183877233
 20
59.183959204064706
 11
-32.734105183877233
 21
54.099155675596392
  0
LINE
  8
_6-f_
  6
CONTINUOUS
 62
    4
 10
-19.591248041020094
 20
59.183959204064706
 11
-19.591248041020094
 21
54.099155675596392
  0
TEXT
  8
_6-f_
 62
    7
 10
-28.287676612448649
 20
59.183959204064706
 40
4
 41
1
 50
0
  1
92
  0
LINE
  8
_6-f_
  6
CONTINUOUS
 62
    4
 10
231.83732338755135
 20
58.683959204064706
 11
244.98018053040846
 21
58.683959204064706
  0
POINT
  8
_6-f_
 62
    4
 10
231.83732338755135
 20
58.683959204064706
  0
POINT
  8
_6-f_
 62
    4
 10
244.98018053040846
 20
58.683959204064706
  0
LINE
  8
_6-f_
  6
CONTINUOUS
 62
    4
 10
231.83732338755135
 20
59.183959204064706
 11
231.83732338755135
 21
54.099155675596392
  0
LINE
  8
_6-f_
  6
CONTINUOUS
 62
    4
 10
244.98018053040846
 20
59.183959204064706
 11
244.98018053040846
 21
54.099155675596392
  0
TEXT
  8
_6-f_
 62
    7
 10
236.2837519589799
 20
59.183959204064706
 40
4
 41
1
 50
0
  1
92
  0
LINE
  8
_6-f_
  6
CONTINUOUS
 62
    4
 10
-32.734105183877233
 20
37.14717091216417
 11
244.98018053040846
 21
37.14717091216417
  0
POINT
  8
_6-f_
 62
    4
 10
-32.734105183877233
 20
37.14717091216417
  0
POINT
  8
_6-f_
 62
    4
 10
244.98018053040846
 20
37.14717091216417
  0
LINE
  8
_6-f_
  6
CONTINUOUS
 62
    4
 10
-32.734105183877233
 20
36.64717091216417
 11
-32.734105183877233
 21
49.74959172210805
  0
LINE
  8
_6-f_
  6
CONTINUOUS
 62
    4
 10
244.98018053040846
 20
36.64717091216417
 11
244.98018053040846
 21
49.74959172210805
  0
TEXT
  8
_6-f_
 62
    7
 10
100.62303767326559
 20
37.64717091216417
 40
4
 41
1
 50
0
  1
1,944
  0
TEXT
  8
_0-0_
 62
    7
 10
244.32214138741903
 20
-5.7554012345679552
 40
4
 41
1
 50
0
  1
指方
  0
TEXT
  8
_0-0_
 62
    7
 10
258.98880805408572
 20
-5.8950837742504944
 40
4
 41
1
 50
0
  1
谷山
  0
TEXT
  8
_6-f_
 62
    7
 10
74.117743584013879
 20
11.11263970036019
 40
4
 41
1
 50
0
  1
注記
  0
TEXT
  8
_6-f_
 62
    7
 10
295.53915343915343
 20
-27.267724867724865
 40
7
 41
1
 50
0
  1
F7209050
  0
TEXT
  8
_0-0_
 62
    7
 10
293.77760141093472
 20
-5.234097589653146
 40
3
 41
1
 50
0
  1
20年9月8日
  0
TEXT
  8
_6-f_
 62
    7
 10
291.25547472075243
 20
-13.298258377425099
 40
4
 41
1
 50
0
  1
FLTシリーズ取付けﾚｰﾙ
  0
TEXT
  8
_0-0_
 62
    7
 10
269.49611992945318
 20
-16.490182245737784
 40
6
 41
1
 50
0
  1
PC
  0
LINE
  8
_0-0_
  6
CONTINUOUS
 62
    7
 10
223.52411798511877
 20
223.10311478816026
 11
223.52411798511877
 21
218.10313517294878
  0
LINE
  8
_0-0_
  6
CONTINUOUS
 62
    7
 10
213.52411035572424
 20
223.10311478816026
 11
213.52411035572424
 21
218.10313517294878
  0
LINE
  8
_0-0_
  6
CONTINUOUS
 62
    7
 10
253.52411831294432
 20
223.10311478816026
 11
253.52411831294432
 21
218.10313517294878
  0
LINE
  8
_0-0_
  6
CONTINUOUS
 62
    7
 10
313.52411798511877
 20
228.50000659839525
 11
313.52411798511877
 21
218.10313517294878
  0
LINE
  8
_0-0_
  6
CONTINUOUS
 62
    7
 10
323.52411798511877
 20
228.50000659839525
 11
323.52411798511877
 21
218.10313517294878
  0
TEXT
  8
_6-f_
 62
    7
 10
74.223543503821389
 20
-5.4584635063010864
 40
4
 41
1
 50
0
  1
※推奨固定ビス(木ネジ）　3.1×10ナベネジ　ユニクロ
  0
TEXT
  8
_6-f_
 62
    7
 10
74.117743584013879
 20
0.1400919601517216
 40
4
 41
1
 50
0
  1
※Φ4.0穴加工ピッチ公差は全て±1.5mm
  0
TEXT
  8
_6-f_
 62
    7
 10
292.09356995884763
 20
-17.907782186948907
 40
4
 41
1
 50
0
  1
(FLT-A-RL)
  0
TEXT
  8
_6-f_
 62
    7
 10
249.18030368311787
 20
49.609079492757615
 40
5
 41
1
 50
0
  1
FLT-A-RL-1944
  0
TEXT
  8
_6-f_
 62
    7
 10
182.49225235994225
 20
86.994805234537864
 40
5
 41
1
 50
0
  1
FLT-A-RL-1446
  0
TEXT
  8
_6-f_
 62
    7
 10
110.75207593652601
 20
125.39095599636624
 40
5
 41
1
 50
0
  1
FLT-A-RL-948
  0
TEXT
  8
_6-f_
 62
    7
 10
36.991049473013617
 20
155.03008991777761
 40
5
 41
1
 50
0
  1
FLT-A-RL-450
  0
TEXT
  8
_6-f_
 62
    7
 10
35.64381611294948
 20
149.97796481753704
 40
4
 41
1
 50
0
  1
※FLT-A-RLCレールクリップ　5ケ付属
  0
TEXT
  8
_6-f_
 62
    7
 10
110.41526759651
 20
120.00202255610963
 40
4
 41
1
 50
0
  1
※FLT-A-RLCレールクリップ　5ケ付属
  0
TEXT
  8
_6-f_
 62
    7
 10
182.15544401992622
 20
80.595446774233124
 40
4
 41
1
 50
0
  1
※FLT-A-RLCレールクリップ　10ケ付属
  0
TEXT
  8
_6-f_
 62
    7
 10
248.16987866306976
 20
43.54652937246891
 40
4
 41
1
 50
0
  1
※FLT-A-RLCレールクリップ　10ケ付属
  0
TEXT
  8
_6-f_
 62
    7
 10
74.117743584013879
 20
6.0273221634332401
 40
4
 41
1
 50
0
  1
※ユーピロンE2000UVR （カラーアイスブルー）
  0
TEXT
  8
_0-0_
 62
    7
 10
274.43932980599646
 20
-5.8950837742504944
 40
4
 41
1
 50
0
  1
指方
  0
TEXT
  8
_0-0_
 62
    7
 10
265.27460317460315
 20
2.3960914962972594
 40
3
 41
1
 50
0
  1
　　.　.　
  0
ENDSEC
  0
EOF
