  0
SECTION
  2
HEADER
  9
$ACADVER
  1
AC1009
  9
$INSBASE
 10
0
 20
0
 30
0
  9
$EXTMIN
 10
0
 20
0
  9
$EXTMAX
 10
128.5
 20
91
  9
$LIMMIN
 10
0
 20
0
  9
$LIMMAX
 10
128.5
 20
91
  9
$LTSCALE
 40
0.25
  0
ENDSEC
  0
SECTION
  2
TABLES
  0
TABLE
  2
LTYPE
 70
     9
  0
LTYPE
  2
CONTINUOUS
 70
    64
  3
実線
 72
    65
 73
     0
 40
0.0
  0
LTYPE
  2
DASHED1
 70
    64
  3
--  --  --  --  --  --  --  --  
 72
    65
 73
     2
 40
2.5
 49
1.25
 49
-1.25
  0
LTYPE
  2
DASHED2
 70
    64
  3
----    ----    ----    ----    
 72
    65
 73
     2
 40
5.0
 49
2.5
 49
-2.5
  0
LTYPE
  2
DASHED3
 70
    64
  3
------  ------  ------  ------  
 72
    65
 73
     2
 40
5.0
 49
3.75
 49
-1.25
  0
LTYPE
  2
CENTER1
 70
    64
  3
----- - ----- - ----- - ----- - 
 72
    65
 73
     4
 40
10.0
 49
6.25
 49
-1.25
 49
1.25
 49
-1.25
  0
LTYPE
  2
CENTER2
 70
    64
  3
----------  --  ----------  --  
 72
    65
 73
     4
 40
20.0
 49
12.5
 49
-2.5
 49
2.5
 49
-2.5
  0
LTYPE
  2
PHANTOM1
 70
    64
  3
--- - - --- - - --- - - --- - - 
 72
    65
 73
     6
 40
10.0
 49
3.25
 49
-1.25
 49
1.25
 49
-1.25
 49
1.25
 49
-1.25
  0
LTYPE
  2
PHANTOM2
 70
    64
  3
--------  -  -  --------  -  -  
 72
    65
 73
     6
 40
20.0
 49
10.0
 49
-2.5
 49
1.25
 49
-2.5
 49
1.25
 49
-2.5
  0
LTYPE
  2
DOT
 70
    64
  3
-   -   -   -   -   -   -   -   
 72
    65
 73
     2
 40
2.5
 49
0.625
 49
-1.875
  0
LTYPE
  2
DUMMY
 70
    64
  3
ダミー
 72
    65
 73
     0
 40
0.0
  0
LTYPE
  2
RAND1
 70
    64
  3
ランダム線1
 72
    65
 73
     4
 40
10.0
 49
1.0
 49
-2.0
 49
3.0
 49
-4.0
  0
LTYPE
  2
RAND2
 70
    64
  3
ランダム線2
 72
    65
 73
     4
 40
14.0
 49
2.0
 49
-3.0
 49
4.0
 49
-5.0
  0
LTYPE
  2
RAND3
 70
    64
  3
ランダム線3
 72
    65
 73
     4
 40
18.0
 49
3.0
 49
-4.0
 49
5.0
 49
-6.0
  0
LTYPE
  2
RAND4
 70
    64
  3
ランダム線4
 72
    65
 73
     4
 40
22.0
 49
4.0
 49
-5.0
 49
6.0
 49
-7.0
  0
LTYPE
  2
RAND5
 70
    64
  3
ランダム線5
 72
    65
 73
     4
 40
26.0
 49
5.0
 49
-6.0
 49
7.0
 49
-8.0
  0
LTYPE
  2
LONG1
 70
    64
  3
----------  --  ----------  --  
 72
    65
 73
     4
 40
40.0
 49
32.5
 49
-2.5
 49
2.5
 49
-2.5
  0
LTYPE
  2
LONG2
 70
    64
  3
--------  -  -  --------  -  -  
 72
    65
 73
     6
 40
40.0
 49
30.0
 49
-2.5
 49
1.25
 49
-2.5
 49
1.25
 49
-2.5
  0
LTYPE
  2
LONG3
 70
    64
  3
+++++++++++++++..+++++++++++++++
 72
    65
 73
     2
 40
40.0
 49
37.5
 49
-2.5
  0
LTYPE
  2
LONG4
 70
    64
  3
+++++++++++++++..+++++++++++++++
 72
    65
 73
     2
 40
80.0
 49
75.0
 49
-5.0
  0
LTYPE
  2
LONG5
 70
    64
  3
----------  --  ----------  --  
 72
    65
 73
     4
 40
60.0
 49
37.5
 49
-7.5
 49
7.5
 49
-7.5
  0
LTYPE
  2
dashed
 70
   64
  3
-------   -------------   ------
 72
   65
 73
    2
 40
7.5
 49
6
 49
-1.5
  0
LTYPE
  2
dashed_spaced
 70
   64
  3
----        --------        ----
 72
   65
 73
    2
 40
12
 49
6
 49
-6
  0
LTYPE
  2
long_dashed_dotted
 70
   64
  3
------------- --- --------------
 72
   65
 73
    4
 40
15.25
 49
12
 49
-1.5
 49
0.25
 49
-1.5
  0
LTYPE
  2
long_dashed_double-dotted
 70
   64
  3
----------- --- --- ------------
 72
   65
 73
    6
 40
17
 49
12
 49
-1.5
 49
0.25
 49
-1.5
 49
0.25
 49
-1.5
  0
LTYPE
  2
long_dashed_triplicate-dotted
 70
   64
  3
--------- --- --- --- ----------
 72
   65
 73
    8
 40
18.75
 49
12
 49
-1.5
 49
0.25
 49
-1.5
 49
0.25
 49
-1.5
 49
0.25
 49
-1.5
  0
LTYPE
  2
dotted
 70
   64
  3
   -       -       -       -    
 72
   65
 73
    2
 40
1.75
 49
0.25
 49
-1.5
  0
LTYPE
  2
chain
 70
   64
  3
-------------- -- --------------
 72
   65
 73
    4
 40
18.5
 49
12
 49
-1.5
 49
3.5
 49
-1.5
  0
LTYPE
  2
chain_double_dash
 70
   64
  3
------------ -- -- -------------
 72
   65
 73
    6
 40
23.5
 49
12
 49
-1.5
 49
3.5
 49
-1.5
 49
3.5
 49
-1.5
  0
LTYPE
  2
dashed_dotted
 70
   64
  3
-----------     -     ----------
 72
   65
 73
    4
 40
9.25
 49
6
 49
-1.5
 49
0.25
 49
-1.5
  0
LTYPE
  2
double-dashed_dotted
 70
   64
  3
------   -----------   -   -----
 72
   65
 73
    6
 40
16.75
 49
6
 49
-1.5
 49
6
 49
-1.5
 49
0.25
 49
-1.5
  0
LTYPE
  2
dashed_double-dotted
 70
   64
  3
---------    -    -    ---------
 72
   65
 73
    6
 40
11
 49
6
 49
-1.5
 49
0.25
 49
-1.5
 49
0.25
 49
-1.5
  0
LTYPE
  2
double-dashed_double-dotted
 70
   64
  3
-----   ---------   -   -   ----
 72
   65
 73
    8
 40
18.5
 49
6
 49
-1.5
 49
6
 49
-1.5
 49
0.25
 49
-1.5
 49
0.25
 49
-1.5
  0
LTYPE
  2
dashed_triplicate-dotted
 70
   64
  3
-------    -    -    -    ------
 72
   65
 73
    8
 40
12.75
 49
6
 49
-1.5
 49
0.25
 49
-1.5
 49
0.25
 49
-1.5
 49
0.25
 49
-1.5
  0
LTYPE
  2
double-dashed_triplicate-dotted
 70
   64
  3
-----  ---------  -  -  -  -----
 72
   65
 73
   10
 40
20.25
 49
6
 49
-1.5
 49
6
 49
-1.5
 49
0.25
 49
-1.5
 49
0.25
 49
-1.5
 49
0.25
 49
-1.5
  0
LTYPE
  2
undefined
 70
   64
  3
--------------------------------
 72
   65
 73
    0
 40
0
  0
LTYPE
  2
_
 70
   64
  3
                                
 72
   65
 73
    0
 40
0
  0
LTYPE
  2
__18
 70
   64
  3
                                
 72
   65
 73
    0
 40
0
  0
LTYPE
  2
__19
 70
   64
  3
                                
 72
   65
 73
    0
 40
0
  0
LTYPE
  2
__20
 70
   64
  3
                                
 72
   65
 73
    0
 40
0
  0
LTYPE
  2
__21
 70
   64
  3
                                
 72
   65
 73
    0
 40
0
  0
LTYPE
  2
__22
 70
   64
  3
                                
 72
   65
 73
    0
 40
0
  0
LTYPE
  2
__23
 70
   64
  3
                                
 72
   65
 73
    0
 40
0
  0
LTYPE
  2
__24
 70
   64
  3
                                
 72
   65
 73
    0
 40
0
  0
LTYPE
  2
__25
 70
   64
  3
                                
 72
   65
 73
    0
 40
0
  0
LTYPE
  2
__26
 70
   64
  3
                                
 72
   65
 73
    0
 40
0
  0
LTYPE
  2
__27
 70
   64
  3
                                
 72
   65
 73
    0
 40
0
  0
LTYPE
  2
__28
 70
   64
  3
                                
 72
   65
 73
    0
 40
0
  0
LTYPE
  2
__29
 70
   64
  3
                                
 72
   65
 73
    0
 40
0
  0
LTYPE
  2
__30
 70
   64
  3
                                
 72
   65
 73
    0
 40
0
  0
LTYPE
  2
__31
 70
   64
  3
                                
 72
   65
 73
    0
 40
0
  0
LTYPE
  2
__32
 70
   64
  3
                                
 72
   65
 73
    0
 40
0
  0
ENDTAB
  0
TABLE
  2
STYLE
  5
3
100
AcDbSymbolTable
 70
     1
  0
STYLE
  5
10
100
AcDbSymbolTableRecord
100
AcDbTextStyleTableRecord
  2
STANDARD
 70
     0
 40
0.0
 41
1.0
 50
0.0
 71
     0
 42
0.2
  3
txt
  4
bigfont.shx
  0
STYLE
  5
26
100
AcDbSymbolTableRecord
100
AcDbTextStyleTableRecord
  2
TATEGAKI
 70
    68
 40
0.0
 41
1.0
 50
0.0
 71
     0
 42
1.0
  3
txt
  4
bigfont.shx
  0
ENDTAB
  0
TABLE
  2
LAYER
 70
    3
  0
LAYER
  2
_0-0_レイヤ_1
 70
   64
 62
    7
  6
CONTINUOUS
  0
LAYER
  2
_1-6__0-0_
 70
   64
 62
    7
  6
CONTINUOUS
  0
LAYER
  2
ADD_LINE
 70
   64
 62
    7
  6
CONTINUOUS
  0
ENDTAB
  0
ENDSEC
  0
SECTION
  2
BLOCKS
  0
ENDSEC
  0
SECTION
  2
ENTITIES
  0
LINE
  8
_0-0_レイヤ_1
  6
CONTINUOUS
 62
    7
 10
40.095297029702969
 20
27.100314149598808
 11
40.095297029702969
 21
48.350314149598808
  0
LINE
  8
_0-0_レイヤ_1
  6
CONTINUOUS
 62
    7
 10
40.095297029702969
 20
48.350314149598808
 11
43.220297029702969
 21
48.350314149598808
  0
LINE
  8
_0-0_レイヤ_1
  6
CONTINUOUS
 62
    7
 10
41.657797029702969
 20
48.350314149598808
 11
41.657797029702969
 21
27.100314149598808
  0
LINE
  8
_0-0_レイヤ_1
  6
CONTINUOUS
 62
    7
 10
43.220297029702969
 20
33.350314149598808
 11
40.095297029702969
 21
33.350314149598808
  0
LINE
  8
_0-0_レイヤ_1
  6
CONTINUOUS
 62
    7
 10
40.095297029702969
 20
37.100314149598808
 11
43.220297029702969
 21
37.100314149598808
  0
LINE
  8
_0-0_レイヤ_1
  6
CONTINUOUS
 62
    7
 10
43.220297029702969
 20
40.850314149598808
 11
40.095297029702969
 21
40.850314149598808
  0
LINE
  8
_0-0_レイヤ_1
  6
CONTINUOUS
 62
    7
 10
40.095297029702969
 20
44.600314149598808
 11
43.220297029702969
 21
44.600314149598808
  0
TEXT
  8
_0-0_レイヤ_1
 62
    7
 10
41.404203279702961
 20
27.474064149598817
 40
0.9375
 41
0.8333333333333333
 50
90
  1
寸法
  0
TEXT
  8
_0-0_レイヤ_1
 62
    7
 10
42.910764326224743
 20
27.099599316521917
 40
0.9375
 41
0.8333333333333333
 50
89.766999999999939
  1
寸法差
  0
TEXT
  8
_0-0_レイヤ_1
 62
    7
 10
41.404203279702961
 20
30.213439149598805
 40
0.9375
 41
0.8333333333333333
 50
89.999999999999914
  1
４以下
  0
TEXT
  8
_0-0_レイヤ_1
 62
    7
 10
43.047640779702966
 20
33.728751649598812
 40
0.9375
 41
0.8333333333333333
 50
89.999999999999914
  1
±0.2
  0
TEXT
  8
_0-0_レイヤ_1
 62
    7
 10
43.002015779702979
 20
37.426876649598796
 40
0.9375
 41
0.8333333333333333
 50
89.999999999999914
  1
±0.3
  0
TEXT
  8
_0-0_レイヤ_1
 62
    7
 10
43.002015779702979
 20
41.216564149598816
 40
0.9375
 41
0.8333333333333333
 50
89.999999999999914
  1
±0.5
  0
TEXT
  8
_0-0_レイヤ_1
 62
    7
 10
43.047640779702966
 20
45.005939149598809
 40
0.9375
 41
0.8333333333333333
 50
89.999999999999914
  1
±0.8
  0
TEXT
  8
_0-0_レイヤ_1
 62
    7
 10
40.963967396492357
 20
33.349649426872062
 40
0.78125
 41
1
 50
89.739999999999952
  1
4をこえ
  0
TEXT
  8
_0-0_レイヤ_1
 62
    7
 10
41.804281404702969
 20
33.957189149598811
 40
0.78125
 41
1
 50
89.999999999999914
  1
16以下
  0
TEXT
  8
_0-0_レイヤ_1
 62
    7
 10
40.96396323742762
 20
37.099025622354332
 40
0.78125
 41
1
 50
89.495999999999909
  1
16をこえ
  0
TEXT
  8
_0-0_レイヤ_1
 62
    7
 10
41.804281404702969
 20
37.746564149598803
 40
0.78125
 41
1
 50
89.999999999999914
  1
63以下
  0
TEXT
  8
_0-0_レイヤ_1
 62
    7
 10
40.918339446817711
 20
40.849171345504785
 40
0.78125
 41
1
 50
89.552999999999912
  1
63をこえ
  0
TEXT
  8
_0-0_レイヤ_1
 62
    7
 10
41.804281404702969
 20
40.850314149598808
 40
0.78125
 41
1
 50
89.999999999999872
  1
250以下
  0
TEXT
  8
_0-0_レイヤ_1
 62
    7
 10
41.095211732069884
 20
44.756763737783117
 40
0.78125
 41
0.8
 50
90.566999999999978
  1
250をこえ
  0
TEXT
  8
_0-0_レイヤ_1
 62
    7
 10
41.804281404702969
 20
44.600314149598808
 40
0.78125
 41
0.8
 50
89.999999999999872
  1
1000以下
  0
LINE
  8
_0-0_レイヤ_1
  6
CONTINUOUS
 62
    7
 10
43.220297029702969
 20
54.775939149598812
 11
40.095297029702969
 21
54.775939149598812
  0
LINE
  8
_0-0_レイヤ_1
  6
CONTINUOUS
 62
    7
 10
40.095297029702969
 20
54.775939149598812
 11
40.095297029702969
 21
67.900939149598812
  0
LINE
  8
_0-0_レイヤ_1
  6
CONTINUOUS
 62
    7
 10
40.095297029702969
 20
67.900939149598812
 11
43.220297029702969
 21
67.900939149598812
  0
LINE
  8
_0-0_レイヤ_1
  6
CONTINUOUS
 62
    7
 10
41.657797029702969
 20
67.900939149598812
 11
41.657797029702969
 21
54.775939149598812
  0
LINE
  8
_0-0_レイヤ_1
  6
CONTINUOUS
 62
    7
 10
43.220297029702969
 20
59.150939149598812
 11
40.095297029702969
 21
59.150939149598812
  0
LINE
  8
_0-0_レイヤ_1
  6
CONTINUOUS
 62
    7
 10
40.095297029702969
 20
63.525939149598812
 11
43.220297029702969
 21
63.525939149598812
  0
TEXT
  8
_0-0_レイヤ_1
 62
    7
 10
41.337637969186388
 20
56.307132635345972
 40
0.9375
 41
0.8333333333333333
 50
89.675999999999959
  1
角度
  0
TEXT
  8
_0-0_レイヤ_1
 62
    7
 10
41.337640779702972
 20
63.854064149598798
 40
0.9375
 41
0.8333333333333333
 50
89.9999999999999
  1
ネジの等級
  0
TEXT
  8
_0-0_レイヤ_1
 62
    7
 10
41.30576577970298
 20
59.150939149598812
 40
0.9375
 41
0.6666666666666666
 50
89.999999999999914
  1
偏心又は片寄り
  0
TEXT
  8
_0-0_レイヤ_1
 62
    7
 10
42.99326366568313
 20
55.67038955585199
 40
0.9375
 41
0.8333333333333333
 50
89.718999999999894
  1
±30'
  0
TEXT
  8
_0-0_レイヤ_1
 62
    7
 10
42.929511079426553
 20
59.777153685156164
 40
0.9375
 41
0.8333333333333333
 50
89.580999999999932
  1
±0.1
  0
TEXT
  8
_0-0_レイヤ_1
 62
    7
 10
43.025140779702965
 20
63.525939149598812
 40
0.9375
 41
0.6666666666666666
 50
89.999999999999886
  1
JIS  2級
  0
LINE
  8
_0-0_レイヤ_1
  6
CONTINUOUS
 62
    7
 10
43.220297029702969
 20
27.100314149598808
 11
40.095297029702969
 21
27.100314149598808
  0
LINE
  8
_0-0_レイヤ_1
  6
CONTINUOUS
 62
    7
 10
40.095297029702969
 20
29.600314149598808
 11
43.220297029702969
 21
29.600314149598808
  0
TEXT
  8
_0-0_レイヤ_1
 62
    7
 10
42.95638962139651
 20
30.256176786597656
 40
0.9375
 41
0.8333333333333333
 50
89.791999999999916
  1
±0.1
  0
LINE
  8
_0-0_レイヤ_1
  6
CONTINUOUS
 62
    7
 10
62.402719197882774
 20
56.055104124899742
 11
65.188675806242827
 21
58.788495514234142
  0
LINE
  8
_0-0_レイヤ_1
  6
CONTINUOUS
 62
    7
 10
59.669327808548366
 20
51.271669193564548
 11
64.189936644755263
 21
54.215321459001586
  0
LINE
  8
_0-0_レイヤ_1
  6
CONTINUOUS
 62
    7
 10
50.035685991527358
 20
56.074999999999988
 11
55.201021074535169
 21
56.074999999999988
  0
LINE
  8
_0-0_レイヤ_1
  6
CONTINUOUS
 62
    7
 10
50.035685991527358
 20
40.675000000000011
 11
55.201021074535169
 21
40.675000000000011
  0
LINE
  8
_0-0_レイヤ_1
  6
CONTINUOUS
 62
    7
 10
50.160685991527358
 20
56.074999999999988
 11
50.35480027535425
 21
55.350555630283196
  0
LINE
  8
_0-0_レイヤ_1
  6
CONTINUOUS
 62
    7
 10
50.160685991527358
 20
56.074999999999988
 11
49.966571707700467
 21
55.350555630283196
  0
LINE
  8
_0-0_レイヤ_1
  6
CONTINUOUS
 62
    7
 10
50.160685991527358
 20
40.675000000000011
 11
50.35480027535425
 21
41.399444369716803
  0
LINE
  8
_0-0_レイヤ_1
  6
CONTINUOUS
 62
    7
 10
50.160685991527358
 20
40.675000000000011
 11
49.966571707700467
 21
41.399444369716803
  0
LINE
  8
_0-0_レイヤ_1
  6
CONTINUOUS
 62
    7
 10
50.160685991527358
 20
40.675000000000011
 11
50.160685991527358
 21
56.074999999999988
  0
LINE
  8
_0-0_レイヤ_1
  6
CONTINUOUS
 62
    7
 10
52.768397783519546
 20
50.625
 11
55.443928789378922
 21
50.625
  0
LINE
  8
_0-0_レイヤ_1
  6
CONTINUOUS
 62
    7
 10
52.768397783519546
 20
46.125
 11
55.443928789378922
 21
46.125
  0
LINE
  8
_0-0_レイヤ_1
  6
CONTINUOUS
 62
    7
 10
52.893397783519546
 20
50.625
 11
53.087512067346438
 21
49.900555630283207
  0
LINE
  8
_0-0_レイヤ_1
  6
CONTINUOUS
 62
    7
 10
52.893397783519546
 20
50.625
 11
52.699283499692654
 21
49.900555630283207
  0
LINE
  8
_0-0_レイヤ_1
  6
CONTINUOUS
 62
    7
 10
52.893397783519546
 20
46.125
 11
53.087512067346438
 21
46.849444369716792
  0
LINE
  8
_0-0_レイヤ_1
  6
CONTINUOUS
 62
    7
 10
52.893397783519546
 20
46.125
 11
52.699283499692654
 21
46.849444369716792
  0
LINE
  8
_0-0_レイヤ_1
  6
CONTINUOUS
 62
    7
 10
52.893397783519546
 20
46.125
 11
52.893397783519546
 21
50.625
  0
LINE
  8
_0-0_レイヤ_1
  6
CONTINUOUS
 62
    7
 10
62.432085020242723
 20
36.771704101562477
 11
62.432085020242723
 21
39.933050537109352
  0
LINE
  8
_0-0_レイヤ_1
  6
CONTINUOUS
 62
    7
 10
55.832085020242971
 20
36.771704101562477
 11
55.832085020242971
 21
39.933050537109352
  0
LINE
  8
_0-0_レイヤ_1
  6
CONTINUOUS
 62
    7
 10
62.432085020242723
 20
36.896704101562477
 11
61.707640650525917
 21
36.702589817735599
  0
LINE
  8
_0-0_レイヤ_1
  6
CONTINUOUS
 62
    7
 10
62.432085020242723
 20
36.896704101562477
 11
61.707640650525917
 21
37.090818385389383
  0
LINE
  8
_0-0_レイヤ_1
  6
CONTINUOUS
 62
    7
 10
55.832085020242971
 20
36.896704101562477
 11
56.55652938995977
 21
36.702589817735599
  0
LINE
  8
_0-0_レイヤ_1
  6
CONTINUOUS
 62
    7
 10
55.832085020242971
 20
36.896704101562477
 11
56.55652938995977
 21
37.090818385389383
  0
LINE
  8
_0-0_レイヤ_1
  6
CONTINUOUS
 62
    7
 10
55.832085020242971
 20
36.896704101562477
 11
62.432085020242723
 21
36.896704101562477
  0
LINE
  8
_0-0_レイヤ_1
  6
CENTER1
 62
    7
 10
54.593751787425794
 20
48.375
 11
64.0064257376211
 21
48.375
  0
LINE
  8
_0-0_レイヤ_1
  6
CENTER1
 62
    7
 10
59.132085020242925
 20
56.815136718749982
 11
59.132085020242925
 21
39.811596679687482
  0
LINE
  8
_0-0_レイヤ_1
  6
DASHED2
 62
    7
 10
61.632085020242811
 20
41.474999999999994
 11
61.632085020242811
 21
55.275000000000005
  0
LINE
  8
_0-0_レイヤ_1
  6
DASHED2
 62
    7
 10
56.632085020242925
 20
41.474999999999994
 11
61.632085020242811
 21
41.474999999999994
  0
LINE
  8
_0-0_レイヤ_1
  6
DASHED2
 62
    7
 10
56.632085020242925
 20
41.474999999999994
 11
56.632085020242925
 21
55.275000000000005
  0
LINE
  8
_0-0_レイヤ_1
  6
DASHED2
 62
    7
 10
61.632085020242811
 20
55.275000000000005
 11
56.632085020242925
 21
55.275000000000005
  0
CIRCLE
  8
_0-0_レイヤ_1
  6
CONTINUOUS
 62
    7
 10
59.132085020242925
 20
46.125
 40
0.9
  0
CIRCLE
  8
_0-0_レイヤ_1
  6
CONTINUOUS
 62
    7
 10
59.132085020242925
 20
50.625
 40
0.9
  0
LINE
  8
_0-0_レイヤ_1
  6
CENTER1
 62
    7
 10
58.132085020242925
 20
46.125
 11
60.132085020242925
 21
46.125
  0
LINE
  8
_0-0_レイヤ_1
  6
CENTER1
 62
    7
 10
58.132085020242925
 20
50.625
 11
60.132085020242925
 21
50.625
  0
ARC
  8
_0-0_レイヤ_1
  6
CONTINUOUS
 62
    7
 10
56.032085020243016
 20
40.875
 40
0.2
 50
179.99999999999982
 51
269.99999999999977
  0
LINE
  8
_0-0_レイヤ_1
  6
CONTINUOUS
 62
    7
 10
56.032085020243016
 20
40.675000000000011
 11
62.23208502024272
 21
40.675000000000011
  0
ARC
  8
_0-0_レイヤ_1
  6
CONTINUOUS
 62
    7
 10
62.23208502024272
 20
40.875
 40
0.2
 50
269.99999999999977
 51
359.99999999999965
  0
LINE
  8
_0-0_レイヤ_1
  6
CONTINUOUS
 62
    7
 10
55.832085020242971
 20
40.875
 11
55.832085020242971
 21
55.875
  0
LINE
  8
_0-0_レイヤ_1
  6
CONTINUOUS
 62
    7
 10
62.432085020242766
 20
40.875
 11
62.432085020242766
 21
55.875
  0
ARC
  8
_0-0_レイヤ_1
  6
CONTINUOUS
 62
    7
 10
62.23208502024272
 20
55.875
 40
0.2
 50
0
 51
89.999999999999914
  0
LINE
  8
_0-0_レイヤ_1
  6
CONTINUOUS
 62
    7
 10
62.23208502024272
 20
56.074999999999988
 11
56.032085020243016
 21
56.074999999999988
  0
ARC
  8
_0-0_レイヤ_1
  6
CONTINUOUS
 62
    7
 10
56.032085020243016
 20
55.875
 40
0.2
 50
89.999999999999914
 51
179.99999999999982
  0
TEXT
  8
_0-0_レイヤ_1
 62
    7
 10
65.398936682345478
 20
58.735930295208476
 40
1
 41
1
 50
0
  1
4-R0.2
  0
TEXT
  8
_0-0_レイヤ_1
 62
    7
 10
58.319585020242847
 20
37.021704101562477
 40
1
 41
1
 50
0
  1
6.6
  0
TEXT
  8
_0-0_レイヤ_1
 62
    7
 10
64.560219072582043
 20
53.943749999999994
 40
1
 41
1
 50
0
  1
2-Φ2.0貫通穴
  0
TEXT
  8
_0-0_レイヤ_1
 62
    7
 10
50.035685991527358
 20
47.28125
 40
1
 41
1
 50
90
  1
15.4__+0.2__-0.2
  0
TEXT
  8
_0-0_レイヤ_1
 62
    7
 10
52.768397783519546
 20
47.205528846153846
 40
1
 41
1
 50
90
  1
4.5__+0.2__-0.2
  0
LINE
  8
_1-6__0-0_
  6
CONTINUOUS
 62
    7
 10
88.201417004048579
 20
76.375001649598814
 11
88.201417004048579
 21
12.125
  0
LINE
  8
_1-6__0-0_
  6
CONTINUOUS
 62
    7
 10
59.438171453644642
 20
74.986825511958585
 11
58.875673360993275
 21
73.861825005319104
  0
LINE
  8
_1-6__0-0_
  6
CONTINUOUS
 62
    7
 10
58.875673360993275
 20
73.861825005319104
 11
60.000671453644642
 21
73.861825005319104
  0
LINE
  8
_1-6__0-0_
  6
CONTINUOUS
 62
    7
 10
59.438171453644642
 20
74.986825511958585
 11
60.000671453644642
 21
73.861825005319104
  0
TEXT
  8
_1-6__0-0_
 62
    7
 10
83.332454748322362
 20
75.150778697040067
 40
1
 41
1
 50
0
  1
担当
  0
TEXT
  8
_1-6__0-0_
 62
    7
 10
85.832454748322362
 20
75.150778697040067
 40
1
 41
1
 50
0
  1
検印
  0
TEXT
  8
_1-6__0-0_
 62
    7
 10
58.649906225373158
 20
75.32305289914845
 40
0.75
 41
1
 50
0
  1
Ｎｏ
  0
TEXT
  8
_1-6__0-0_
 62
    7
 10
62.495313711335072
 20
75.329016224648938
 40
0.75
 41
1
 50
0
  1
年　月　日
  0
TEXT
  8
_1-6__0-0_
 62
    7
 10
72.694816656281346
 20
75.329016224648938
 40
0.75
 41
1
 50
0
  1
訂　正　記　事
  0
LINE
  8
_1-6__0-0_
  6
CONTINUOUS
 62
    7
 10
58.207452840973743
 20
75.025778697040067
 11
58.207452840973743
 21
73.775783793237195
  0
LINE
  8
_1-6__0-0_
  6
CONTINUOUS
 62
    7
 10
60.707454748322376
 20
75.025778697040067
 11
60.707454748322376
 21
73.775783793237195
  0
LINE
  8
_1-6__0-0_
  6
CONTINUOUS
 62
    7
 10
68.207454830278763
 20
75.025778697040067
 11
68.207454830278763
 21
73.775783793237195
  0
LINE
  8
_1-6__0-0_
  6
CONTINUOUS
 62
    7
 10
58.207452840973743
 20
76.375001649598814
 11
58.207452840973743
 21
75.025778697040067
  0
LINE
  8
_1-6__0-0_
  6
CONTINUOUS
 62
    7
 10
60.707454748322376
 20
76.375001649598814
 11
60.707454748322376
 21
75.025778697040067
  0
LINE
  8
_1-6__0-0_
  6
CONTINUOUS
 62
    7
 10
68.207454830278763
 20
76.375001649598814
 11
68.207454830278763
 21
75.025778697040067
  0
LINE
  8
_1-6__0-0_
  6
CONTINUOUS
 62
    7
 10
83.207454748322362
 20
76.375001649598814
 11
83.207454748322362
 21
73.775783793237195
  0
LINE
  8
_1-6__0-0_
  6
CONTINUOUS
 62
    7
 10
85.707454748322362
 20
76.375001649598814
 11
85.707454748322362
 21
73.775783793237195
  0
LINE
  8
_1-6__0-0_
  6
CONTINUOUS
 62
    7
 10
88.201417004048579
 20
75.025778697040067
 11
58.207456655671009
 21
75.025778697040067
  0
LINE
  8
_1-6__0-0_
  6
CONTINUOUS
 62
    7
 10
58.207452840973743
 20
73.775783793237195
 11
88.201417004048579
 21
73.775783793237195
  0
LINE
  8
_1-6__0-0_
  6
CONTINUOUS
 62
    7
 10
76.951417004048579
 20
17.125001030999257
 11
76.951417004048579
 21
12.125
  0
LINE
  8
_1-6__0-0_
  6
CONTINUOUS
 62
    7
 10
76.951417004048579
 20
19.625001546498893
 11
76.951417004048579
 21
17.125001030999257
  0
LINE
  8
_1-6__0-0_
  6
CONTINUOUS
 62
    7
 10
75.701419066047122
 20
17.125001030999257
 11
75.701419066047122
 21
12.125
  0
LINE
  8
_1-6__0-0_
  6
CONTINUOUS
 62
    7
 10
66.957161731930781
 20
16.194802052265885
 11
66.957161731930781
 21
15.444802670865442
  0
LINE
  8
_1-6__0-0_
  6
CONTINUOUS
 62
    7
 10
66.957161731930781
 20
16.194802052265885
 11
68.707161319531067
 21
16.569801742966113
  0
LINE
  8
_1-6__0-0_
  6
CONTINUOUS
 62
    7
 10
68.707161319531067
 20
16.569801742966113
 11
68.707161319531067
 21
15.069801433666334
  0
LINE
  8
_1-6__0-0_
  6
CONTINUOUS
 62
    7
 10
66.957161731930781
 20
15.444802670865442
 11
68.707161319531067
 21
15.069801433666334
  0
LINE
  8
_1-6__0-0_
  6
CENTER1
 62
    7
 10
69.207156783134323
 20
15.819802361565663
 11
64.707160494731667
 21
15.819802361565663
  0
LINE
  8
_1-6__0-0_
  6
CENTER1
 62
    7
 10
65.707157607933723
 20
16.81980256776552
 11
65.707157607933723
 21
14.819801768741093
  0
LINE
  8
_1-6__0-0_
  6
CONTINUOUS
 62
    7
 10
75.701419066047122
 20
19.625001546498893
 11
75.701419066047122
 21
12.125
  0
LINE
  8
_1-6__0-0_
  6
CONTINUOUS
 62
    7
 10
83.201419066047122
 20
19.625001546498893
 11
83.201419066047122
 21
17.125001030999257
  0
LINE
  8
_1-6__0-0_
  6
CONTINUOUS
 62
    7
 10
84.451429376039726
 20
19.625001546498893
 11
84.451429376039726
 21
17.125001030999257
  0
LINE
  8
_1-6__0-0_
  6
CONTINUOUS
 62
    7
 10
69.451423190044167
 20
17.125001030999257
 11
69.451423190044167
 21
14.625000128874908
  0
LINE
  8
_1-6__0-0_
  6
CONTINUOUS
 62
    7
 10
70.701421128045637
 20
17.125001030999257
 11
70.701421128045637
 21
14.625000128874908
  0
LINE
  8
_1-6__0-0_
  6
CONTINUOUS
 62
    7
 10
73.201429376039726
 20
19.625001546498893
 11
73.201429376039726
 21
17.125001030999257
  0
LINE
  8
_1-6__0-0_
  6
CONTINUOUS
 62
    7
 10
71.951419066047122
 20
19.625001546498893
 11
71.951419066047122
 21
17.125001030999257
  0
LINE
  8
_1-6__0-0_
  6
CONTINUOUS
 62
    7
 10
69.451423190044167
 20
19.625001546498893
 11
69.451423190044167
 21
17.125001030999257
  0
LINE
  8
_1-6__0-0_
  6
CONTINUOUS
 62
    7
 10
68.201419066047108
 20
19.625001546498893
 11
68.201419066047108
 21
17.125001030999257
  0
LINE
  8
_1-6__0-0_
  6
CONTINUOUS
 62
    7
 10
65.701417004048593
 20
19.625001546498893
 11
65.701417004048593
 21
17.125001030999257
  0
LINE
  8
_1-6__0-0_
  6
CONTINUOUS
 62
    7
 10
88.201417004048579
 20
19.625001546498893
 11
64.451419066047108
 21
19.625001546498893
  0
LINE
  8
_1-6__0-0_
  6
CONTINUOUS
 62
    7
 10
88.201417004048579
 20
17.125001030999257
 11
64.451419066047108
 21
17.125001030999257
  0
LINE
  8
_1-6__0-0_
  6
CONTINUOUS
 62
    7
 10
88.201417004048579
 20
14.625000128874908
 11
64.451419066047108
 21
14.625000128874908
  0
CIRCLE
  8
_1-6__0-0_
  6
CONTINUOUS
 62
    7
 10
65.707157607933723
 20
15.819802361565663
 40
0.750000009665618
  0
CIRCLE
  8
_1-6__0-0_
  6
CONTINUOUS
 62
    7
 10
65.707157607933723
 20
15.819802361565663
 40
0.375000004832809
  0
TEXT
  8
_1-6__0-0_
 62
    7
 10
65.856913056920731
 20
12.915548780487803
 40
1
 41
1
 50
0
  1
ＦＫＫ株式会社
  0
LINE
  8
_1-6__0-0_
  6
CONTINUOUS
 62
    7
 10
88.201417004048579
 20
20.875001546498893
 11
64.451419066047108
 21
20.875001546498893
  0
LINE
  8
_1-6__0-0_
  6
CONTINUOUS
 62
    7
 10
64.451419066047108
 20
20.875001546498893
 11
64.451419066047108
 21
12.125
  0
LINE
  8
_1-6__0-0_
  6
CONTINUOUS
 62
    7
 10
69.451423190044167
 20
19.625001546498893
 11
69.451423190044167
 21
20.875001546498893
  0
TEXT
  8
_1-6__0-0_
 62
    7
 10
65.886276708037073
 20
19.723970341319166
 40
1
 41
1
 50
0
  1
出図
  0
LINE
  8
_1-6__0-0_
  6
CONTINUOUS
 62
    7
 10
76.951419066047122
 20
19.625001546498893
 11
76.951419066047122
 21
20.875001546498893
  0
LINE
  8
_1-6__0-0_
  6
CONTINUOUS
 62
    7
 10
85.701417004048579
 20
20.875001546498893
 11
85.701417004048579
 21
19.625001546498893
  0
TEXT
  8
_1-6__0-0_
 62
    7
 10
65.041733115343987
 20
19.123744165575182
 40
0.8999999999999999
 41
1
 50
0
  1
設計
  7
TATEGAKI
  0
TEXT
  8
_1-6__0-0_
 62
    7
 10
68.779923548564056
 20
19.123744165575182
 40
0.8999999999999999
 41
1
 50
0
  1
製図
  7
TATEGAKI
  0
TEXT
  8
_1-6__0-0_
 62
    7
 10
72.495731546092812
 20
19.123744165575182
 40
0.8999999999999999
 41
1
 50
0
  1
検図
  7
TATEGAKI
  0
TEXT
  8
_1-6__0-0_
 62
    7
 10
76.333576693085532
 20
19.144001754554544
 40
0.8999999999999999
 41
1
 50
0
  1
作図
  7
TATEGAKI
  0
TEXT
  8
_1-6__0-0_
 62
    7
 10
83.832944547988816
 20
19.128448615203033
 40
0.8999999999999999
 41
1
 50
0
  1
尺度
  7
TATEGAKI
  0
TEXT
  8
_1-6__0-0_
 62
    7
 10
70.110572320715135
 20
16.694440300400195
 40
0.8999999999999999
 41
1
 50
0
  1
材質
  7
TATEGAKI
  0
TEXT
  8
_1-6__0-0_
 62
    7
 10
76.32955061246146
 20
16.694440300400195
 40
0.8999999999999999
 41
1
 50
0
  1
品名
  7
TATEGAKI
  0
TEXT
  8
_1-6__0-0_
 62
    7
 10
76.382615586159531
 20
14.156518472207558
 40
0.8999999999999999
 41
1
 50
0
  1
図番
  7
TATEGAKI
  0
TEXT
  8
_1-6__0-0_
 62
    7
 10
59.060363026907239
 20
73.920474306848035
 40
0.75
 41
2
 50
0
  1
1
  0
TEXT
  8
_1-6__0-0_
 62
    7
 10
69.629953867423765
 20
17.925030385425024
 40
1
 41
1
 50
0
  1
吉田
  0
TEXT
  8
_1-6__0-0_
 62
    7
 10
85.488525997147888
 20
17.893011225909809
 40
0.75
 41
1
 50
0
  1
4：1
  0
TEXT
  8
_0-0_レイヤ_1
 62
    7
 10
64.724422756752673
 20
24.442478995736447
 40
1.25
 41
1
 50
0
  1
注記）
  0
TEXT
  8
_0-0_レイヤ_1
 62
    7
 10
67.743273971327553
 20
23.014594380351837
 40
1.25
 41
1
 50
0
  1
バリ、傷、かけ、汚れ無き事
  0
LINE
  8
_1-6__0-0_
  6
CONTINUOUS
 62
    7
 10
43.220297029702969
 20
76.375001649598814
 11
88.201417004048579
 21
76.375001649598814
  0
LINE
  8
_1-6__0-0_
  6
CONTINUOUS
 62
    7
 10
43.221088837135404
 20
12.125
 11
43.220297029702969
 21
76.375001649598814
  0
LINE
  8
_1-6__0-0_
  6
CONTINUOUS
 62
    7
 10
88.201417004048579
 20
12.125
 11
43.221088837135404
 21
12.125
  0
LINE
  8
_0-0_レイヤ_1
  6
CONTINUOUS
 62
    7
 10
74.071875964862385
 20
38.971407941559732
 11
68.867919281321889
 21
38.971407941559732
  0
LINE
  8
_0-0_レイヤ_1
  6
CONTINUOUS
 62
    7
 10
72.148345774291414
 20
38.846407941559732
 11
72.148345774291414
 21
40.075277541098614
  0
LINE
  8
_0-0_レイヤ_1
  6
CONTINUOUS
 62
    7
 10
72.948345774291368
 20
38.846407941559732
 11
72.948345774291368
 21
40.075277541098614
  0
LINE
  8
_0-0_レイヤ_1
  6
CONTINUOUS
 62
    7
 10
72.148345774291414
 20
38.971407941559732
 11
71.423901404574621
 21
38.777293657732855
  0
LINE
  8
_0-0_レイヤ_1
  6
CONTINUOUS
 62
    7
 10
72.148345774291414
 20
38.971407941559732
 11
71.423901404574621
 21
39.165522225386609
  0
LINE
  8
_0-0_レイヤ_1
  6
CONTINUOUS
 62
    7
 10
72.948345774291368
 20
38.971407941559732
 11
73.672790144008175
 21
38.777293657732855
  0
LINE
  8
_0-0_レイヤ_1
  6
CONTINUOUS
 62
    7
 10
83.498354826630645
 20
59.260528564453125
 11
83.498354826630645
 21
38.14060913085936
  0
LINE
  8
_0-0_レイヤ_1
  6
CONTINUOUS
 62
    7
 10
83.623354826630645
 20
40.675000000000011
 11
80.713979826630634
 21
40.675000000000011
  0
LINE
  8
_0-0_レイヤ_1
  6
CONTINUOUS
 62
    7
 10
83.498354826630645
 20
40.675000000000011
 11
83.692469110457523
 21
39.95055563028319
  0
LINE
  8
_0-0_レイヤ_1
  6
CONTINUOUS
 62
    7
 10
83.498354826630645
 20
40.675000000000011
 11
83.304240542803739
 21
39.95055563028319
  0
LINE
  8
_0-0_レイヤ_1
  6
CONTINUOUS
 62
    7
 10
83.498354826630645
 20
41.474999999999994
 11
83.692469110457523
 21
42.199444369716786
  0
LINE
  8
_0-0_レイヤ_1
  6
CONTINUOUS
 62
    7
 10
83.498354826630645
 20
41.474999999999994
 11
83.304240542803739
 21
42.199444369716786
  0
LINE
  8
_0-0_レイヤ_1
  6
CONTINUOUS
 62
    7
 10
83.498354826630645
 20
41.474999999999994
 11
83.498354826630645
 21
40.675000000000011
  0
LINE
  8
_0-0_レイヤ_1
  6
CONTINUOUS
 62
    7
 10
83.623354826630645
 20
41.474999999999994
 11
80.713979826630634
 21
41.474999999999994
  0
LINE
  8
_0-0_レイヤ_1
  6
CONTINUOUS
 62
    7
 10
83.623354826630645
 20
55.275000000000005
 11
80.713979826630634
 21
55.275000000000005
  0
LINE
  8
_0-0_レイヤ_1
  6
CONTINUOUS
 62
    7
 10
83.623354826630645
 20
56.074999999999988
 11
80.713979826630634
 21
56.074999999999988
  0
LINE
  8
_0-0_レイヤ_1
  6
CONTINUOUS
 62
    7
 10
83.498354826630645
 20
55.275000000000005
 11
83.692469110457523
 21
54.550555630283213
  0
LINE
  8
_0-0_レイヤ_1
  6
CONTINUOUS
 62
    7
 10
83.498354826630645
 20
55.275000000000005
 11
83.304240542803739
 21
54.550555630283213
  0
LINE
  8
_0-0_レイヤ_1
  6
CONTINUOUS
 62
    7
 10
83.498354826630645
 20
56.074999999999988
 11
83.692469110457523
 21
56.799444369716809
  0
LINE
  8
_0-0_レイヤ_1
  6
CONTINUOUS
 62
    7
 10
83.498354826630645
 20
56.074999999999988
 11
83.304240542803739
 21
56.799444369716809
  0
LINE
  8
_0-0_レイヤ_1
  6
CONTINUOUS
 62
    7
 10
83.498354826630645
 20
56.074999999999988
 11
83.498354826630645
 21
55.275000000000005
  0
LINE
  8
_0-0_レイヤ_1
  6
CENTER1
 62
    7
 10
71.865061160983117
 20
46.125
 11
73.24197310513405
 21
46.125
  0
LINE
  8
_0-0_レイヤ_1
  6
CENTER1
 62
    7
 10
71.817900533260385
 20
50.625
 11
73.24197310513405
 21
50.625
  0
LINE
  8
_0-0_レイヤ_1
  6
DASHED2
 62
    7
 10
72.148345774291414
 20
51.525000000000005
 11
72.948345774291368
 21
51.525000000000005
  0
LINE
  8
_0-0_レイヤ_1
  6
DASHED2
 62
    7
 10
72.148345774291414
 20
49.724999999999994
 11
72.948345774291368
 21
49.724999999999994
  0
LINE
  8
_0-0_レイヤ_1
  6
DASHED2
 62
    7
 10
72.148345774291414
 20
47.025000000000005
 11
72.948345774291368
 21
47.025000000000005
  0
LINE
  8
_0-0_レイヤ_1
  6
DASHED2
 62
    7
 10
72.148345774291414
 20
45.224999999999994
 11
72.948345774291368
 21
45.224999999999994
  0
LINE
  8
_0-0_レイヤ_1
  6
CONTINUOUS
 62
    7
 10
80.148345774291414
 20
36.771704101562477
 11
80.148345774291414
 21
39.933050537109352
  0
LINE
  8
_0-0_レイヤ_1
  6
CONTINUOUS
 62
    7
 10
72.148345774291414
 20
36.771704101562477
 11
72.148345774291414
 21
39.933050537109352
  0
LINE
  8
_0-0_レイヤ_1
  6
CENTER1
 62
    7
 10
71.316524992646264
 20
48.375
 11
81.202514372529066
 21
48.375
  0
LINE
  8
_0-0_レイヤ_1
  6
DASHED2
 62
    7
 10
72.948345774291368
 20
41.474999999999994
 11
80.148345774291414
 21
41.474999999999994
  0
LINE
  8
_0-0_レイヤ_1
  6
DASHED2
 62
    7
 10
72.948345774291368
 20
55.275000000000005
 11
72.948345774291368
 21
41.474999999999994
  0
LINE
  8
_0-0_レイヤ_1
  6
DASHED2
 62
    7
 10
72.948345774291368
 20
55.275000000000005
 11
80.148345774291414
 21
55.275000000000005
  0
LINE
  8
_0-0_レイヤ_1
  6
CONTINUOUS
 62
    7
 10
72.148345774291414
 20
40.675000000000011
 11
80.148345774291414
 21
40.675000000000011
  0
LINE
  8
_0-0_レイヤ_1
  6
CONTINUOUS
 62
    7
 10
72.148345774291414
 20
56.074999999999988
 11
72.148345774291414
 21
40.675000000000011
  0
LINE
  8
_0-0_レイヤ_1
  6
CONTINUOUS
 62
    7
 10
72.148345774291414
 20
56.074999999999988
 11
80.148345774291414
 21
56.074999999999988
  0
LINE
  8
_0-0_レイヤ_1
  6
CONTINUOUS
 62
    7
 10
80.148345774291414
 20
56.074999999999988
 11
80.148345774291414
 21
40.675000000000011
  0
LINE
  8
_0-0_レイヤ_1
  6
CONTINUOUS
 62
    7
 10
72.948345774291368
 20
38.971407941559732
 11
73.672790144008175
 21
39.165522225386609
  0
TEXT
  8
_0-0_レイヤ_1
 62
    7
 10
69.07818015742454
 20
39.129103598636703
 40
1
 41
1
 50
0
  1
0.8
  0
TEXT
  8
_0-0_レイヤ_1
 62
    7
 10
83.364211760224378
 20
38.092390136718734
 40
1
 41
1
 50
90
  1
0.8
  0
TEXT
  8
_0-0_レイヤ_1
 62
    7
 10
83.364211760224378
 20
57.379987792968734
 40
1
 41
1
 50
90
  1
0.8
  0
TEXT
  8
_0-0_レイヤ_1
 62
    7
 10
83.373354826630645
 20
47.28125
 40
1
 41
1
 50
90
  1
13.8__+0.2__-0.2
  0
TEXT
  8
_1-6__0-0_
 62
    7
 10
65.879947681428191
 20
17.925030385425024
 40
1
 41
1
 50
0
  1
吉田
  0
TEXT
  8
_1-6__0-0_
 62
    7
 10
77.499894821357571
 20
17.942989143165384
 40
0.75
 41
1
 50
0
  1
2016年 6月26日
  0
TEXT
  8
_1-6__0-0_
 62
    7
 10
71.124745639347509
 20
15.474506117945473
 40
0.75
 41
1
 50
0
  1
シリコーン
  0
LINE
  8
_0-0_レイヤ_1
  6
CONTINUOUS
 62
    7
 10
80.148345774291414
 20
36.896704101562477
 11
79.423901404574621
 21
36.702589817735599
  0
LINE
  8
_0-0_レイヤ_1
  6
CONTINUOUS
 62
    7
 10
80.148345774291414
 20
36.896704101562477
 11
79.423901404574621
 21
37.090818385389383
  0
LINE
  8
_0-0_レイヤ_1
  6
CONTINUOUS
 62
    7
 10
72.148345774291414
 20
36.896704101562477
 11
72.87279014400822
 21
36.702589817735599
  0
LINE
  8
_0-0_レイヤ_1
  6
CONTINUOUS
 62
    7
 10
72.148345774291414
 20
36.896704101562477
 11
72.87279014400822
 21
37.090818385389383
  0
LINE
  8
_0-0_レイヤ_1
  6
CONTINUOUS
 62
    7
 10
72.148345774291414
 20
36.896704101562477
 11
80.148345774291414
 21
36.896704101562477
  0
TEXT
  8
_0-0_レイヤ_1
 62
    7
 10
75.591545112142085
 20
37.021704101562477
 40
1
 41
1
 50
0
  1
8__+0.2__-0.2
  0
TEXT
  8
_0-0_レイヤ_1
 62
    7
 10
80.314756692348794
 20
15.272439518582807
 40
1
 41
1
 50
0
  1
FLT-C
  0
LINE
  8
_1-6__0-0_
  6
CONTINUOUS
 62
    7
 10
78.887235485138148
 20
16.464651494122961
 11
78.324737392486781
 21
15.33965098748348
  0
LINE
  8
_1-6__0-0_
  6
CONTINUOUS
 62
    7
 10
78.324737392486781
 20
15.33965098748348
 11
79.449735485138148
 21
15.33965098748348
  0
LINE
  8
_1-6__0-0_
  6
CONTINUOUS
 62
    7
 10
78.887235485138148
 20
16.464651494122961
 11
79.449735485138148
 21
15.33965098748348
  0
TEXT
  8
_1-6__0-0_
 62
    7
 10
78.509427058400746
 20
15.398300289012411
 40
0.75
 41
2
 50
0
  1
1
  0
TEXT
  8
_0-0_レイヤ_1
 62
    7
 10
77.451901435045698
 20
12.327823681929572
 40
2
 41
1
 50
0
  1
F6170635-1
  0
TEXT
  8
_1-6__0-0_
 62
    7
 10
73.893149818255295
 20
17.925030385425024
 40
1
 41
1
 50
0
  1
長
  0
TEXT
  8
_1-6__0-0_
 62
    7
 10
60.727912940001282
 20
73.990677825715536
 40
0.75
 41
2
 50
0
  1
2018.02.16
  0
TEXT
  8
_1-6__0-0_
 62
    7
 10
69.097520156206883
 20
73.990677825715536
 40
0.75
 41
2
 50
0
  1
品名変更
  0
TEXT
  8
_1-6__0-0_
 62
    7
 10
83.329383255748922
 20
73.990677825715536
 40
0.75
 41
1.3333333333333332
 50
0
  1
吉田
  0
TEXT
  8
_1-6__0-0_
 62
    7
 10
85.829383255748922
 20
73.990677825715536
 40
0.75
 41
1.3333333333333332
 50
0
  1
吉田
  0
ENDSEC
  0
EOF
