  0
SECTION
  2
HEADER
  9
$ACADVER
  1
AC1009
  9
$INSBASE
 10
0
 20
0
 30
0
  9
$EXTMIN
 10
0
 20
0
  9
$EXTMAX
 10
297
 20
210
  9
$LIMMIN
 10
0
 20
0
  9
$LIMMAX
 10
297
 20
210
  9
$LTSCALE
 40
1
  0
ENDSEC
  0
SECTION
  2
TABLES
  0
TABLE
  2
LTYPE
 70
     9
  0
LTYPE
  2
CONTINUOUS
 70
    64
  3
実線
 72
    65
 73
     0
 40
0.0
  0
LTYPE
  2
DASHED1
 70
    64
  3
--  --  --  --  --  --  --  --  
 72
    65
 73
     2
 40
2.5
 49
1.25
 49
-1.25
  0
LTYPE
  2
DASHED2
 70
    64
  3
----    ----    ----    ----    
 72
    65
 73
     2
 40
5.0
 49
2.5
 49
-2.5
  0
LTYPE
  2
DASHED3
 70
    64
  3
------  ------  ------  ------  
 72
    65
 73
     2
 40
5.0
 49
3.75
 49
-1.25
  0
LTYPE
  2
CENTER1
 70
    64
  3
----- - ----- - ----- - ----- - 
 72
    65
 73
     4
 40
10.0
 49
6.25
 49
-1.25
 49
1.25
 49
-1.25
  0
LTYPE
  2
CENTER2
 70
    64
  3
----------  --  ----------  --  
 72
    65
 73
     4
 40
20.0
 49
12.5
 49
-2.5
 49
2.5
 49
-2.5
  0
LTYPE
  2
PHANTOM1
 70
    64
  3
--- - - --- - - --- - - --- - - 
 72
    65
 73
     6
 40
10.0
 49
3.25
 49
-1.25
 49
1.25
 49
-1.25
 49
1.25
 49
-1.25
  0
LTYPE
  2
PHANTOM2
 70
    64
  3
--------  -  -  --------  -  -  
 72
    65
 73
     6
 40
20.0
 49
10.0
 49
-2.5
 49
1.25
 49
-2.5
 49
1.25
 49
-2.5
  0
LTYPE
  2
DOT
 70
    64
  3
-   -   -   -   -   -   -   -   
 72
    65
 73
     2
 40
2.5
 49
0.625
 49
-1.875
  0
LTYPE
  2
DUMMY
 70
    64
  3
ダミー
 72
    65
 73
     0
 40
0.0
  0
LTYPE
  2
RAND1
 70
    64
  3
ランダム線1
 72
    65
 73
     4
 40
10.0
 49
1.0
 49
-2.0
 49
3.0
 49
-4.0
  0
LTYPE
  2
RAND2
 70
    64
  3
ランダム線2
 72
    65
 73
     4
 40
14.0
 49
2.0
 49
-3.0
 49
4.0
 49
-5.0
  0
LTYPE
  2
RAND3
 70
    64
  3
ランダム線3
 72
    65
 73
     4
 40
18.0
 49
3.0
 49
-4.0
 49
5.0
 49
-6.0
  0
LTYPE
  2
RAND4
 70
    64
  3
ランダム線4
 72
    65
 73
     4
 40
22.0
 49
4.0
 49
-5.0
 49
6.0
 49
-7.0
  0
LTYPE
  2
RAND5
 70
    64
  3
ランダム線5
 72
    65
 73
     4
 40
26.0
 49
5.0
 49
-6.0
 49
7.0
 49
-8.0
  0
LTYPE
  2
LONG1
 70
    64
  3
----------  --  ----------  --  
 72
    65
 73
     4
 40
40.0
 49
32.5
 49
-2.5
 49
2.5
 49
-2.5
  0
LTYPE
  2
LONG2
 70
    64
  3
--------  -  -  --------  -  -  
 72
    65
 73
     6
 40
40.0
 49
30.0
 49
-2.5
 49
1.25
 49
-2.5
 49
1.25
 49
-2.5
  0
LTYPE
  2
LONG3
 70
    64
  3
+++++++++++++++..+++++++++++++++
 72
    65
 73
     2
 40
40.0
 49
37.5
 49
-2.5
  0
LTYPE
  2
LONG4
 70
    64
  3
+++++++++++++++..+++++++++++++++
 72
    65
 73
     2
 40
80.0
 49
75.0
 49
-5.0
  0
LTYPE
  2
LONG5
 70
    64
  3
----------  --  ----------  --  
 72
    65
 73
     4
 40
60.0
 49
37.5
 49
-7.5
 49
7.5
 49
-7.5
  0
LTYPE
  2
dashed
 70
   64
  3
-------   -------------   ------
 72
   65
 73
    2
 40
7.5
 49
6
 49
-1.5
  0
LTYPE
  2
dashed_spaced
 70
   64
  3
----        --------        ----
 72
   65
 73
    2
 40
12
 49
6
 49
-6
  0
LTYPE
  2
long_dashed_dotted
 70
   64
  3
------------- --- --------------
 72
   65
 73
    4
 40
15.25
 49
12
 49
-1.5
 49
0.25
 49
-1.5
  0
LTYPE
  2
long_dashed_double-dotted
 70
   64
  3
----------- --- --- ------------
 72
   65
 73
    6
 40
17
 49
12
 49
-1.5
 49
0.25
 49
-1.5
 49
0.25
 49
-1.5
  0
LTYPE
  2
long_dashed_triplicate-dotted
 70
   64
  3
--------- --- --- --- ----------
 72
   65
 73
    8
 40
18.75
 49
12
 49
-1.5
 49
0.25
 49
-1.5
 49
0.25
 49
-1.5
 49
0.25
 49
-1.5
  0
LTYPE
  2
dotted
 70
   64
  3
   -       -       -       -    
 72
   65
 73
    2
 40
1.75
 49
0.25
 49
-1.5
  0
LTYPE
  2
chain
 70
   64
  3
-------------- -- --------------
 72
   65
 73
    4
 40
18.5
 49
12
 49
-1.5
 49
3.5
 49
-1.5
  0
LTYPE
  2
chain_double_dash
 70
   64
  3
------------ -- -- -------------
 72
   65
 73
    6
 40
23.5
 49
12
 49
-1.5
 49
3.5
 49
-1.5
 49
3.5
 49
-1.5
  0
LTYPE
  2
dashed_dotted
 70
   64
  3
-----------     -     ----------
 72
   65
 73
    4
 40
9.25
 49
6
 49
-1.5
 49
0.25
 49
-1.5
  0
LTYPE
  2
double-dashed_dotted
 70
   64
  3
------   -----------   -   -----
 72
   65
 73
    6
 40
16.75
 49
6
 49
-1.5
 49
6
 49
-1.5
 49
0.25
 49
-1.5
  0
LTYPE
  2
dashed_double-dotted
 70
   64
  3
---------    -    -    ---------
 72
   65
 73
    6
 40
11
 49
6
 49
-1.5
 49
0.25
 49
-1.5
 49
0.25
 49
-1.5
  0
LTYPE
  2
double-dashed_double-dotted
 70
   64
  3
-----   ---------   -   -   ----
 72
   65
 73
    8
 40
18.5
 49
6
 49
-1.5
 49
6
 49
-1.5
 49
0.25
 49
-1.5
 49
0.25
 49
-1.5
  0
LTYPE
  2
dashed_triplicate-dotted
 70
   64
  3
-------    -    -    -    ------
 72
   65
 73
    8
 40
12.75
 49
6
 49
-1.5
 49
0.25
 49
-1.5
 49
0.25
 49
-1.5
 49
0.25
 49
-1.5
  0
LTYPE
  2
double-dashed_triplicate-dotted
 70
   64
  3
-----  ---------  -  -  -  -----
 72
   65
 73
   10
 40
20.25
 49
6
 49
-1.5
 49
6
 49
-1.5
 49
0.25
 49
-1.5
 49
0.25
 49
-1.5
 49
0.25
 49
-1.5
  0
LTYPE
  2
undefined
 70
   64
  3
--------------------------------
 72
   65
 73
    0
 40
0
  0
LTYPE
  2
_
 70
   64
  3
                                
 72
   65
 73
    0
 40
0
  0
LTYPE
  2
__18
 70
   64
  3
                                
 72
   65
 73
    0
 40
0
  0
LTYPE
  2
__19
 70
   64
  3
                                
 72
   65
 73
    0
 40
0
  0
LTYPE
  2
__20
 70
   64
  3
                                
 72
   65
 73
    0
 40
0
  0
LTYPE
  2
__21
 70
   64
  3
                                
 72
   65
 73
    0
 40
0
  0
LTYPE
  2
__22
 70
   64
  3
                                
 72
   65
 73
    0
 40
0
  0
LTYPE
  2
__23
 70
   64
  3
                                
 72
   65
 73
    0
 40
0
  0
LTYPE
  2
__24
 70
   64
  3
                                
 72
   65
 73
    0
 40
0
  0
LTYPE
  2
__25
 70
   64
  3
                                
 72
   65
 73
    0
 40
0
  0
LTYPE
  2
__26
 70
   64
  3
                                
 72
   65
 73
    0
 40
0
  0
LTYPE
  2
__27
 70
   64
  3
                                
 72
   65
 73
    0
 40
0
  0
LTYPE
  2
__28
 70
   64
  3
                                
 72
   65
 73
    0
 40
0
  0
LTYPE
  2
__29
 70
   64
  3
                                
 72
   65
 73
    0
 40
0
  0
LTYPE
  2
__30
 70
   64
  3
                                
 72
   65
 73
    0
 40
0
  0
LTYPE
  2
__31
 70
   64
  3
                                
 72
   65
 73
    0
 40
0
  0
LTYPE
  2
__32
 70
   64
  3
                                
 72
   65
 73
    0
 40
0
  0
ENDTAB
  0
TABLE
  2
STYLE
  5
3
100
AcDbSymbolTable
 70
     1
  0
STYLE
  5
10
100
AcDbSymbolTableRecord
100
AcDbTextStyleTableRecord
  2
STANDARD
 70
     0
 40
0.0
 41
1.0
 50
0.0
 71
     0
 42
0.2
  3
txt
  4
bigfont.shx
  0
STYLE
  5
26
100
AcDbSymbolTableRecord
100
AcDbTextStyleTableRecord
  2
TATEGAKI
 70
    68
 40
0.0
 41
1.0
 50
0.0
 71
     0
 42
1.0
  3
txt
  4
bigfont.shx
  0
ENDTAB
  0
TABLE
  2
LAYER
 70
    7
  0
LAYER
  2
_0-0_
 70
   64
 62
    7
  6
CONTINUOUS
  0
LAYER
  2
_0-1_
 70
   64
 62
    7
  6
CONTINUOUS
  0
LAYER
  2
_1-1_
 70
   64
 62
    7
  6
CONTINUOUS
  0
LAYER
  2
_3-0_
 70
   64
 62
    7
  6
CONTINUOUS
  0
LAYER
  2
_4-0_
 70
   64
 62
    7
  6
CONTINUOUS
  0
LAYER
  2
_6-0_
 70
   64
 62
    7
  6
CONTINUOUS
  0
LAYER
  2
ADD_LINE
 70
   64
 62
    7
  6
CONTINUOUS
  0
ENDTAB
  0
ENDSEC
  0
SECTION
  2
BLOCKS
  0
BLOCK
  2
-000-_G38
 70
   64
 10
0
 20
0
 30
0
  0
LINE
  8
_0-1_
  6
CONTINUOUS
 62
    7
 10
272.53326861230209
 20
439.30896611509535
 11
272.76607482392086
 21
439.54177232671418
  0
LINE
  8
_0-1_
  6
CONTINUOUS
 62
    7
 10
266.87641436280978
 20
439.30896611509535
 11
271.83813798658445
 21
444.27068973887014
  0
LINE
  8
_0-1_
  6
CONTINUOUS
 62
    7
 10
261.21956011331729
 20
439.30896611509535
 11
267.61956011331727
 21
445.70896611509527
  0
LINE
  8
_0-1_
  6
CONTINUOUS
 62
    7
 10
255.56270586382495
 20
439.30896611509535
 11
261.9627058638249
 21
445.70896611509533
  0
LINE
  8
_0-1_
  6
CONTINUOUS
 62
    7
 10
249.90585161433256
 20
439.30896611509541
 11
256.30585161433253
 21
445.70896611509533
  0
LINE
  8
_0-1_
  6
CONTINUOUS
 62
    7
 10
244.24899736484016
 20
439.3089661150953
 11
250.64899736484017
 21
445.70896611509533
  0
LINE
  8
_0-1_
  6
CONTINUOUS
 62
    7
 10
238.59214311534776
 20
439.30896611509535
 11
244.99214311534782
 21
445.70896611509533
  0
LINE
  8
_0-1_
  6
CONTINUOUS
 62
    7
 10
232.93528886585536
 20
439.3089661150953
 11
239.33528886585534
 21
445.70896611509533
  0
LINE
  8
_0-1_
  6
CONTINUOUS
 62
    7
 10
213.27843461636302
 20
425.30896611509535
 11
216.76607482392097
 21
428.7966063226533
  0
LINE
  8
_0-1_
  6
CONTINUOUS
 62
    7
 10
227.27843461636302
 20
439.30896611509535
 11
233.67843461636303
 21
445.70896611509533
  0
LINE
  8
_0-1_
  6
CONTINUOUS
 62
    7
 10
207.62158036687063
 20
425.30896611509535
 11
216.76607482392097
 21
434.45346057214578
  0
LINE
  8
_0-1_
  6
CONTINUOUS
 62
    7
 10
221.62158036687063
 20
439.30896611509535
 11
228.02158036687063
 21
445.70896611509533
  0
LINE
  8
_0-1_
  6
CONTINUOUS
 62
    7
 10
201.96472611737823
 20
425.30896611509541
 11
222.36472611737832
 21
445.70896611509533
  0
LINE
  8
_0-1_
  6
CONTINUOUS
 62
    7
 10
199.5963135963
 20
428.59740784350958
 11
216.70787186788592
 21
445.70896611509544
  0
LINE
  8
_0-1_
  6
CONTINUOUS
 62
    7
 10
196.33925038405607
 20
430.9971988807581
 11
211.05101761839353
 21
445.70896611509544
  0
LINE
  8
_0-1_
  6
CONTINUOUS
 62
    7
 10
190.99416336890104
 20
431.30896611509535
 11
205.39416336890118
 21
445.70896611509533
  0
LINE
  8
_0-1_
  6
CONTINUOUS
 62
    7
 10
185.77884325019761
 20
431.75050024588432
 11
199.73730911940879
 21
445.70896611509544
  0
LINE
  8
_0-1_
  6
CONTINUOUS
 62
    7
 10
184.7660748239212
 20
436.39458606910017
 11
194.08045486991639
 21
445.70896611509533
  0
ENDBLK
  0
BLOCK
  2
-001-_G37
 70
   64
 10
0
 20
0
 30
0
  0
INSERT
  2
-000-_G38
  8
_0-0_
 10
0
 20
0
 41
1
 42
1
 50
0
  0
ENDBLK
  0
BLOCK
  2
-002-_G40
 70
   64
 10
0
 20
0
 30
0
  0
LINE
  8
_0-1_
  6
CONTINUOUS
 62
    7
 10
267.38810260824129
 20
388.90896611509549
 11
272.76607482392097
 21
394.28693833077517
  0
LINE
  8
_0-1_
  6
CONTINUOUS
 62
    7
 10
261.73124835874887
 20
388.90896611509549
 11
268.13124835874862
 21
395.3089661150953
  0
LINE
  8
_0-1_
  6
CONTINUOUS
 62
    7
 10
256.0743941092565
 20
388.90896611509549
 11
262.47439410925642
 21
395.30896611509535
  0
LINE
  8
_0-1_
  6
CONTINUOUS
 62
    7
 10
250.41753985976416
 20
388.90896611509549
 11
256.81753985976394
 21
395.30896611509535
  0
LINE
  8
_0-1_
  6
CONTINUOUS
 62
    7
 10
244.76068561027176
 20
388.90896611509549
 11
251.16068561027159
 21
395.30896611509535
  0
LINE
  8
_0-1_
  6
CONTINUOUS
 62
    7
 10
239.10383136077936
 20
388.90896611509549
 11
245.5038313607792
 21
395.30896611509535
  0
LINE
  8
_0-1_
  6
CONTINUOUS
 62
    7
 10
233.44697711128696
 20
388.90896611509549
 11
239.8469771112868
 21
395.30896611509541
  0
LINE
  8
_0-1_
  6
CONTINUOUS
 62
    7
 10
227.79012286179462
 20
388.90896611509549
 11
234.19012286179449
 21
395.30896611509541
  0
LINE
  8
_0-1_
  6
CONTINUOUS
 62
    7
 10
222.13326861230223
 20
388.90896611509549
 11
228.53326861230206
 21
395.30896611509541
  0
LINE
  8
_0-1_
  6
CONTINUOUS
 62
    7
 10
216.47641436280983
 20
388.9089661150956
 11
222.87641436280966
 21
395.30896611509541
  0
LINE
  8
_0-1_
  6
CONTINUOUS
 62
    7
 10
210.81956011331743
 20
388.90896611509549
 11
217.71097687775582
 21
395.80038287953391
  0
LINE
  8
_0-1_
  6
CONTINUOUS
 62
    7
 10
205.16270586382512
 20
388.9089661150956
 11
216.76607482392097
 21
400.51233507519145
  0
LINE
  8
_0-1_
  6
CONTINUOUS
 62
    7
 10
201.37861678360184
 20
390.78173128436469
 11
216.76607482392088
 21
406.16918932468382
  0
LINE
  8
_0-1_
  6
CONTINUOUS
 62
    7
 10
200.76607482392128
 20
395.82604357417653
 11
214.24899736483999
 21
409.3089661150953
  0
LINE
  8
_0-1_
  6
CONTINUOUS
 62
    7
 10
200.76607482392128
 20
401.4828978236689
 11
208.59214311534768
 21
409.3089661150953
  0
LINE
  8
_0-1_
  6
CONTINUOUS
 62
    7
 10
200.76607482392111
 20
407.13975207316121
 11
202.93528886585528
 21
409.3089661150953
  0
ENDBLK
  0
BLOCK
  2
-003-_G39
 70
   64
 10
0
 20
0
 30
0
  0
INSERT
  2
-002-_G40
  8
_0-0_
 10
0
 20
0
 41
1
 42
1
 50
0
  0
ENDBLK
  0
BLOCK
  2
-004-_G43
 70
   64
 10
0
 20
0
 30
0
  0
LINE
  8
_0-1_
  6
CONTINUOUS
 62
    7
 10
383.62943791587281
 20
111.10686689101063
 11
400.66089542094641
 21
128.13832439608424
  0
LINE
  8
_0-1_
  6
CONTINUOUS
 62
    7
 10
372.31572941688801
 20
111.10686689101063
 11
400.66089542094641
 21
139.45203289506903
  0
LINE
  8
_0-1_
  6
CONTINUOUS
 62
    7
 10
361.0020209179031
 20
111.10686689101063
 11
369.00202091790333
 21
119.10686689101079
  0
LINE
  8
_0-1_
  6
CONTINUOUS
 62
    7
 10
374.66089542094738
 20
124.76574139405479
 11
400.42972540304026
 21
150.53457137614751
  0
LINE
  8
_0-1_
  6
CONTINUOUS
 62
    7
 10
349.68831241891825
 20
111.10686689101063
 11
357.68831241891848
 21
119.10686689101079
  0
LINE
  8
_0-1_
  6
CONTINUOUS
 62
    7
 10
374.66089542094738
 20
136.07944989303945
 11
383.75985730249618
 21
145.17841177458822
  0
LINE
  8
_0-1_
  6
CONTINUOUS
 62
    7
 10
338.37460391993386
 20
111.10686689101063
 11
346.37460391993386
 21
119.10686689101079
  0
LINE
  8
_0-1_
  6
CONTINUOUS
 62
    7
 10
371.17460391993381
 20
143.90686689101056
 11
379.17460391993381
 21
151.90686689101056
  0
LINE
  8
_0-1_
  6
CONTINUOUS
 62
    7
 10
327.06089542094906
 20
111.10686689101063
 11
335.06089542094906
 21
119.10686689101079
  0
LINE
  8
_0-1_
  6
CONTINUOUS
 62
    7
 10
359.86089542094896
 20
143.90686689101056
 11
367.86089542094896
 21
151.90686689101056
  0
LINE
  8
_0-1_
  6
CONTINUOUS
 62
    7
 10
315.74718692196415
 20
111.10686689101063
 11
323.74718692196438
 21
119.10686689101079
  0
LINE
  8
_0-1_
  6
CONTINUOUS
 62
    7
 10
348.54718692196433
 20
143.90686689101056
 11
356.54718692196433
 21
151.90686689101056
  0
LINE
  8
_0-1_
  6
CONTINUOUS
 62
    7
 10
304.4334784229793
 20
111.10686689101063
 11
315.46089542094938
 21
122.13428388898063
  0
LINE
  8
_0-1_
  6
CONTINUOUS
 62
    7
 10
316.43347842296793
 20
123.10686689099904
 11
320.26089542095138
 21
126.93428388898263
  0
LINE
  8
_0-1_
  6
CONTINUOUS
 62
    7
 10
337.23347842297954
 20
143.90686689101056
 11
345.23347842297954
 21
151.90686689101056
  0
LINE
  8
_0-1_
  6
CONTINUOUS
 62
    7
 10
297.69033267247345
 20
115.6774296394896
 11
320.26089542095138
 21
138.24799238796728
  0
LINE
  8
_0-1_
  6
CONTINUOUS
 62
    7
 10
325.91976992399463
 20
143.90686689101056
 11
333.91976992399463
 21
151.90686689101056
  0
LINE
  8
_0-1_
  6
CONTINUOUS
 62
    7
 10
294.26089542095201
 20
123.5617008869528
 11
322.60606142500978
 21
151.90686689101056
  0
LINE
  8
_0-1_
  6
CONTINUOUS
 62
    7
 10
294.26089542095201
 20
134.87540938593767
 11
305.73398205790431
 21
146.34849602288991
  0
LINE
  8
_0-1_
  6
CONTINUOUS
 62
    7
 10
294.26089542095201
 20
146.18911788492223
 11
299.97864442704093
 21
151.90686689101104
  0
ENDBLK
  0
BLOCK
  2
-005-_G44
 70
   64
 10
0
 20
0
 30
0
  0
LINE
  8
_0-1_
  6
CONTINUOUS
 62
    7
 10
315.46089542094938
 20
119.16574139405079
 11
315.51976992398925
 21
119.10686689101079
  0
LINE
  8
_0-1_
  6
CONTINUOUS
 62
    7
 10
315.46089542094938
 20
121.99416851879655
 11
318.34819704873552
 21
119.10686689101079
  0
LINE
  8
_0-1_
  6
CONTINUOUS
 62
    7
 10
317.17662417349362
 20
123.10686689099904
 11
321.17662417348174
 21
119.10686689101079
  0
LINE
  8
_0-1_
  6
CONTINUOUS
 62
    7
 10
320.00505129823977
 20
123.10686689099904
 11
324.00505129822789
 21
119.10686689101079
  0
LINE
  8
_0-1_
  6
CONTINUOUS
 62
    7
 10
322.83347842298599
 20
123.10686689099904
 11
326.83347842297416
 21
119.10686689101079
  0
LINE
  8
_0-1_
  6
CONTINUOUS
 62
    7
 10
325.66190554773226
 20
123.10686689099904
 11
329.66190554771992
 21
119.10686689101063
  0
LINE
  8
_0-1_
  6
CONTINUOUS
 62
    7
 10
328.49033267247841
 20
123.10686689099904
 11
332.49033267246613
 21
119.10686689101063
  0
LINE
  8
_0-1_
  6
CONTINUOUS
 62
    7
 10
331.31875979722462
 20
123.1068668909988
 11
335.31875979721229
 21
119.10686689101063
  0
LINE
  8
_0-1_
  6
CONTINUOUS
 62
    7
 10
334.14718692197038
 20
123.1068668909988
 11
338.14718692195856
 21
119.10686689101063
  0
LINE
  8
_0-1_
  6
CONTINUOUS
 62
    7
 10
336.97561404671665
 20
123.1068668909988
 11
340.97561404670477
 21
119.10686689101063
  0
LINE
  8
_0-1_
  6
CONTINUOUS
 62
    7
 10
339.80404117146281
 20
123.1068668909988
 11
343.80404117145093
 21
119.10686689101063
  0
LINE
  8
_0-1_
  6
CONTINUOUS
 62
    7
 10
342.63246829620902
 20
123.1068668909988
 11
346.6324682961972
 21
119.10686689101063
  0
LINE
  8
_0-1_
  6
CONTINUOUS
 62
    7
 10
345.46089542095518
 20
123.1068668909988
 11
349.46089542094341
 21
119.10686689101063
  0
LINE
  8
_0-1_
  6
CONTINUOUS
 62
    7
 10
348.28932254570145
 20
123.1068668909988
 11
352.28932254568957
 21
119.10686689101063
  0
LINE
  8
_0-1_
  6
CONTINUOUS
 62
    7
 10
351.11774967044766
 20
123.1068668909988
 11
355.11774967043584
 21
119.10686689101063
  0
LINE
  8
_0-1_
  6
CONTINUOUS
 62
    7
 10
353.94617679519382
 20
123.1068668909988
 11
357.94617679518205
 21
119.10686689101063
  0
LINE
  8
_0-1_
  6
CONTINUOUS
 62
    7
 10
356.77460391994009
 20
123.1068668909988
 11
360.77460391992826
 21
119.10686689101063
  0
LINE
  8
_0-1_
  6
CONTINUOUS
 62
    7
 10
359.6030310446863
 20
123.1068668909988
 11
363.60303104467448
 21
119.10686689101063
  0
LINE
  8
_0-1_
  6
CONTINUOUS
 62
    7
 10
362.43145816943246
 20
123.1068668909988
 11
366.43145816942069
 21
119.10686689101063
  0
LINE
  8
_0-1_
  6
CONTINUOUS
 62
    7
 10
365.25988529417872
 20
123.1068668909988
 11
369.2598852941669
 21
119.10686689101063
  0
LINE
  8
_0-1_
  6
CONTINUOUS
 62
    7
 10
368.08831241892494
 20
123.1068668909988
 11
372.08831241891311
 21
119.10686689101063
  0
LINE
  8
_0-1_
  6
CONTINUOUS
 62
    7
 10
370.91673954367109
 20
123.1068668909988
 11
374.91673954365933
 21
119.10686689101063
  0
LINE
  8
_0-1_
  6
CONTINUOUS
 62
    7
 10
373.74516666841736
 20
123.1068668909988
 11
377.74516666840554
 21
119.10686689101063
  0
LINE
  8
_0-1_
  6
CONTINUOUS
 62
    7
 10
376.57359379316358
 20
123.1068668909988
 11
379.46089542094938
 21
120.21956526321304
  0
LINE
  8
_0-1_
  6
CONTINUOUS
 62
    7
 10
379.40202091790973
 20
123.1068668909988
 11
379.46089542094938
 21
123.0479923879588
  0
ENDBLK
  0
BLOCK
  2
-006-_G46
 70
   64
 10
0
 20
0
 30
0
  0
LINE
  8
_0-1_
  6
CONTINUOUS
 62
    7
 10
236.62043227973751
 20
111.10686689101063
 11
243.68001954849384
 21
118.1664541597668
  0
LINE
  8
_0-1_
  6
CONTINUOUS
 62
    7
 10
225.30672378075288
 20
111.10686689101063
 11
245.87521669370335
 21
131.67535980396112
  0
LINE
  8
_0-1_
  6
CONTINUOUS
 62
    7
 10
213.99301528176806
 20
111.10686689101055
 11
248.07041383891302
 21
145.18426544815542
  0
LINE
  8
_0-1_
  6
CONTINUOUS
 62
    7
 10
202.67930678278344
 20
111.10686689101063
 11
243.47930678278359
 21
151.90686689101048
  0
LINE
  8
_0-1_
  6
CONTINUOUS
 62
    7
 10
191.36559828379878
 20
111.10686689101079
 11
232.1655982837988
 21
151.9068668910107
  0
LINE
  8
_0-1_
  6
CONTINUOUS
 62
    7
 10
180.05188978481416
 20
111.10686689101079
 11
220.85188978481392
 21
151.90686689101065
  0
LINE
  8
_0-1_
  6
CONTINUOUS
 62
    7
 10
168.73818128582936
 20
111.10686689101079
 11
209.53818128582926
 21
151.9068668910107
  0
LINE
  8
_0-1_
  6
CONTINUOUS
 62
    7
 10
157.42447278684448
 20
111.10686689101079
 11
198.22447278684447
 21
151.9068668910107
  0
LINE
  8
_0-1_
  6
CONTINUOUS
 62
    7
 10
146.11076428785983
 20
111.10686689101079
 11
186.91076428785959
 21
151.9068668910107
  0
LINE
  8
_0-1_
  6
CONTINUOUS
 62
    7
 10
134.79705578887504
 20
111.10686689101079
 11
175.59705578887496
 21
151.9068668910107
  0
LINE
  8
_0-1_
  6
CONTINUOUS
 62
    7
 10
123.48334728989016
 20
111.10686689101079
 11
164.28334728989008
 21
151.90686689101065
  0
LINE
  8
_0-1_
  6
CONTINUOUS
 62
    7
 10
122.76931013901207
 20
121.70653823911736
 11
152.96963879090552
 21
151.90686689101087
  0
LINE
  8
_0-1_
  6
CONTINUOUS
 62
    7
 10
122.76931013901183
 20
133.02024673810208
 11
141.65593029192086
 21
151.90686689101096
  0
LINE
  8
_0-1_
  6
CONTINUOUS
 62
    7
 10
122.76931013901207
 20
144.33395523708679
 11
130.34222179293598
 21
151.90686689101087
  0
ENDBLK
  0
BLOCK
  2
-007-_G45
 70
   64
 10
0
 20
0
 30
0
  0
INSERT
  2
-006-_G46
  8
_0-0_
 10
0
 20
0
 41
1
 42
1
 50
0
  0
ENDBLK
  0
ENDSEC
  0
SECTION
  2
ENTITIES
  0
TEXT
  8
_1-1_
 62
    2
 10
-210.51116683813404
 20
27.194812753203336
 40
7
 41
1
 50
0
  1
FLT-2C
  0
LINE
  8
_0-0_
  6
CONTINUOUS
 62
    3
 10
-251.67705281575501
 20
46.020839055379155
 11
-251.67705281575501
 21
36.020837148030565
  0
CIRCLE
  8
_0-0_
  6
CONTINUOUS
 62
    3
 10
-266.6541341145832
 20
30.80004247029619
 40
1.5000000000000002
  0
CIRCLE
  8
_0-0_
  6
CONTINUOUS
 62
    3
 10
-266.6541341145832
 20
30.80004247029619
 40
3.0000000000000004
  0
LINE
  8
_0-0_
  6
CONTINUOUS
 62
    3
 10
-176.67708333333325
 20
26.020833333333314
 11
-271.6770833333332
 21
26.020833333333314
  0
LINE
  8
_0-0_
  6
CONTINUOUS
 62
    3
 10
-176.67708333333325
 20
36.020837148030565
 11
-271.6770833333332
 21
36.020837148030565
  0
LINE
  8
_0-0_
  6
CONTINUOUS
 62
    3
 10
-256.6770833333332
 20
46.020839055379155
 11
-256.6770833333332
 21
36.020837148030565
  0
LINE
  8
_0-0_
  6
CONTINUOUS
 62
    3
 10
-241.6770833333332
 20
46.020839055379155
 11
-241.6770833333332
 21
36.020837148030565
  0
LINE
  8
_0-0_
  6
CONTINUOUS
 62
    3
 10
-246.6770833333332
 20
36.020837148030565
 11
-246.6770833333332
 21
26.020833333333314
  0
LINE
  8
_0-0_
  6
CONTINUOUS
 62
    3
 10
-251.67705281575501
 20
36.020837148030565
 11
-251.67705281575501
 21
26.020833333333314
  0
LINE
  8
_0-0_
  6
CONTINUOUS
 62
    3
 10
-191.6770528157549
 20
46.020839055379155
 11
-191.6770528157549
 21
36.020837148030565
  0
LINE
  8
_0-0_
  6
CONTINUOUS
 62
    3
 10
-196.67708333333314
 20
46.020839055379155
 11
-196.67708333333314
 21
36.020837148030565
  0
LINE
  8
_0-0_
  6
CONTINUOUS
 62
    3
 10
-261.65410359700501
 20
29.300044377644837
 11
-254.65410359700501
 21
27.800038655598939
  0
LINE
  8
_0-0_
  6
CONTINUOUS
 62
    3
 10
-254.65410359700501
 20
33.800040562947572
 11
-254.65410359700501
 21
27.800038655598939
  0
LINE
  8
_0-0_
  6
CONTINUOUS
 62
    3
 10
-261.65410359700501
 20
32.300040562947557
 11
-254.65410359700501
 21
33.800040562947572
  0
LINE
  8
_0-0_
  6
CONTINUOUS
 62
    3
 10
-261.65410359700501
 20
32.300040562947557
 11
-261.65410359700501
 21
29.300044377644837
  0
LINE
  8
_0-0_
  6
CONTINUOUS
 62
    3
 10
-226.6770833333332
 20
36.020837148030565
 11
-226.6770833333332
 21
16.020833333333314
  0
LINE
  8
_0-0_
  6
CONTINUOUS
 62
    3
 10
-221.67708333333314
 20
36.020837148030565
 11
-221.67708333333314
 21
16.020833333333314
  0
TEXT
  8
_0-0_
 62
    7
 10
-269.17601521809882
 20
44.015809311467393
 40
2.9999999999999897
 41
1.0000000000000042
 50
-0.0000025044784592
  1
設計
  7
TATEGAKI
  0
TEXT
  8
_0-0_
 62
    7
 10
-254.19341023763001
 20
44.015809311467393
 40
2.9999999999999897
 41
1.0000000000000042
 50
-0.0000025044784592
  1
製図
  7
TATEGAKI
  0
TEXT
  8
_0-0_
 62
    7
 10
-239.21080525716132
 20
44.015809311467393
 40
2.9999999999999897
 41
1.0000000000000042
 50
-0.0000025044784592
  1
検図
  7
TATEGAKI
  0
TEXT
  8
_0-0_
 62
    7
 10
-249.10954793294246
 20
34.298594727116835
 40
2.9999999999999897
 41
0.9999999999999995
 50
-0.0000025044784592
  1
材質
  7
TATEGAKI
  0
TEXT
  8
_0-0_
 62
    7
 10
-259.64011509233216
 20
19.288967637497975
 40
3.2000000000000028
 41
0.9999999999999992
 50
0
  1
ＦＫＫ株式会社
  0
TEXT
  8
_0-0_
 62
    7
 10
-224.09816487630183
 20
44.096839203435166
 40
2.9999999999999897
 41
1.0000000000000042
 50
-0.0000025044784592
  1
作図
  7
TATEGAKI
  0
TEXT
  8
_0-0_
 62
    7
 10
-224.17397054036433
 20
34.298594727116835
 40
2.9999999999999897
 41
1.0000000000000042
 50
-0.0000025044784592
  1
品名
  7
TATEGAKI
  0
TEXT
  8
_0-0_
 62
    7
 10
-224.05122884114564
 20
24.146907105046523
 40
2.9999999999999968
 41
1.0000000000000019
 50
-0.0000025044784592
  1
図番
  7
TATEGAKI
  0
TEXT
  8
_0-0_
 62
    7
 10
-194.39912923177064
 20
44.034627213078664
 40
2.9999999999999968
 41
1.0000000000000019
 50
-0.0000025044784592
  1
尺度
  7
TATEGAKI
  0
LINE
  8
_0-0_
  6
CONTINUOUS
 62
    3
 10
-176.67709133333335
 20
46.020839055379155
 11
-219.92044665118032
 21
46.020839055379155
  0
LINE
  8
_0-0_
  6
CONTINUOUS
 62
    3
 10
-221.67708333333314
 20
46.002661836210009
 11
-221.67708333333314
 21
36.020837148030565
  0
LINE
  8
_0-0_
  6
CENTER2
 62
    3
 10
-266.6541341145832
 20
34.800044377644837
 11
-266.6541341145832
 21
26.800040562947557
  0
LINE
  8
_0-0_
  6
CENTER2
 62
    3
 10
-252.6541341145832
 20
30.80004247029619
 11
-266.66068063322109
 21
30.80004247029619
  0
LINE
  8
_0-0_
  6
CENTER2
 62
    3
 10
-266.66068063322109
 20
30.80004247029619
 11
-270.65410359700501
 21
30.80004247029619
  0
LINE
  8
_0-0_
  6
CONTINUOUS
 62
    3
 10
-226.6770833333332
 20
46.020839055379155
 11
-226.6770833333332
 21
16.020833333333314
  0
LINE
  8
_0-0_
  6
CONTINUOUS
 62
    3
 10
-266.6770833333332
 20
46.020839055379155
 11
-266.6770833333332
 21
36.020837148030565
  0
LINE
  8
_0-0_
  6
CONTINUOUS
 62
    3
 10
-236.6770528157549
 20
46.020839055379155
 11
-236.6770528157549
 21
36.020837148030565
  0
LINE
  8
_0-0_
  6
CONTINUOUS
 62
    3
 10
-176.67709133333335
 20
46.020839055379155
 11
-271.6770833333332
 21
46.020839055379155
  0
LINE
  8
_0-0_
  6
CONTINUOUS
 62
    3
 10
-271.6770833333332
 20
46.020839055379155
 11
-271.6770833333332
 21
16.020833333333314
  0
ARC
  8
_4-0_
  6
CONTINUOUS
 62
    3
 10
-350.77787490398532
 20
35.525393155368647
 40
2
 50
89.999999999999914
 51
180.00000000000039
  0
ARC
  8
_4-0_
  6
CONTINUOUS
 62
    3
 10
-350.37787490398528
 20
32.325393155368672
 40
1.6
 50
0
 51
89.999999999999914
  0
LINE
  8
_4-0_
  6
CONTINUOUS
 62
    3
 10
-352.77787490398532
 20
35.525393155368632
 11
-352.77787490398532
 21
34.525393155368647
  0
LINE
  8
_4-0_
  6
CONTINUOUS
 62
    3
 10
-352.17787490398541
 20
33.925393155368624
 11
-350.37787490398528
 21
33.925393155368624
  0
ARC
  8
_4-0_
  6
CONTINUOUS
 62
    3
 10
-352.17787490398541
 20
34.525393155368647
 40
0.5999999999999999
 50
179.9999999999998
 51
269.99999999999977
  0
LINE
  8
_4-0_
  6
_
 62
    3
 10
-344.77787490398543
 20
32.425393155368624
 11
-348.78100296171822
 21
32.425393155368624
  0
LINE
  8
_4-0_
  6
_
 62
    3
 10
-344.77787490398543
 20
28.425393155368624
 11
-348.77787490398532
 21
28.425393155368624
  0
LINE
  8
_4-0_
  6
CONTINUOUS
 62
    3
 10
-330.77787490398543
 20
24.925393155368624
 11
-344.17787490398541
 21
24.925393155368624
  0
ARC
  8
_4-0_
  6
CONTINUOUS
 62
    3
 10
-344.17787490398541
 20
25.525393155368632
 40
0.5999999999999999
 50
179.9999999999998
 51
269.99999999999977
  0
LINE
  8
_4-0_
  6
CONTINUOUS
 62
    3
 10
-344.17787490398541
 20
35.925393155368624
 11
-330.77787490398543
 21
35.925393155368624
  0
LINE
  8
_4-0_
  6
CONTINUOUS
 62
    3
 10
-344.77787490398543
 20
35.325393155368615
 11
-344.77787490398543
 21
25.525393155368632
  0
ARC
  8
_4-0_
  6
CONTINUOUS
 62
    3
 10
-344.17787490398541
 20
35.325393155368615
 40
0.5999999999999999
 50
89.999999999999914
 51
179.9999999999998
  0
LINE
  8
_4-0_
  6
CONTINUOUS
 62
    3
 10
-350.77787490398532
 20
37.525393155368647
 11
-331.77787490398543
 21
37.525393155368632
  0
ARC
  8
_4-0_
  6
CONTINUOUS
 62
    3
 10
-331.77787490398543
 20
36.525393155368632
 40
1
 50
0.0000000000016284
 51
89.999999999999914
  0
ARC
  8
_4-0_
  6
CONTINUOUS
 62
    3
 10
-331.77787490398543
 20
24.325393155368672
 40
1
 50
269.99999999999977
 51
359.99999999999994
  0
LINE
  8
_4-0_
  6
CONTINUOUS
 62
    3
 10
-331.77787490398543
 20
23.325393155368672
 11
-347.77787490398532
 21
23.325393155368672
  0
LINE
  8
_4-0_
  6
CONTINUOUS
 62
    3
 10
-348.77787490398532
 20
32.325393155368672
 11
-348.77787490398532
 21
24.325393155368672
  0
ARC
  8
_4-0_
  6
CONTINUOUS
 62
    3
 10
-347.77787490398532
 20
24.325393155368672
 40
1
 50
179.9999999999998
 51
269.99999999999977
  0
LINE
  8
_4-0_
  6
CONTINUOUS
 62
    3
 10
-312.87557708518693
 20
37.395646792185416
 11
-315.25758992927256
 21
22.737106066477423
  0
LINE
  8
_4-0_
  6
CONTINUOUS
 62
    3
 10
-313.17949328036922
 20
35.525393155368647
 11
-344.74356032893456
 21
35.525393155368647
  0
LINE
  8
_4-0_
  6
CONTINUOUS
 62
    3
 10
-314.83699323556925
 20
25.325393155368672
 11
-344.77787490398543
 21
25.325393155368672
  0
LINE
  8
_4-0_
  6
CONTINUOUS
 62
    3
 10
-330.77787490398543
 20
36.525393155368647
 11
-330.77787490398543
 21
35.525393155368647
  0
LINE
  8
_4-0_
  6
CONTINUOUS
 62
    3
 10
-330.77787490398543
 20
25.325393155368672
 11
-330.77787490398543
 21
24.325393155368672
  0
INSERT
  2
-007-_G45
  8
_4-0_
 10
-375.47020243873839
 20
-2.4513235673840085
 41
0.25
 42
0.25
 50
0
  0
LINE
  8
_0-0_
  6
CONTINUOUS
 62
    3
 10
-294.57181298642314
 20
265.95187751553538
 11
-290.07182098642323
 21
265.95187751553538
  0
LINE
  8
_0-0_
  6
CONTINUOUS
 62
    3
 10
-292.33436837682063
 20
270.46812833333336
 11
-294.58436037682054
 21
265.96812633333331
  0
LINE
  8
_0-0_
  6
CONTINUOUS
 62
    3
 10
-292.33436837682063
 20
270.46812833333336
 11
-290.08436837682063
 21
265.96812633333331
  0
LINE
  8
_0-0_
  6
CONTINUOUS
 62
    3
 10
-286.62262828295422
 20
276.02083333333331
 11
-286.62262828295422
 21
270.62394133333327
  0
LINE
  8
_0-0_
  6
CONTINUOUS
 62
    3
 10
-296.62263628295403
 20
276.02083333333331
 11
-296.62263628295403
 21
270.62394133333327
  0
LINE
  8
_0-0_
  6
CONTINUOUS
 62
    3
 10
-286.62262828295422
 20
270.62394133333327
 11
-286.62262828295422
 21
265.62396133333328
  0
LINE
  8
_0-0_
  6
CONTINUOUS
 62
    3
 10
-296.62263628295403
 20
270.62394133333327
 11
-296.62263628295403
 21
265.62396133333328
  0
LINE
  8
_0-0_
  6
CONTINUOUS
 62
    3
 10
-296.6529403333331
 20
265.63404919803429
 11
-176.67708333333325
 21
265.63404919803429
  0
LINE
  8
_0-0_
  6
CONTINUOUS
 62
    3
 10
-176.67708333333325
 20
270.63402919803428
 11
-296.6529243333332
 21
270.63402919803428
  0
LINE
  8
_0-0_
  6
CONTINUOUS
 62
    3
 10
-186.65293233333323
 20
276.03092119803432
 11
-186.65293233333323
 21
265.63404919803429
  0
LINE
  8
_0-0_
  6
CONTINUOUS
 62
    3
 10
-196.65293233333318
 20
276.03092119803432
 11
-196.65293233333318
 21
265.63404919803429
  0
LINE
  8
_0-0_
  6
CONTINUOUS
 62
    3
 10
-256.65293233333335
 20
276.03092119803432
 11
-256.65293233333335
 21
270.63402919803428
  0
TEXT
  8
_0-0_
 62
    7
 10
-294.85282228295403
 20
271.81303833333328
 40
3
 41
0.9999999999999996
 50
0
  1
Ｎｏ
  0
TEXT
  8
_0-0_
 62
    7
 10
-293.19844789255682
 20
266.18647451553533
 40
3
 41
1
 50
0
  1
1
  0
TEXT
  8
_0-0_
 62
    7
 10
-279.5014963333333
 20
271.84697919803437
 40
3
 41
1
 50
0
  1
年　月　日
  0
TEXT
  8
_0-0_
 62
    7
 10
-273.70804694293576
 20
266.47737638023642
 40
3
 41
1
 50
0
  1
.   .
  0
TEXT
  8
_0-0_
 62
    7
 10
-238.7034843333331
 20
271.84697919803437
 40
3
 41
1
 50
0
  1
訂　正　記　事
  0
TEXT
  8
_0-0_
 62
    7
 10
-195.93400829021868
 20
271.53917479875474
 40
3.2000000000000028
 41
0.9999999999999992
 50
0
  1
担当
  0
TEXT
  8
_0-0_
 62
    7
 10
-186.0841205107626
 20
271.60274435415567
 40
3.2000000000000028
 41
0.9999999999999992
 50
0
  1
検印
  0
LINE
  8
_0-0_
  6
CONTINUOUS
 62
    3
 10
-256.65293233333335
 20
270.63402919803428
 11
-256.65293233333335
 21
265.62209495916675
  0
ARC
  8
_4-0_
  6
CONTINUOUS
 62
    3
 10
-252.76178574697172
 20
149.85950569486891
 40
2
 50
270
 51
0
  0
LINE
  8
_4-0_
  6
CONTINUOUS
 62
    3
 10
-241.90206543512562
 20
204.55568687283408
 11
-241.90206543512562
 21
197.45568687283406
  0
LINE
  8
_4-0_
  6
CONTINUOUS
 62
    3
 10
-281.36178574697032
 20
149.85950569486891
 11
-250.76178574697178
 21
149.85950569486891
  0
ARC
  8
_4-0_
  6
CONTINUOUS
 62
    3
 10
-280.76178574697041
 20
198.05568687283408
 40
0.5999999999999999
 50
179.9999999999998
 51
269.99999999999977
  0
LINE
  8
_4-0_
  6
CONTINUOUS
 62
    3
 10
-251.3617857469718
 20
197.45568687283406
 11
-280.76178574697041
 21
197.45568687283406
  0
ARC
  8
_4-0_
  6
CONTINUOUS
 62
    3
 10
-251.3617857469718
 20
198.05568687283408
 40
0.5999999999999999
 50
269.99999999999977
 51
359.99999999999994
  0
LINE
  8
_4-0_
  6
CONTINUOUS
 62
    3
 10
-250.76178574697178
 20
198.05568687283408
 11
-250.76178574697178
 21
211.05568687283408
  0
ARC
  8
_4-0_
  6
CONTINUOUS
 62
    3
 10
-251.3617857469718
 20
211.05568687283408
 40
0.5999999999999999
 50
0
 51
89.999999999999914
  0
LINE
  8
_4-0_
  6
CONTINUOUS
 62
    3
 10
-280.76178574697036
 20
211.65568687283405
 11
-251.3617857469718
 21
211.65568687283405
  0
LINE
  8
_4-0_
  6
CONTINUOUS
 62
    3
 10
-281.36178574697038
 20
198.05568687283408
 11
-281.36178574697032
 21
211.05568687283408
  0
ARC
  8
_4-0_
  6
CONTINUOUS
 62
    3
 10
-280.76178574697036
 20
211.05568687283408
 40
0.5999999999999999
 50
89.999999999999914
 51
179.9999999999998
  0
ARC
  8
_4-0_
  6
CONTINUOUS
 62
    3
 10
-279.16178574697039
 20
199.65568687283405
 40
0.5999999999999999
 50
179.9999999999998
 51
269.99999999999977
  0
LINE
  8
_4-0_
  6
CONTINUOUS
 62
    3
 10
-279.16178574697039
 20
199.05568687283408
 11
-252.96178574697182
 21
199.05568687283408
  0
ARC
  8
_4-0_
  6
CONTINUOUS
 62
    3
 10
-252.96178574697182
 20
199.65568687283405
 40
0.5999999999999999
 50
269.99999999999977
 51
359.99999999999994
  0
CIRCLE
  8
_4-0_
  6
CONTINUOUS
 62
    3
 10
-261.56178574697105
 20
204.55568687283408
 40
2
  0
LINE
  8
_4-0_
  6
CONTINUOUS
 62
    3
 10
-279.76178574697036
 20
199.65568687283405
 11
-279.76178574697036
 21
208.05568687283408
  0
LINE
  8
_4-0_
  6
CONTINUOUS
 62
    3
 10
-279.76178574697036
 20
208.05568687283408
 11
-277.76178574697036
 21
210.05568687283408
  0
LINE
  8
_4-0_
  6
CONTINUOUS
 62
    3
 10
-277.76178574697036
 20
210.05568687283408
 11
-254.3617857469718
 21
210.05568687283408
  0
LINE
  8
_4-0_
  6
CONTINUOUS
 62
    3
 10
-252.3617857469718
 20
199.65568687283405
 11
-252.3617857469718
 21
208.05568687283408
  0
LINE
  8
_4-0_
  6
CONTINUOUS
 62
    3
 10
-254.3617857469718
 20
210.05568687283408
 11
-252.3617857469718
 21
208.05568687283408
  0
ARC
  8
_4-0_
  6
CONTINUOUS
 62
    3
 10
-332.98745726085616
 20
99.468802929361103
 40
2
 50
89.999999999999914
 51
180.00000000000039
  0
ARC
  8
_4-0_
  6
CONTINUOUS
 62
    3
 10
-332.58745726085612
 20
96.268802929361129
 40
1.6
 50
0
 51
89.999999999999914
  0
LINE
  8
_4-0_
  6
CONTINUOUS
 62
    3
 10
-334.98745726085616
 20
99.468802929361089
 11
-334.98745726085616
 21
98.468802929361103
  0
LINE
  8
_4-0_
  6
CONTINUOUS
 62
    3
 10
-334.38745726085613
 20
97.868802929361095
 11
-332.58745726085612
 21
97.868802929361095
  0
ARC
  8
_4-0_
  6
CONTINUOUS
 62
    3
 10
-334.38745726085613
 20
98.468802929361103
 40
0.5999999999999999
 50
179.9999999999998
 51
269.99999999999977
  0
LINE
  8
_4-0_
  6
CONTINUOUS
 62
    3
 10
-312.98745726085621
 20
88.868802929361095
 11
-326.38745726085613
 21
88.868802929361095
  0
ARC
  8
_4-0_
  6
CONTINUOUS
 62
    3
 10
-326.38745726085613
 20
89.468802929361089
 40
0.5999999999999999
 50
179.9999999999998
 51
269.99999999999977
  0
LINE
  8
_4-0_
  6
CONTINUOUS
 62
    3
 10
-326.38745726085613
 20
99.868802929361095
 11
-312.98745726085621
 21
99.868802929361095
  0
LINE
  8
_4-0_
  6
CONTINUOUS
 62
    3
 10
-326.98745726085621
 20
99.268802929361115
 11
-326.98745726085621
 21
89.468802929361089
  0
ARC
  8
_4-0_
  6
CONTINUOUS
 62
    3
 10
-326.38745726085613
 20
99.268802929361115
 40
0.5999999999999999
 50
89.999999999999914
 51
179.9999999999998
  0
LINE
  8
_4-0_
  6
CONTINUOUS
 62
    3
 10
-332.98745726085616
 20
101.4688029293611
 11
-313.98745726085621
 21
101.46880292936108
  0
LINE
  8
_4-0_
  6
CONTINUOUS
 62
    3
 10
-313.98745726085621
 20
87.268802929361129
 11
-329.9874572608561
 21
87.268802929361129
  0
LINE
  8
_4-0_
  6
CONTINUOUS
 62
    3
 10
-330.98745726085616
 20
96.268802929361129
 11
-330.9874572608561
 21
88.268802929361129
  0
ARC
  8
_4-0_
  6
CONTINUOUS
 62
    3
 10
-329.9874572608561
 20
88.268802929361129
 40
1
 50
179.9999999999998
 51
269.99999999999977
  0
LINE
  8
_4-0_
  6
CONTINUOUS
 62
    3
 10
-312.98745726085621
 20
90.868802929361095
 11
-326.98745726085621
 21
90.868802929361095
  0
LINE
  8
_4-0_
  6
CONTINUOUS
 62
    3
 10
-326.98745726085621
 20
92.368802929361095
 11
-330.98745726085616
 21
92.368802929361095
  0
LINE
  8
_4-0_
  6
CONTINUOUS
 62
    3
 10
-326.98745726085621
 20
96.368802929361095
 11
-330.99058531858895
 21
96.368802929361095
  0
LINE
  8
_4-0_
  6
CONTINUOUS
 62
    3
 10
-281.36178574697032
 20
225.79538965569321
 11
-250.76178574697178
 21
225.79538965569321
  0
LINE
  8
_4-0_
  6
CONTINUOUS
 62
    3
 10
-281.36178574697032
 20
225.79538965569321
 11
-280.63734137725356
 21
225.98950393952009
  0
LINE
  8
_4-0_
  6
CONTINUOUS
 62
    3
 10
-281.36178574697032
 20
225.79538965569321
 11
-280.63734137725356
 21
225.6012753718663
  0
LINE
  8
_4-0_
  6
CONTINUOUS
 62
    3
 10
-250.76178574697178
 20
225.79538965569321
 11
-251.4862301166886
 21
225.6012753718663
  0
LINE
  8
_4-0_
  6
CONTINUOUS
 62
    3
 10
-250.76178574697178
 20
225.79538965569321
 11
-251.4862301166886
 21
225.98950393952009
  0
LINE
  8
_4-0_
  6
CONTINUOUS
 62
    3
 10
-281.36178574697032
 20
225.79538965569321
 11
-281.36178574697032
 21
213.32872298902651
  0
LINE
  8
_4-0_
  6
CONTINUOUS
 62
    3
 10
-250.76178574697178
 20
225.79538965569321
 11
-250.76178574697178
 21
213.32872298902651
  0
LINE
  8
_4-0_
  6
CONTINUOUS
 62
    3
 10
-279.76178574697036
 20
221.62819388849743
 11
-252.3617857469718
 21
221.62819388849743
  0
LINE
  8
_4-0_
  6
CONTINUOUS
 62
    3
 10
-279.76178574697036
 20
221.62819388849743
 11
-279.03734137725359
 21
221.82230817232431
  0
LINE
  8
_4-0_
  6
CONTINUOUS
 62
    3
 10
-279.76178574697036
 20
221.62819388849743
 11
-279.03734137725359
 21
221.43407960467052
  0
LINE
  8
_4-0_
  6
CONTINUOUS
 62
    3
 10
-252.3617857469718
 20
221.62819388849743
 11
-253.08623011668862
 21
221.43407960467052
  0
LINE
  8
_4-0_
  6
CONTINUOUS
 62
    3
 10
-252.3617857469718
 20
221.62819388849743
 11
-253.08623011668862
 21
221.82230817232431
  0
LINE
  8
_4-0_
  6
CONTINUOUS
 62
    3
 10
-279.76178574697036
 20
221.62819388849743
 11
-279.76178574697036
 21
213.32872298902651
  0
LINE
  8
_4-0_
  6
CONTINUOUS
 62
    3
 10
-252.3617857469718
 20
221.62819388849743
 11
-252.3617857469718
 21
213.32872298902651
  0
LINE
  8
_4-0_
  6
CONTINUOUS
 62
    3
 10
-270.56178574697105
 20
217.21073357103708
 11
-261.56178574697105
 21
217.21073357103708
  0
LINE
  8
_4-0_
  6
CONTINUOUS
 62
    3
 10
-270.56178574697105
 20
217.21073357103708
 11
-269.83734137725429
 21
217.40484785486398
  0
LINE
  8
_4-0_
  6
CONTINUOUS
 62
    3
 10
-270.56178574697105
 20
217.21073357103708
 11
-269.83734137725429
 21
217.01661928721017
  0
LINE
  8
_4-0_
  6
CONTINUOUS
 62
    3
 10
-261.56178574697105
 20
217.21073357103708
 11
-262.28623011668787
 21
217.01661928721017
  0
LINE
  8
_4-0_
  6
CONTINUOUS
 62
    3
 10
-261.56178574697105
 20
217.21073357103708
 11
-262.28623011668787
 21
217.40484785486398
  0
LINE
  8
_4-0_
  6
CONTINUOUS
 62
    3
 10
-270.56178574697105
 20
217.21073357103708
 11
-270.56178574697105
 21
213.32872298902651
  0
LINE
  8
_4-0_
  6
CONTINUOUS
 62
    3
 10
-261.56178574697105
 20
217.21073357103708
 11
-261.56178574697105
 21
213.32872298902651
  0
LINE
  8
_4-0_
  6
CONTINUOUS
 62
    3
 10
-295.03661374004428
 20
211.65568687283405
 11
-295.03661374004428
 21
197.45568687283406
  0
LINE
  8
_4-0_
  6
CONTINUOUS
 62
    3
 10
-295.03661374004428
 20
211.65568687283405
 11
-294.84249945621741
 21
210.93124250311726
  0
LINE
  8
_4-0_
  6
CONTINUOUS
 62
    3
 10
-295.03661374004428
 20
211.65568687283405
 11
-295.23072802387122
 21
210.93124250311726
  0
LINE
  8
_4-0_
  6
CONTINUOUS
 62
    3
 10
-295.03661374004428
 20
197.45568687283406
 11
-295.23072802387122
 21
198.18013124255088
  0
LINE
  8
_4-0_
  6
CONTINUOUS
 62
    3
 10
-295.03661374004428
 20
197.45568687283406
 11
-294.84249945621741
 21
198.18013124255088
  0
LINE
  8
_4-0_
  6
CONTINUOUS
 62
    3
 10
-295.03661374004428
 20
211.65568687283405
 11
-283.1286772321078
 21
211.65568687283405
  0
LINE
  8
_4-0_
  6
CONTINUOUS
 62
    3
 10
-295.03661374004428
 20
197.45568687283406
 11
-283.1286772321078
 21
197.45568687283406
  0
LINE
  8
_4-0_
  6
CONTINUOUS
 62
    3
 10
-290.33138152370099
 20
210.05568687283408
 11
-290.33138152370099
 21
199.05568687283408
  0
LINE
  8
_4-0_
  6
CONTINUOUS
 62
    3
 10
-290.33138152370099
 20
210.05568687283408
 11
-290.13726723987406
 21
209.33124250311726
  0
LINE
  8
_4-0_
  6
CONTINUOUS
 62
    3
 10
-290.33138152370099
 20
210.05568687283408
 11
-290.52549580752787
 21
209.33124250311726
  0
LINE
  8
_4-0_
  6
CONTINUOUS
 62
    3
 10
-290.33138152370099
 20
199.05568687283408
 11
-290.52549580752787
 21
199.78013124255087
  0
LINE
  8
_4-0_
  6
CONTINUOUS
 62
    3
 10
-290.33138152370099
 20
199.05568687283408
 11
-290.13726723987406
 21
199.78013124255087
  0
LINE
  8
_4-0_
  6
CONTINUOUS
 62
    3
 10
-290.33138152370099
 20
210.05568687283408
 11
-283.1286772321078
 21
210.05568687283408
  0
LINE
  8
_4-0_
  6
CONTINUOUS
 62
    3
 10
-290.33138152370099
 20
199.05568687283408
 11
-283.1286772321078
 21
199.05568687283408
  0
LINE
  8
_4-0_
  6
CONTINUOUS
 62
    3
 10
-287.13161667949168
 20
210.05568687283408
 11
-287.13161667949168
 21
208.80568687283408
  0
LINE
  8
_4-0_
  6
CONTINUOUS
 62
    3
 10
-287.13161667949168
 20
211.65568687283405
 11
-287.13161667949168
 21
212.90568687283405
  0
LINE
  8
_4-0_
  6
CONTINUOUS
 62
    3
 10
-287.13161667949168
 20
210.05568687283408
 11
-287.13161667949168
 21
211.65568687283405
  0
LINE
  8
_4-0_
  6
CONTINUOUS
 62
    3
 10
-287.13161667949168
 20
210.05568687283408
 11
-286.9375023956648
 21
209.33124250311726
  0
LINE
  8
_4-0_
  6
CONTINUOUS
 62
    3
 10
-287.13161667949168
 20
210.05568687283408
 11
-287.32573096331856
 21
209.33124250311726
  0
LINE
  8
_4-0_
  6
CONTINUOUS
 62
    3
 10
-287.13161667949168
 20
211.65568687283405
 11
-287.32573096331856
 21
212.38013124255087
  0
LINE
  8
_4-0_
  6
CONTINUOUS
 62
    3
 10
-287.13161667949168
 20
211.65568687283405
 11
-286.9375023956648
 21
212.38013124255087
  0
LINE
  8
_4-0_
  6
CONTINUOUS
 62
    3
 10
-287.13161667949168
 20
210.05568687283408
 11
-283.1286772321078
 21
210.05568687283408
  0
LINE
  8
_4-0_
  6
CONTINUOUS
 62
    3
 10
-287.13161667949168
 20
211.65568687283405
 11
-283.1286772321078
 21
211.65568687283405
  0
LINE
  8
_4-0_
  6
CONTINUOUS
 62
    3
 10
-287.13161667949168
 20
199.05568687283408
 11
-287.13161667949168
 21
197.45568687283406
  0
LINE
  8
_4-0_
  6
CONTINUOUS
 62
    3
 10
-287.13161667949168
 20
199.05568687283408
 11
-287.32573096331856
 21
199.78013124255087
  0
LINE
  8
_4-0_
  6
CONTINUOUS
 62
    3
 10
-287.13161667949168
 20
199.05568687283408
 11
-286.9375023956648
 21
199.78013124255087
  0
LINE
  8
_4-0_
  6
CONTINUOUS
 62
    3
 10
-287.13161667949168
 20
197.45568687283406
 11
-286.9375023956648
 21
196.73124250311727
  0
LINE
  8
_4-0_
  6
CONTINUOUS
 62
    3
 10
-287.13161667949168
 20
197.45568687283406
 11
-287.32573096331856
 21
196.73124250311727
  0
LINE
  8
_4-0_
  6
CONTINUOUS
 62
    3
 10
-287.13161667949168
 20
199.05568687283408
 11
-283.1286772321078
 21
199.05568687283408
  0
LINE
  8
_4-0_
  6
CONTINUOUS
 62
    3
 10
-287.13161667949168
 20
197.45568687283406
 11
-283.1286772321078
 21
197.45568687283406
  0
LINE
  8
_4-0_
  6
CONTINUOUS
 62
    3
 10
-271.97599919369406
 20
205.96990036644137
 11
-269.14757187893576
 21
203.14147305168307
  0
LINE
  8
_4-0_
  6
CONTINUOUS
 62
    3
 10
-269.14757187893576
 20
203.14147305168307
 11
-268.26368840245254
 21
202.25758957519988
  0
LINE
  8
_4-0_
  6
CONTINUOUS
 62
    3
 10
-272.85988267017722
 20
206.85378384292454
 11
-271.97599919369406
 21
205.96990036644137
  0
LINE
  8
_4-0_
  6
CONTINUOUS
 62
    3
 10
-271.97599919369406
 20
205.96990036644137
 11
-272.62551824653235
 21
206.34490036644137
  0
LINE
  8
_4-0_
  6
CONTINUOUS
 62
    3
 10
-271.97599919369406
 20
205.96990036644137
 11
-272.35099919369406
 21
206.61941941927969
  0
LINE
  8
_4-0_
  6
CONTINUOUS
 62
    3
 10
-269.14757187893576
 20
203.14147305168307
 11
-268.49805282609742
 21
202.76647305168307
  0
LINE
  8
_4-0_
  6
CONTINUOUS
 62
    3
 10
-269.14757187893576
 20
203.14147305168307
 11
-268.77257187893576
 21
202.49195399884473
  0
LINE
  8
_4-0_
  6
CONTINUOUS
 62
    3
 10
-268.26368840245254
 20
202.25758957519988
 11
-255.2291796740177
 21
189.22308084676501
  0
LINE
  8
_4-0_
  6
CONTINUOUS
 62
    3
 10
-241.90206543512562
 20
197.45568687283406
 11
-258.64646913394142
 21
197.45568687283406
  0
LINE
  8
_4-0_
  6
CONTINUOUS
 62
    3
 10
-241.90206543512562
 20
197.45568687283406
 11
-241.90206543512562
 21
188.19161409883116
  0
LINE
  8
_4-0_
  6
CONTINUOUS
 62
    3
 10
-241.90206543512562
 20
197.45568687283406
 11
-241.70795115129874
 21
196.73124250311727
  0
LINE
  8
_4-0_
  6
CONTINUOUS
 62
    3
 10
-241.90206543512562
 20
197.45568687283406
 11
-242.09617971895249
 21
196.73124250311727
  0
LINE
  8
_4-0_
  6
CONTINUOUS
 62
    3
 10
-241.90206543512562
 20
204.55568687283408
 11
-241.90206543512562
 21
207.18843949565658
  0
LINE
  8
_4-0_
  6
CONTINUOUS
 62
    3
 10
-241.90206543512562
 20
204.55568687283408
 11
-242.09617971895249
 21
205.28013124255087
  0
LINE
  8
_4-0_
  6
CONTINUOUS
 62
    3
 10
-241.90206543512562
 20
204.55568687283408
 11
-241.70795115129874
 21
205.28013124255087
  0
LINE
  8
_4-0_
  6
CONTINUOUS
 62
    3
 10
-287.13161667949168
 20
197.45568687283406
 11
-287.13161667949168
 21
193.22406559794927
  0
LINE
  8
_4-0_
  6
CONTINUOUS
 62
    3
 10
-287.13161667949168
 20
199.05568687283408
 11
-287.13161667949168
 21
200.76692274080642
  0
LINE
  8
_4-0_
  6
CONTINUOUS
 62
    3
 10
-287.13161667949168
 20
212.90568687283405
 11
-287.13161667949168
 21
215.48015025403395
  0
LINE
  8
_4-0_
  6
CONTINUOUS
 62
    3
 10
-250.76178574697172
 20
149.85950569486891
 11
-250.76178574697172
 21
157.49411262910746
  0
ARC
  8
_4-0_
  6
CONTINUOUS
 62
    3
 10
-279.36178574697038
 20
149.85950569486891
 40
2
 50
180
 51
270
  0
LINE
  8
_4-0_
  6
CONTINUOUS
 62
    3
 10
-252.76178574697172
 20
147.85950569486891
 11
-279.36178574697038
 21
147.85950569486891
  0
LINE
  8
_4-0_
  6
CONTINUOUS
 62
    3
 10
-252.76178574697172
 20
147.85950569486891
 11
-279.36178574697038
 21
147.85950569486891
  0
LINE
  8
_4-0_
  6
CONTINUOUS
 62
    3
 10
-251.34757218459861
 20
148.4452921324958
 11
-249.71238775310473
 21
146.81010770100192
  0
LINE
  8
_4-0_
  6
CONTINUOUS
 62
    3
 10
-280.77599930934349
 20
148.4452921324958
 11
-282.41118374083737
 21
146.81010770100192
  0
ARC
  8
_4-0_
  6
CONTINUOUS
 62
    3
 10
-226.3875985836716
 20
149.85950569486891
 40
2
 50
179.9999999999992
 51
270.00000000000051
  0
LINE
  8
_4-0_
  6
CONTINUOUS
 62
    3
 10
-226.38759858367154
 20
147.85950569486891
 11
-225.3875985836716
 21
147.85950569486891
  0
ARC
  8
_4-0_
  6
CONTINUOUS
 62
    3
 10
-225.3875985836716
 20
148.45950569486888
 40
0.5999999999999999
 50
269.99999999999977
 51
359.99999999999994
  0
ARC
  8
_4-0_
  6
CONTINUOUS
 62
    3
 10
-215.18759858367161
 20
152.85950569486897
 40
1
 50
269.99999999999977
 51
359.99999999999994
  0
ARC
  8
_4-0_
  6
CONTINUOUS
 62
    3
 10
-305.73597229794711
 20
149.85950569486891
 40
2
 50
269.99999999999891
 51
0.0000000000008142
  0
LINE
  8
_4-0_
  6
CONTINUOUS
 62
    3
 10
-305.73597229794711
 20
147.85950569486891
 11
-306.73597229794711
 21
147.85950569486891
  0
ARC
  8
_4-0_
  6
CONTINUOUS
 62
    3
 10
-306.73597229794711
 20
148.45950569486888
 40
0.5999999999999999
 50
179.9999999999998
 51
269.99999999999977
  0
ARC
  8
_4-0_
  6
CONTINUOUS
 62
    3
 10
-316.9359722979471
 20
152.85950569486897
 40
1
 50
179.9999999999998
 51
269.99999999999977
  0
TEXT
  8
_4-0_
 62
    7
 10
-271.58824793367682
 20
217.4746889084852
 40
2.5
 41
1
 50
0
  1
4.5 ±0.2
  0
TEXT
  8
_4-0_
 62
    7
 10
-274.11505091872146
 20
221.89214922594555
 40
2.5
 41
1
 50
0
  1
13.7 ±0.15
  0
TEXT
  8
_4-0_
 62
    7
 10
-272.89630091872146
 20
226.05934499314133
 40
2.5
 41
1
 50
0
  1
15.3 ±0.3
  0
INSERT
  2
-003-_G39
  8
_4-0_
 10
-381.17897596683644
 20
-9.9584385994127444
 41
0.25
 42
0.25
 50
0
  0
INSERT
  2
-001-_G37
  8
_4-0_
 10
-381.17897596683644
 20
-9.9584385994127444
 41
0.25
 42
0.25
 50
0
  0
TEXT
  8
_4-0_
 62
    7
 10
-290.57675189407137
 20
199.08275172446673
 40
2.5
 41
1
 50
90
  1
5.5 ±0.2
  0
TEXT
  8
_4-0_
 62
    7
 10
-295.28198411041466
 20
199.08275172446673
 40
2.5
 41
1
 50
90
  1
7.1 ±0.3
  0
TEXT
  8
_4-0_
 62
    7
 10
-287.24065500685867
 20
212.90080589849111
 40
2.5
 41
1
 50
90
  1
0.8
  0
TEXT
  8
_4-0_
 62
    7
 10
-287.29552469135796
 20
192.73070987654324
 40
2.5
 41
1
 50
90
  1
0.8
  0
LINE
  8
_6-0_
  6
CONTINUOUS
 62
    3
 10
-287.13161667949168
 20
193.22406559794927
 11
-287.13161667949168
 21
192.04300983081847
  0
LINE
  8
_6-0_
  6
CONTINUOUS
 62
    3
 10
-287.13161667949168
 20
215.48015025403395
 11
-287.13161667949168
 21
216.8697130772748
  0
TEXT
  8
_4-0_
 62
    7
 10
-261.43910036579791
 20
195.46322016460902
 40
2.5
 41
1
 50
-45.000000000000078
  1
2-φ2 貫通穴
  0
LINE
  8
_6-0_
  6
CONTINUOUS
 62
    3
 10
-255.2291796740177
 20
189.22308084676501
 11
-249.99153234578437
 21
183.98543351853169
  0
TEXT
  8
_4-0_
 62
    7
 10
-242.04815386374025
 20
183.98448216735252
 40
2.5
 41
1
 50
90
  1
3.55 ±0.2
  0
LINE
  8
_6-0_
  6
CONTINUOUS
 62
    3
 10
-241.90206543512562
 20
188.19161409883116
 11
-241.90206543512562
 21
182.62371399176953
  0
CIRCLE
  8
_4-0_
  6
CONTINUOUS
 62
    3
 10
-270.56178574697105
 20
204.55568687283408
 40
2
  0
LINE
  8
_0-1_
  6
CONTINUOUS
 62
    3
 10
-176.67708333333325
 20
276.02083333333331
 11
-176.67708333333325
 21
16.020833333333314
  0
LINE
  8
_0-1_
  6
CONTINUOUS
 62
    3
 10
-356.67708333333325
 20
16.020833333333314
 11
-176.67708333333325
 21
16.020833333333314
  0
LINE
  8
_0-1_
  6
CONTINUOUS
 62
    3
 10
-356.67708333333325
 20
16.020833333333314
 11
-356.67708333333325
 21
276.02083333333331
  0
LINE
  8
_0-1_
  6
CONTINUOUS
 62
    3
 10
-356.67708333333325
 20
276.02083333333331
 11
-176.67708333333325
 21
276.02083333333331
  0
TEXT
  8
_3-0_
 62
    7
 10
-357.56885808676599
 20
158.77071629755749
 40
2.6250000000000377
 41
0.8680559999999886
 50
89.791999999999532
  1
±0.1
  0
TEXT
  8
_3-0_
 62
    7
 10
-357.37635458676606
 20
251.9260512975575
 40
2.625
 41
0.6984130000000003
 50
90
  1
JIS  2級
  0
TEXT
  8
_3-0_
 62
    7
 10
-357.64411788676602
 20
241.42945189755749
 40
2.624999999999992
 41
0.868056000000002
 50
89.580999999999718
  1
±0.1
  0
TEXT
  8
_3-0_
 62
    7
 10
-357.46561018676607
 20
229.93051199755751
 40
2.6250000000000137
 41
0.8680559999999933
 50
89.718999999999738
  1
±30'
  0
TEXT
  8
_3-0_
 62
    7
 10
-362.19060458676597
 20
239.6760512975575
 40
2.625
 41
0.6666669999999994
 50
90
  1
偏心又は片寄り
  0
TEXT
  8
_3-0_
 62
    7
 10
-362.10135458676597
 20
252.84480129755749
 40
2.625
 41
0.8333330000000002
 50
90
  1
ネジの等級
  0
TEXT
  8
_3-0_
 62
    7
 10
-362.10136228676594
 20
231.71339309755751
 40
2.6250000000000381
 41
0.833332999999988
 50
89.676000000001238
  1
角度
  0
LINE
  8
_3-0_
  6
CONTINUOUS
 62
    3
 10
-361.20491708676604
 20
264.17605129755747
 11
-361.20491708676604
 21
227.42605129755753
  0
LINE
  8
_3-0_
  6
CONTINUOUS
 62
    3
 10
-365.57991708676604
 20
227.42605129755753
 11
-365.57991708676604
 21
264.17605129755747
  0
TEXT
  8
_3-0_
 62
    7
 10
-360.79476048676599
 20
198.93430129755751
 40
2.1875
 41
0.8533329999999997
 50
90
  1
1000以下
  0
TEXT
  8
_3-0_
 62
    7
 10
-362.78015578676604
 20
199.37235989755748
 40
2.1874999999999618
 41
0.8400000000000138
 50
90.567000000000064
  1
250をこえ
  0
TEXT
  8
_3-0_
 62
    7
 10
-360.79476048676599
 20
188.43430129755751
 40
2.1875
 41
1.0499999999999998
 50
90
  1
250以下
  0
TEXT
  8
_3-0_
 62
    7
 10
-363.2753980867659
 20
188.43110089755748
 40
2.1875000000000461
 41
0.9999999999999792
 50
89.553000000000565
  1
63をこえ
  0
TEXT
  8
_3-0_
 62
    7
 10
-360.79476048676599
 20
179.74380129755749
 40
2.1875
 41
1.0000000000000006
 50
90
  1
63以下
  0
TEXT
  8
_3-0_
 62
    7
 10
-363.14765158676596
 20
177.93069279755752
 40
2.1875000000000159
 41
0.9999999999999923
 50
89.496000000000307
  1
16をこえ
  0
TEXT
  8
_3-0_
 62
    7
 10
-360.79476048676599
 20
169.13355129755751
 40
2.1875
 41
1
 50
90
  1
16以下
  0
TEXT
  8
_3-0_
 62
    7
 10
-363.14763968676606
 20
167.43243999755753
 40
2.1874999999999693
 41
0.8750000000000113
 50
89.739999999999483
  1
4をこえ
  0
TEXT
  8
_3-0_
 62
    7
 10
-357.31335458676596
 20
200.07005129755748
 40
2.625
 41
0.8680560000000001
 50
90
  1
±0.8
  0
TEXT
  8
_3-0_
 62
    7
 10
-357.44110458676607
 20
189.4598012975575
 40
2.625
 41
0.8680559999999999
 50
90
  1
±0.5
  0
TEXT
  8
_3-0_
 62
    7
 10
-357.44110458676607
 20
178.84867629755751
 40
2.625
 41
0.8680559999999998
 50
90
  1
±0.3
  0
TEXT
  8
_3-0_
 62
    7
 10
-357.31335458676596
 20
168.49392629755749
 40
2.625
 41
0.8680560000000001
 50
90
  1
±0.2
  0
TEXT
  8
_3-0_
 62
    7
 10
-361.91497958676598
 20
158.6510512975575
 40
2.625
 41
0.8333330000000003
 50
90
  1
４以下
  0
TEXT
  8
_3-0_
 62
    7
 10
-357.69660878676597
 20
149.9322992975575
 40
2.624999999999964
 41
0.8333330000000124
 50
89.767000000000294
  1
寸法差
  0
TEXT
  8
_3-0_
 62
    7
 10
-361.91497958676598
 20
150.98080129755749
 40
2.625
 41
0.8333329999999976
 50
90
  1
寸法
  0
LINE
  8
_3-0_
  6
CONTINUOUS
 62
    3
 10
-361.20491708676604
 20
209.43430129755751
 11
-361.20491708676604
 21
149.93430129755751
  0
LINE
  8
_3-0_
  6
CONTINUOUS
 62
    3
 10
-365.57991708676604
 20
149.93430129755751
 11
-365.57991708676604
 21
209.43430129755751
  0
LINE
  8
_3-0_
  6
CONTINUOUS
 62
    3
 10
-365.57991708676604
 20
264.17605129755747
 11
-356.91369183305505
 21
264.17605129755747
  0
LINE
  8
_3-0_
  6
CONTINUOUS
 62
    3
 10
-365.57991708676604
 20
251.9260512975575
 11
-356.91369183305505
 21
251.9260512975575
  0
LINE
  8
_3-0_
  6
CONTINUOUS
 62
    3
 10
-356.91369183305505
 20
239.6760512975575
 11
-365.57991708676604
 21
239.6760512975575
  0
LINE
  8
_3-0_
  6
CONTINUOUS
 62
    3
 10
-356.91369183305505
 20
227.42605129755753
 11
-365.57991708676604
 21
227.42605129755753
  0
LINE
  8
_3-0_
  6
CONTINUOUS
 62
    3
 10
-365.57991708676604
 20
209.43430129755751
 11
-356.91369183305505
 21
209.43430129755751
  0
LINE
  8
_3-0_
  6
CONTINUOUS
 62
    3
 10
-365.57991708676604
 20
198.93430129755751
 11
-356.91369183305505
 21
198.93430129755751
  0
LINE
  8
_3-0_
  6
CONTINUOUS
 62
    3
 10
-356.91369183305505
 20
188.43430129755751
 11
-365.57991708676604
 21
188.43430129755751
  0
LINE
  8
_3-0_
  6
CONTINUOUS
 62
    3
 10
-365.57991708676604
 20
177.93430129755751
 11
-356.91369183305505
 21
177.93430129755751
  0
LINE
  8
_3-0_
  6
CONTINUOUS
 62
    3
 10
-356.91369183305505
 20
167.43430129755751
 11
-365.57991708676604
 21
167.43430129755751
  0
LINE
  8
_3-0_
  6
CONTINUOUS
 62
    3
 10
-365.57991708676604
 20
156.93430129755751
 11
-356.91369183305505
 21
156.93430129755751
  0
LINE
  8
_3-0_
  6
CONTINUOUS
 62
    3
 10
-356.91369183305505
 20
149.93430129755751
 11
-365.57991708676604
 21
149.93430129755751
  0
TEXT
  8
_4-0_
 62
    7
 10
-250.26064529035215
 20
147.63110853909478
 40
2.5
 41
1
 50
-44.999999999999772
  1
R1
  0
TEXT
  8
_4-0_
 62
    7
 10
-283.0617426840422
 20
146.53371484910849
 40
2.5
 41
1
 50
44.999999999999772
  1
R1
  0
LINE
  8
_4-0_
  6
CONTINUOUS
 62
    3
 10
-249.71238775310473
 20
146.81010770100192
 11
-247.52604175851507
 21
144.62376170641221
  0
LINE
  8
_4-0_
  6
CONTINUOUS
 62
    3
 10
-282.41118374083737
 20
146.81010770100192
 11
-284.44585029497977
 21
144.77544114685952
  0
LINE
  8
_4-0_
  6
CONTINUOUS
 62
    3
 10
-270.56178574697099
 20
96.834492334944968
 11
-264.91765743438531
 21
96.834492334944968
  0
ARC
  8
_4-0_
  6
CONTINUOUS
 62
    3
 10
-280.76178574697041
 20
119.04992357224422
 40
0.5999999999999999
 50
89.999999999999914
 51
179.9999999999998
  0
LINE
  8
_4-0_
  6
CONTINUOUS
 62
    3
 10
-251.36178574697169
 20
119.64992357224421
 11
-280.76178574697041
 21
119.64992357224421
  0
ARC
  8
_4-0_
  6
CONTINUOUS
 62
    3
 10
-251.36178574697169
 20
119.04992357224422
 40
0.5999999999999999
 50
0
 51
89.999999999999914
  0
LINE
  8
_4-0_
  6
CONTINUOUS
 62
    3
 10
-250.76178574697178
 20
119.04992357224422
 11
-250.76178574697178
 21
106.04992357224422
  0
ARC
  8
_4-0_
  6
CONTINUOUS
 62
    3
 10
-251.36178574697169
 20
106.04992357224422
 40
0.5999999999999999
 50
269.99999999999977
 51
359.99999999999994
  0
LINE
  8
_4-0_
  6
CONTINUOUS
 62
    3
 10
-280.7617857469703
 20
105.44992357224423
 11
-251.36178574697169
 21
105.44992357224423
  0
LINE
  8
_4-0_
  6
CONTINUOUS
 62
    3
 10
-281.36178574697032
 20
119.04992357224422
 11
-281.36178574697026
 21
106.04992357224422
  0
ARC
  8
_4-0_
  6
CONTINUOUS
 62
    3
 10
-280.7617857469703
 20
106.04992357224422
 40
0.5999999999999999
 50
179.9999999999998
 51
269.99999999999977
  0
LINE
  8
_4-0_
  6
CONTINUOUS
 62
    3
 10
-281.36178574697032
 20
116.04992357224419
 11
-250.76178574697178
 21
116.04992357224419
  0
LINE
  8
_4-0_
  6
CONTINUOUS
 62
    3
 10
-281.36178574697032
 20
114.8499235722442
 11
-250.76178574697178
 21
114.8499235722442
  0
CIRCLE
  8
_4-0_
  6
CONTINUOUS
 62
    3
 10
-270.56178574697099
 20
112.54992357224419
 40
2
  0
CIRCLE
  8
_4-0_
  6
CONTINUOUS
 62
    3
 10
-261.56178574697099
 20
112.54992357224419
 40
2
  0
LINE
  8
_4-0_
  6
__19
 62
    3
 10
-270.56178574697099
 20
126.48039935747557
 11
-270.56178574697099
 21
94.920023363260028
  0
LINE
  8
_4-0_
  6
CONTINUOUS
 62
    3
 10
-279.36178574697038
 20
119.64992357224421
 11
-279.36178574697038
 21
116.04992357224419
  0
LINE
  8
_4-0_
  6
CONTINUOUS
 62
    3
 10
-252.76178574697172
 20
119.64992357224421
 11
-252.76178574697172
 21
116.04992357224419
  0
LINE
  8
_4-0_
  6
CONTINUOUS
 62
    3
 10
-251.06178574697173
 20
117.8499235722442
 11
-281.06178574697037
 21
117.8499235722442
  0
LINE
  8
_4-0_
  6
CONTINUOUS
 62
    3
 10
-270.56178574697099
 20
96.834492334944968
 11
-269.83734137725423
 21
97.028606618771846
  0
LINE
  8
_4-0_
  6
CONTINUOUS
 62
    3
 10
-270.56178574697099
 20
96.834492334944968
 11
-269.83734137725423
 21
96.640378051118062
  0
LINE
  8
_4-0_
  6
CONTINUOUS
 62
    3
 10
-270.56178574697099
 20
124.59639709684972
 11
-269.83734137725423
 21
124.7905113806766
  0
LINE
  8
_4-0_
  6
CONTINUOUS
 62
    3
 10
-270.56178574697099
 20
124.59639709684972
 11
-269.83734137725423
 21
124.40228281302282
  0
LINE
  8
_4-0_
  6
CONTINUOUS
 62
    3
 10
-270.56178574697099
 20
124.59639709684972
 11
-264.91765743438531
 21
124.59639709684972
  0
LINE
  8
_4-0_
  6
CENTER2
 62
    3
 10
-270.56178574697099
 20
124.59639709684972
 11
-270.56178574697099
 21
91.921003372199507
  0
LINE
  8
_4-0_
  6
CENTER2
 62
    3
 10
-270.56178574697099
 20
124.59639709684972
 11
-270.56178574697099
 21
127.7289594764519
  0
TEXT
  8
_4-0_
 62
    7
 10
-268.62222092644879
 20
124.76050954503901
 40
3
 41
1
 50
0
  1
A
  0
TEXT
  8
_4-0_
 62
    7
 10
-268.62222092644879
 20
96.998604783134254
 40
3
 41
1
 50
0
  1
A
  0
LINE
  8
_6-0_
  6
CONTINUOUS
 62
    3
 10
-330.98745726085616
 20
83.042402549154246
 11
-326.98745726085621
 21
83.042402549154246
  0
LINE
  8
_6-0_
  6
CONTINUOUS
 62
    3
 10
-330.98745726085616
 20
83.042402549154246
 11
-330.98745726085616
 21
85.807834647919676
  0
LINE
  8
_6-0_
  6
CONTINUOUS
 62
    3
 10
-326.98745726085621
 20
83.042402549154246
 11
-326.98745726085621
 21
85.807834647919676
  0
TEXT
  8
_6-0_
 62
    7
 10
-329.61245726085621
 20
83.542402549154246
 40
2.5
 41
1
 50
0
  1
2
  0
ARC
  8
_4-0_
  6
CONTINUOUS
 62
    3
 10
-311.98745726085621
 20
100.46880292936108
 40
1
 50
0.0000000000016284
 51
89.999999999999914
  0
LINE
  8
_4-0_
  6
CONTINUOUS
 62
    3
 10
-310.98745726085621
 20
100.4688029293611
 11
-310.98745726085621
 21
88.268802929361129
  0
ARC
  8
_4-0_
  6
CONTINUOUS
 62
    3
 10
-311.98745726085621
 20
88.268802929361129
 40
1
 50
269.99999999999977
 51
359.99999999999994
  0
LINE
  8
_6-0_
  6
CONTINUOUS
 62
    3
 10
-313.98745726085621
 20
87.268802929361129
 11
-311.98745726085621
 21
87.268802929361129
  0
LINE
  8
_6-0_
  6
CONTINUOUS
 62
    3
 10
-312.98745726085621
 20
88.868802929361095
 11
-310.98745726085621
 21
88.868802929361095
  0
LINE
  8
_6-0_
  6
CONTINUOUS
 62
    3
 10
-312.98745726085621
 20
90.868802929361095
 11
-310.987770220495
 21
90.868802929361095
  0
LINE
  8
_6-0_
  6
CONTINUOUS
 62
    3
 10
-312.98745726085621
 20
99.868802929361095
 11
-310.98745726085621
 21
99.868802929361095
  0
LINE
  8
_6-0_
  6
CONTINUOUS
 62
    3
 10
-313.98745726085621
 20
101.46880292936108
 11
-311.98745726085621
 21
101.46880292936108
  0
LINE
  8
_6-0_
  6
CONTINUOUS
 62
    3
 10
-313.2194414701903
 20
101.10923383530479
 11
-312.87320670471694
 21
101.45546860077816
  0
LINE
  8
_6-0_
  6
CONTINUOUS
 62
    3
 10
-312.98745726085621
 20
99.9270044822658
 11
-311.54867022525377
 21
101.36579151786823
  0
LINE
  8
_6-0_
  6
CONTINUOUS
 62
    3
 10
-311.93152879388327
 20
99.927497978374049
 11
-311.0516650826662
 21
100.80736168959113
  0
LINE
  8
_6-0_
  6
CONTINUOUS
 62
    3
 10
-311.93152879388327
 20
99.927497978374049
 11
-311.9850180363087
 21
99.874008735948606
  0
LINE
  8
_6-0_
  6
CONTINUOUS
 62
    3
 10
-312.98745726085621
 20
88.613295983281048
 11
-312.74646542167073
 21
88.854287822466545
  0
LINE
  8
_6-0_
  6
CONTINUOUS
 62
    3
 10
-312.82353373892885
 20
87.285161387858835
 11
-311.24970563539471
 21
88.858989491392961
  0
LINE
  8
_6-0_
  6
CONTINUOUS
 62
    3
 10
-326.98745726085621
 20
83.042402549154246
 11
-310.98745726085621
 21
83.042402549154246
  0
LINE
  8
_6-0_
  6
CONTINUOUS
 62
    3
 10
-326.98745726085621
 20
83.042402549154246
 11
-326.98745726085621
 21
85.807834647919676
  0
LINE
  8
_6-0_
  6
CONTINUOUS
 62
    3
 10
-310.98745726085621
 20
83.042402549154246
 11
-310.98745726085621
 21
85.807834647919676
  0
TEXT
  8
_6-0_
 62
    7
 10
-322.8411801004251
 20
83.542402549154246
 40
2.5
 41
1
 50
0
  1
8 ±0.2
  0
LINE
  8
_4-0_
  6
CONTINUOUS
 62
    3
 10
-280.76178574697041
 20
171.85950569486885
 11
-251.36178574697169
 21
171.85950569486885
  0
LINE
  8
_4-0_
  6
CONTINUOUS
 62
    3
 10
-227.38759858367154
 20
171.85950569486885
 11
-215.18759858367155
 21
171.85950569486885
  0
LINE
  8
_4-0_
  6
CONTINUOUS
 62
    3
 10
-304.73597229794711
 20
171.85950569486885
 11
-316.9359722979471
 21
171.85950569486885
  0
LINE
  8
_4-0_
  6
CONTINUOUS
 62
    3
 10
-317.9359722979471
 20
170.85950569486885
 11
-317.9359722979471
 21
152.85950569486897
  0
ARC
  8
_4-0_
  6
CONTINUOUS
 62
    3
 10
-316.9359722979471
 20
170.85950569486885
 40
1
 50
89.999999999999914
 51
180
  0
LINE
  8
_4-0_
  6
CONTINUOUS
 62
    3
 10
-281.36178574697032
 20
171.25950569486889
 11
-281.36178574697032
 21
149.85950569486891
  0
ARC
  8
_4-0_
  6
CONTINUOUS
 62
    3
 10
-280.76178574697041
 20
171.25950569486889
 40
0.5999999999999999
 50
89.999999999999914
 51
180
  0
LINE
  8
_4-0_
  6
CONTINUOUS
 62
    3
 10
-228.3875985836716
 20
149.85950569486897
 11
-228.38759858367154
 21
170.85950569486885
  0
ARC
  8
_4-0_
  6
CONTINUOUS
 62
    3
 10
-227.38759858367154
 20
170.85950569486885
 40
1
 50
90.00000000000162
 51
180
  0
LINE
  8
_4-0_
  6
CONTINUOUS
 62
    3
 10
-250.76178574697178
 20
171.25950569486883
 11
-250.76178574697178
 21
149.85950569486891
  0
ARC
  8
_4-0_
  6
CONTINUOUS
 62
    3
 10
-251.36178574697169
 20
171.25950569486883
 40
0.5999999999999999
 50
0
 51
89.999999999999914
  0
LINE
  8
_4-0_
  6
CONTINUOUS
 62
    3
 10
-303.73597229794711
 20
149.85950569486897
 11
-303.73597229794717
 21
170.85950569486885
  0
ARC
  8
_4-0_
  6
CONTINUOUS
 62
    3
 10
-304.73597229794717
 20
170.85950569486885
 40
1
 50
0
 51
89.999999999998351
  0
LINE
  8
_4-0_
  6
CONTINUOUS
 62
    3
 10
-214.18759858367155
 20
170.85950569486885
 11
-214.18759858367161
 21
152.85950569486897
  0
ARC
  8
_4-0_
  6
CONTINUOUS
 62
    3
 10
-215.18759858367155
 20
170.85950569486885
 40
1
 50
0
 51
89.999999999999914
  0
LINE
  8
_6-0_
  6
CONTINUOUS
 62
    3
 10
-328.28699628698223
 20
171.85950569486885
 11
-328.28699628698223
 21
151.85950569486897
  0
LINE
  8
_6-0_
  6
CONTINUOUS
 62
    3
 10
-328.28699628698223
 20
171.85950569486885
 11
-319.69440369438967
 21
171.85950569486885
  0
LINE
  8
_6-0_
  6
CONTINUOUS
 62
    3
 10
-328.28699628698223
 20
151.85950569486897
 11
-319.69440369438967
 21
151.85950569486897
  0
LINE
  8
_6-0_
  6
CONTINUOUS
 62
    3
 10
-328.28699628698223
 20
151.85950569486897
 11
-328.28699628698223
 21
147.85950569486888
  0
LINE
  8
_6-0_
  6
CONTINUOUS
 62
    3
 10
-328.28699628698223
 20
147.85950569486888
 11
-319.69440369438967
 21
147.85950569486888
  0
TEXT
  8
_6-0_
 62
    7
 10
-328.78699628698223
 20
149.23450569486894
 40
2.5
 41
1
 50
90
  1
2
  0
TEXT
  8
_6-0_
 62
    7
 10
-328.78699628698223
 20
157.24393573910384
 40
2.5
 41
1
 50
90
  1
10 ±0.3
  0
LINE
  8
_6-0_
  6
CONTINUOUS
 62
    3
 10
-303.73597229794711
 20
138.77685754980342
 11
-298.73597229794711
 21
138.77685754980342
  0
LINE
  8
_6-0_
  6
CONTINUOUS
 62
    3
 10
-307.33597229794713
 20
138.77685754980342
 11
-303.73597229794711
 21
138.77685754980342
  0
LINE
  8
_6-0_
  6
CONTINUOUS
 62
    3
 10
-307.33597229794713
 20
138.77685754980342
 11
-307.33597229794713
 21
147.13899746749891
  0
LINE
  8
_6-0_
  6
CONTINUOUS
 62
    3
 10
-305.73597229794711
 20
149.85950569486891
 11
-304.321758735574
 21
148.44529213249583
  0
LINE
  8
_6-0_
  6
CONTINUOUS
 62
    3
 10
-304.321758735574
 20
148.44529213249583
 11
-300.78622482964124
 21
144.90975822656312
  0
LINE
  8
_4-0_
  6
CONTINUOUS
 62
    3
 10
-307.33597229794713
 20
150.65950569486892
 11
-307.33597229794713
 21
148.45950569486888
  0
LINE
  8
_4-0_
  6
CONTINUOUS
 62
    3
 10
-308.53597229794712
 20
151.85950569486891
 11
-316.9359722979471
 21
151.85950569486897
  0
ARC
  8
_4-0_
  6
CONTINUOUS
 62
    3
 10
-308.53597229794712
 20
150.65950569486892
 40
1.2000000000000001
 50
0
 51
89.999999999999587
  0
LINE
  8
_6-0_
  6
CONTINUOUS
 62
    3
 10
-307.64011199079214
 20
151.45657898125381
 11
-311.17564589672485
 21
147.92104507532104
  0
LINE
  8
_6-0_
  6
CONTINUOUS
 62
    3
 10
-306.7915838533683
 20
152.30510711867765
 11
-307.64011199079214
 21
151.45657898125381
  0
LINE
  8
_6-0_
  6
CONTINUOUS
 62
    3
 10
-311.17564589672485
 20
147.92104507532104
 11
-315.22806522814971
 21
143.86862574389618
  0
TEXT
  8
_6-0_
 62
    7
 10
-314.09253067367779
 20
145.07488122505623
 40
2.5
 41
1
 50
45.000000000000227
  1
R0.6
  0
LINE
  8
_6-0_
  6
CONTINUOUS
 62
    3
 10
-304.73597229794717
 20
170.85950569486885
 11
-304.02886551676061
 21
171.56661247605541
  0
TEXT
  8
_6-0_
 62
    7
 10
-302.4378752590909
 20
173.8647095149117
 40
2.5
 41
1
 50
45.000000000000348
  1
R0.5
  0
LINE
  8
_6-0_
  6
CONTINUOUS
 62
    3
 10
-304.02886551676061
 20
171.56661247605541
 11
-298.54878796256485
 21
177.04669003025117
  0
LINE
  8
_6-0_
  6
CONTINUOUS
 62
    3
 10
-316.9359722979471
 20
170.85950569486885
 11
-317.64307907913365
 21
171.56661247605541
  0
TEXT
  8
_6-0_
 62
    7
 10
-322.76960324273608
 20
177.40024342084444
 40
2.5
 41
1
 50
-45.000000000000348
  1
R0.5
  0
LINE
  8
_6-0_
  6
CONTINUOUS
 62
    3
 10
-317.64307907913365
 20
171.56661247605541
 11
-323.12315663332941
 21
177.04669003025117
  0
LINE
  8
_6-0_
  6
CONTINUOUS
 62
    3
 10
-316.9359722979471
 20
152.85950569486897
 11
-317.64307907913365
 21
152.15239891368244
  0
LINE
  8
_6-0_
  6
CONTINUOUS
 62
    3
 10
-317.64307907913365
 20
152.15239891368244
 11
-323.12315663332941
 21
146.67232135948671
  0
TEXT
  8
_6-0_
 62
    7
 10
-328.04040447340361
 20
141.91804537686232
 40
2.5
 41
1
 50
45.000000000000227
  1
R0.5
  0
LINE
  8
_6-0_
  6
CONTINUOUS
 62
    3
 10
-323.12315663332941
 20
146.67232135948671
 11
-328.90274617674754
 21
140.89273181606861
  0
LINE
  8
_6-0_
  6
CONTINUOUS
 62
    3
 10
-319.69440369438967
 20
147.85950569486888
 11
-316.35316167504976
 21
147.85950569486888
  0
TEXT
  8
_6-0_
 62
    7
 10
-302.02120008382888
 20
139.17456115189662
 40
2.5
 41
1
 50
0
  1
1.8
  0
LINE
  8
_6-0_
  6
CONTINUOUS
 62
    3
 10
-298.73597229794711
 20
138.77685754980342
 11
-297.19266784788925
 21
138.77685754980342
  0
LINE
  8
_6-0_
  6
CONTINUOUS
 62
    3
 10
-307.33597229794713
 20
138.77685754980342
 11
-309.3517899329372
 21
138.77685754980342
  0
TEXT
  8
_1-1_
 62
    7
 10
-265.98450598231988
 20
39.019897228714199
 40
4
 41
1
 50
0
  1
吉田
  0
TEXT
  8
_1-1_
 62
    7
 10
-250.87339487120874
 20
39.019897228714199
 40
4
 41
1
 50
0
  1
吉田
  0
TEXT
  8
_1-1_
 62
    7
 10
-235.76228376009765
 20
39.019897228714199
 40
4
 41
1
 50
0
  1
吉田
  0
TEXT
  8
_1-1_
 62
    7
 10
-220.07504096174375
 20
39.217428092911731
 40
3
 41
1
 50
0
  1
2019年3月11日
  0
TEXT
  8
_1-1_
 62
    7
 10
-187.51537017985077
 20
39.316193525010518
 40
3
 41
1
 50
0
  1
2：1
  0
TEXT
  8
_1-1_
 62
    7
 10
-244.91454713458324
 20
29.233888998261534
 40
3
 41
1
 50
0
  1
シリコーン
  0
TEXT
  8
_1-1_
 62
    3
 10
-212.74993808108519
 20
17.815507653954284
 40
6
 41
1
 50
0
  1
F6193011
  0
TEXT
  8
_1-1_
 62
    3
 10
-268.53457456942544
 20
63.630322468769087
 40
5
 41
1
 50
0
  1
注記）
  0
TEXT
  8
_1-1_
 62
    3
 10
-260.86790790275875
 20
55.963655802102422
 40
5
 41
1
 50
0
  1
指示なきコーナーＲ0.3
  0
TEXT
  8
_1-1_
 62
    3
 10
-260.86790790275875
 20
49.111803950250561
 40
5
 41
1
 50
0
  1
バリ、傷、かけ、汚れ無き事
  0
TEXT
  8
_1-1_
 62
    3
 10
-317.04383382868473
 20
45.945137283583903
 40
5
 41
1
 50
0
  1
勘合図
  0
LINE
  8
_4-0_
  6
CONTINUOUS
 62
    3
 10
-297.01173506325267
 20
28.325393155365773
 11
-297.01173506325267
 21
31.525393155365748
  0
LINE
  8
_4-0_
  6
CONTINUOUS
 62
    3
 10
-286.2117350632526
 20
31.525393155365748
 11
-286.2117350632526
 21
28.325393155365773
  0
LINE
  8
_4-0_
  6
CONTINUOUS
 62
    3
 10
-297.01173506325267
 20
31.525393155365748
 11
-286.2117350632526
 21
31.525393155365748
  0
LINE
  8
_4-0_
  6
CONTINUOUS
 62
    3
 10
-284.81173506325313
 20
32.925393155368752
 11
-284.81173506325313
 21
28.325393155365702
  0
LINE
  8
_4-0_
  6
CONTINUOUS
 62
    3
 10
-298.41173506325213
 20
32.925393155368752
 11
-298.41173506325213
 21
28.325393155365702
  0
ARC
  8
_4-0_
  6
CONTINUOUS
 62
    3
 10
-278.91173506325338
 20
34.925393155368624
 40
0.5999999999999999
 50
0
 51
89.999999999999914
  0
LINE
  8
_4-0_
  6
CONTINUOUS
 62
    3
 10
-278.31173506325336
 20
34.925393155368624
 11
-278.31173506325336
 21
27.325393155368544
  0
ARC
  8
_4-0_
  6
CONTINUOUS
 62
    3
 10
-304.31173506325205
 20
34.925393155368837
 40
0.5999999999999999
 50
89.999999999999914
 51
179.9999999999998
  0
LINE
  8
_4-0_
  6
CONTINUOUS
 62
    3
 10
-304.91173506325208
 20
34.925393155368837
 11
-304.91173506325196
 21
27.325393155368828
  0
ARC
  8
_4-0_
  6
CONTINUOUS
 62
    3
 10
-280.25411181004932
 20
34.925393155368624
 40
0.5999999999999999
 50
89.999999999999914
 51
159.99999985941008
  0
LINE
  8
_4-0_
  6
CONTINUOUS
 62
    3
 10
-280.25411181004932
 20
35.525393155368519
 11
-278.91173506325338
 21
35.525393155368519
  0
LINE
  8
_4-0_
  6
CONTINUOUS
 62
    3
 10
-280.81792738201733
 20
35.130605242747478
 11
-281.34791956586269
 21
33.674463696261355
  0
ARC
  8
_4-0_
  6
CONTINUOUS
 62
    3
 10
-283.56935846561219
 20
34.925393155368752
 40
0.5999999999999999
 50
20.000000140569468
 51
89.999999999999928
  0
LINE
  8
_4-0_
  6
CONTINUOUS
 62
    3
 10
-299.65411166089307
 20
35.525393155368647
 11
-283.56935846561219
 21
35.525393155368647
  0
LINE
  8
_4-0_
  6
CONTINUOUS
 62
    3
 10
-283.00554289364418
 20
35.130605242747392
 11
-282.47555070979882
 21
33.674463696261355
  0
ARC
  8
_4-0_
  6
CONTINUOUS
 62
    3
 10
-302.96935831645612
 20
34.925393155368837
 40
0.5999999999999999
 50
20.000000140569468
 51
89.999999999999928
  0
LINE
  8
_4-0_
  6
CONTINUOUS
 62
    3
 10
-304.31173506325205
 20
35.525393155368774
 11
-302.96935831645612
 21
35.525393155368774
  0
LINE
  8
_4-0_
  6
CONTINUOUS
 62
    3
 10
-302.40554274448805
 20
35.130605242747478
 11
-301.87555056064257
 21
33.674463696261568
  0
ARC
  8
_4-0_
  6
CONTINUOUS
 62
    3
 10
-299.65411166089307
 20
34.925393155368752
 40
0.5999999999999999
 50
89.999999999999914
 51
159.99999985941008
  0
LINE
  8
_4-0_
  6
CONTINUOUS
 62
    3
 10
-300.21792723286114
 20
35.130605242747606
 11
-300.74791941670662
 21
33.674463696261568
  0
ARC
  8
_4-0_
  6
CONTINUOUS
 62
    3
 10
-281.9117351378307
 20
33.879675783640195
 40
0.5999999999999999
 50
200.00000014058579
 51
339.99999985940979
  0
ARC
  8
_4-0_
  6
CONTINUOUS
 62
    3
 10
-301.31173498867462
 20
33.87967578364045
 40
0.5999999999999999
 50
200.00000014058949
 51
339.99999985940979
  0
ARC
  8
_4-0_
  6
CONTINUOUS
 62
    3
 10
-297.81173506325222
 20
32.925393155368752
 40
0.5999999999999999
 50
89.999999999999914
 51
179.9999999999998
  0
LINE
  8
_4-0_
  6
CONTINUOUS
 62
    3
 10
-297.81173506325222
 20
33.525393155368647
 11
-285.41173506325321
 21
33.525393155368647
  0
ARC
  8
_4-0_
  6
CONTINUOUS
 62
    3
 10
-285.41173506325321
 20
32.925393155368752
 40
0.5999999999999999
 50
0
 51
89.999999999999914
  0
LINE
  8
_4-0_
  6
CONTINUOUS
 62
    3
 10
-280.31173506325336
 20
25.325393155368672
 11
-278.31173506325336
 21
27.325393155368544
  0
LINE
  8
_4-0_
  6
CONTINUOUS
 62
    3
 10
-302.91173506325196
 20
25.325393155368672
 11
-280.31173506325336
 21
25.325393155368672
  0
LINE
  8
_4-0_
  6
CONTINUOUS
 62
    3
 10
-302.91173506325196
 20
25.325393155368672
 11
-304.91173506325196
 21
27.325393155368828
  0
LINE
  8
_4-0_
  6
CONTINUOUS
 62
    3
 10
-299.61173506325263
 20
28.325393155365773
 11
-299.61173506325252
 21
27.325393155368701
  0
LINE
  8
_4-0_
  6
CONTINUOUS
 62
    3
 10
-283.61173506325263
 20
28.325393155365702
 11
-299.61173506325252
 21
28.325393155365773
  0
LINE
  8
_4-0_
  6
CONTINUOUS
 62
    3
 10
-283.61173506325263
 20
27.325393155368672
 11
-283.61173506325263
 21
28.325393155365702
  0
LINE
  8
_4-0_
  6
CONTINUOUS
 62
    3
 10
-299.61173506325263
 20
27.325393155368701
 11
-283.61173506325263
 21
27.325393155368672
  0
ARC
  8
_4-0_
  6
CONTINUOUS
 62
    3
 10
-306.31173506325205
 20
36.925393155368638
 40
0.5999999999999999
 50
89.999999999999914
 51
179.9999999999998
  0
LINE
  8
_4-0_
  6
CONTINUOUS
 62
    3
 10
-276.91173506325333
 20
37.525393155368647
 11
-306.31173506325205
 21
37.525393155368647
  0
ARC
  8
_4-0_
  6
CONTINUOUS
 62
    3
 10
-276.91173506325333
 20
36.925393155368638
 40
0.5999999999999999
 50
0
 51
89.999999999999914
  0
LINE
  8
_4-0_
  6
CONTINUOUS
 62
    3
 10
-276.31173506325336
 20
36.925393155368638
 11
-276.31173506325336
 21
23.925393155368638
  0
ARC
  8
_4-0_
  6
CONTINUOUS
 62
    3
 10
-276.91173506325333
 20
23.925393155368638
 40
0.5999999999999999
 50
269.99999999999977
 51
359.99999999999994
  0
LINE
  8
_4-0_
  6
CONTINUOUS
 62
    3
 10
-306.31173506325194
 20
23.325393155368672
 11
-276.91173506325333
 21
23.325393155368672
  0
LINE
  8
_4-0_
  6
CONTINUOUS
 62
    3
 10
-306.91173506325196
 20
36.925393155368638
 11
-306.91173506325196
 21
23.925393155368638
  0
ARC
  8
_4-0_
  6
CONTINUOUS
 62
    3
 10
-306.31173506325194
 20
23.925393155368638
 40
0.5999999999999999
 50
179.9999999999998
 51
269.99999999999977
  0
ARC
  8
_4-0_
  6
CONTINUOUS
 62
    3
 10
-304.71173506325197
 20
35.325393155368615
 40
0.5999999999999999
 50
89.999999999999914
 51
179.9999999999998
  0
LINE
  8
_4-0_
  6
CONTINUOUS
 62
    3
 10
-304.71173506325197
 20
35.925393155368624
 11
-278.51173506325335
 21
35.925393155368624
  0
ARC
  8
_4-0_
  6
CONTINUOUS
 62
    3
 10
-278.51173506325335
 20
35.325393155368615
 40
0.5999999999999999
 50
0
 51
89.999999999999914
  0
CIRCLE
  8
_4-0_
  6
CONTINUOUS
 62
    3
 10
-296.11173506325263
 20
30.425393155368624
 40
2
  0
CIRCLE
  8
_4-0_
  6
CONTINUOUS
 62
    3
 10
-287.11173506325263
 20
30.425393155368624
 40
2
  0
LINE
  8
_4-0_
  6
CONTINUOUS
 62
    3
 10
-305.31173506325194
 20
35.325393155368615
 11
-305.31173506325194
 21
26.925393155368624
  0
LINE
  8
_4-0_
  6
CONTINUOUS
 62
    3
 10
-305.31173506325194
 20
26.925393155368624
 11
-303.31173506325194
 21
24.925393155368624
  0
LINE
  8
_4-0_
  6
CONTINUOUS
 62
    3
 10
-303.31173506325194
 20
24.925393155368624
 11
-279.91173506325338
 21
24.925393155368624
  0
LINE
  8
_4-0_
  6
CONTINUOUS
 62
    3
 10
-277.91173506325338
 20
35.325393155368615
 11
-277.91173506325338
 21
26.925393155368624
  0
LINE
  8
_4-0_
  6
CONTINUOUS
 62
    3
 10
-279.91173506325338
 20
24.925393155368624
 11
-277.91173506325338
 21
26.925393155368624
  0
INSERT
  2
-004-_G43
  8
_4-0_
 10
-378.47695891849002
 20
-2.4513235673840085
 41
0.25
 42
0.25
 50
0
  0
INSERT
  2
-005-_G44
  8
_4-0_
 10
-378.47695891849002
 20
-2.4513235673840085
 41
0.25
 42
0.25
 50
0
  0
LINE
  8
_3-0_
  6
CONTINUOUS
 62
    3
 10
-228.3875985836716
 20
149.85950569486891
 11
-224.78759858367158
 21
149.85950569486891
  0
TEXT
  8
_6-0_
 62
    7
 10
-302.76274100746837
 20
147.11374725157656
 40
2.5
 41
1
 50
-44.999999999999772
  1
R1
  0
LINE
  8
_6-0_
  6
CONTINUOUS
 62
    3
 10
-303.73597229794711
 20
138.77685754980342
 11
-303.73597229794711
 21
145.78590088669318
  0
LINE
  8
_3-0_
  6
CONTINUOUS
 62
    3
 10
-303.73597229794711
 20
149.85950569486891
 11
-307.3363324315398
 21
149.85950569486891
  0
LINE
  8
_4-0_
  6
CONTINUOUS
 62
    3
 10
-223.58759858367159
 20
151.85950569486891
 11
-215.18759858367161
 21
151.85950569486897
  0
LINE
  8
_4-0_
  6
CONTINUOUS
 62
    3
 10
-224.78759858367158
 20
150.65950569486892
 11
-224.78759858367158
 21
148.45950569486888
  0
ARC
  8
_4-0_
  6
CONTINUOUS
 62
    3
 10
-223.58759858367159
 20
150.65950569486892
 40
1.2000000000000001
 50
90.000000000000412
 51
180
  0
LINE
  8
_6-0_
  6
CONTINUOUS
 62
    3
 10
-328.28699628698223
 20
171.85950569486885
 11
-328.09288200315535
 21
171.13506132515206
  0
LINE
  8
_6-0_
  6
CONTINUOUS
 62
    3
 10
-328.28699628698223
 20
171.85950569486885
 11
-328.4811105708091
 21
171.13506132515206
  0
LINE
  8
_6-0_
  6
CONTINUOUS
 62
    3
 10
-328.28699628698223
 20
151.85950569486897
 11
-328.4811105708091
 21
152.58395006458579
  0
LINE
  8
_6-0_
  6
CONTINUOUS
 62
    3
 10
-328.28699628698223
 20
151.85950569486897
 11
-328.09288200315535
 21
152.58395006458579
  0
LINE
  8
_6-0_
  6
CONTINUOUS
 62
    3
 10
-328.28699628698223
 20
151.85950569486897
 11
-328.09288200315535
 21
151.13506132515217
  0
LINE
  8
_6-0_
  6
CONTINUOUS
 62
    3
 10
-328.28699628698223
 20
151.85950569486897
 11
-328.4811105708091
 21
151.13506132515217
  0
LINE
  8
_6-0_
  6
CONTINUOUS
 62
    3
 10
-328.28699628698223
 20
147.85950569486888
 11
-328.4811105708091
 21
148.58395006458567
  0
LINE
  8
_6-0_
  6
CONTINUOUS
 62
    3
 10
-328.28699628698223
 20
147.85950569486888
 11
-328.09288200315535
 21
148.58395006458567
  0
LINE
  8
_6-0_
  6
CONTINUOUS
 62
    3
 10
-317.64307907913365
 20
171.56661247605541
 11
-318.29259813197199
 21
171.94161247605541
  0
LINE
  8
_6-0_
  6
CONTINUOUS
 62
    3
 10
-317.64307907913365
 20
171.56661247605541
 11
-318.01807907913365
 21
172.21613152889375
  0
LINE
  8
_6-0_
  6
CONTINUOUS
 62
    3
 10
-304.02886551676061
 20
171.56661247605541
 11
-303.65386551676061
 21
172.21613152889375
  0
LINE
  8
_6-0_
  6
CONTINUOUS
 62
    3
 10
-304.02886551676061
 20
171.56661247605541
 11
-303.37934646392227
 21
171.94161247605541
  0
LINE
  8
_6-0_
  6
CONTINUOUS
 62
    3
 10
-317.64307907913365
 20
152.15239891368244
 11
-318.01807907913365
 21
151.5028798608441
  0
LINE
  8
_6-0_
  6
CONTINUOUS
 62
    3
 10
-317.64307907913365
 20
152.15239891368244
 11
-318.29259813197199
 21
151.77739891368244
  0
LINE
  8
_6-0_
  6
CONTINUOUS
 62
    3
 10
-307.64011199079214
 20
151.45657898125381
 11
-308.01511199079214
 21
150.80705992841546
  0
LINE
  8
_6-0_
  6
CONTINUOUS
 62
    3
 10
-307.64011199079214
 20
151.45657898125381
 11
-308.28963104363049
 21
151.08157898125381
  0
LINE
  8
_6-0_
  6
CONTINUOUS
 62
    3
 10
-304.321758735574
 20
148.44529213249583
 11
-303.67223968273566
 21
148.07029213249583
  0
LINE
  8
_6-0_
  6
CONTINUOUS
 62
    3
 10
-304.321758735574
 20
148.44529213249583
 11
-303.946758735574
 21
147.79577307965752
  0
LINE
  8
_6-0_
  6
CONTINUOUS
 62
    3
 10
-280.77599930934349
 20
148.4452921324958
 11
-281.15099930934349
 21
147.79577307965746
  0
LINE
  8
_6-0_
  6
CONTINUOUS
 62
    3
 10
-280.77599930934349
 20
148.4452921324958
 11
-281.42551836218183
 21
148.0702921324958
  0
LINE
  8
_6-0_
  6
CONTINUOUS
 62
    3
 10
-251.34757218459861
 20
148.4452921324958
 11
-250.69805313176027
 21
148.0702921324958
  0
LINE
  8
_6-0_
  6
CONTINUOUS
 62
    3
 10
-251.34757218459861
 20
148.4452921324958
 11
-250.97257218459861
 21
147.79577307965746
  0
LINE
  8
_6-0_
  6
CONTINUOUS
 62
    3
 10
-310.98745726085621
 20
83.042402549154246
 11
-311.71190163057303
 21
82.848288265327354
  0
LINE
  8
_6-0_
  6
CONTINUOUS
 62
    3
 10
-310.98745726085621
 20
83.042402549154246
 11
-311.71190163057303
 21
83.236516832981138
  0
LINE
  8
_6-0_
  6
CONTINUOUS
 62
    3
 10
-326.98745726085621
 20
83.042402549154246
 11
-326.26301289113939
 21
83.236516832981138
  0
LINE
  8
_6-0_
  6
CONTINUOUS
 62
    3
 10
-326.98745726085621
 20
83.042402549154246
 11
-326.26301289113939
 21
82.848288265327354
  0
LINE
  8
_6-0_
  6
CONTINUOUS
 62
    3
 10
-326.98745726085621
 20
83.042402549154246
 11
-327.71190163057303
 21
82.848288265327354
  0
LINE
  8
_6-0_
  6
CONTINUOUS
 62
    3
 10
-326.98745726085621
 20
83.042402549154246
 11
-327.71190163057303
 21
83.236516832981138
  0
LINE
  8
_6-0_
  6
CONTINUOUS
 62
    3
 10
-330.98745726085616
 20
83.042402549154246
 11
-330.26301289113933
 21
83.236516832981138
  0
LINE
  8
_6-0_
  6
CONTINUOUS
 62
    3
 10
-330.98745726085616
 20
83.042402549154246
 11
-330.26301289113933
 21
82.848288265327354
  0
LINE
  8
_6-0_
  6
CONTINUOUS
 62
    3
 10
-303.73597229794711
 20
138.77685754980342
 11
-303.01152792823029
 21
138.97097183363032
  0
LINE
  8
_6-0_
  6
CONTINUOUS
 62
    3
 10
-303.73597229794711
 20
138.77685754980342
 11
-303.01152792823029
 21
138.58274326597654
  0
LINE
  8
_6-0_
  6
CONTINUOUS
 62
    3
 10
-307.33597229794713
 20
138.77685754980342
 11
-308.06041666766395
 21
138.58274326597654
  0
LINE
  8
_6-0_
  6
CONTINUOUS
 62
    3
 10
-307.33597229794713
 20
138.77685754980342
 11
-308.06041666766395
 21
138.97097183363032
  0
LINE
  8
_4-0_
  6
CONTINUOUS
 62
    3
 10
-252.05584449936071
 20
149.1535644472579
 11
-251.34757218459861
 21
148.4452921324958
  0
LINE
  8
_4-0_
  6
CONTINUOUS
 62
    3
 10
-280.10642373884604
 20
149.11486770299322
 11
-280.77599930934349
 21
148.4452921324958
  0
POINT
  8
_6-0_
 62
    3
 10
-270.56178574697105
 20
204.55568687283408
  0
LINE
  8
_6-0_
  6
PHANTOM1
 62
    4
 10
-270.56178574697105
 20
204.55568687283408
 11
-270.56178574697105
 21
201.55568687283408
  0
LINE
  8
_6-0_
  6
PHANTOM1
 62
    4
 10
-270.56178574697105
 20
204.55568687283408
 11
-273.56178574697105
 21
204.55568687283408
  0
LINE
  8
_6-0_
  6
PHANTOM1
 62
    4
 10
-270.56178574697105
 20
204.55568687283408
 11
-270.56178574697105
 21
207.55568687283408
  0
LINE
  8
_6-0_
  6
PHANTOM1
 62
    4
 10
-270.56178574697105
 20
204.55568687283408
 11
-267.56178574697105
 21
204.55568687283408
  0
POINT
  8
_6-0_
 62
    4
 10
-261.56178574697105
 20
204.55568687283408
  0
LINE
  8
_6-0_
  6
PHANTOM1
 62
    4
 10
-261.56178574697105
 20
204.55568687283408
 11
-264.56178574697105
 21
204.55568687283408
  0
LINE
  8
_6-0_
  6
PHANTOM1
 62
    4
 10
-261.56178574697105
 20
204.55568687283408
 11
-261.56178574697105
 21
207.55568687283408
  0
LINE
  8
_6-0_
  6
PHANTOM1
 62
    4
 10
-261.56178574697105
 20
204.55568687283408
 11
-258.56178574697105
 21
204.55568687283408
  0
LINE
  8
_6-0_
  6
PHANTOM1
 62
    4
 10
-261.56178574697105
 20
204.55568687283408
 11
-261.56178574697105
 21
201.55568687283408
  0
LINE
  8
_4-0_
  6
CONTINUOUS
 62
    3
 10
-241.90206543512562
 20
204.55568687283408
 11
-256.20412522862335
 21
204.55568687283408
  0
LINE
  8
_6-0_
  6
PHANTOM1
 62
    4
 10
-266.06178574697105
 20
199.65568687283405
 11
-266.06178574697105
 21
208.05568687283408
  0
LINE
  8
_6-0_
  6
PHANTOM1
 62
    4
 10
-266.06178574697105
 20
208.05568687283408
 11
-266.06178574697105
 21
212.84204640660979
  0
LINE
  8
_6-0_
  6
PHANTOM1
 62
    4
 10
-266.06178574697105
 20
199.65568687283405
 11
-266.06178574697105
 21
193.14748765032265
  0
LINE
  8
_6-0_
  6
PHANTOM1
 62
    4
 10
-266.06178574697105
 20
212.84204640660979
 11
-266.06178574697105
 21
215.22156172439673
  0
ENDSEC
  0
EOF
