  0
SECTION
  2
HEADER
  9
$ACADVER
  1
AC1009
  9
$INSBASE
 10
0
 20
0
 30
0
  9
$EXTMIN
 10
0
 20
0
  9
$EXTMAX
 10
420
 20
297
  9
$LIMMIN
 10
0
 20
0
  9
$LIMMAX
 10
420
 20
297
  9
$LTSCALE
 40
1
  0
ENDSEC
  0
SECTION
  2
TABLES
  0
TABLE
  2
LTYPE
 70
     9
  0
LTYPE
  2
CONTINUOUS
 70
    64
  3
実線
 72
    65
 73
     0
 40
0.0
  0
LTYPE
  2
DASHED1
 70
    64
  3
--  --  --  --  --  --  --  --  
 72
    65
 73
     2
 40
2.5
 49
1.25
 49
-1.25
  0
LTYPE
  2
DASHED2
 70
    64
  3
----    ----    ----    ----    
 72
    65
 73
     2
 40
5.0
 49
2.5
 49
-2.5
  0
LTYPE
  2
DASHED3
 70
    64
  3
------  ------  ------  ------  
 72
    65
 73
     2
 40
5.0
 49
3.75
 49
-1.25
  0
LTYPE
  2
CENTER1
 70
    64
  3
----- - ----- - ----- - ----- - 
 72
    65
 73
     4
 40
10.0
 49
6.25
 49
-1.25
 49
1.25
 49
-1.25
  0
LTYPE
  2
CENTER2
 70
    64
  3
----------  --  ----------  --  
 72
    65
 73
     4
 40
20.0
 49
12.5
 49
-2.5
 49
2.5
 49
-2.5
  0
LTYPE
  2
PHANTOM1
 70
    64
  3
--- - - --- - - --- - - --- - - 
 72
    65
 73
     6
 40
10.0
 49
3.25
 49
-1.25
 49
1.25
 49
-1.25
 49
1.25
 49
-1.25
  0
LTYPE
  2
PHANTOM2
 70
    64
  3
--------  -  -  --------  -  -  
 72
    65
 73
     6
 40
20.0
 49
10.0
 49
-2.5
 49
1.25
 49
-2.5
 49
1.25
 49
-2.5
  0
LTYPE
  2
DOT
 70
    64
  3
-   -   -   -   -   -   -   -   
 72
    65
 73
     2
 40
2.5
 49
0.625
 49
-1.875
  0
LTYPE
  2
DUMMY
 70
    64
  3
ダミー
 72
    65
 73
     0
 40
0.0
  0
LTYPE
  2
RAND1
 70
    64
  3
ランダム線1
 72
    65
 73
     4
 40
10.0
 49
1.0
 49
-2.0
 49
3.0
 49
-4.0
  0
LTYPE
  2
RAND2
 70
    64
  3
ランダム線2
 72
    65
 73
     4
 40
14.0
 49
2.0
 49
-3.0
 49
4.0
 49
-5.0
  0
LTYPE
  2
RAND3
 70
    64
  3
ランダム線3
 72
    65
 73
     4
 40
18.0
 49
3.0
 49
-4.0
 49
5.0
 49
-6.0
  0
LTYPE
  2
RAND4
 70
    64
  3
ランダム線4
 72
    65
 73
     4
 40
22.0
 49
4.0
 49
-5.0
 49
6.0
 49
-7.0
  0
LTYPE
  2
RAND5
 70
    64
  3
ランダム線5
 72
    65
 73
     4
 40
26.0
 49
5.0
 49
-6.0
 49
7.0
 49
-8.0
  0
LTYPE
  2
LONG1
 70
    64
  3
----------  --  ----------  --  
 72
    65
 73
     4
 40
40.0
 49
32.5
 49
-2.5
 49
2.5
 49
-2.5
  0
LTYPE
  2
LONG2
 70
    64
  3
--------  -  -  --------  -  -  
 72
    65
 73
     6
 40
40.0
 49
30.0
 49
-2.5
 49
1.25
 49
-2.5
 49
1.25
 49
-2.5
  0
LTYPE
  2
LONG3
 70
    64
  3
+++++++++++++++..+++++++++++++++
 72
    65
 73
     2
 40
40.0
 49
37.5
 49
-2.5
  0
LTYPE
  2
LONG4
 70
    64
  3
+++++++++++++++..+++++++++++++++
 72
    65
 73
     2
 40
80.0
 49
75.0
 49
-5.0
  0
LTYPE
  2
LONG5
 70
    64
  3
----------  --  ----------  --  
 72
    65
 73
     4
 40
60.0
 49
37.5
 49
-7.5
 49
7.5
 49
-7.5
  0
LTYPE
  2
dashed
 70
   64
  3
-------   -------------   ------
 72
   65
 73
    2
 40
7.5
 49
6
 49
-1.5
  0
LTYPE
  2
dashed_spaced
 70
   64
  3
----        --------        ----
 72
   65
 73
    2
 40
12
 49
6
 49
-6
  0
LTYPE
  2
long_dashed_dotted
 70
   64
  3
------------- --- --------------
 72
   65
 73
    4
 40
15.25
 49
12
 49
-1.5
 49
0.25
 49
-1.5
  0
LTYPE
  2
long_dashed_double-dotted
 70
   64
  3
----------- --- --- ------------
 72
   65
 73
    6
 40
17
 49
12
 49
-1.5
 49
0.25
 49
-1.5
 49
0.25
 49
-1.5
  0
LTYPE
  2
long_dashed_triplicate-dotted
 70
   64
  3
--------- --- --- --- ----------
 72
   65
 73
    8
 40
18.75
 49
12
 49
-1.5
 49
0.25
 49
-1.5
 49
0.25
 49
-1.5
 49
0.25
 49
-1.5
  0
LTYPE
  2
dotted
 70
   64
  3
   -       -       -       -    
 72
   65
 73
    2
 40
1.75
 49
0.25
 49
-1.5
  0
LTYPE
  2
chain
 70
   64
  3
-------------- -- --------------
 72
   65
 73
    4
 40
18.5
 49
12
 49
-1.5
 49
3.5
 49
-1.5
  0
LTYPE
  2
chain_double_dash
 70
   64
  3
------------ -- -- -------------
 72
   65
 73
    6
 40
23.5
 49
12
 49
-1.5
 49
3.5
 49
-1.5
 49
3.5
 49
-1.5
  0
LTYPE
  2
dashed_dotted
 70
   64
  3
-----------     -     ----------
 72
   65
 73
    4
 40
9.25
 49
6
 49
-1.5
 49
0.25
 49
-1.5
  0
LTYPE
  2
double-dashed_dotted
 70
   64
  3
------   -----------   -   -----
 72
   65
 73
    6
 40
16.75
 49
6
 49
-1.5
 49
6
 49
-1.5
 49
0.25
 49
-1.5
  0
LTYPE
  2
dashed_double-dotted
 70
   64
  3
---------    -    -    ---------
 72
   65
 73
    6
 40
11
 49
6
 49
-1.5
 49
0.25
 49
-1.5
 49
0.25
 49
-1.5
  0
LTYPE
  2
double-dashed_double-dotted
 70
   64
  3
-----   ---------   -   -   ----
 72
   65
 73
    8
 40
18.5
 49
6
 49
-1.5
 49
6
 49
-1.5
 49
0.25
 49
-1.5
 49
0.25
 49
-1.5
  0
LTYPE
  2
dashed_triplicate-dotted
 70
   64
  3
-------    -    -    -    ------
 72
   65
 73
    8
 40
12.75
 49
6
 49
-1.5
 49
0.25
 49
-1.5
 49
0.25
 49
-1.5
 49
0.25
 49
-1.5
  0
LTYPE
  2
double-dashed_triplicate-dotted
 70
   64
  3
-----  ---------  -  -  -  -----
 72
   65
 73
   10
 40
20.25
 49
6
 49
-1.5
 49
6
 49
-1.5
 49
0.25
 49
-1.5
 49
0.25
 49
-1.5
 49
0.25
 49
-1.5
  0
LTYPE
  2
undefined
 70
   64
  3
--------------------------------
 72
   65
 73
    0
 40
0
  0
LTYPE
  2
_
 70
   64
  3
                                
 72
   65
 73
    0
 40
0
  0
LTYPE
  2
__18
 70
   64
  3
                                
 72
   65
 73
    0
 40
0
  0
LTYPE
  2
__19
 70
   64
  3
                                
 72
   65
 73
    0
 40
0
  0
LTYPE
  2
__20
 70
   64
  3
                                
 72
   65
 73
    0
 40
0
  0
LTYPE
  2
__21
 70
   64
  3
                                
 72
   65
 73
    0
 40
0
  0
LTYPE
  2
__22
 70
   64
  3
                                
 72
   65
 73
    0
 40
0
  0
LTYPE
  2
__23
 70
   64
  3
                                
 72
   65
 73
    0
 40
0
  0
LTYPE
  2
__24
 70
   64
  3
                                
 72
   65
 73
    0
 40
0
  0
LTYPE
  2
__25
 70
   64
  3
                                
 72
   65
 73
    0
 40
0
  0
LTYPE
  2
__26
 70
   64
  3
                                
 72
   65
 73
    0
 40
0
  0
LTYPE
  2
__27
 70
   64
  3
                                
 72
   65
 73
    0
 40
0
  0
LTYPE
  2
__28
 70
   64
  3
                                
 72
   65
 73
    0
 40
0
  0
LTYPE
  2
__29
 70
   64
  3
                                
 72
   65
 73
    0
 40
0
  0
LTYPE
  2
__30
 70
   64
  3
                                
 72
   65
 73
    0
 40
0
  0
LTYPE
  2
__31
 70
   64
  3
                                
 72
   65
 73
    0
 40
0
  0
LTYPE
  2
__32
 70
   64
  3
                                
 72
   65
 73
    0
 40
0
  0
ENDTAB
  0
TABLE
  2
STYLE
  5
3
100
AcDbSymbolTable
 70
     1
  0
STYLE
  5
10
100
AcDbSymbolTableRecord
100
AcDbTextStyleTableRecord
  2
STANDARD
 70
     0
 40
0.0
 41
1.0
 50
0.0
 71
     0
 42
0.2
  3
txt
  4
bigfont.shx
  0
STYLE
  5
26
100
AcDbSymbolTableRecord
100
AcDbTextStyleTableRecord
  2
TATEGAKI
 70
    68
 40
0.0
 41
1.0
 50
0.0
 71
     0
 42
1.0
  3
txt
  4
bigfont.shx
  0
ENDTAB
  0
TABLE
  2
LAYER
 70
    4
  0
LAYER
  2
_0-0_0
 70
   64
 62
    7
  6
CONTINUOUS
  0
LAYER
  2
_0-7_7
 70
   64
 62
    7
  6
CONTINUOUS
  0
LAYER
  2
_f-a_250
 70
   64
 62
    7
  6
CONTINUOUS
  0
LAYER
  2
ADD_LINE
 70
   64
 62
    7
  6
CONTINUOUS
  0
ENDTAB
  0
ENDSEC
  0
SECTION
  2
BLOCKS
  0
ENDSEC
  0
SECTION
  2
ENTITIES
  0
LINE
  8
_f-a_250
  6
CONTINUOUS
 62
  250
 10
115.14347075554008
 20
114.24930381306521
 11
115.08411299923839
 21
114.33017562805028
  0
LINE
  8
_f-a_250
  6
CONTINUOUS
 62
  250
 10
114.95064972969212
 20
115.0920658064732
 11
115.0058793935406
 21
115.22434043415925
  0
LINE
  8
_f-a_250
  6
CONTINUOUS
 62
  250
 10
115.0058793935406
 20
115.22434043415925
 11
115.08299588295105
 21
115.35046386250374
  0
LINE
  8
_0-7_7
  6
CONTINUOUS
 62
    7
 10
325.57434319587855
 20
232.63559627064575
 11
325.66820859047061
 21
232.55150603779671
  0
LINE
  8
_f-a_250
  6
CONTINUOUS
 62
  250
 10
152.47914074989461
 20
128.28252601155174
 11
152.57128953071708
 21
128.72312354573123
  0
LINE
  8
_0-0_0
  6
CONTINUOUS
 62
    7
 10
288.13268422218459
 20
213.72788238057024
 11
288.20435284706252
 21
213.75623034962524
  0
LINE
  8
_0-0_0
  6
CONTINUOUS
 62
    7
 10
288.20435284706252
 20
213.75623034962524
 11
288.22800397010906
 21
213.76755523213274
  0
LINE
  8
_0-0_0
  6
CONTINUOUS
 62
    7
 10
288.22800397010906
 20
213.76755523213274
 11
288.25194119545108
 21
213.77840327748171
  0
LINE
  8
_0-0_0
  6
CONTINUOUS
 62
    7
 10
288.25194119545108
 20
213.77840327748171
 11
288.27616452308803
 21
213.78886985310425
  0
LINE
  8
_0-0_0
  6
CONTINUOUS
 62
    7
 10
288.27616452308803
 20
213.78886985310425
 11
288.30062626930362
 21
213.79883574971072
  0
LINE
  8
_0-0_0
  6
CONTINUOUS
 62
    7
 10
288.30062626930362
 20
213.79883574971072
 11
288.32539795967205
 21
213.80832480915925
  0
LINE
  8
_0-0_0
  6
CONTINUOUS
 62
    7
 10
288.32539795967205
 20
213.80832480915925
 11
288.35040806862003
 21
213.81731318959123
  0
LINE
  8
_0-0_0
  6
CONTINUOUS
 62
    7
 10
288.35040806862003
 20
213.81731318959123
 11
288.37560891243106
 21
213.8257770491492
  0
LINE
  8
_0-0_0
  6
CONTINUOUS
 62
    7
 10
288.37560891243106
 20
213.8257770491492
 11
288.40109585853713
 21
213.83371638783325
  0
LINE
  8
_0-0_0
  6
CONTINUOUS
 62
    7
 10
288.40109585853713
 20
213.83371638783325
 11
288.42677353950603
 21
213.84108352192771
  0
LINE
  8
_0-0_0
  6
CONTINUOUS
 62
    7
 10
288.42677353950603
 20
213.84108352192771
 11
288.45266579719657
 21
213.84787845143174
  0
LINE
  8
_0-0_0
  6
CONTINUOUS
 62
    7
 10
288.45266579719657
 20
213.84787845143174
 11
288.70753525825603
 21
213.89169978627075
  0
LINE
  8
_0-0_0
  6
CONTINUOUS
 62
    7
 10
288.70753525825603
 20
213.89169978627075
 11
288.96137951942558
 21
213.88805198201072
  0
LINE
  8
_0-0_0
  6
CONTINUOUS
 62
    7
 10
288.96137951942558
 20
213.88805198201072
 11
289.21005009742862
 21
213.83972453602672
  0
LINE
  8
_0-0_0
  6
CONTINUOUS
 62
    7
 10
289.21005009742862
 20
213.83972453602672
 11
289.44942235084659
 21
213.74957847126819
  0
LINE
  8
_0-0_0
  6
CONTINUOUS
 62
    7
 10
289.44942235084659
 20
213.74957847126819
 11
289.67539548011905
 21
213.62042712696922
  0
LINE
  8
_0-0_0
  6
CONTINUOUS
 62
    7
 10
289.67539548011905
 20
213.62042712696922
 11
289.88379716011161
 21
213.45503615864624
  0
LINE
  8
_0-0_0
  6
CONTINUOUS
 62
    7
 10
289.88379716011161
 20
213.45503615864624
 11
290.07052659126407
 21
213.2562904311072
  0
LINE
  8
_0-0_0
  6
CONTINUOUS
 62
    7
 10
290.07052659126407
 20
213.2562904311072
 11
290.2314352902996
 21
213.02695559986924
  0
LINE
  8
_0-0_0
  6
CONTINUOUS
 62
    7
 10
290.2314352902996
 20
213.02695559986924
 11
290.36244629951602
 21
212.7698688460242
  0
LINE
  8
_0-0_0
  6
CONTINUOUS
 62
    7
 10
290.36244629951602
 20
212.7698688460242
 11
290.45936345192104
 21
212.48789119252075
  0
LINE
  8
_0-0_0
  6
CONTINUOUS
 62
    7
 10
290.45936345192104
 20
212.48789119252075
 11
290.51040886970657
 21
212.23988818653919
  0
LINE
  8
_0-0_0
  6
CONTINUOUS
 62
    7
 10
290.51040886970657
 20
212.23988818653919
 11
290.53146123024112
 21
211.9947223616492
  0
LINE
  8
_0-0_0
  6
CONTINUOUS
 62
    7
 10
290.53146123024112
 20
211.9947223616492
 11
290.52376031013614
 21
211.75504016407822
  0
LINE
  8
_0-0_0
  6
CONTINUOUS
 62
    7
 10
290.52376031013614
 20
211.75504016407822
 11
290.48859356971855
 21
211.52360724934474
  0
LINE
  8
_0-0_0
  6
CONTINUOUS
 62
    7
 10
290.48859356971855
 20
211.52360724934474
 11
290.42727231117362
 21
211.30311774739121
  0
LINE
  8
_0-0_0
  6
CONTINUOUS
 62
    7
 10
290.42727231117362
 20
211.30311774739121
 11
290.34103631111259
 21
211.09628963002075
  0
LINE
  8
_0-0_0
  6
CONTINUOUS
 62
    7
 10
290.34103631111259
 20
211.09628963002075
 11
290.23117302986259
 21
210.90576934346072
  0
LINE
  8
_0-0_0
  6
CONTINUOUS
 62
    7
 10
290.23117302986259
 20
210.90576934346072
 11
290.09896992775111
 21
210.7343463850867
  0
LINE
  8
_0-0_0
  6
CONTINUOUS
 62
    7
 10
290.09896992775111
 20
210.7343463850867
 11
289.94571446510452
 21
210.58473872670075
  0
LINE
  8
_0-0_0
  6
CONTINUOUS
 62
    7
 10
289.94571446510452
 20
210.58473872670075
 11
289.77269410225051
 21
210.4595689726722
  0
LINE
  8
_0-0_0
  6
CONTINUOUS
 62
    7
 10
289.77269410225051
 20
210.4595689726722
 11
289.73769425483806
 21
210.4312210036172
  0
LINE
  8
_0-7_7
  6
CONTINUOUS
 62
    7
 10
288.13268422218459
 20
213.72788238057024
 11
288.20435284706252
 21
213.75623034962524
  0
LINE
  8
_0-7_7
  6
CONTINUOUS
 62
    7
 10
288.20435284706252
 20
213.75623034962524
 11
288.22800397010906
 21
213.76755523213274
  0
LINE
  8
_0-7_7
  6
CONTINUOUS
 62
    7
 10
288.22800397010906
 20
213.76755523213274
 11
288.25194119545108
 21
213.77840327748171
  0
LINE
  8
_0-7_7
  6
CONTINUOUS
 62
    7
 10
288.25194119545108
 20
213.77840327748171
 11
288.27616452308803
 21
213.78886985310425
  0
LINE
  8
_0-7_7
  6
CONTINUOUS
 62
    7
 10
288.27616452308803
 20
213.78886985310425
 11
288.30062626930362
 21
213.79883574971072
  0
LINE
  8
_0-7_7
  6
CONTINUOUS
 62
    7
 10
288.30062626930362
 20
213.79883574971072
 11
288.32539795967205
 21
213.80832480915925
  0
LINE
  8
_0-7_7
  6
CONTINUOUS
 62
    7
 10
288.32539795967205
 20
213.80832480915925
 11
288.35040806862003
 21
213.81731318959123
  0
LINE
  8
_0-7_7
  6
CONTINUOUS
 62
    7
 10
288.35040806862003
 20
213.81731318959123
 11
288.37560891243106
 21
213.8257770491492
  0
LINE
  8
_0-7_7
  6
CONTINUOUS
 62
    7
 10
288.37560891243106
 20
213.8257770491492
 11
288.40109585853713
 21
213.83371638783325
  0
LINE
  8
_0-7_7
  6
CONTINUOUS
 62
    7
 10
288.40109585853713
 20
213.83371638783325
 11
288.42677353950603
 21
213.84108352192771
  0
LINE
  8
_0-7_7
  6
CONTINUOUS
 62
    7
 10
288.42677353950603
 20
213.84108352192771
 11
288.45266579719657
 21
213.84787845143174
  0
LINE
  8
_0-7_7
  6
CONTINUOUS
 62
    7
 10
288.45266579719657
 20
213.84787845143174
 11
288.70753525825603
 21
213.89169978627075
  0
LINE
  8
_0-7_7
  6
CONTINUOUS
 62
    7
 10
288.70753525825603
 20
213.89169978627075
 11
288.96137951942558
 21
213.88805198201072
  0
LINE
  8
_0-7_7
  6
CONTINUOUS
 62
    7
 10
288.96137951942558
 20
213.88805198201072
 11
289.21005009742862
 21
213.83972453602672
  0
LINE
  8
_0-7_7
  6
CONTINUOUS
 62
    7
 10
289.21005009742862
 20
213.83972453602672
 11
289.44942235084659
 21
213.74957847126819
  0
LINE
  8
_0-7_7
  6
CONTINUOUS
 62
    7
 10
289.44942235084659
 20
213.74957847126819
 11
289.67539548011905
 21
213.62042712696922
  0
LINE
  8
_0-7_7
  6
CONTINUOUS
 62
    7
 10
289.67539548011905
 20
213.62042712696922
 11
289.88379716011161
 21
213.45503615864624
  0
LINE
  8
_0-7_7
  6
CONTINUOUS
 62
    7
 10
289.88379716011161
 20
213.45503615864624
 11
290.07052659126407
 21
213.2562904311072
  0
LINE
  8
_0-7_7
  6
CONTINUOUS
 62
    7
 10
290.07052659126407
 20
213.2562904311072
 11
290.2314352902996
 21
213.02695559986924
  0
LINE
  8
_0-7_7
  6
CONTINUOUS
 62
    7
 10
290.2314352902996
 20
213.02695559986924
 11
290.36244629951602
 21
212.7698688460242
  0
LINE
  8
_0-7_7
  6
CONTINUOUS
 62
    7
 10
290.36244629951602
 20
212.7698688460242
 11
290.45936345192104
 21
212.48789119252075
  0
LINE
  8
_0-7_7
  6
CONTINUOUS
 62
    7
 10
290.45936345192104
 20
212.48789119252075
 11
290.51040886970657
 21
212.23988818653919
  0
LINE
  8
_0-7_7
  6
CONTINUOUS
 62
    7
 10
290.51040886970657
 20
212.23988818653919
 11
290.53146123024112
 21
211.9947223616492
  0
LINE
  8
_0-7_7
  6
CONTINUOUS
 62
    7
 10
290.53146123024112
 20
211.9947223616492
 11
290.52376031013614
 21
211.75504016407822
  0
LINE
  8
_0-7_7
  6
CONTINUOUS
 62
    7
 10
290.52376031013614
 20
211.75504016407822
 11
290.48859356971855
 21
211.52360724934474
  0
LINE
  8
_0-7_7
  6
CONTINUOUS
 62
    7
 10
290.48859356971855
 20
211.52360724934474
 11
290.42727231117362
 21
211.30311774739121
  0
LINE
  8
_0-7_7
  6
CONTINUOUS
 62
    7
 10
290.42727231117362
 20
211.30311774739121
 11
290.34103631111259
 21
211.09628963002075
  0
LINE
  8
_0-7_7
  6
CONTINUOUS
 62
    7
 10
290.34103631111259
 20
211.09628963002075
 11
290.23117302986259
 21
210.90576934346072
  0
LINE
  8
_0-7_7
  6
CONTINUOUS
 62
    7
 10
290.23117302986259
 20
210.90576934346072
 11
290.09896992775111
 21
210.7343463850867
  0
LINE
  8
_0-7_7
  6
CONTINUOUS
 62
    7
 10
290.09896992775111
 20
210.7343463850867
 11
289.94571446510452
 21
210.58473872670075
  0
LINE
  8
_0-7_7
  6
CONTINUOUS
 62
    7
 10
289.94571446510452
 20
210.58473872670075
 11
289.77269410225051
 21
210.4595689726722
  0
LINE
  8
_0-7_7
  6
CONTINUOUS
 62
    7
 10
289.77269410225051
 20
210.4595689726722
 11
289.73769425483806
 21
210.4312210036172
  0
LINE
  8
_0-7_7
  6
CONTINUOUS
 62
    7
 10
327.43770360084659
 20
234.45291804798973
 11
327.44859932991153
 21
234.45155906208871
  0
LINE
  8
_0-7_7
  6
CONTINUOUS
 62
    7
 10
327.44859932991153
 20
234.45155906208871
 11
327.47754334541457
 21
234.44626616963274
  0
LINE
  8
_0-7_7
  6
CONTINUOUS
 62
    7
 10
327.47754334541457
 20
234.44626616963274
 11
327.51881360145705
 21
234.4352035475622
  0
LINE
  8
_0-7_7
  6
CONTINUOUS
 62
    7
 10
327.51881360145705
 20
234.4352035475622
 11
327.56680726143009
 21
234.41651153096072
  0
LINE
  8
_0-7_7
  6
CONTINUOUS
 62
    7
 10
327.56680726143009
 20
234.41651153096072
 11
327.61582612129359
 21
234.38833045491072
  0
LINE
  8
_0-7_7
  6
CONTINUOUS
 62
    7
 10
327.61582612129359
 20
234.38833045491072
 11
327.66017197700614
 21
234.3488483382117
  0
LINE
  8
_0-7_7
  6
CONTINUOUS
 62
    7
 10
327.66017197700614
 20
234.3488483382117
 11
327.69419430824405
 21
234.29630088337771
  0
LINE
  8
_0-7_7
  6
CONTINUOUS
 62
    7
 10
327.69419430824405
 20
234.29630088337771
 11
327.71224259468204
 21
234.22868537434474
  0
LINE
  8
_0-7_7
  6
CONTINUOUS
 62
    7
 10
327.71224259468204
 20
234.22868537434474
 11
327.70861863227958
 21
234.14430903920075
  0
LINE
  8
_0-7_7
  6
CONTINUOUS
 62
    7
 10
327.70861863227958
 20
234.14430903920075
 11
327.67767190071254
 21
234.04126452931274
  0
LINE
  8
_0-7_7
  6
CONTINUOUS
 62
    7
 10
324.93433236213809
 20
233.28290271290672
 11
324.95743512245303
 21
233.28001784809922
  0
LINE
  8
_0-7_7
  6
CONTINUOUS
 62
    7
 10
324.95743512245303
 20
233.28001784809922
 11
325.01870869728214
 21
233.26866912373421
  0
LINE
  8
_0-7_7
  6
CONTINUOUS
 62
    7
 10
325.01870869728214
 20
233.26866912373421
 11
325.10616063209659
 21
233.2450180006872
  0
LINE
  8
_0-7_7
  6
CONTINUOUS
 62
    7
 10
325.10616063209659
 20
233.2450180006872
 11
325.20772694679408
 21
233.20508288868774
  0
LINE
  8
_0-7_7
  6
CONTINUOUS
 62
    7
 10
325.20772694679408
 20
233.20508288868774
 11
325.31141518684512
 21
233.14497756489624
  0
LINE
  8
_0-7_7
  6
CONTINUOUS
 62
    7
 10
325.31141518684512
 20
233.14497756489624
 11
325.40523289772159
 21
233.06081580647322
  0
LINE
  8
_0-7_7
  6
CONTINUOUS
 62
    7
 10
325.40523289772159
 20
233.06081580647322
 11
325.4771160993206
 21
232.94856833943223
  0
LINE
  8
_0-7_7
  6
CONTINUOUS
 62
    7
 10
325.4771160993206
 20
232.94856833943223
 11
325.51504849525566
 21
232.80442046650774
  0
LINE
  8
_0-7_7
  6
CONTINUOUS
 62
    7
 10
325.51504849525566
 20
232.80442046650774
 11
325.50701378914005
 21
232.62436675557024
  0
LINE
  8
_0-7_7
  6
CONTINUOUS
 62
    7
 10
325.50701378914005
 20
232.62436675557024
 11
325.44101952644462
 21
232.40454482563825
  0
LINE
  8
_0-7_7
  6
CONTINUOUS
 62
    7
 10
326.79602383705264
 20
234.85122012623674
 11
326.80682419868606
 21
234.84981345661973
  0
LINE
  8
_0-7_7
  6
CONTINUOUS
 62
    7
 10
326.80682419868606
 20
234.84981345661973
 11
326.83552979560966
 21
234.84437751301621
  0
LINE
  8
_0-7_7
  6
CONTINUOUS
 62
    7
 10
326.83552979560966
 20
234.84437751301621
 11
326.87641858192558
 21
234.8331241560827
  0
LINE
  8
_0-7_7
  6
CONTINUOUS
 62
    7
 10
326.87641858192558
 20
234.8331241560827
 11
326.92395924659854
 21
234.81421756276023
  0
LINE
  8
_0-7_7
  6
CONTINUOUS
 62
    7
 10
326.92395924659854
 20
234.81421756276023
 11
326.9724774274456
 21
234.78582190998924
  0
LINE
  8
_0-7_7
  6
CONTINUOUS
 62
    7
 10
326.9724774274456
 20
234.78582190998924
 11
327.01634644600063
 21
234.74610137471072
  0
LINE
  8
_0-7_7
  6
CONTINUOUS
 62
    7
 10
327.01634644600063
 20
234.74610137471072
 11
327.04991578193813
 21
234.69329165943972
  0
LINE
  8
_0-7_7
  6
CONTINUOUS
 62
    7
 10
327.04991578193813
 20
234.69329165943972
 11
327.06758259864955
 21
234.62550925740121
  0
LINE
  8
_0-7_7
  6
CONTINUOUS
 62
    7
 10
327.06758259864955
 20
234.62550925740121
 11
327.06372021766811
 21
234.5409898711097
  0
LINE
  8
_0-7_7
  6
CONTINUOUS
 62
    7
 10
327.06372021766811
 20
234.5409898711097
 11
327.03267811866908
 21
234.43792151936424
  0
LINE
  8
_0-7_7
  6
CONTINUOUS
 62
    7
 10
327.6093649777996
 20
233.8962345076452
 11
327.62021302314906
 21
233.89482783802873
  0
LINE
  8
_0-7_7
  6
CONTINUOUS
 62
    7
 10
327.62021302314906
 20
233.89482783802873
 11
327.6490378293621
 21
233.88939189442522
  0
LINE
  8
_0-7_7
  6
CONTINUOUS
 62
    7
 10
327.6490378293621
 20
233.88939189442522
 11
327.69011735054164
 21
233.87809085377572
  0
LINE
  8
_0-7_7
  6
CONTINUOUS
 62
    7
 10
327.69011735054164
 20
233.87809085377572
 11
327.73789643379359
 21
233.85908889302124
  0
LINE
  8
_0-7_7
  6
CONTINUOUS
 62
    7
 10
327.73789643379359
 20
233.85908889302124
 11
327.78665303321964
 21
233.83062171467674
  0
LINE
  8
_0-7_7
  6
CONTINUOUS
 62
    7
 10
327.78665303321964
 20
233.83062171467674
 11
327.83076047035365
 21
233.79073428639271
  0
LINE
  8
_0-7_7
  6
CONTINUOUS
 62
    7
 10
327.83076047035365
 20
233.79073428639271
 11
327.86456822487003
 21
233.73770999440072
  0
LINE
  8
_0-7_7
  6
CONTINUOUS
 62
    7
 10
327.86456822487003
 20
233.73770999440072
 11
327.88242577644462
 21
233.66966533192522
  0
LINE
  8
_0-7_7
  6
CONTINUOUS
 62
    7
 10
327.88242577644462
 20
233.66966533192522
 11
327.87868260475307
 21
233.58476447590724
  0
LINE
  8
_0-7_7
  6
CONTINUOUS
 62
    7
 10
327.87868260475307
 20
233.58476447590724
 11
327.84768818946964
 21
233.4812192870032
  0
LINE
  8
_0-7_7
  6
CONTINUOUS
 62
    7
 10
325.66820859047061
 20
232.55150603779671
 11
325.74028252693313
 21
232.43925857075573
  0
LINE
  8
_0-7_7
  6
CONTINUOUS
 62
    7
 10
325.74028252693313
 20
232.43925857075573
 11
325.77857255073661
 21
232.2950153303992
  0
LINE
  8
_0-7_7
  6
CONTINUOUS
 62
    7
 10
325.77857255073661
 20
232.2950153303992
 11
325.77115773292655
 21
232.11477088459822
  0
LINE
  8
_0-7_7
  6
CONTINUOUS
 62
    7
 10
325.77115773292655
 20
232.11477088459822
 11
325.70602177711612
 21
231.89456748494021
  0
LINE
  8
_f-a_250
  6
CONTINUOUS
 62
  250
 10
325.47067879768508
 20
232.69555854328974
 11
325.57434319587855
 21
232.63559627064575
  0
LINE
  8
_f-a_250
  6
CONTINUOUS
 62
  250
 10
325.57434319587855
 20
232.63559627064575
 11
325.66820859047061
 21
232.55150603779671
  0
LINE
  8
_f-a_250
  6
CONTINUOUS
 62
  250
 10
325.66820859047061
 20
232.55150603779671
 11
325.74028252693313
 21
232.43925857075573
  0
LINE
  8
_f-a_250
  6
CONTINUOUS
 62
  250
 10
325.74028252693313
 20
232.43925857075573
 11
325.77857255073661
 21
232.2950153303992
  0
LINE
  8
_f-a_250
  6
CONTINUOUS
 62
  250
 10
325.77857255073661
 20
232.2950153303992
 11
325.77115773292655
 21
232.11477088459822
  0
LINE
  8
_f-a_250
  6
CONTINUOUS
 62
  250
 10
325.77115773292655
 20
232.11477088459822
 11
325.70602177711612
 21
231.89456748494021
  0
LINE
  8
_f-a_250
  6
CONTINUOUS
 62
  250
 10
324.29267644020206
 20
233.6795597029577
 11
324.31575535865909
 21
233.67669868000871
  0
LINE
  8
_f-a_250
  6
CONTINUOUS
 62
  250
 10
324.31575535865909
 20
233.67669868000871
 11
324.37690972419864
 21
233.66546916493272
  0
LINE
  8
_f-a_250
  6
CONTINUOUS
 62
  250
 10
324.37690972419864
 20
233.66546916493272
 11
324.46417092415004
 21
233.64198493489121
  0
LINE
  8
_f-a_250
  6
CONTINUOUS
 62
  250
 10
324.46417092415004
 20
233.64198493489121
 11
324.56559418769962
 21
233.60224055775521
  0
LINE
  8
_f-a_250
  6
CONTINUOUS
 62
  250
 10
324.56559418769962
 20
233.60224055775521
 11
324.66913937660365
 21
233.5422544432532
  0
LINE
  8
_f-a_250
  6
CONTINUOUS
 62
  250
 10
324.66913937660365
 20
233.5422544432532
 11
324.76283787819057
 21
233.45816421040422
  0
LINE
  8
_f-a_250
  6
CONTINUOUS
 62
  250
 10
324.76283787819057
 20
233.45816421040422
 11
324.83472107978957
 21
233.3459405852212
  0
LINE
  8
_f-a_250
  6
CONTINUOUS
 62
  250
 10
269.49266671272403
 20
195.00623034962524
 11
269.40578698249959
 21
195.02754497059675
  0
LINE
  8
_f-a_250
  6
CONTINUOUS
 62
  250
 10
269.40578698249959
 20
195.02754497059675
 11
269.16994332405204
 21
195.1000719023597
  0
LINE
  8
_f-a_250
  6
CONTINUOUS
 62
  250
 10
269.16994332405204
 20
195.1000719023597
 11
268.82240056129604
 21
195.23654269703721
  0
LINE
  8
_f-a_250
  6
CONTINUOUS
 62
  250
 10
268.82240056129604
 20
195.23654269703721
 11
268.40042351814407
 21
195.44976043232774
  0
LINE
  8
_f-a_250
  6
CONTINUOUS
 62
  250
 10
268.40042351814407
 20
195.44976043232774
 11
267.94120549293655
 21
195.75248050221322
  0
LINE
  8
_f-a_250
  6
CONTINUOUS
 62
  250
 10
267.94120549293655
 20
195.75248050221322
 11
267.48208283516055
 21
196.15750598439072
  0
LINE
  8
_f-a_250
  6
CONTINUOUS
 62
  250
 10
267.48208283516055
 20
196.15750598439072
 11
267.06022500129802
 21
196.67761611470075
  0
LINE
  8
_f-a_250
  6
CONTINUOUS
 62
  250
 10
267.06022500129802
 20
196.67761611470075
 11
266.71294449897908
 21
197.32559012898324
  0
LINE
  8
_f-a_250
  6
CONTINUOUS
 62
  250
 10
266.71294449897908
 20
197.32559012898324
 11
266.47745846840053
 21
198.11418342121974
  0
LINE
  8
_f-a_250
  6
CONTINUOUS
 62
  250
 10
266.47745846840053
 20
198.11418342121974
 11
266.39100789161802
 21
199.05622291096569
  0
LINE
  8
_f-a_250
  6
CONTINUOUS
 62
  250
 10
266.39100789161802
 20
199.05622291096569
 11
266.30379437538255
 21
200.00345992573619
  0
LINE
  8
_f-a_250
  6
CONTINUOUS
 62
  250
 10
266.30379437538255
 20
200.00345992573619
 11
266.06189488502605
 21
200.80278205403224
  0
LINE
  8
_f-a_250
  6
CONTINUOUS
 62
  250
 10
266.06189488502605
 20
200.80278205403224
 11
265.70388554664754
 21
201.46549033650271
  0
LINE
  8
_f-a_250
  6
CONTINUOUS
 62
  250
 10
265.70388554664754
 20
201.46549033650271
 11
265.26836632820255
 21
202.00300502308724
  0
LINE
  8
_f-a_250
  6
CONTINUOUS
 62
  250
 10
265.26836632820255
 20
202.00300502308724
 11
264.79393719764852
 21
202.42665099629272
  0
LINE
  8
_f-a_250
  6
CONTINUOUS
 62
  250
 10
264.79393719764852
 20
202.42665099629272
 11
264.31922196479906
 21
202.7477769804847
  0
LINE
  8
_f-a_250
  6
CONTINUOUS
 62
  250
 10
264.31922196479906
 20
202.7477769804847
 11
263.88279675575404
 21
202.97777938374372
  0
LINE
  8
_f-a_250
  6
CONTINUOUS
 62
  250
 10
263.88279675575404
 20
202.97777938374372
 11
263.52328538032651
 21
203.12800693043573
  0
LINE
  8
_f-a_250
  6
CONTINUOUS
 62
  250
 10
263.52328538032651
 20
203.12800693043573
 11
263.27926396461606
 21
203.2098083449257
  0
LINE
  8
_f-a_250
  6
CONTINUOUS
 62
  250
 10
263.27926396461606
 20
203.2098083449257
 11
263.18935631843709
 21
203.23455619343622
  0
LINE
  8
_f-a_250
  6
CONTINUOUS
 62
  250
 10
264.30935143562459
 20
204.09124183186424
 11
264.39906834694057
 21
204.06637477406372
  0
LINE
  8
_f-a_250
  6
CONTINUOUS
 62
  250
 10
264.39906834694057
 20
204.06637477406372
 11
264.64263676735055
 21
203.98421573170521
  0
LINE
  8
_f-a_250
  6
CONTINUOUS
 62
  250
 10
264.64263676735055
 20
203.98421573170521
 11
265.00150441261405
 21
203.8334875059972
  0
LINE
  8
_f-a_250
  6
CONTINUOUS
 62
  250
 10
265.00150441261405
 20
203.8334875059972
 11
265.43719052406453
 21
203.60293674000621
  0
LINE
  8
_f-a_250
  6
CONTINUOUS
 62
  250
 10
265.43719052406453
 20
203.60293674000621
 11
265.91121434303403
 21
203.28123855122422
  0
LINE
  8
_f-a_250
  6
CONTINUOUS
 62
  250
 10
265.91121434303403
 20
203.28123855122422
 11
266.38511895271404
 21
202.85718726643421
  0
LINE
  8
_f-a_250
  6
CONTINUOUS
 62
  250
 10
266.38511895271404
 20
202.85718726643421
 11
266.82035206886405
 21
202.3194103194127
  0
LINE
  8
_f-a_250
  6
CONTINUOUS
 62
  250
 10
266.82035206886405
 20
202.3194103194127
 11
267.17848061653257
 21
201.65670203694222
  0
LINE
  8
_f-a_250
  6
CONTINUOUS
 62
  250
 10
267.17848061653257
 20
201.65670203694222
 11
267.42097615333705
 21
200.85771369465724
  0
LINE
  8
_f-a_250
  6
CONTINUOUS
 62
  250
 10
267.42097615333705
 20
200.85771369465724
 11
267.50938176246757
 21
199.91123961933971
  0
LINE
  8
_f-a_250
  6
CONTINUOUS
 62
  250
 10
267.50938176246757
 20
199.91123961933971
 11
267.59332894416951
 21
198.96757888325573
  0
LINE
  8
_f-a_250
  6
CONTINUOUS
 62
  250
 10
267.59332894416951
 20
198.96757888325573
 11
267.82728909584154
 21
198.17805575856073
  0
LINE
  8
_f-a_250
  6
CONTINUOUS
 62
  250
 10
267.82728909584154
 20
198.17805575856073
 11
268.17383050056605
 21
197.52970027455223
  0
LINE
  8
_f-a_250
  6
CONTINUOUS
 62
  250
 10
268.17383050056605
 20
197.52970027455223
 11
268.59552144142253
 21
197.0096378279577
  0
LINE
  8
_f-a_250
  6
CONTINUOUS
 62
  250
 10
268.59552144142253
 20
197.0096378279577
 11
269.05497788520955
 21
196.6049938155067
  0
LINE
  8
_f-a_250
  6
CONTINUOUS
 62
  250
 10
269.05497788520955
 20
196.6049938155067
 11
269.51479195686454
 21
196.30282210835321
  0
LINE
  8
_f-a_250
  6
CONTINUOUS
 62
  250
 10
269.51479195686454
 20
196.30282210835321
 11
269.93755578132755
 21
196.09029578694222
  0
LINE
  8
_f-a_250
  6
CONTINUOUS
 62
  250
 10
269.93755578132755
 20
196.09029578694222
 11
270.28583764167905
 21
195.95444488057024
  0
LINE
  8
_f-a_250
  6
CONTINUOUS
 62
  250
 10
270.28583764167905
 20
195.95444488057024
 11
270.52222966285854
 21
195.88239478596569
  0
LINE
  8
_f-a_250
  6
CONTINUOUS
 62
  250
 10
270.52222966285854
 20
195.88239478596569
 11
270.6093716535201
 21
195.86122321614121
  0
LINE
  8
_f-a_250
  6
CONTINUOUS
 62
  250
 10
264.30935143562459
 20
204.09124183186424
 11
264.39906834694057
 21
204.06637477406372
  0
LINE
  8
_f-a_250
  6
CONTINUOUS
 62
  250
 10
264.39906834694057
 20
204.06637477406372
 11
264.64263676735055
 21
203.98421573170521
  0
LINE
  8
_f-a_250
  6
CONTINUOUS
 62
  250
 10
264.64263676735055
 20
203.98421573170521
 11
265.00150441261405
 21
203.8334875059972
  0
LINE
  8
_f-a_250
  6
CONTINUOUS
 62
  250
 10
265.00150441261405
 20
203.8334875059972
 11
265.43719052406453
 21
203.60293674000621
  0
LINE
  8
_f-a_250
  6
CONTINUOUS
 62
  250
 10
265.43719052406453
 20
203.60293674000621
 11
265.91121434303403
 21
203.28123855122422
  0
LINE
  8
_f-a_250
  6
CONTINUOUS
 62
  250
 10
265.91121434303403
 20
203.28123855122422
 11
266.38511895271404
 21
202.85718726643421
  0
LINE
  8
_f-a_250
  6
CONTINUOUS
 62
  250
 10
266.38511895271404
 20
202.85718726643421
 11
266.82035206886405
 21
202.3194103194127
  0
LINE
  8
_f-a_250
  6
CONTINUOUS
 62
  250
 10
266.82035206886405
 20
202.3194103194127
 11
267.17848061653257
 21
201.65670203694222
  0
LINE
  8
_f-a_250
  6
CONTINUOUS
 62
  250
 10
267.17848061653257
 20
201.65670203694222
 11
267.42097615333705
 21
200.85771369465724
  0
LINE
  8
_f-a_250
  6
CONTINUOUS
 62
  250
 10
267.42097615333705
 20
200.85771369465724
 11
267.50938176246757
 21
199.91123961933971
  0
LINE
  8
_f-a_250
  6
CONTINUOUS
 62
  250
 10
267.50938176246757
 20
199.91123961933971
 11
267.59332894416951
 21
198.96757888325573
  0
LINE
  8
_f-a_250
  6
CONTINUOUS
 62
  250
 10
267.59332894416951
 20
198.96757888325573
 11
267.82728909584154
 21
198.17805575856073
  0
LINE
  8
_f-a_250
  6
CONTINUOUS
 62
  250
 10
267.82728909584154
 20
198.17805575856073
 11
268.17383050056605
 21
197.52970027455223
  0
LINE
  8
_f-a_250
  6
CONTINUOUS
 62
  250
 10
268.17383050056605
 20
197.52970027455223
 11
268.59552144142253
 21
197.0096378279577
  0
LINE
  8
_f-a_250
  6
CONTINUOUS
 62
  250
 10
268.59552144142253
 20
197.0096378279577
 11
269.05497788520955
 21
196.6049938155067
  0
LINE
  8
_f-a_250
  6
CONTINUOUS
 62
  250
 10
269.05497788520955
 20
196.6049938155067
 11
269.51479195686454
 21
196.30282210835321
  0
LINE
  8
_f-a_250
  6
CONTINUOUS
 62
  250
 10
269.51479195686454
 20
196.30282210835321
 11
269.93755578132755
 21
196.09029578694222
  0
LINE
  8
_f-a_250
  6
CONTINUOUS
 62
  250
 10
269.93755578132755
 20
196.09029578694222
 11
270.28583764167905
 21
195.95444488057024
  0
LINE
  8
_f-a_250
  6
CONTINUOUS
 62
  250
 10
270.28583764167905
 20
195.95444488057024
 11
270.52222966285854
 21
195.88239478596569
  0
LINE
  8
_f-a_250
  6
CONTINUOUS
 62
  250
 10
270.52222966285854
 20
195.88239478596569
 11
270.6093716535201
 21
195.86122321614121
  0
LINE
  8
_f-a_250
  6
CONTINUOUS
 62
  250
 10
263.18935631843709
 20
203.23455619343622
 11
263.27926396461606
 21
203.2098083449257
  0
LINE
  8
_f-a_250
  6
CONTINUOUS
 62
  250
 10
263.27926396461606
 20
203.2098083449257
 11
263.52328538032651
 21
203.12800693043573
  0
LINE
  8
_f-a_250
  6
CONTINUOUS
 62
  250
 10
263.52328538032651
 20
203.12800693043573
 11
263.88279675575404
 21
202.97777938374372
  0
LINE
  8
_f-a_250
  6
CONTINUOUS
 62
  250
 10
263.88279675575404
 20
202.97777938374372
 11
264.31922196479906
 21
202.7477769804847
  0
LINE
  8
_f-a_250
  6
CONTINUOUS
 62
  250
 10
264.31922196479906
 20
202.7477769804847
 11
264.79393719764852
 21
202.42665099629272
  0
LINE
  8
_f-a_250
  6
CONTINUOUS
 62
  250
 10
264.79393719764852
 20
202.42665099629272
 11
265.26836632820255
 21
202.00300502308724
  0
LINE
  8
_f-a_250
  6
CONTINUOUS
 62
  250
 10
265.26836632820255
 20
202.00300502308724
 11
265.70388554664754
 21
201.46549033650271
  0
LINE
  8
_f-a_250
  6
CONTINUOUS
 62
  250
 10
265.70388554664754
 20
201.46549033650271
 11
266.06189488502605
 21
200.80278205403224
  0
LINE
  8
_f-a_250
  6
CONTINUOUS
 62
  250
 10
266.06189488502605
 20
200.80278205403224
 11
266.30379437538255
 21
200.00345992573619
  0
LINE
  8
_f-a_250
  6
CONTINUOUS
 62
  250
 10
266.30379437538255
 20
200.00345992573619
 11
266.39100789161802
 21
199.05622291096569
  0
LINE
  8
_f-a_250
  6
CONTINUOUS
 62
  250
 10
266.39100789161802
 20
199.05622291096569
 11
266.47745846840053
 21
198.11418342121974
  0
LINE
  8
_f-a_250
  6
CONTINUOUS
 62
  250
 10
266.47745846840053
 20
198.11418342121974
 11
266.71294449897908
 21
197.32559012898324
  0
LINE
  8
_f-a_250
  6
CONTINUOUS
 62
  250
 10
266.71294449897908
 20
197.32559012898324
 11
267.06022500129802
 21
196.67761611470075
  0
LINE
  8
_f-a_250
  6
CONTINUOUS
 62
  250
 10
267.06022500129802
 20
196.67761611470075
 11
267.48208283516055
 21
196.15750598439072
  0
LINE
  8
_f-a_250
  6
CONTINUOUS
 62
  250
 10
267.48208283516055
 20
196.15750598439072
 11
267.94120549293655
 21
195.75248050221322
  0
LINE
  8
_f-a_250
  6
CONTINUOUS
 62
  250
 10
267.94120549293655
 20
195.75248050221322
 11
268.40042351814407
 21
195.44976043232774
  0
LINE
  8
_f-a_250
  6
CONTINUOUS
 62
  250
 10
268.40042351814407
 20
195.44976043232774
 11
268.82240056129604
 21
195.23654269703721
  0
LINE
  8
_f-a_250
  6
CONTINUOUS
 62
  250
 10
268.82240056129604
 20
195.23654269703721
 11
269.16994332405204
 21
195.1000719023597
  0
LINE
  8
_f-a_250
  6
CONTINUOUS
 62
  250
 10
269.16994332405204
 20
195.1000719023597
 11
269.40578698249959
 21
195.02754497059675
  0
LINE
  8
_f-a_250
  6
CONTINUOUS
 62
  250
 10
269.40578698249959
 20
195.02754497059675
 11
269.49266671272403
 21
195.00623034962524
  0
LINE
  8
_f-a_250
  6
CONTINUOUS
 62
  250
 10
167.97768353553909
 20
110.9562425566567
 11
266.00770234199655
 21
167.55457210072373
  0
LINE
  8
_f-a_250
  6
CONTINUOUS
 62
  250
 10
265.99768876167406
 20
164.6945743513952
 11
266.72934769722104
 21
165.11624145039423
  0
LINE
  8
_f-a_250
  6
CONTINUOUS
 62
  250
 10
167.36934661003258
 20
129.77290439137323
 11
266.65767907234306
 21
187.09624099263073
  0
LINE
  8
_f-a_250
  6
CONTINUOUS
 62
  250
 10
165.69402693840158
 20
131.56791018971322
 11
263.74267815681605
 21
188.17622947224473
  0
LINE
  8
_f-a_250
  6
CONTINUOUS
 62
  250
 10
168.04602622123861
 20
120.59457587727421
 11
266.21770142646909
 21
177.27456378468372
  0
LINE
  8
_f-a_250
  6
CONTINUOUS
 62
  250
 10
168.04602622123861
 20
123.13123034962524
 11
266.1477017316451
 21
179.7712116194617
  0
LINE
  8
_f-a_250
  6
CONTINUOUS
 62
  250
 10
168.04602622123861
 20
123.51124572285522
 11
266.18434666725307
 21
180.17123031147821
  0
LINE
  8
_f-a_250
  6
CONTINUOUS
 62
  250
 10
168.04602622123861
 20
125.66790866383423
 11
266.19102238746757
 21
182.33290004261823
  0
LINE
  8
_f-a_250
  6
CONTINUOUS
 62
  250
 10
168.04602622123861
 20
126.0479001952062
 11
266.18768452736003
 21
182.70955371388322
  0
LINE
  8
_f-a_250
  6
CONTINUOUS
 62
  250
 10
168.04602622123861
 20
118.05792140492322
 11
266.20768784614705
 21
174.73123359211775
  0
LINE
  8
_f-a_250
  6
CONTINUOUS
 62
  250
 10
168.04602622123861
 20
115.52121924885623
 11
266.19102238746757
 21
172.18623446949823
  0
LINE
  8
_f-a_250
  6
CONTINUOUS
 62
  250
 10
168.04602622123861
 20
115.13955878743023
 11
266.20268105598552
 21
171.8112258864297
  0
LINE
  8
_f-a_250
  6
CONTINUOUS
 62
  250
 10
137.44918583961606
 20
147.07958983906624
 11
236.7376971158611
 21
204.40457152851923
  0
LINE
  8
_f-a_250
  6
CONTINUOUS
 62
  250
 10
141.31519078346358
 20
145.57457255848772
 11
239.45101975532657
 21
202.23291205891474
  0
LINE
  8
_f-a_250
  6
CONTINUOUS
 62
  250
 10
142.51685618492257
 20
144.87955855854869
 11
240.42102574440111
 21
201.40455054768421
  0
LINE
  8
_f-a_250
  6
CONTINUOUS
 62
  250
 10
143.22718857856859
 20
144.65456294545075
 11
241.28770112129359
 21
201.27122687825073
  0
LINE
  8
_f-a_250
  6
CONTINUOUS
 62
  250
 10
164.34902428718709
 20
132.33790683277971
 11
262.54770039650106
 21
189.0345840407262
  0
LINE
  8
_f-a_250
  6
CONTINUOUS
 62
  250
 10
163.4036827001201
 20
132.7729015303502
 11
261.52769803138852
 21
189.42623424061671
  0
LINE
  8
_f-a_250
  6
CONTINUOUS
 62
  250
 10
160.3600191983806
 20
109.1178922606362
 11
167.36934661003258
 21
105.06956862934922
  0
LINE
  8
_f-a_250
  6
CONTINUOUS
 62
  250
 10
138.29619168373259
 20
147.31622027882472
 11
167.87268399330256
 21
130.23958491810671
  0
LINE
  8
_f-a_250
  6
CONTINUOUS
 62
  250
 10
137.52402543159607
 20
147.07958983906624
 11
167.10101842018258
 21
130.00290679463274
  0
LINE
  8
_f-a_250
  6
CONTINUOUS
 62
  250
 10
236.77934884163011
 20
204.44622325428821
 11
266.92766427131755
 21
187.0395688963782
  0
LINE
  8
_f-a_250
  6
CONTINUOUS
 62
  250
 10
236.00103139015309
 20
204.19290351399275
 11
266.1477017316451
 21
186.7862491560827
  0
LINE
  8
_f-a_250
  6
CONTINUOUS
 62
  250
 10
263.74267815681605
 20
166.11790942677371
 11
266.05769871803403
 21
164.77957057484522
  0
LINE
  8
_f-a_250
  6
CONTINUOUS
 62
  250
 10
167.49434947105559
 20
105.2879123640907
 11
167.2443437490096
 21
129.77290439137323
  0
LINE
  8
_f-a_250
  6
CONTINUOUS
 62
  250
 10
168.0026817235576
 20
105.2879123640907
 11
168.0026817235576
 21
130.07958220967171
  0
LINE
  8
_f-a_250
  6
CONTINUOUS
 62
  250
 10
266.72934769722104
 20
165.11624145039423
 11
266.72934769722104
 21
187.13624763020371
  0
LINE
  8
_f-a_250
  6
CONTINUOUS
 62
  250
 10
266.21269463630807
 20
164.74626349934474
 11
266.21269463630807
 21
186.7862491560827
  0
LINE
  8
_f-a_250
  6
CONTINUOUS
 62
  250
 10
167.1410250577556
 20
129.14293097981323
 11
167.18484639259458
 21
128.9170055342567
  0
LINE
  8
_f-a_250
  6
CONTINUOUS
 62
  250
 10
167.18484639259458
 20
128.9170055342567
 11
167.19642161461007
 21
128.69456099995475
  0
LINE
  8
_f-a_250
  6
CONTINUOUS
 62
  250
 10
167.19642161461007
 20
128.69456099995475
 11
167.1773958119976
 21
128.47912597187874
  0
LINE
  8
_f-a_250
  6
CONTINUOUS
 62
  250
 10
167.1773958119976
 20
128.47912597187874
 11
167.12942599388259
 21
128.27413367756722
  0
LINE
  8
_f-a_250
  6
CONTINUOUS
 62
  250
 10
167.12942599388259
 20
128.27413367756722
 11
167.0541691693891
 21
128.08311271199122
  0
LINE
  8
_f-a_250
  6
CONTINUOUS
 62
  250
 10
167.0541691693891
 20
128.08311271199122
 11
166.95324658485558
 21
127.90954398640524
  0
LINE
  8
_f-a_250
  6
CONTINUOUS
 62
  250
 10
166.95324658485558
 20
127.90954398640524
 11
166.82835101219308
 21
127.75690841206421
  0
LINE
  8
_f-a_250
  6
CONTINUOUS
 62
  250
 10
166.82835101219308
 20
127.75690841206421
 11
166.6811036977401
 21
127.6286869002232
  0
LINE
  8
_f-a_250
  6
CONTINUOUS
 62
  250
 10
166.6811036977401
 20
127.6286869002232
 11
166.5131735715496
 21
127.52843188771122
  0
LINE
  8
_f-a_250
  6
CONTINUOUS
 62
  250
 10
166.5131735715496
 20
127.52843188771122
 11
166.32619380088957
 21
127.45955276020874
  0
LINE
  8
_f-a_250
  6
CONTINUOUS
 62
  250
 10
166.32619380088957
 20
127.45955276020874
 11
166.12995146843107
 21
127.42560195454472
  0
LINE
  8
_f-a_250
  6
CONTINUOUS
 62
  250
 10
166.12995146843107
 20
127.42560195454472
 11
165.93437670799409
 21
127.42829608448874
  0
LINE
  8
_f-a_250
  6
CONTINUOUS
 62
  250
 10
165.93437670799409
 20
127.42829608448874
 11
165.7426643285381
 21
127.46544169911272
  0
LINE
  8
_f-a_250
  6
CONTINUOUS
 62
  250
 10
165.7426643285381
 20
127.46544169911272
 11
165.55803298088207
 21
127.53494071492074
  0
LINE
  8
_f-a_250
  6
CONTINUOUS
 62
  250
 10
165.55803298088207
 20
127.53494071492074
 11
165.38367747398507
 21
127.63457583912724
  0
LINE
  8
_f-a_250
  6
CONTINUOUS
 62
  250
 10
165.38367747398507
 20
127.63457583912724
 11
165.22278069587858
 21
127.7622013045202
  0
LINE
  8
_f-a_250
  6
CONTINUOUS
 62
  250
 10
165.22278069587858
 20
127.7622013045202
 11
165.07856129738008
 21
127.9156951857457
  0
LINE
  8
_f-a_250
  6
CONTINUOUS
 62
  250
 10
165.07856129738008
 20
127.9156951857457
 11
164.95423792930708
 21
128.09286403187622
  0
LINE
  8
_f-a_250
  6
CONTINUOUS
 62
  250
 10
164.95423792930708
 20
128.09286403187622
 11
164.85296963783409
 21
128.29153823384172
  0
LINE
  8
_f-a_250
  6
CONTINUOUS
 62
  250
 10
164.85296963783409
 20
128.29153823384172
 11
164.77801083656459
 21
128.5095720244297
  0
LINE
  8
_f-a_250
  6
CONTINUOUS
 62
  250
 10
164.77801083656459
 20
128.5095720244297
 11
164.73398684593309
 21
128.73595046528672
  0
LINE
  8
_f-a_250
  6
CONTINUOUS
 62
  250
 10
164.73398684593309
 20
128.73595046528672
 11
164.7222804936996
 21
128.95875262745722
  0
LINE
  8
_f-a_250
  6
CONTINUOUS
 62
  250
 10
164.7222804936996
 20
128.95875262745722
 11
164.74122284980908
 21
129.17449759968622
  0
LINE
  8
_f-a_250
  6
CONTINUOUS
 62
  250
 10
164.74122284980908
 20
129.17449759968622
 11
164.78916882606657
 21
129.37975215443473
  0
LINE
  8
_f-a_250
  6
CONTINUOUS
 62
  250
 10
164.78916882606657
 20
129.37975215443473
 11
164.86444949241758
 21
129.57103538044822
  0
LINE
  8
_f-a_250
  6
CONTINUOUS
 62
  250
 10
164.86444949241758
 20
129.57103538044822
 11
164.96540783973808
 21
129.7448663664712
  0
LINE
  8
_f-a_250
  6
CONTINUOUS
 62
  250
 10
164.96540783973808
 20
129.7448663664712
 11
165.09033917518761
 21
129.89774035939072
  0
LINE
  8
_f-a_250
  6
CONTINUOUS
 62
  250
 10
165.09033917518761
 20
129.89774035939072
 11
165.2376222524276
 21
130.02624797352672
  0
LINE
  8
_f-a_250
  6
CONTINUOUS
 62
  250
 10
165.2376222524276
 20
130.02624797352672
 11
165.40557622047558
 21
130.12693213948123
  0
LINE
  8
_f-a_250
  6
CONTINUOUS
 62
  250
 10
165.40557622047558
 20
130.12693213948123
 11
165.5925321492781
 21
130.19624042042625
  0
LINE
  8
_f-a_250
  6
CONTINUOUS
 62
  250
 10
165.5925321492781
 20
130.19624042042625
 11
165.78912018867609
 21
130.2292613936317
  0
LINE
  8
_f-a_250
  6
CONTINUOUS
 62
  250
 10
165.78912018867609
 20
130.2292613936317
 11
165.98496913047907
 21
130.22573279866072
  0
LINE
  8
_f-a_250
  6
CONTINUOUS
 62
  250
 10
165.98496913047907
 20
130.22573279866072
 11
166.17686032386911
 21
130.18784808644173
  0
LINE
  8
_f-a_250
  6
CONTINUOUS
 62
  250
 10
166.17686032386911
 20
130.18784808644173
 11
166.36161088081508
 21
130.11777686604373
  0
LINE
  8
_f-a_250
  6
CONTINUOUS
 62
  250
 10
166.36161088081508
 20
130.11777686604373
 11
166.53601407142756
 21
130.01768874653672
  0
LINE
  8
_f-a_250
  6
CONTINUOUS
 62
  250
 10
166.53601407142756
 20
130.01768874653672
 11
166.69689892860558
 21
129.88975333699122
  0
LINE
  8
_f-a_250
  6
CONTINUOUS
 62
  250
 10
166.69689892860558
 20
129.88975333699122
 11
166.8410229596721
 21
129.73614024647574
  0
LINE
  8
_f-a_250
  6
CONTINUOUS
 62
  250
 10
166.8410229596721
 20
129.73614024647574
 11
166.96522711845509
 21
129.55901908406122
  0
LINE
  8
_f-a_250
  6
CONTINUOUS
 62
  250
 10
166.96522711845509
 20
129.55901908406122
 11
167.06629275413658
 21
129.36055945881722
  0
LINE
  8
_f-a_250
  6
CONTINUOUS
 62
  250
 10
167.06629275413658
 20
129.36055945881722
 11
167.1410250577556
 21
129.14293097981323
  0
LINE
  8
_f-a_250
  6
CONTINUOUS
 62
  250
 10
166.07168196769859
 20
129.89290046223522
 11
166.15250586601408
 21
129.83866023548973
  0
LINE
  8
_f-a_250
  6
CONTINUOUS
 62
  250
 10
166.15250586601408
 20
129.83866023548973
 11
166.22947930427659
 21
129.77805423268174
  0
LINE
  8
_f-a_250
  6
CONTINUOUS
 62
  250
 10
166.22947930427659
 20
129.77805423268174
 11
166.3021969709026
 21
129.71132087239121
  0
LINE
  8
_f-a_250
  6
CONTINUOUS
 62
  250
 10
166.3021969709026
 20
129.71132087239121
 11
166.37025355430708
 21
129.63877009877075
  0
LINE
  8
_f-a_250
  6
CONTINUOUS
 62
  250
 10
166.37025355430708
 20
129.63877009877075
 11
166.4332318219771
 21
129.5606164885412
  0
LINE
  8
_f-a_250
  6
CONTINUOUS
 62
  250
 10
166.4332318219771
 20
129.5606164885412
 11
166.49071454139857
 21
129.47709846028224
  0
LINE
  8
_f-a_250
  6
CONTINUOUS
 62
  250
 10
166.49071454139857
 20
129.47709846028224
 11
166.5423083219161
 21
129.3885021162877
  0
LINE
  8
_f-a_250
  6
CONTINUOUS
 62
  250
 10
166.5423083219161
 20
129.3885021162877
 11
166.58757208915858
 21
129.29504203328025
  0
LINE
  8
_f-a_250
  6
CONTINUOUS
 62
  250
 10
166.58757208915858
 20
129.29504203328025
 11
166.62611245247007
 21
129.19698047169572
  0
LINE
  8
_f-a_250
  6
CONTINUOUS
 62
  250
 10
166.62611245247007
 20
129.19698047169572
 11
166.65751217933808
 21
129.09457969197175
  0
LINE
  8
_f-a_250
  6
CONTINUOUS
 62
  250
 10
166.65751217933808
 20
129.09457969197175
 11
166.69098614784357
 21
128.93257426747175
  0
LINE
  8
_f-a_250
  6
CONTINUOUS
 62
  250
 10
166.69098614784357
 20
128.93257426747175
 11
166.7048382672896
 21
128.77164172657822
  0
LINE
  8
_f-a_250
  6
CONTINUOUS
 62
  250
 10
166.7048382672896
 20
128.77164172657822
 11
166.69989108177307
 21
128.61328410633922
  0
LINE
  8
_f-a_250
  6
CONTINUOUS
 62
  250
 10
166.69989108177307
 20
128.61328410633922
 11
166.67695521446359
 21
128.45909881123421
  0
LINE
  8
_f-a_250
  6
CONTINUOUS
 62
  250
 10
166.67695521446359
 20
128.45909881123421
 11
166.6368293676006
 21
128.3106117201697
  0
LINE
  8
_f-a_250
  6
CONTINUOUS
 62
  250
 10
166.6368293676006
 20
128.3106117201697
 11
166.58034800621158
 21
128.16937255390974
  0
LINE
  8
_f-a_250
  6
CONTINUOUS
 62
  250
 10
166.58034800621158
 20
128.16937255390974
 11
166.5083098325361
 21
128.03690719136119
  0
LINE
  8
_f-a_250
  6
CONTINUOUS
 62
  250
 10
166.5083098325361
 20
128.03690719136119
 11
166.42153739067209
 21
127.91481303700321
  0
LINE
  8
_f-a_250
  6
CONTINUOUS
 62
  250
 10
166.42153739067209
 20
127.91481303700321
 11
166.32082938285959
 21
127.8046398116002
  0
LINE
  8
_f-a_250
  6
CONTINUOUS
 62
  250
 10
166.32082938285959
 20
127.8046398116002
 11
166.20700835319658
 21
127.70788955220074
  0
LINE
  8
_f-a_250
  6
CONTINUOUS
 62
  250
 10
164.76952313514857
 20
128.78792571553123
 11
164.79014634224058
 21
128.78201293476923
  0
LINE
  8
_f-a_250
  6
CONTINUOUS
 62
  250
 10
164.79014634224058
 20
128.78201293476923
 11
164.8110318097701
 21
128.7762908888707
  0
LINE
  8
_f-a_250
  6
CONTINUOUS
 62
  250
 10
164.8110318097701
 20
128.7762908888707
 11
164.83213185402062
 21
128.77073573597772
  0
LINE
  8
_f-a_250
  6
CONTINUOUS
 62
  250
 10
164.83213185402062
 20
128.77073573597772
 11
164.85341071220509
 21
128.76529979237421
  0
LINE
  8
_f-a_250
  6
CONTINUOUS
 62
  250
 10
164.85341071220509
 20
128.76529979237421
 11
164.87483262153759
 21
128.75998305806021
  0
LINE
  8
_f-a_250
  6
CONTINUOUS
 62
  250
 10
164.87483262153759
 20
128.75998305806021
 11
164.89636181923058
 21
128.75478553303572
  0
LINE
  8
_f-a_250
  6
CONTINUOUS
 62
  250
 10
164.89636181923058
 20
128.75478553303572
 11
164.91799830528407
 21
128.74965953358523
  0
LINE
  8
_f-a_250
  6
CONTINUOUS
 62
  250
 10
164.91799830528407
 20
128.74965953358523
 11
164.93965863319511
 21
128.74460505970825
  0
LINE
  8
_f-a_250
  6
CONTINUOUS
 62
  250
 10
164.93965863319511
 20
128.74460505970825
 11
164.96134280296457
 21
128.73957442768921
  0
LINE
  8
_f-a_250
  6
CONTINUOUS
 62
  250
 10
164.96134280296457
 20
128.73957442768921
 11
164.98301505180507
 21
128.73456763752819
  0
LINE
  8
_f-a_250
  6
CONTINUOUS
 62
  250
 10
164.98301505180507
 20
128.73456763752819
 11
165.05334853264009
 21
128.76792239674424
  0
LINE
  8
_f-a_250
  6
CONTINUOUS
 62
  250
 10
165.05334853264009
 20
128.76792239674424
 11
165.04490851493958
 21
128.86672305592424
  0
LINE
  8
_f-a_250
  6
CONTINUOUS
 62
  250
 10
165.04490851493958
 20
128.86672305592424
 11
165.04172562690857
 21
128.96497535237174
  0
LINE
  8
_f-a_250
  6
CONTINUOUS
 62
  250
 10
165.04172562690857
 20
128.96497535237174
 11
165.04374026390207
 21
129.06239318379272
  0
LINE
  8
_f-a_250
  6
CONTINUOUS
 62
  250
 10
165.04374026390207
 20
129.06239318379272
 11
165.05085705848808
 21
129.15873813160769
  0
LINE
  8
_f-a_250
  6
CONTINUOUS
 62
  250
 10
165.05085705848808
 20
129.15873813160769
 11
165.0630164060226
 21
129.25374793537972
  0
LINE
  8
_f-a_250
  6
CONTINUOUS
 62
  250
 10
165.0630164060226
 20
129.25374793537972
 11
165.08013486000209
 21
129.34713649281372
  0
LINE
  8
_f-a_250
  6
CONTINUOUS
 62
  250
 10
165.08013486000209
 20
129.34713649281372
 11
165.10214089485311
 21
129.43868922718872
  0
LINE
  8
_f-a_250
  6
CONTINUOUS
 62
  250
 10
165.10214089485311
 20
129.43868922718872
 11
165.12895106407311
 21
129.52812003620971
  0
LINE
  8
_f-a_250
  6
CONTINUOUS
 62
  250
 10
165.12895106407311
 20
129.52812003620971
 11
165.1604938420881
 21
129.61516665943972
  0
LINE
  8
_f-a_250
  6
CONTINUOUS
 62
  250
 10
165.1604938420881
 20
129.61516665943972
 11
165.19668578239558
 21
129.69956683644173
  0
LINE
  8
_f-a_250
  6
CONTINUOUS
 62
  250
 10
165.19668578239558
 20
129.69956683644173
 11
165.47468184562808
 21
129.6878843260657
  0
LINE
  8
_f-a_250
  6
CONTINUOUS
 62
  250
 10
165.47468184562808
 20
129.6878843260657
 11
165.43295859428557
 21
129.60834788807722
  0
LINE
  8
_f-a_250
  6
CONTINUOUS
 62
  250
 10
165.43295859428557
 20
129.60834788807722
 11
165.39652823539859
 21
129.52502059468122
  0
LINE
  8
_f-a_250
  6
CONTINUOUS
 62
  250
 10
165.39652823539859
 20
129.52502059468122
 11
165.3654861363996
 21
129.43826007374625
  0
LINE
  8
_f-a_250
  6
CONTINUOUS
 62
  250
 10
165.3654861363996
 20
129.43826007374625
 11
165.3399634275066
 21
129.34847163685671
  0
LINE
  8
_f-a_250
  6
CONTINUOUS
 62
  250
 10
165.3399634275066
 20
129.34847163685671
 11
165.32004355522307
 21
129.25603675373924
  0
LINE
  8
_f-a_250
  6
CONTINUOUS
 62
  250
 10
165.32004355522307
 20
129.25603675373924
 11
165.3058218869796
 21
129.16136073597772
  0
LINE
  8
_f-a_250
  6
CONTINUOUS
 62
  250
 10
165.3058218869796
 20
129.16136073597772
 11
165.29740571113709
 21
129.06480121144173
  0
LINE
  8
_f-a_250
  6
CONTINUOUS
 62
  250
 10
165.29740571113709
 20
129.06480121144173
 11
165.29490231605661
 21
128.96678733357322
  0
LINE
  8
_f-a_250
  6
CONTINUOUS
 62
  250
 10
165.29490231605661
 20
128.96678733357322
 11
165.29840706916957
 21
128.86770057209822
  0
LINE
  8
_f-a_250
  6
CONTINUOUS
 62
  250
 10
165.29840706916957
 20
128.86770057209822
 11
165.30801533790708
 21
128.76792239674424
  0
LINE
  8
_f-a_250
  6
CONTINUOUS
 62
  250
 10
165.30801533790708
 20
128.76792239674424
 11
165.37635802360657
 21
128.69456099995475
  0
LINE
  8
_f-a_250
  6
CONTINUOUS
 62
  250
 10
165.37635802360657
 20
128.69456099995475
 11
165.48331259819159
 21
128.69460868367074
  0
LINE
  8
_f-a_250
  6
CONTINUOUS
 62
  250
 10
165.48331259819159
 20
128.69460868367074
 11
165.58877705665708
 21
128.69968699940574
  0
LINE
  8
_f-a_250
  6
CONTINUOUS
 62
  250
 10
165.58877705665708
 20
128.69968699940574
 11
165.69248913856657
 21
128.70977210530174
  0
LINE
  8
_f-a_250
  6
CONTINUOUS
 62
  250
 10
165.69248913856657
 20
128.70977210530174
 11
165.79421042534008
 21
128.72472095021121
  0
LINE
  8
_f-a_250
  6
CONTINUOUS
 62
  250
 10
165.79421042534008
 20
128.72472095021121
 11
165.89361905189659
 21
128.7445812178502
  0
LINE
  8
_f-a_250
  6
CONTINUOUS
 62
  250
 10
165.89361905189659
 20
128.7445812178502
 11
165.99048852058559
 21
128.7692336989297
  0
LINE
  8
_f-a_250
  6
CONTINUOUS
 62
  250
 10
165.99048852058559
 20
128.7692336989297
 11
166.08453272911208
 21
128.7986068678747
  0
LINE
  8
_f-a_250
  6
CONTINUOUS
 62
  250
 10
166.08453272911208
 20
128.7986068678747
 11
166.17547749611009
 21
128.83265304097071
  0
LINE
  8
_f-a_250
  6
CONTINUOUS
 62
  250
 10
166.17547749611009
 20
128.83265304097071
 11
166.26307248207209
 21
128.87134837635872
  0
LINE
  8
_f-a_250
  6
CONTINUOUS
 62
  250
 10
166.26307248207209
 20
128.87134837635872
 11
166.34701966377406
 21
128.91459750660769
  0
LINE
  8
_f-a_250
  6
CONTINUOUS
 62
  250
 10
166.34701966377406
 20
128.91459750660769
 11
166.36652230354457
 21
128.63958167561424
  0
LINE
  8
_f-a_250
  6
CONTINUOUS
 62
  250
 10
166.36652230354457
 20
128.63958167561424
 11
166.28214596840058
 21
128.60198306568972
  0
LINE
  8
_f-a_250
  6
CONTINUOUS
 62
  250
 10
166.28214596840058
 20
128.60198306568972
 11
166.19514702888608
 21
128.56822299488874
  0
LINE
  8
_f-a_250
  6
CONTINUOUS
 62
  250
 10
166.19514702888608
 20
128.56822299488874
 11
166.10570429893608
 21
128.5383014632117
  0
LINE
  8
_f-a_250
  6
CONTINUOUS
 62
  250
 10
166.10570429893608
 20
128.5383014632117
 11
166.01398467155607
 21
128.51228999623171
  0
LINE
  8
_f-a_250
  6
CONTINUOUS
 62
  250
 10
166.01398467155607
 20
128.51228999623171
 11
165.92021464439509
 21
128.49021243580674
  0
LINE
  8
_f-a_250
  6
CONTINUOUS
 62
  250
 10
165.92021464439509
 20
128.49021243580674
 11
165.82452534767259
 21
128.4720449400792
  0
LINE
  8
_f-a_250
  6
CONTINUOUS
 62
  250
 10
165.82452534767259
 20
128.4720449400792
 11
165.7271313581096
 21
128.45788287648071
  0
LINE
  8
_f-a_250
  6
CONTINUOUS
 62
  250
 10
165.7271313581096
 20
128.45788287648071
 11
165.62821148964059
 21
128.44772624501121
  0
LINE
  8
_f-a_250
  6
CONTINUOUS
 62
  250
 10
165.62821148964059
 20
128.44772624501121
 11
165.5279445561996
 21
128.44159888752819
  0
LINE
  8
_f-a_250
  6
CONTINUOUS
 62
  250
 10
165.5279445561996
 20
128.44159888752819
 11
165.42650937172058
 21
128.43957232960571
  0
LINE
  8
_f-a_250
  6
CONTINUOUS
 62
  250
 10
165.42650937172058
 20
128.43957232960571
 11
165.40369271370059
 21
128.38623809346072
  0
LINE
  8
_f-a_250
  6
CONTINUOUS
 62
  250
 10
165.40369271370059
 20
128.38623809346072
 11
165.42600869270458
 21
128.32887458332871
  0
LINE
  8
_f-a_250
  6
CONTINUOUS
 62
  250
 10
165.42600869270458
 20
128.32887458332871
 11
165.45033930870207
 21
128.27287005909773
  0
LINE
  8
_f-a_250
  6
CONTINUOUS
 62
  250
 10
165.45033930870207
 20
128.27287005909773
 11
165.47660111519008
 21
128.21824836262573
  0
LINE
  8
_f-a_250
  6
CONTINUOUS
 62
  250
 10
165.47660111519008
 20
128.21824836262573
 11
165.50477027031059
 21
128.1650571776282
  0
LINE
  8
_f-a_250
  6
CONTINUOUS
 62
  250
 10
165.50477027031059
 20
128.1650571776282
 11
165.53476332756159
 21
128.11332034596322
  0
LINE
  8
_f-a_250
  6
CONTINUOUS
 62
  250
 10
165.53476332756159
 20
128.11332034596322
 11
165.5665564450851
 21
128.06306170948875
  0
LINE
  8
_f-a_250
  6
CONTINUOUS
 62
  250
 10
165.5665564450851
 20
128.06306170948875
 11
165.60005425544858
 21
128.01435279377819
  0
LINE
  8
_f-a_250
  6
CONTINUOUS
 62
  250
 10
165.60005425544858
 20
128.01435279377819
 11
165.6352329167951
 21
127.96724128254773
  0
LINE
  8
_f-a_250
  6
CONTINUOUS
 62
  250
 10
165.6352329167951
 20
127.96724128254773
 11
165.67200898262158
 21
127.92175101765524
  0
LINE
  8
_f-a_250
  6
CONTINUOUS
 62
  250
 10
165.67200898262158
 20
127.92175101765524
 11
165.71034669014108
 21
127.87790584095825
  0
LINE
  8
_f-a_250
  6
CONTINUOUS
 62
  250
 10
165.71034669014108
 20
127.87790584095825
 11
165.40235756965757
 21
127.85456466206421
  0
LINE
  8
_f-a_250
  6
CONTINUOUS
 62
  250
 10
165.40235756965757
 20
127.85456466206421
 11
165.36610602470509
 21
127.90630149372925
  0
LINE
  8
_f-a_250
  6
CONTINUOUS
 62
  250
 10
165.36610602470509
 20
127.90630149372925
 11
165.33155917259361
 21
127.95951652058471
  0
LINE
  8
_f-a_250
  6
CONTINUOUS
 62
  250
 10
165.33155917259361
 20
127.95951652058471
 11
165.2987527761091
 21
128.01413821705674
  0
LINE
  8
_f-a_250
  6
CONTINUOUS
 62
  250
 10
165.2987527761091
 20
128.01413821705674
 11
165.26772259803909
 21
128.0701427412877
  0
LINE
  8
_f-a_250
  6
CONTINUOUS
 62
  250
 10
165.26772259803909
 20
128.0701427412877
 11
165.2385044011701
 21
128.12748240956171
  0
LINE
  8
_f-a_250
  6
CONTINUOUS
 62
  250
 10
165.2385044011701
 20
128.12748240956171
 11
165.21111010643159
 21
128.18613338002075
  0
LINE
  8
_f-a_250
  6
CONTINUOUS
 62
  250
 10
165.21111010643159
 20
128.18613338002075
 11
165.1855873975386
 21
128.24604796894923
  0
LINE
  8
_f-a_250
  6
CONTINUOUS
 62
  250
 10
165.1855873975386
 20
128.24604796894923
 11
165.16196011634958
 21
128.30715465077273
  0
LINE
  8
_f-a_250
  6
CONTINUOUS
 62
  250
 10
165.16196011634958
 20
128.30715465077273
 11
165.14026402565108
 21
128.36947726734971
  0
LINE
  8
_f-a_250
  6
CONTINUOUS
 62
  250
 10
165.14026402565108
 20
128.36947726734971
 11
165.12052296730158
 21
128.43292045124872
  0
LINE
  8
_f-a_250
  6
CONTINUOUS
 62
  250
 10
165.12052296730158
 20
128.43292045124872
 11
165.0560188207256
 21
128.46792029866072
  0
LINE
  8
_f-a_250
  6
CONTINUOUS
 62
  250
 10
165.0560188207256
 20
128.46792029866072
 11
165.03268956276057
 21
128.4710435820472
  0
LINE
  8
_f-a_250
  6
CONTINUOUS
 62
  250
 10
165.03268956276057
 20
128.4710435820472
 11
165.00957488151658
 21
128.47447680958621
  0
LINE
  8
_f-a_250
  6
CONTINUOUS
 62
  250
 10
165.00957488151658
 20
128.47447680958621
 11
164.9866628560651
 21
128.4781722975622
  0
LINE
  8
_f-a_250
  6
CONTINUOUS
 62
  250
 10
164.9866628560651
 20
128.4781722975622
 11
164.96391772361909
 21
128.48208236225975
  0
LINE
  8
_f-a_250
  6
CONTINUOUS
 62
  250
 10
164.96391772361909
 20
128.48208236225975
 11
164.94133948417809
 21
128.48623084553572
  0
LINE
  8
_f-a_250
  6
CONTINUOUS
 62
  250
 10
164.94133948417809
 20
128.48623084553572
 11
164.91888045402658
 21
128.4905939055337
  0
LINE
  8
_f-a_250
  6
CONTINUOUS
 62
  250
 10
164.91888045402658
 20
128.4905939055337
 11
164.89655255409357
 21
128.49512385853623
  0
LINE
  8
_f-a_250
  6
CONTINUOUS
 62
  250
 10
164.89655255409357
 20
128.49512385853623
 11
164.8743081006636
 21
128.49979686268671
  0
LINE
  8
_f-a_250
  6
CONTINUOUS
 62
  250
 10
164.8743081006636
 20
128.49979686268671
 11
164.8521351728071
 21
128.50463675984275
  0
LINE
  8
_f-a_250
  6
CONTINUOUS
 62
  250
 10
164.8521351728071
 20
128.50463675984275
 11
164.8300218495956
 21
128.5095720244297
  0
LINE
  8
_f-a_250
  6
CONTINUOUS
 62
  250
 10
164.76952313514857
 20
113.80791949757472
 11
164.79014634224058
 21
113.80200671681274
  0
LINE
  8
_f-a_250
  6
CONTINUOUS
 62
  250
 10
164.79014634224058
 20
113.80200671681274
 11
164.8110318097701
 21
113.79630851277221
  0
LINE
  8
_f-a_250
  6
CONTINUOUS
 62
  250
 10
164.8110318097701
 20
113.79630851277221
 11
164.83213185402062
 21
113.79077720173723
  0
LINE
  8
_f-a_250
  6
CONTINUOUS
 62
  250
 10
164.83213185402062
 20
113.79077720173723
 11
164.85341071220509
 21
113.78541278370722
  0
LINE
  8
_f-a_250
  6
CONTINUOUS
 62
  250
 10
164.85341071220509
 20
113.78541278370722
 11
164.87483262153759
 21
113.7801914168252
  0
LINE
  8
_f-a_250
  6
CONTINUOUS
 62
  250
 10
164.87483262153759
 20
113.7801914168252
 11
164.89636181923058
 21
113.77516078480572
  0
LINE
  8
_f-a_250
  6
CONTINUOUS
 62
  250
 10
164.89636181923058
 20
113.77516078480572
 11
164.91799830528407
 21
113.77024936207623
  0
LINE
  8
_f-a_250
  6
CONTINUOUS
 62
  250
 10
164.91799830528407
 20
113.77024936207623
 11
164.93965863319511
 21
113.76545714863673
  0
LINE
  8
_f-a_250
  6
CONTINUOUS
 62
  250
 10
164.93965863319511
 20
113.76545714863673
 11
164.96134280296457
 21
113.76078414448621
  0
LINE
  8
_f-a_250
  6
CONTINUOUS
 62
  250
 10
164.96134280296457
 20
113.76078414448621
 11
164.98301505180507
 21
113.75623034962524
  0
LINE
  8
_f-a_250
  6
CONTINUOUS
 62
  250
 10
164.98301505180507
 20
113.75623034962524
 11
165.05334853264009
 21
113.7879161787877
  0
LINE
  8
_f-a_250
  6
CONTINUOUS
 62
  250
 10
165.05334853264009
 20
113.7879161787877
 11
165.04490851493958
 21
113.88671683796774
  0
LINE
  8
_f-a_250
  6
CONTINUOUS
 62
  250
 10
165.04490851493958
 20
113.88671683796774
 11
165.04172562690857
 21
113.98496913441522
  0
LINE
  8
_f-a_250
  6
CONTINUOUS
 62
  250
 10
165.04172562690857
 20
113.98496913441522
 11
165.04374026390207
 21
114.08238696583621
  0
LINE
  8
_f-a_250
  6
CONTINUOUS
 62
  250
 10
165.04374026390207
 20
114.08238696583621
 11
165.05085705848808
 21
114.17873191365121
  0
LINE
  8
_f-a_250
  6
CONTINUOUS
 62
  250
 10
165.05085705848808
 20
114.17873191365121
 11
165.0630164060226
 21
114.27374171742322
  0
LINE
  8
_f-a_250
  6
CONTINUOUS
 62
  250
 10
165.0630164060226
 20
114.27374171742322
 11
165.08013486000209
 21
114.3671302748572
  0
LINE
  8
_f-a_250
  6
CONTINUOUS
 62
  250
 10
165.08013486000209
 20
114.3671302748572
 11
165.10214089485311
 21
114.4586830092322
  0
LINE
  8
_f-a_250
  6
CONTINUOUS
 62
  250
 10
165.10214089485311
 20
114.4586830092322
 11
165.12895106407311
 21
114.5481138182532
  0
LINE
  8
_f-a_250
  6
CONTINUOUS
 62
  250
 10
165.12895106407311
 20
114.5481138182532
 11
165.1604938420881
 21
114.63516044148324
  0
LINE
  8
_f-a_250
  6
CONTINUOUS
 62
  250
 10
165.1604938420881
 20
114.63516044148324
 11
165.19668578239558
 21
114.71956061848523
  0
LINE
  8
_f-a_250
  6
CONTINUOUS
 62
  250
 10
165.19668578239558
 20
114.71956061848523
 11
165.47468184562808
 21
114.70458793171774
  0
LINE
  8
_f-a_250
  6
CONTINUOUS
 62
  250
 10
165.47468184562808
 20
114.70458793171774
 11
165.43295859428557
 21
114.62595748432975
  0
LINE
  8
_f-a_250
  6
CONTINUOUS
 62
  250
 10
165.43295859428557
 20
114.62595748432975
 11
165.39652823539859
 21
114.54332160481323
  0
LINE
  8
_f-a_250
  6
CONTINUOUS
 62
  250
 10
165.39652823539859
 20
114.54332160481323
 11
165.3654861363996
 21
114.45710944661023
  0
LINE
  8
_f-a_250
  6
CONTINUOUS
 62
  250
 10
165.3654861363996
 20
114.45710944661023
 11
165.3399634275066
 21
114.3677501631627
  0
LINE
  8
_f-a_250
  6
CONTINUOUS
 62
  250
 10
165.3399634275066
 20
114.3677501631627
 11
165.32004355522307
 21
114.27562522419821
  0
LINE
  8
_f-a_250
  6
CONTINUOUS
 62
  250
 10
165.32004355522307
 20
114.27562522419821
 11
165.3058218869796
 21
114.18111609944222
  0
LINE
  8
_f-a_250
  6
CONTINUOUS
 62
  250
 10
165.3058218869796
 20
114.18111609944222
 11
165.29740571113709
 21
114.08472346791123
  0
LINE
  8
_f-a_250
  6
CONTINUOUS
 62
  250
 10
165.29740571113709
 20
114.08472346791123
 11
165.29490231605661
 21
113.98675727375871
  0
LINE
  8
_f-a_250
  6
CONTINUOUS
 62
  250
 10
165.29490231605661
 20
113.98675727375871
 11
165.29840706916957
 21
113.8876943541417
  0
LINE
  8
_f-a_250
  6
CONTINUOUS
 62
  250
 10
165.29840706916957
 20
113.8876943541417
 11
165.30801533790708
 21
113.7879161787877
  0
LINE
  8
_f-a_250
  6
CONTINUOUS
 62
  250
 10
165.30801533790708
 20
113.7879161787877
 11
165.37635802360657
 21
113.71457862385623
  0
LINE
  8
_f-a_250
  6
CONTINUOUS
 62
  250
 10
165.37635802360657
 20
113.71457862385623
 11
165.48331259819159
 21
113.71460246571424
  0
LINE
  8
_f-a_250
  6
CONTINUOUS
 62
  250
 10
165.48331259819159
 20
113.71460246571424
 11
165.58877705665708
 21
113.71970462330674
  0
LINE
  8
_f-a_250
  6
CONTINUOUS
 62
  250
 10
165.58877705665708
 20
113.71970462330674
 11
165.69248913856657
 21
113.72974204548723
  0
LINE
  8
_f-a_250
  6
CONTINUOUS
 62
  250
 10
165.69248913856657
 20
113.72974204548723
 11
165.79421042534008
 21
113.74471473225472
  0
LINE
  8
_f-a_250
  6
CONTINUOUS
 62
  250
 10
165.79421042534008
 20
113.74471473225472
 11
165.89361905189659
 21
113.76457499989371
  0
LINE
  8
_f-a_250
  6
CONTINUOUS
 62
  250
 10
165.89361905189659
 20
113.76457499989371
 11
165.99048852058559
 21
113.7892036391152
  0
LINE
  8
_f-a_250
  6
CONTINUOUS
 62
  250
 10
165.99048852058559
 20
113.7892036391152
 11
166.08453272911208
 21
113.81860064991821
  0
LINE
  8
_f-a_250
  6
CONTINUOUS
 62
  250
 10
166.08453272911208
 20
113.81860064991821
 11
166.17547749611009
 21
113.85267066487174
  0
LINE
  8
_f-a_250
  6
CONTINUOUS
 62
  250
 10
166.17547749611009
 20
113.85267066487174
 11
166.26307248207209
 21
113.89134215840222
  0
LINE
  8
_f-a_250
  6
CONTINUOUS
 62
  250
 10
166.26307248207209
 20
113.89134215840222
 11
166.34701966377406
 21
113.93456744679321
  0
LINE
  8
_f-a_250
  6
CONTINUOUS
 62
  250
 10
166.34701966377406
 20
113.93456744679321
 11
166.36652230354457
 21
113.66124438771121
  0
LINE
  8
_f-a_250
  6
CONTINUOUS
 62
  250
 10
166.36652230354457
 20
113.66124438771121
 11
166.28214596840058
 21
113.62321662434474
  0
LINE
  8
_f-a_250
  6
CONTINUOUS
 62
  250
 10
166.28214596840058
 20
113.62321662434474
 11
166.19514702888608
 21
113.58907508381722
  0
LINE
  8
_f-a_250
  6
CONTINUOUS
 62
  250
 10
166.19514702888608
 20
113.58907508381722
 11
166.10570429893608
 21
113.55889129170274
  0
LINE
  8
_f-a_250
  6
CONTINUOUS
 62
  250
 10
166.10570429893608
 20
113.55889129170274
 11
166.01398467155607
 21
113.53264140614371
  0
LINE
  8
_f-a_250
  6
CONTINUOUS
 62
  250
 10
166.01398467155607
 20
113.53264140614371
 11
165.92021464439509
 21
113.51039695271371
  0
LINE
  8
_f-a_250
  6
CONTINUOUS
 62
  250
 10
165.92021464439509
 20
113.51039695271371
 11
165.82452534767259
 21
113.49215793141221
  0
LINE
  8
_f-a_250
  6
CONTINUOUS
 62
  250
 10
165.82452534767259
 20
113.49215793141221
 11
165.7271313581096
 21
113.4779005003822
  0
LINE
  8
_f-a_250
  6
CONTINUOUS
 62
  250
 10
165.7271313581096
 20
113.4779005003822
 11
165.62821148964059
 21
113.46774386891221
  0
LINE
  8
_f-a_250
  6
CONTINUOUS
 62
  250
 10
165.62821148964059
 20
113.46774386891221
 11
165.5279445561996
 21
113.4616165114297
  0
LINE
  8
_f-a_250
  6
CONTINUOUS
 62
  250
 10
165.5279445561996
 20
113.4616165114297
 11
165.42650937172058
 21
113.4595661116492
  0
LINE
  8
_f-a_250
  6
CONTINUOUS
 62
  250
 10
165.42650937172058
 20
113.4595661116492
 11
165.40369271370059
 21
113.40623187550423
  0
LINE
  8
_f-a_250
  6
CONTINUOUS
 62
  250
 10
165.40369271370059
 20
113.40623187550423
 11
165.42600869270458
 21
113.34889220723022
  0
LINE
  8
_f-a_250
  6
CONTINUOUS
 62
  250
 10
165.42600869270458
 20
113.34889220723022
 11
165.45033930870207
 21
113.29286384114121
  0
LINE
  8
_f-a_250
  6
CONTINUOUS
 62
  250
 10
165.45033930870207
 20
113.29286384114121
 11
165.47660111519008
 21
113.23826598652722
  0
LINE
  8
_f-a_250
  6
CONTINUOUS
 62
  250
 10
165.47660111519008
 20
113.23826598652722
 11
165.50477027031059
 21
113.18507480152971
  0
LINE
  8
_f-a_250
  6
CONTINUOUS
 62
  250
 10
165.50477027031059
 20
113.18507480152971
 11
165.53476332756159
 21
113.13331412800672
  0
LINE
  8
_f-a_250
  6
CONTINUOUS
 62
  250
 10
165.53476332756159
 20
113.13331412800672
 11
165.5665564450851
 21
113.08305549153224
  0
LINE
  8
_f-a_250
  6
CONTINUOUS
 62
  250
 10
165.5665564450851
 20
113.08305549153224
 11
165.60005425544858
 21
113.0343704176797
  0
LINE
  8
_f-a_250
  6
CONTINUOUS
 62
  250
 10
165.60005425544858
 20
113.0343704176797
 11
165.6352329167951
 21
112.98725890644923
  0
LINE
  8
_f-a_250
  6
CONTINUOUS
 62
  250
 10
165.6352329167951
 20
112.98725890644923
 11
165.67200898262158
 21
112.9417447996987
  0
LINE
  8
_f-a_250
  6
CONTINUOUS
 62
  250
 10
165.67200898262158
 20
112.9417447996987
 11
165.71034669014108
 21
112.89789962300171
  0
LINE
  8
_f-a_250
  6
CONTINUOUS
 62
  250
 10
165.71034669014108
 20
112.89789962300171
 11
165.40235756965757
 21
112.8745822859657
  0
LINE
  8
_f-a_250
  6
CONTINUOUS
 62
  250
 10
165.40235756965757
 20
112.8745822859657
 11
165.36610602470509
 21
112.92636680134675
  0
LINE
  8
_f-a_250
  6
CONTINUOUS
 62
  250
 10
165.36610602470509
 20
112.92636680134675
 11
165.33155917259361
 21
112.97967719563371
  0
LINE
  8
_f-a_250
  6
CONTINUOUS
 62
  250
 10
165.33155917259361
 20
112.97967719563371
 11
165.2987527761091
 21
113.0344419432532
  0
LINE
  8
_f-a_250
  6
CONTINUOUS
 62
  250
 10
165.2987527761091
 20
113.0344419432532
 11
165.26772259803909
 21
113.09063720234722
  0
LINE
  8
_f-a_250
  6
CONTINUOUS
 62
  250
 10
165.26772259803909
 20
113.09063720234722
 11
165.2385044011701
 21
113.1480960799107
  0
LINE
  8
_f-a_250
  6
CONTINUOUS
 62
  250
 10
165.2385044011701
 20
113.1480960799107
 11
165.21111010643159
 21
113.20684241780172
  0
LINE
  8
_f-a_250
  6
CONTINUOUS
 62
  250
 10
165.21111010643159
 20
113.20684241780172
 11
165.1855873975386
 21
113.26675700672973
  0
LINE
  8
_f-a_250
  6
CONTINUOUS
 62
  250
 10
165.1855873975386
 20
113.26675700672973
 11
165.16196011634958
 21
113.32779216297973
  0
LINE
  8
_f-a_250
  6
CONTINUOUS
 62
  250
 10
165.16196011634958
 20
113.32779216297973
 11
165.14026402565108
 21
113.38987636097772
  0
LINE
  8
_f-a_250
  6
CONTINUOUS
 62
  250
 10
165.14026402565108
 20
113.38987636097772
 11
165.12052296730158
 21
113.45289039143424
  0
LINE
  8
_f-a_250
  6
CONTINUOUS
 62
  250
 10
165.12052296730158
 20
113.45289039143424
 11
165.0560188207256
 21
113.48624515065072
  0
LINE
  8
_f-a_250
  6
CONTINUOUS
 62
  250
 10
165.0560188207256
 20
113.48624515065072
 11
165.03268956276057
 21
113.48984527119524
  0
LINE
  8
_f-a_250
  6
CONTINUOUS
 62
  250
 10
165.03268956276057
 20
113.48984527119524
 11
165.00957488151658
 21
113.49363612660272
  0
LINE
  8
_f-a_250
  6
CONTINUOUS
 62
  250
 10
165.00957488151658
 20
113.49363612660272
 11
164.9866628560651
 21
113.49759387501572
  0
LINE
  8
_f-a_250
  6
CONTINUOUS
 62
  250
 10
164.9866628560651
 20
113.49759387501572
 11
164.96391772361909
 21
113.50174235829223
  0
LINE
  8
_f-a_250
  6
CONTINUOUS
 62
  250
 10
164.96391772361909
 20
113.50174235829223
 11
164.94133948417809
 21
113.50603389271623
  0
LINE
  8
_f-a_250
  6
CONTINUOUS
 62
  250
 10
164.94133948417809
 20
113.50603389271623
 11
164.91888045402658
 21
113.5104923201452
  0
LINE
  8
_f-a_250
  6
CONTINUOUS
 62
  250
 10
164.91888045402658
 20
113.5104923201452
 11
164.89655255409357
 21
113.51506995686422
  0
LINE
  8
_f-a_250
  6
CONTINUOUS
 62
  250
 10
164.89655255409357
 20
113.51506995686422
 11
164.8743081006636
 21
113.51979064473022
  0
LINE
  8
_f-a_250
  6
CONTINUOUS
 62
  250
 10
164.8743081006636
 20
113.51979064473022
 11
164.8521351728071
 21
113.5246305418862
  0
LINE
  8
_f-a_250
  6
CONTINUOUS
 62
  250
 10
164.8521351728071
 20
113.5246305418862
 11
164.8300218495956
 21
113.5295658064732
  0
LINE
  8
_f-a_250
  6
CONTINUOUS
 62
  250
 10
137.73118733497759
 20
144.27957820423973
 11
137.75176285835411
 21
144.27368926533575
  0
LINE
  8
_f-a_250
  6
CONTINUOUS
 62
  250
 10
137.75176285835411
 20
144.27368926533575
 11
137.77250527473561
 21
144.26799106129522
  0
LINE
  8
_f-a_250
  6
CONTINUOUS
 62
  250
 10
137.77250527473561
 20
144.26799106129522
 11
137.79339074226507
 21
144.26248359211772
  0
LINE
  8
_f-a_250
  6
CONTINUOUS
 62
  250
 10
137.79339074226507
 20
144.26248359211772
 11
137.8144073400131
 21
144.25716685780421
  0
LINE
  8
_f-a_250
  6
CONTINUOUS
 62
  250
 10
137.8144073400131
 20
144.25716685780421
 11
137.8355789098371
 21
144.25206470021124
  0
LINE
  8
_f-a_250
  6
CONTINUOUS
 62
  250
 10
137.8355789098371
 20
144.25206470021124
 11
137.85689353080861
 21
144.24717711933971
  0
LINE
  8
_f-a_250
  6
CONTINUOUS
 62
  250
 10
137.85689353080861
 20
144.24717711933971
 11
137.87831544014111
 21
144.24245643147319
  0
LINE
  8
_f-a_250
  6
CONTINUOUS
 62
  250
 10
137.87831544014111
 20
144.24245643147319
 11
137.89988040062059
 21
144.23797416218622
  0
LINE
  8
_f-a_250
  6
CONTINUOUS
 62
  250
 10
137.89988040062059
 20
144.23797416218622
 11
137.92156457039007
 21
144.2336826277627
  0
LINE
  8
_f-a_250
  6
CONTINUOUS
 62
  250
 10
137.92156457039007
 20
144.2336826277627
 11
137.9433560285201
 21
144.22955798634422
  0
LINE
  8
_f-a_250
  6
CONTINUOUS
 62
  250
 10
137.9433560285201
 20
144.22955798634422
 11
138.0130219373336
 21
144.25957488545274
  0
LINE
  8
_f-a_250
  6
CONTINUOUS
 62
  250
 10
138.0130219373336
 20
144.25957488545274
 11
138.00490378471508
 21
144.35837554463274
  0
LINE
  8
_f-a_250
  6
CONTINUOUS
 62
  250
 10
138.00490378471508
 20
144.35837554463274
 11
138.00198315712109
 21
144.45660399922221
  0
LINE
  8
_f-a_250
  6
CONTINUOUS
 62
  250
 10
138.00198315712109
 20
144.45660399922221
 11
138.0041766080486
 21
144.5539979887852
  0
LINE
  8
_f-a_250
  6
CONTINUOUS
 62
  250
 10
138.0041766080486
 20
144.5539979887852
 11
138.01141261192458
 21
144.65027141102672
  0
LINE
  8
_f-a_250
  6
CONTINUOUS
 62
  250
 10
138.01141261192458
 20
144.65027141102672
 11
138.0236077222456
 21
144.74520968922471
  0
LINE
  8
_f-a_250
  6
CONTINUOUS
 62
  250
 10
138.0236077222456
 20
144.74520968922471
 11
138.04069041343809
 21
144.83845519551173
  0
LINE
  8
_f-a_250
  6
CONTINUOUS
 62
  250
 10
138.04069041343809
 20
144.83845519551173
 11
138.06255339714158
 21
144.92979335316522
  0
LINE
  8
_f-a_250
  6
CONTINUOUS
 62
  250
 10
138.06255339714158
 20
144.92979335316522
 11
138.08914898964056
 21
145.01893805989121
  0
LINE
  8
_f-a_250
  6
CONTINUOUS
 62
  250
 10
138.08914898964056
 20
145.01893805989121
 11
138.12039374443208
 21
145.10562705525274
  0
LINE
  8
_f-a_250
  6
CONTINUOUS
 62
  250
 10
138.12039374443208
 20
145.10562705525274
 11
138.15619229408409
 21
145.1895742369542
  0
LINE
  8
_f-a_250
  6
CONTINUOUS
 62
  250
 10
138.15619229408409
 20
145.1895742369542
 11
138.43485592933808
 21
145.17791556843622
  0
LINE
  8
_f-a_250
  6
CONTINUOUS
 62
  250
 10
138.43485592933808
 20
145.17791556843622
 11
138.3934664640056
 21
145.09885596760626
  0
LINE
  8
_f-a_250
  6
CONTINUOUS
 62
  250
 10
138.3934664640056
 20
145.09885596760626
 11
138.35726260276911
 21
145.01600551136821
  0
LINE
  8
_f-a_250
  6
CONTINUOUS
 62
  250
 10
138.35726260276911
 20
145.01600551136821
 11
138.32638739677557
 21
144.92969798573372
  0
LINE
  8
_f-a_250
  6
CONTINUOUS
 62
  250
 10
138.32638739677557
 20
144.92969798573372
 11
138.30094813438561
 21
144.84036254414423
  0
LINE
  8
_f-a_250
  6
CONTINUOUS
 62
  250
 10
138.30094813438561
 20
144.84036254414423
 11
138.2810401830306
 21
144.74830913075323
  0
LINE
  8
_f-a_250
  6
CONTINUOUS
 62
  250
 10
138.2810401830306
 20
144.74830913075323
 11
138.26680659385809
 21
144.65399074086071
  0
LINE
  8
_f-a_250
  6
CONTINUOUS
 62
  250
 10
138.26680659385809
 20
144.65399074086071
 11
138.2583427343001
 21
144.55774116047724
  0
LINE
  8
_f-a_250
  6
CONTINUOUS
 62
  250
 10
138.2583427343001
 20
144.55774116047724
 11
138.2557916555036
 21
144.45991801747172
  0
LINE
  8
_f-a_250
  6
CONTINUOUS
 62
  250
 10
138.2557916555036
 20
144.45991801747172
 11
138.25926064582958
 21
144.36097430714472
  0
LINE
  8
_f-a_250
  6
CONTINUOUS
 62
  250
 10
138.25926064582958
 20
144.36097430714472
 11
138.26885699363859
 21
144.2612438155067
  0
LINE
  8
_f-a_250
  6
CONTINUOUS
 62
  250
 10
138.26885699363859
 20
144.2612438155067
 11
138.33653210731657
 21
144.18621348866321
  0
LINE
  8
_f-a_250
  6
CONTINUOUS
 62
  250
 10
138.33653210731657
 20
144.18621348866321
 11
138.44370125862258
 21
144.18626117237923
  0
LINE
  8
_f-a_250
  6
CONTINUOUS
 62
  250
 10
138.44370125862258
 20
144.18626117237923
 11
138.54935645195158
 21
144.19133948811424
  0
LINE
  8
_f-a_250
  6
CONTINUOUS
 62
  250
 10
138.54935645195158
 20
144.19133948811424
 11
138.65323542686608
 21
144.20142459401023
  0
LINE
  8
_f-a_250
  6
CONTINUOUS
 62
  250
 10
138.65323542686608
 20
144.20142459401023
 11
138.75506400200007
 21
144.2163972807777
  0
LINE
  8
_f-a_250
  6
CONTINUOUS
 62
  250
 10
138.75506400200007
 20
144.2163972807777
 11
138.85457991691706
 21
144.23623370655872
  0
LINE
  8
_f-a_250
  6
CONTINUOUS
 62
  250
 10
138.85457991691706
 20
144.23623370655872
 11
138.95154475303761
 21
144.26088618763825
  0
LINE
  8
_f-a_250
  6
CONTINUOUS
 62
  250
 10
138.95154475303761
 20
144.26088618763825
 11
139.04568432899609
 21
144.29025935658325
  0
LINE
  8
_f-a_250
  6
CONTINUOUS
 62
  250
 10
139.04568432899609
 20
144.29025935658325
 11
139.13673638435509
 21
144.32430552967921
  0
LINE
  8
_f-a_250
  6
CONTINUOUS
 62
  250
 10
139.13673638435509
 20
144.32430552967921
 11
139.22442673774859
 21
144.36300086506722
  0
LINE
  8
_f-a_250
  6
CONTINUOUS
 62
  250
 10
139.22442673774859
 20
144.36300086506722
 11
139.30851697059759
 21
144.40624999531624
  0
LINE
  8
_f-a_250
  6
CONTINUOUS
 62
  250
 10
139.30851697059759
 20
144.40624999531624
 11
139.3275189313521
 21
144.13123416432273
  0
LINE
  8
_f-a_250
  6
CONTINUOUS
 62
  250
 10
139.3275189313521
 20
144.13123416432273
 11
139.24316643806608
 21
144.09363555439825
  0
LINE
  8
_f-a_250
  6
CONTINUOUS
 62
  250
 10
139.24316643806608
 20
144.09363555439825
 11
139.15620326133856
 21
144.05987548359721
  0
LINE
  8
_f-a_250
  6
CONTINUOUS
 62
  250
 10
139.15620326133856
 20
144.05987548359721
 11
139.0668082151046
 21
144.02997779377819
  0
LINE
  8
_f-a_250
  6
CONTINUOUS
 62
  250
 10
139.0668082151046
 20
144.02997779377819
 11
138.97517203422657
 21
144.00396632679821
  0
LINE
  8
_f-a_250
  6
CONTINUOUS
 62
  250
 10
138.97517203422657
 20
144.00396632679821
 11
138.8814616117111
 21
143.98186492451524
  0
LINE
  8
_f-a_250
  6
CONTINUOUS
 62
  250
 10
138.8814616117111
 20
143.98186492451524
 11
138.78585576149106
 21
143.96372127064575
  0
LINE
  8
_f-a_250
  6
CONTINUOUS
 62
  250
 10
138.78585576149106
 20
143.96372127064575
 11
138.68853329750206
 21
143.9495592070472
  0
LINE
  8
_f-a_250
  6
CONTINUOUS
 62
  250
 10
138.68853329750206
 20
143.9495592070472
 11
138.58966111274859
 21
143.93940257557719
  0
LINE
  8
_f-a_250
  6
CONTINUOUS
 62
  250
 10
138.58966111274859
 20
143.93940257557719
 11
138.48942994209406
 21
143.93327521809474
  0
LINE
  8
_f-a_250
  6
CONTINUOUS
 62
  250
 10
138.48942994209406
 20
143.93327521809474
 11
138.38801859947358
 21
143.9312486601722
  0
LINE
  8
_f-a_250
  6
CONTINUOUS
 62
  250
 10
138.38801859947358
 20
143.9312486601722
 11
138.3633541974651
 21
143.87789058216924
  0
LINE
  8
_f-a_250
  6
CONTINUOUS
 62
  250
 10
138.3633541974651
 20
143.87789058216924
 11
138.38618277641407
 21
143.8205509138952
  0
LINE
  8
_f-a_250
  6
CONTINUOUS
 62
  250
 10
138.38618277641407
 20
143.8205509138952
 11
138.41091870399609
 21
143.76454638966419
  0
LINE
  8
_f-a_250
  6
CONTINUOUS
 62
  250
 10
138.41091870399609
 20
143.76454638966419
 11
138.43751429649458
 21
143.70992469319222
  0
LINE
  8
_f-a_250
  6
CONTINUOUS
 62
  250
 10
138.43751429649458
 20
143.70992469319222
 11
138.46592187019459
 21
143.65673350819472
  0
LINE
  8
_f-a_250
  6
CONTINUOUS
 62
  250
 10
138.46592187019459
 20
143.65673350819472
 11
138.49610566230908
 21
143.60499667652971
  0
LINE
  8
_f-a_250
  6
CONTINUOUS
 62
  250
 10
138.49610566230908
 20
143.60499667652971
 11
138.52800606819258
 21
143.5547380400547
  0
LINE
  8
_f-a_250
  6
CONTINUOUS
 62
  250
 10
138.52800606819258
 20
143.5547380400547
 11
138.56158732505909
 21
143.50602912434474
  0
LINE
  8
_f-a_250
  6
CONTINUOUS
 62
  250
 10
138.56158732505909
 20
143.50602912434474
 11
138.59677790733457
 21
143.45891761311424
  0
LINE
  8
_f-a_250
  6
CONTINUOUS
 62
  250
 10
138.59677790733457
 20
143.45891761311424
 11
138.63355397316107
 21
143.41342734822175
  0
LINE
  8
_f-a_250
  6
CONTINUOUS
 62
  250
 10
138.63355397316107
 20
143.41342734822175
 11
138.67184399696461
 21
143.36958217152474
  0
LINE
  8
_f-a_250
  6
CONTINUOUS
 62
  250
 10
138.67184399696461
 20
143.36958217152474
 11
138.3620190534221
 21
143.34790992268421
  0
LINE
  8
_f-a_250
  6
CONTINUOUS
 62
  250
 10
138.3620190534221
 20
143.34790992268421
 11
138.32594632240412
 21
143.39924144276469
  0
LINE
  8
_f-a_250
  6
CONTINUOUS
 62
  250
 10
138.32594632240412
 20
143.39924144276469
 11
138.29153060051109
 21
143.4522180510412
  0
LINE
  8
_f-a_250
  6
CONTINUOUS
 62
  250
 10
138.29153060051109
 20
143.4522180510412
 11
138.25883149238709
 21
143.50669669636622
  0
LINE
  8
_f-a_250
  6
CONTINUOUS
 62
  250
 10
138.25883149238709
 20
143.50669669636622
 11
138.2278966817486
 21
143.56267737873924
  0
LINE
  8
_f-a_250
  6
CONTINUOUS
 62
  250
 10
138.2278966817486
 20
143.56267737873924
 11
138.19875001045361
 21
143.61999320515525
  0
LINE
  8
_f-a_250
  6
CONTINUOUS
 62
  250
 10
138.19875001045361
 20
143.61999320515525
 11
138.17143916221761
 21
143.67864417561424
  0
LINE
  8
_f-a_250
  6
CONTINUOUS
 62
  250
 10
138.17143916221761
 20
143.67864417561424
 11
138.14599989982759
 21
143.73848723896873
  0
LINE
  8
_f-a_250
  6
CONTINUOUS
 62
  250
 10
138.14599989982759
 20
143.73848723896873
 11
138.1224799069991
 21
143.79947471150274
  0
LINE
  8
_f-a_250
  6
CONTINUOUS
 62
  250
 10
138.1224799069991
 20
143.79947471150274
 11
138.10091494651911
 21
143.86153506764271
  0
LINE
  8
_f-a_250
  6
CONTINUOUS
 62
  250
 10
138.10091494651911
 20
143.86153506764271
 11
138.08135270210411
 21
143.92457293995722
  0
LINE
  8
_f-a_250
  6
CONTINUOUS
 62
  250
 10
138.08135270210411
 20
143.92457293995722
 11
138.0156922254196
 21
143.9578800154577
  0
LINE
  8
_f-a_250
  6
CONTINUOUS
 62
  250
 10
138.0156922254196
 20
143.9578800154577
 11
137.99286364647057
 21
143.96150397786022
  0
LINE
  8
_f-a_250
  6
CONTINUOUS
 62
  250
 10
137.99286364647057
 20
143.96150397786022
 11
137.97007083030809
 21
143.96529483326771
  0
LINE
  8
_f-a_250
  6
CONTINUOUS
 62
  250
 10
137.97007083030809
 20
143.96529483326771
 11
137.9473376187911
 21
143.96925258168071
  0
LINE
  8
_f-a_250
  6
CONTINUOUS
 62
  250
 10
137.9473376187911
 20
143.96925258168071
 11
137.9246401700606
 21
143.97340106495722
  0
LINE
  8
_f-a_250
  6
CONTINUOUS
 62
  250
 10
137.9246401700606
 20
143.97340106495722
 11
137.90200232597459
 21
143.97769259938121
  0
LINE
  8
_f-a_250
  6
CONTINUOUS
 62
  250
 10
137.90200232597459
 20
143.97769259938121
 11
137.8794240865341
 21
143.98212718495219
  0
LINE
  8
_f-a_250
  6
CONTINUOUS
 62
  250
 10
137.8794240865341
 20
143.98212718495219
 11
137.85689353080861
 21
143.98672866352922
  0
LINE
  8
_f-a_250
  6
CONTINUOUS
 62
  250
 10
137.85689353080861
 20
143.98672866352922
 11
137.8344225797286
 21
143.9914493513952
  0
LINE
  8
_f-a_250
  6
CONTINUOUS
 62
  250
 10
137.8344225797286
 20
143.9914493513952
 11
137.81202315422209
 21
143.99628924855125
  0
LINE
  8
_f-a_250
  6
CONTINUOUS
 62
  250
 10
137.81202315422209
 20
143.99628924855125
 11
137.78969525428909
 21
144.00122451313823
  0
LINE
  8
_f-a_250
  6
CONTINUOUS
 62
  250
 10
167.1410250577556
 20
114.14125251301621
 11
167.18484639259458
 21
113.91532706745971
  0
LINE
  8
_f-a_250
  6
CONTINUOUS
 62
  250
 10
167.18484639259458
 20
113.91532706745971
 11
167.19642161461007
 21
113.69285869130022
  0
LINE
  8
_f-a_250
  6
CONTINUOUS
 62
  250
 10
167.19642161461007
 20
113.69285869130022
 11
167.1773958119976
 21
113.47735213765023
  0
LINE
  8
_f-a_250
  6
CONTINUOUS
 62
  250
 10
167.1773958119976
 20
113.47735213765023
 11
167.12942599388259
 21
113.27226447590724
  0
LINE
  8
_f-a_250
  6
CONTINUOUS
 62
  250
 10
167.12942599388259
 20
113.27226447590724
 11
167.0541691693891
 21
113.0810289336097
  0
LINE
  8
_f-a_250
  6
CONTINUOUS
 62
  250
 10
167.0541691693891
 20
113.0810289336097
 11
166.95324658485558
 21
112.9071741057287
  0
LINE
  8
_f-a_250
  6
CONTINUOUS
 62
  250
 10
166.95324658485558
 20
112.9071741057287
 11
166.82835101219308
 21
112.75410937794572
  0
LINE
  8
_f-a_250
  6
CONTINUOUS
 62
  250
 10
166.82835101219308
 20
112.75410937794572
 11
166.6811036977401
 21
112.62533950337271
  0
LINE
  8
_f-a_250
  6
CONTINUOUS
 62
  250
 10
166.6811036977401
 20
112.62533950337271
 11
166.5131735715496
 21
112.52434539326524
  0
LINE
  8
_f-a_250
  6
CONTINUOUS
 62
  250
 10
166.5131735715496
 20
112.52434539326524
 11
166.32619380088957
 21
112.4545841170202
  0
LINE
  8
_f-a_250
  6
CONTINUOUS
 62
  250
 10
166.32619380088957
 20
112.4545841170202
 11
166.12995146843107
 21
112.42115783223022
  0
LINE
  8
_f-a_250
  6
CONTINUOUS
 62
  250
 10
166.12995146843107
 20
112.42115783223022
 11
165.93437670799409
 21
112.42444800862174
  0
LINE
  8
_f-a_250
  6
CONTINUOUS
 62
  250
 10
165.93437670799409
 20
112.42444800862174
 11
165.7426643285381
 21
112.46221351155172
  0
LINE
  8
_f-a_250
  6
CONTINUOUS
 62
  250
 10
165.7426643285381
 20
112.46221351155172
 11
165.55803298088207
 21
112.53230857380723
  0
LINE
  8
_f-a_250
  6
CONTINUOUS
 62
  250
 10
165.55803298088207
 20
112.53230857380723
 11
165.38367747398507
 21
112.6324920607457
  0
LINE
  8
_f-a_250
  6
CONTINUOUS
 62
  250
 10
165.38367747398507
 20
112.6324920607457
 11
165.22278069587858
 21
112.76057052143921
  0
LINE
  8
_f-a_250
  6
CONTINUOUS
 62
  250
 10
165.22278069587858
 20
112.76057052143921
 11
165.07856129738008
 21
112.91435050495971
  0
LINE
  8
_f-a_250
  6
CONTINUOUS
 62
  250
 10
165.07856129738008
 20
112.91435050495971
 11
164.95423792930708
 21
113.09163856037972
  0
LINE
  8
_f-a_250
  6
CONTINUOUS
 62
  250
 10
164.95423792930708
 20
113.09163856037972
 11
164.85296963783409
 21
113.29021739491324
  0
LINE
  8
_f-a_250
  6
CONTINUOUS
 62
  250
 10
164.85296963783409
 20
113.29021739491324
 11
164.77801083656459
 21
113.50789355763322
  0
LINE
  8
_f-a_250
  6
CONTINUOUS
 62
  250
 10
164.77801083656459
 20
113.50789355763322
 11
164.73398684593309
 21
113.7342243147742
  0
LINE
  8
_f-a_250
  6
CONTINUOUS
 62
  250
 10
164.73398684593309
 20
113.7342243147742
 11
164.7222804936996
 21
113.95690726765524
  0
LINE
  8
_f-a_250
  6
CONTINUOUS
 62
  250
 10
164.7222804936996
 20
113.95690726765524
 11
164.74122284980908
 21
114.17248534687874
  0
LINE
  8
_f-a_250
  6
CONTINUOUS
 62
  250
 10
164.74122284980908
 20
114.17248534687874
 11
164.78916882606657
 21
114.37752532490622
  0
LINE
  8
_f-a_250
  6
CONTINUOUS
 62
  250
 10
164.78916882606657
 20
114.37752532490622
 11
164.86444949241758
 21
114.5685462904822
  0
LINE
  8
_f-a_250
  6
CONTINUOUS
 62
  250
 10
164.86444949241758
 20
114.5685462904822
 11
164.96540783973808
 21
114.74211501606824
  0
LINE
  8
_f-a_250
  6
CONTINUOUS
 62
  250
 10
164.96540783973808
 20
114.74211501606824
 11
165.09033917518761
 21
114.8947982741247
  0
LINE
  8
_f-a_250
  6
CONTINUOUS
 62
  250
 10
165.09033917518761
 20
114.8947982741247
 11
165.2376222524276
 21
115.02311515339721
  0
LINE
  8
_f-a_250
  6
CONTINUOUS
 62
  250
 10
165.2376222524276
 20
115.02311515339721
 11
165.40557622047558
 21
115.12363242634675
  0
LINE
  8
_f-a_250
  6
CONTINUOUS
 62
  250
 10
165.40557622047558
 20
115.12363242634675
 11
165.5925321492781
 21
115.1929168654332
  0
LINE
  8
_f-a_250
  6
CONTINUOUS
 62
  250
 10
165.5925321492781
 20
115.1929168654332
 11
165.78912018867609
 21
115.22681998738172
  0
LINE
  8
_f-a_250
  6
CONTINUOUS
 62
  250
 10
165.78912018867609
 20
115.22681998738172
 11
165.98496913047907
 21
115.22403049000623
  0
LINE
  8
_f-a_250
  6
CONTINUOUS
 62
  250
 10
165.98496913047907
 20
115.22403049000623
 11
166.17686032386911
 21
115.1866702986607
  0
LINE
  8
_f-a_250
  6
CONTINUOUS
 62
  250
 10
166.17686032386911
 20
115.1866702986607
 11
166.36161088081508
 21
115.11695670613172
  0
LINE
  8
_f-a_250
  6
CONTINUOUS
 62
  250
 10
166.36161088081508
 20
115.11695670613172
 11
166.53601407142756
 21
115.0170831633462
  0
LINE
  8
_f-a_250
  6
CONTINUOUS
 62
  250
 10
166.53601407142756
 20
115.0170831633462
 11
166.69689892860558
 21
114.88919543751572
  0
LINE
  8
_f-a_250
  6
CONTINUOUS
 62
  250
 10
166.69689892860558
 20
114.88919543751572
 11
166.8410229596721
 21
114.73548697956922
  0
LINE
  8
_f-a_250
  6
CONTINUOUS
 62
  250
 10
166.8410229596721
 20
114.73548697956922
 11
166.96522711845509
 21
114.55812739857575
  0
LINE
  8
_f-a_250
  6
CONTINUOUS
 62
  250
 10
166.96522711845509
 20
114.55812739857575
 11
167.06629275413658
 21
114.35933398732072
  0
LINE
  8
_f-a_250
  6
CONTINUOUS
 62
  250
 10
167.06629275413658
 20
114.35933398732072
 11
167.1410250577556
 21
114.14125251301621
  0
LINE
  8
_f-a_250
  6
CONTINUOUS
 62
  250
 10
166.07168196769859
 20
114.8895769072422
 11
166.15250586601408
 21
114.83536052235473
  0
LINE
  8
_f-a_250
  6
CONTINUOUS
 62
  250
 10
166.15250586601408
 20
114.83536052235473
 11
166.22947930427659
 21
114.7748737288367
  0
LINE
  8
_f-a_250
  6
CONTINUOUS
 62
  250
 10
166.22947930427659
 20
114.7748737288367
 11
166.3021969709026
 21
114.70835494526725
  0
LINE
  8
_f-a_250
  6
CONTINUOUS
 62
  250
 10
166.3021969709026
 20
114.70835494526725
 11
166.37025355430708
 21
114.63601874836773
  0
LINE
  8
_f-a_250
  6
CONTINUOUS
 62
  250
 10
166.37025355430708
 20
114.63601874836773
 11
166.4332318219771
 21
114.55810355671774
  0
LINE
  8
_f-a_250
  6
CONTINUOUS
 62
  250
 10
166.4332318219771
 20
114.55810355671774
 11
166.49071454139857
 21
114.4748477888952
  0
LINE
  8
_f-a_250
  6
CONTINUOUS
 62
  250
 10
166.49071454139857
 20
114.4748477888952
 11
166.5423083219161
 21
114.38646602162223
  0
LINE
  8
_f-a_250
  6
CONTINUOUS
 62
  250
 10
166.5423083219161
 20
114.38646602162223
 11
166.58757208915858
 21
114.29319667347772
  0
LINE
  8
_f-a_250
  6
CONTINUOUS
 62
  250
 10
166.58757208915858
 20
114.29319667347772
 11
166.62611245247007
 21
114.19525432118272
  0
LINE
  8
_f-a_250
  6
CONTINUOUS
 62
  250
 10
166.62611245247007
 20
114.19525432118272
 11
166.65751217933808
 21
114.09290122517473
  0
LINE
  8
_f-a_250
  6
CONTINUOUS
 62
  250
 10
166.65751217933808
 20
114.09290122517473
 11
166.69098614784357
 21
113.9304904890907
  0
LINE
  8
_f-a_250
  6
CONTINUOUS
 62
  250
 10
166.69098614784357
 20
113.9304904890907
 11
166.7048382672896
 21
113.76931952961773
  0
LINE
  8
_f-a_250
  6
CONTINUOUS
 62
  250
 10
166.7048382672896
 20
113.76931952961773
 11
166.69989108177307
 21
113.61084270008924
  0
LINE
  8
_f-a_250
  6
CONTINUOUS
 62
  250
 10
166.69989108177307
 20
113.61084270008924
 11
166.67695521446359
 21
113.45660972126822
  0
LINE
  8
_f-a_250
  6
CONTINUOUS
 62
  250
 10
166.67695521446359
 20
113.45660972126822
 11
166.6368293676006
 21
113.30812263020371
  0
LINE
  8
_f-a_250
  6
CONTINUOUS
 62
  250
 10
166.6368293676006
 20
113.30812263020371
 11
166.58034800621158
 21
113.16685962208621
  0
LINE
  8
_f-a_250
  6
CONTINUOUS
 62
  250
 10
166.58034800621158
 20
113.16685962208621
 11
166.5083098325361
 21
113.03439425953721
  0
LINE
  8
_f-a_250
  6
CONTINUOUS
 62
  250
 10
166.5083098325361
 20
113.03439425953721
 11
166.42153739067209
 21
112.91215705403224
  0
LINE
  8
_f-a_250
  6
CONTINUOUS
 62
  250
 10
166.42153739067209
 20
112.91215705403224
 11
166.32082938285959
 21
112.80172156819222
  0
LINE
  8
_f-a_250
  6
CONTINUOUS
 62
  250
 10
166.32082938285959
 20
112.80172156819222
 11
166.20700835319658
 21
112.70458983906624
  0
LINE
  8
_f-a_250
  6
CONTINUOUS
 62
  250
 10
140.0800275716411
 20
144.65623187550423
 11
140.12419461342006
 21
144.43033027180522
  0
LINE
  8
_f-a_250
  6
CONTINUOUS
 62
  250
 10
140.12419461342006
 20
144.43033027180522
 11
140.13597249122759
 21
144.20788573750374
  0
LINE
  8
_f-a_250
  6
CONTINUOUS
 62
  250
 10
140.13597249122759
 20
144.20788573750374
 11
140.1170182141891
 21
143.99240302571172
  0
LINE
  8
_f-a_250
  6
CONTINUOUS
 62
  250
 10
140.1170182141891
 20
143.99240302571172
 11
140.0690126332866
 21
143.78736304768421
  0
LINE
  8
_f-a_250
  6
CONTINUOUS
 62
  250
 10
140.0690126332866
 20
143.78736304768421
 11
139.9936723622906
 21
143.59624671467674
  0
LINE
  8
_f-a_250
  6
CONTINUOUS
 62
  250
 10
139.9936723622906
 20
143.59624671467674
 11
139.89265441032558
 21
143.42251109608526
  0
LINE
  8
_f-a_250
  6
CONTINUOUS
 62
  250
 10
139.89265441032558
 20
143.42251109608526
 11
139.76766347023158
 21
143.26968478688124
  0
LINE
  8
_f-a_250
  6
CONTINUOUS
 62
  250
 10
139.76766347023158
 20
143.26968478688124
 11
139.62038039299159
 21
143.14120101460321
  0
LINE
  8
_f-a_250
  6
CONTINUOUS
 62
  250
 10
139.62038039299159
 20
143.14120101460321
 11
139.45249795051708
 21
143.04056453236473
  0
LINE
  8
_f-a_250
  6
CONTINUOUS
 62
  250
 10
139.45249795051708
 20
143.04056453236473
 11
139.2656969937911
 21
142.97123240956171
  0
LINE
  8
_f-a_250
  6
CONTINUOUS
 62
  250
 10
139.2656969937911
 20
142.97123240956171
 11
139.06909703346358
 21
142.9377822829137
  0
LINE
  8
_f-a_250
  6
CONTINUOUS
 62
  250
 10
139.06909703346358
 20
142.9377822829137
 11
138.8732361707321
 21
142.94092940815821
  0
LINE
  8
_f-a_250
  6
CONTINUOUS
 62
  250
 10
138.8732361707321
 20
142.94092940815821
 11
138.68129729362607
 21
142.97852801808222
  0
LINE
  8
_f-a_250
  6
CONTINUOUS
 62
  250
 10
138.68129729362607
 20
142.97852801808222
 11
138.49648713203558
 21
143.0483846617592
  0
LINE
  8
_f-a_250
  6
CONTINUOUS
 62
  250
 10
138.49648713203558
 20
143.0483846617592
 11
138.3220004949201
 21
143.14832973011821
  0
LINE
  8
_f-a_250
  6
CONTINUOUS
 62
  250
 10
138.3220004949201
 20
143.14832973011821
 11
138.16103219123957
 21
143.27616977223272
  0
LINE
  8
_f-a_250
  6
CONTINUOUS
 62
  250
 10
138.16103219123957
 20
143.27616977223272
 11
138.01676510902558
 21
143.42971133717424
  0
LINE
  8
_f-a_250
  6
CONTINUOUS
 62
  250
 10
138.01676510902558
 20
143.42971133717424
 11
137.8924059781661
 21
143.60680865773071
  0
LINE
  8
_f-a_250
  6
CONTINUOUS
 62
  250
 10
137.8924059781661
 20
143.60680865773071
 11
137.79114960762158
 21
143.80526828297471
  0
LINE
  8
_f-a_250
  6
CONTINUOUS
 62
  250
 10
137.79114960762158
 20
143.80526828297471
 11
137.7161908063521
 21
144.0228967619787
  0
LINE
  8
_f-a_250
  6
CONTINUOUS
 62
  250
 10
137.7161908063521
 20
144.0228967619787
 11
137.67220257850758
 21
144.24927520283575
  0
LINE
  8
_f-a_250
  6
CONTINUOUS
 62
  250
 10
137.67220257850758
 20
144.24927520283575
 11
137.66056775184759
 21
144.47207736500621
  0
LINE
  8
_f-a_250
  6
CONTINUOUS
 62
  250
 10
137.66056775184759
 20
144.47207736500621
 11
137.67966508003357
 21
144.68782233723522
  0
LINE
  8
_f-a_250
  6
CONTINUOUS
 62
  250
 10
137.67966508003357
 20
144.68782233723522
 11
137.72780179115412
 21
144.89307689198372
  0
LINE
  8
_f-a_250
  6
CONTINUOUS
 62
  250
 10
137.72780179115412
 20
144.89307689198372
 11
137.80328511329759
 21
145.08436011799671
  0
LINE
  8
_f-a_250
  6
CONTINUOUS
 62
  250
 10
137.80328511329759
 20
145.08436011799671
 11
137.90445803733959
 21
145.25816726216172
  0
LINE
  8
_f-a_250
  6
CONTINUOUS
 62
  250
 10
137.90445803733959
 20
145.25816726216172
 11
138.02963971229659
 21
145.41108893879772
  0
LINE
  8
_f-a_250
  6
CONTINUOUS
 62
  250
 10
138.02963971229659
 20
145.41108893879772
 11
138.17717312904509
 21
145.5395965529332
  0
LINE
  8
_f-a_250
  6
CONTINUOUS
 62
  250
 10
138.17717312904509
 20
145.5395965529332
 11
138.3453535947431
 21
145.6402330351722
  0
LINE
  8
_f-a_250
  6
CONTINUOUS
 62
  250
 10
138.3453535947431
 20
145.6402330351722
 11
138.53251217933808
 21
145.70956515797471
  0
LINE
  8
_f-a_250
  6
CONTINUOUS
 62
  250
 10
138.53251217933808
 20
145.70956515797471
 11
138.7285876187911
 21
145.74301528462269
  0
LINE
  8
_f-a_250
  6
CONTINUOUS
 62
  250
 10
138.7285876187911
 20
145.74301528462269
 11
138.92406701179658
 21
145.73986815937874
  0
LINE
  8
_f-a_250
  6
CONTINUOUS
 62
  250
 10
138.92406701179658
 20
145.73986815937874
 11
139.11571978660709
 21
145.70222186573875
  0
LINE
  8
_f-a_250
  6
CONTINUOUS
 62
  250
 10
139.11571978660709
 20
145.70222186573875
 11
139.30033921333458
 21
145.6323175383462
  0
LINE
  8
_f-a_250
  6
CONTINUOUS
 62
  250
 10
139.30033921333458
 20
145.6323175383462
 11
139.47470664116057
 21
145.5322771025547
  0
LINE
  8
_f-a_250
  6
CONTINUOUS
 62
  250
 10
139.47470664116057
 20
145.5322771025547
 11
139.63560341926708
 21
145.40429400929321
  0
LINE
  8
_f-a_250
  6
CONTINUOUS
 62
  250
 10
139.63560341926708
 20
145.40429400929321
 11
139.77979897590757
 21
145.25051402577276
  0
LINE
  8
_f-a_250
  6
CONTINUOUS
 62
  250
 10
139.77979897590757
 20
145.25051402577276
 11
139.9040865811931
 21
145.07313060292122
  0
LINE
  8
_f-a_250
  6
CONTINUOUS
 62
  250
 10
139.9040865811931
 20
145.07313060292122
 11
140.00522374244807
 21
144.8743371916662
  0
LINE
  8
_f-a_250
  6
CONTINUOUS
 62
  250
 10
140.00522374244807
 20
144.8743371916662
 11
140.0800275716411
 21
144.65623187550423
  0
LINE
  8
_f-a_250
  6
CONTINUOUS
 62
  250
 10
139.01035069557307
 20
145.40789412983773
 11
139.09134148689409
 21
145.35320090779175
  0
LINE
  8
_f-a_250
  6
CONTINUOUS
 62
  250
 10
139.09134148689409
 20
145.35320090779175
 11
139.16835068794359
 21
145.29223727711573
  0
LINE
  8
_f-a_250
  6
CONTINUOUS
 62
  250
 10
139.16835068794359
 20
145.29223727711573
 11
139.2410087499251
 21
145.22524165638825
  0
LINE
  8
_f-a_250
  6
CONTINUOUS
 62
  250
 10
139.2410087499251
 20
145.22524165638825
 11
139.3089580449691
 21
145.15245246418823
  0
LINE
  8
_f-a_250
  6
CONTINUOUS
 62
  250
 10
139.3089580449691
 20
145.15245246418823
 11
139.37179326149106
 21
145.07415580281122
  0
LINE
  8
_f-a_250
  6
CONTINUOUS
 62
  250
 10
139.37179326149106
 20
145.07415580281122
 11
139.4291567716231
 21
144.99054240712022
  0
LINE
  8
_f-a_250
  6
CONTINUOUS
 62
  250
 10
139.4291567716231
 20
144.99054240712022
 11
139.48066710563808
 21
144.90187453755271
  0
LINE
  8
_f-a_250
  6
CONTINUOUS
 62
  250
 10
139.48066710563808
 20
144.90187453755271
 11
139.52595471473808
 21
144.80836677082871
  0
LINE
  8
_f-a_250
  6
CONTINUOUS
 62
  250
 10
139.52595471473808
 20
144.80836677082871
 11
139.56463812919762
 21
144.71030520924424
  0
LINE
  8
_f-a_250
  6
CONTINUOUS
 62
  250
 10
139.56463812919762
 20
144.71030520924424
 11
139.5963478002181
 21
144.6079044295202
  0
LINE
  8
_f-a_250
  6
CONTINUOUS
 62
  250
 10
139.5963478002181
 20
144.6079044295202
 11
139.62982176872359
 21
144.44597053059474
  0
LINE
  8
_f-a_250
  6
CONTINUOUS
 62
  250
 10
139.62982176872359
 20
144.44597053059474
 11
139.64367388816959
 21
144.28513335713274
  0
LINE
  8
_f-a_250
  6
CONTINUOUS
 62
  250
 10
139.64367388816959
 20
144.28513335713274
 11
139.63870286079558
 21
144.12699031361473
  0
LINE
  8
_f-a_250
  6
CONTINUOUS
 62
  250
 10
139.63870286079558
 20
144.12699031361473
 11
139.61574315162807
 21
143.97301959523071
  0
LINE
  8
_f-a_250
  6
CONTINUOUS
 62
  250
 10
139.61574315162807
 20
143.97301959523071
 11
139.5755815419781
 21
143.82477092274522
  0
LINE
  8
_f-a_250
  6
CONTINUOUS
 62
  250
 10
139.5755815419781
 20
143.82477092274522
 11
139.5190405759441
 21
143.68379401692275
  0
LINE
  8
_f-a_250
  6
CONTINUOUS
 62
  250
 10
139.5190405759441
 20
143.68379401692275
 11
139.44691895576608
 21
143.55156707295274
  0
LINE
  8
_f-a_250
  6
CONTINUOUS
 62
  250
 10
139.44691895576608
 20
143.55156707295274
 11
139.3600273046126
 21
143.42966365345825
  0
LINE
  8
_f-a_250
  6
CONTINUOUS
 62
  250
 10
139.3600273046126
 20
143.42966365345825
 11
139.25918816658159
 21
143.31960963734522
  0
LINE
  8
_f-a_250
  6
CONTINUOUS
 62
  250
 10
139.25918816658159
 20
143.31960963734522
 11
139.14518832298407
 21
143.22290706166123
  0
LINE
  8
_f-a_250
  6
CONTINUOUS
 62
  250
 10
137.73118733497759
 20
129.3295888853917
 11
137.75176285835411
 21
129.32322310932975
  0
LINE
  8
_f-a_250
  6
CONTINUOUS
 62
  250
 10
137.75176285835411
 20
129.32322310932975
 11
137.77250527473561
 21
129.31714343556274
  0
LINE
  8
_f-a_250
  6
CONTINUOUS
 62
  250
 10
137.77250527473561
 20
129.31714343556274
 11
137.79339074226507
 21
129.31134986409069
  0
LINE
  8
_f-a_250
  6
CONTINUOUS
 62
  250
 10
137.79339074226507
 20
129.31134986409069
 11
137.8144073400131
 21
129.30577086933971
  0
LINE
  8
_f-a_250
  6
CONTINUOUS
 62
  250
 10
137.8144073400131
 20
129.30577086933971
 11
137.8355789098371
 21
129.30040645130973
  0
LINE
  8
_f-a_250
  6
CONTINUOUS
 62
  250
 10
137.8355789098371
 20
129.30040645130973
 11
137.85689353080861
 21
129.29525661000122
  0
LINE
  8
_f-a_250
  6
CONTINUOUS
 62
  250
 10
137.85689353080861
 20
129.29525661000122
 11
137.87831544014111
 21
129.29027366169822
  0
LINE
  8
_f-a_250
  6
CONTINUOUS
 62
  250
 10
137.87831544014111
 20
129.29027366169822
 11
137.89988040062059
 21
129.28545760640023
  0
LINE
  8
_f-a_250
  6
CONTINUOUS
 62
  250
 10
137.89988040062059
 20
129.28545760640023
 11
137.92156457039007
 21
129.28080844410769
  0
LINE
  8
_f-a_250
  6
CONTINUOUS
 62
  250
 10
137.92156457039007
 20
129.28080844410769
 11
137.9433560285201
 21
129.27625464924674
  0
LINE
  8
_f-a_250
  6
CONTINUOUS
 62
  250
 10
137.9433560285201
 20
129.27625464924674
 11
138.0130219373336
 21
129.30791663655174
  0
LINE
  8
_f-a_250
  6
CONTINUOUS
 62
  250
 10
138.0130219373336
 20
129.30791663655174
 11
138.00490378471508
 21
129.40717029103172
  0
LINE
  8
_f-a_250
  6
CONTINUOUS
 62
  250
 10
138.00490378471508
 20
129.40717029103172
 11
138.00198315712109
 21
129.50575637349021
  0
LINE
  8
_f-a_250
  6
CONTINUOUS
 62
  250
 10
138.00198315712109
 20
129.50575637349021
 11
138.0041766080486
 21
129.60343646534773
  0
LINE
  8
_f-a_250
  6
CONTINUOUS
 62
  250
 10
138.0041766080486
 20
129.60343646534773
 11
138.01141261192458
 21
129.69992446431021
  0
LINE
  8
_f-a_250
  6
CONTINUOUS
 62
  250
 10
138.01141261192458
 20
129.69992446431021
 11
138.0236077222456
 21
129.79498195179821
  0
LINE
  8
_f-a_250
  6
CONTINUOUS
 62
  250
 10
138.0236077222456
 20
129.79498195179821
 11
138.04069041343809
 21
129.88834666737421
  0
LINE
  8
_f-a_250
  6
CONTINUOUS
 62
  250
 10
138.04069041343809
 20
129.88834666737421
 11
138.06255339714158
 21
129.97973250874372
  0
LINE
  8
_f-a_250
  6
CONTINUOUS
 62
  250
 10
138.06255339714158
 20
129.97973250874372
 11
138.08914898964056
 21
130.06892489918573
  0
LINE
  8
_f-a_250
  6
CONTINUOUS
 62
  250
 10
138.08914898964056
 20
130.06892489918573
 11
138.12039374443208
 21
130.1556138945472
  0
LINE
  8
_f-a_250
  6
CONTINUOUS
 62
  250
 10
138.12039374443208
 20
130.1556138945472
 11
138.15619229408409
 21
130.23958491810671
  0
LINE
  8
_f-a_250
  6
CONTINUOUS
 62
  250
 10
138.15619229408409
 20
130.23958491810671
 11
138.43485592933808
 21
130.22625731953474
  0
LINE
  8
_f-a_250
  6
CONTINUOUS
 62
  250
 10
138.43485592933808
 20
130.22625731953474
 11
138.3934664640056
 21
130.14762687214721
  0
LINE
  8
_f-a_250
  6
CONTINUOUS
 62
  250
 10
138.3934664640056
 20
130.14762687214721
 11
138.35726260276911
 21
130.06499099263073
  0
LINE
  8
_f-a_250
  6
CONTINUOUS
 62
  250
 10
138.35726260276911
 20
130.06499099263073
 11
138.32638739677557
 21
129.97877883442771
  0
LINE
  8
_f-a_250
  6
CONTINUOUS
 62
  250
 10
138.32638739677557
 20
129.97877883442771
 11
138.30094813438561
 21
129.88941955098022
  0
LINE
  8
_f-a_250
  6
CONTINUOUS
 62
  250
 10
138.30094813438561
 20
129.88941955098022
 11
138.2810401830306
 21
129.79729461201524
  0
LINE
  8
_f-a_250
  6
CONTINUOUS
 62
  250
 10
138.2810401830306
 20
129.79729461201524
 11
138.26680659385809
 21
129.7028093291172
  0
LINE
  8
_f-a_250
  6
CONTINUOUS
 62
  250
 10
138.26680659385809
 20
129.7028093291172
 11
138.2583427343001
 21
129.6063928557287
  0
LINE
  8
_f-a_250
  6
CONTINUOUS
 62
  250
 10
138.2583427343001
 20
129.6063928557287
 11
138.2557916555036
 21
129.50842666157575
  0
LINE
  8
_f-a_250
  6
CONTINUOUS
 62
  250
 10
138.2557916555036
 20
129.50842666157575
 11
138.25926064582958
 21
129.40936374195923
  0
LINE
  8
_f-a_250
  6
CONTINUOUS
 62
  250
 10
138.25926064582958
 20
129.40936374195923
 11
138.26885699363859
 21
129.30958556660522
  0
LINE
  8
_f-a_250
  6
CONTINUOUS
 62
  250
 10
138.26885699363859
 20
129.30958556660522
 11
138.33653210731657
 21
129.23455523976222
  0
LINE
  8
_f-a_250
  6
CONTINUOUS
 62
  250
 10
138.33653210731657
 20
129.23455523976222
 11
138.44370125862258
 21
129.23460292347772
  0
LINE
  8
_f-a_250
  6
CONTINUOUS
 62
  250
 10
138.0156922254196
 20
129.00789069661022
 11
137.99286364647057
 21
129.01146697529671
  0
LINE
  8
_f-a_250
  6
CONTINUOUS
 62
  250
 10
137.99286364647057
 20
129.01146697529671
 11
137.97007083030809
 21
129.01513862141474
  0
LINE
  8
_f-a_250
  6
CONTINUOUS
 62
  250
 10
137.97007083030809
 20
129.01513862141474
 11
137.9473376187911
 21
129.01895331868025
  0
LINE
  8
_f-a_250
  6
CONTINUOUS
 62
  250
 10
137.9473376187911
 20
129.01895331868025
 11
137.9246401700606
 21
129.02291106709373
  0
LINE
  8
_f-a_250
  6
CONTINUOUS
 62
  250
 10
137.9246401700606
 20
129.02291106709373
 11
137.90200232597459
 21
129.02705955036973
  0
LINE
  8
_f-a_250
  6
CONTINUOUS
 62
  250
 10
137.90200232597459
 20
129.02705955036973
 11
137.8794240865341
 21
129.0314226103672
  0
LINE
  8
_f-a_250
  6
CONTINUOUS
 62
  250
 10
137.8794240865341
 20
129.0314226103672
 11
137.85689353080861
 21
129.03600024708621
  0
LINE
  8
_f-a_250
  6
CONTINUOUS
 62
  250
 10
137.85689353080861
 20
129.03600024708621
 11
137.8344225797286
 21
129.0408163023842
  0
LINE
  8
_f-a_250
  6
CONTINUOUS
 62
  250
 10
137.8344225797286
 20
129.0408163023842
 11
137.81202315422209
 21
129.04587077626121
  0
LINE
  8
_f-a_250
  6
CONTINUOUS
 62
  250
 10
137.81202315422209
 20
129.04587077626121
 11
137.78969525428909
 21
129.05123519429071
  0
LINE
  8
_f-a_250
  6
CONTINUOUS
 62
  250
 10
137.79114960762158
 20
128.85480212696922
 11
137.7161908063521
 21
129.07290744313121
  0
LINE
  8
_f-a_250
  6
CONTINUOUS
 62
  250
 10
137.7161908063521
 20
129.07290744313121
 11
137.67220257850758
 21
129.2992858839882
  0
LINE
  8
_f-a_250
  6
CONTINUOUS
 62
  250
 10
137.67220257850758
 20
129.2992858839882
 11
137.66056775184759
 21
129.5220642043007
  0
LINE
  8
_f-a_250
  6
CONTINUOUS
 62
  250
 10
137.66056775184759
 20
129.5220642043007
 11
137.67966508003357
 21
129.73780917652971
  0
LINE
  8
_f-a_250
  6
CONTINUOUS
 62
  250
 10
137.67966508003357
 20
129.73780917652971
 11
137.72780179115412
 21
129.9429922057042
  0
LINE
  8
_f-a_250
  6
CONTINUOUS
 62
  250
 10
137.72780179115412
 20
129.9429922057042
 11
137.80328511329759
 21
130.13415622242823
  0
LINE
  8
_f-a_250
  6
CONTINUOUS
 62
  250
 10
137.80328511329759
 20
130.13415622242823
 11
137.90445803733959
 21
130.30782031544572
  0
LINE
  8
_f-a_250
  6
CONTINUOUS
 62
  250
 10
137.90445803733959
 20
130.30782031544572
 11
138.02963971229659
 21
130.46052741536022
  0
LINE
  8
_f-a_250
  6
CONTINUOUS
 62
  250
 10
138.02963971229659
 20
130.46052741536022
 11
138.17717312904509
 21
130.58872508534324
  0
LINE
  8
_f-a_250
  6
CONTINUOUS
 62
  250
 10
138.17717312904509
 20
130.58872508534324
 11
138.3453535947431
 21
130.68902778157121
  0
LINE
  8
_f-a_250
  6
CONTINUOUS
 62
  250
 10
138.3453535947431
 20
130.68902778157121
 11
138.53251217933808
 21
130.75788306721569
  0
LINE
  8
_f-a_250
  6
CONTINUOUS
 62
  250
 10
138.53251217933808
 20
130.75788306721569
 11
138.7285876187911
 21
130.79176234730573
  0
LINE
  8
_f-a_250
  6
CONTINUOUS
 62
  250
 10
138.7285876187911
 20
130.79176234730573
 11
138.92406701179658
 21
130.78885364064072
  0
LINE
  8
_f-a_250
  6
CONTINUOUS
 62
  250
 10
138.92406701179658
 20
130.78885364064072
 11
139.11571978660709
 21
130.75135039814822
  0
LINE
  8
_f-a_250
  6
CONTINUOUS
 62
  250
 10
139.11571978660709
 20
130.75135039814822
 11
139.30033921333458
 21
130.68146991261375
  0
LINE
  8
_f-a_250
  6
CONTINUOUS
 62
  250
 10
139.30033921333458
 20
130.68146991261375
 11
139.47470664116057
 21
130.58145331868025
  0
LINE
  8
_f-a_250
  6
CONTINUOUS
 62
  250
 10
139.47470664116057
 20
130.58145331868025
 11
139.63560341926708
 21
130.45347022541873
  0
LINE
  8
_f-a_250
  6
CONTINUOUS
 62
  250
 10
139.63560341926708
 20
130.45347022541873
 11
139.77979897590757
 21
130.29973792561424
  0
LINE
  8
_f-a_250
  6
CONTINUOUS
 62
  250
 10
139.77979897590757
 20
130.29973792561424
 11
139.9040865811931
 21
130.12249755390974
  0
LINE
  8
_f-a_250
  6
CONTINUOUS
 62
  250
 10
139.01035069557307
 20
130.45625972279421
 11
139.09134148689409
 21
130.4019956541907
  0
LINE
  8
_f-a_250
  6
CONTINUOUS
 62
  250
 10
139.09134148689409
 20
130.4019956541907
 11
139.16835068794359
 21
130.34138965138322
  0
LINE
  8
_f-a_250
  6
CONTINUOUS
 62
  250
 10
139.16835068794359
 20
130.34138965138322
 11
139.2410087499251
 21
130.27468013295075
  0
LINE
  8
_f-a_250
  6
CONTINUOUS
 62
  250
 10
139.2410087499251
 20
130.27468013295075
 11
139.3089580449691
 21
130.20210551747175
  0
LINE
  8
_f-a_250
  6
CONTINUOUS
 62
  250
 10
139.3089580449691
 20
130.20210551747175
 11
139.37179326149106
 21
130.1239519072422
  0
LINE
  8
_f-a_250
  6
CONTINUOUS
 62
  250
 10
139.37179326149106
 20
130.1239519072422
 11
139.4291567716231
 21
130.04043387898324
  0
LINE
  8
_f-a_250
  6
CONTINUOUS
 62
  250
 10
139.4291567716231
 20
130.04043387898324
 11
139.48066710563808
 21
129.95183753498924
  0
LINE
  8
_f-a_250
  6
CONTINUOUS
 62
  250
 10
139.48066710563808
 20
129.95183753498924
 11
139.52595471473808
 21
129.85837745198123
  0
LINE
  8
_f-a_250
  6
CONTINUOUS
 62
  250
 10
266.65767907234306
 20
169.00623130329973
 11
272.29935406776553
 21
172.26457881459123
  0
LINE
  8
_f-a_250
  6
CONTINUOUS
 62
  250
 10
266.65767907234306
 20
168.38290977009675
 11
272.29935406776553
 21
171.64125728138825
  0
LINE
  8
_f-a_250
  6
CONTINUOUS
 62
  250
 10
272.29935406776553
 20
171.61624717244021
 11
272.29935406776553
 21
172.24958228596569
  0
LINE
  8
_f-a_250
  6
CONTINUOUS
 62
  250
 10
272.23934411140556
 20
172.29287909993025
 11
268.70934247108602
 21
174.33290767201325
  0
LINE
  8
_f-a_250
  6
CONTINUOUS
 62
  250
 10
268.70934247108602
 20
174.31123542317272
 11
266.76768540474058
 21
173.18954753407371
  0
LINE
  8
_f-a_250
  6
CONTINUOUS
 62
  250
 10
153.6913561734786
 20
105.83124446400521
 11
160.36518096061857
 21
109.6845655394447
  0
LINE
  8
_f-a_250
  6
CONTINUOUS
 62
  250
 10
153.6913561734786
 20
105.2879123640907
 11
160.36518096061857
 21
109.13958835133423
  0
LINE
  8
_f-a_250
  6
CONTINUOUS
 62
  250
 10
151.54484986396906
 20
106.5695791197667
 11
153.69019984336958
 21
105.32791900166373
  0
LINE
  8
_f-a_250
  6
CONTINUOUS
 62
  250
 10
151.56318425270209
 20
107.05957698353623
 11
153.6913561734786
 21
105.83124446400521
  0
LINE
  8
_f-a_250
  6
CONTINUOUS
 62
  250
 10
138.43352078529509
 20
114.60624026783822
 11
149.4433569821941
 21
108.24957179554822
  0
LINE
  8
_f-a_250
  6
CONTINUOUS
 62
  250
 10
138.43352078529509
 20
114.07623576649522
 11
149.4433569821941
 21
107.71959113606323
  0
LINE
  8
_f-a_250
  6
CONTINUOUS
 62
  250
 10
149.4433569821941
 20
107.76956367024273
 11
149.4433569821941
 21
108.26793002613873
  0
LINE
  8
_f-a_250
  6
CONTINUOUS
 62
  250
 10
138.43352078529509
 20
114.06121539601222
 11
138.43352078529509
 21
114.55958175190821
  0
LINE
  8
_f-a_250
  6
CONTINUOUS
 62
  250
 10
149.4433569821941
 20
108.30290603169324
 11
153.87102841468959
 21
110.85956382283072
  0
LINE
  8
_f-a_250
  6
CONTINUOUS
 62
  250
 10
153.87102841468959
 20
110.85956382283072
 11
153.90035389991908
 21
110.87124633320673
  0
LINE
  8
_f-a_250
  6
CONTINUOUS
 62
  250
 10
153.90035389991908
 20
110.87124633320673
 11
153.96775483223109
 21
110.91058539875871
  0
LINE
  8
_f-a_250
  6
CONTINUOUS
 62
  250
 10
153.96775483223109
 20
110.91058539875871
 11
154.03852938743708
 21
110.94644355305523
  0
LINE
  8
_f-a_250
  6
CONTINUOUS
 62
  250
 10
154.03852938743708
 20
110.94644355305523
 11
154.11243914695856
 21
110.9786777449502
  0
LINE
  8
_f-a_250
  6
CONTINUOUS
 62
  250
 10
154.11243914695856
 20
110.9786777449502
 11
154.18925761314509
 21
111.00712108143671
  0
LINE
  8
_f-a_250
  6
CONTINUOUS
 62
  250
 10
154.18925761314509
 20
111.00712108143671
 11
154.26874636741758
 21
111.03165435322623
  0
LINE
  8
_f-a_250
  6
CONTINUOUS
 62
  250
 10
154.26874636741758
 20
111.03165435322623
 11
154.35070275398408
 21
111.05208682545523
  0
LINE
  8
_f-a_250
  6
CONTINUOUS
 62
  250
 10
154.35070275398408
 20
111.05208682545523
 11
154.43488835426459
 21
111.06825160511822
  0
LINE
  8
_f-a_250
  6
CONTINUOUS
 62
  250
 10
154.43488835426459
 20
111.06825160511822
 11
154.52106474968107
 21
111.07998179921023
  0
LINE
  8
_f-a_250
  6
CONTINUOUS
 62
  250
 10
154.52106474968107
 20
111.07998179921023
 11
154.60901736351158
 21
111.08715819844124
  0
LINE
  8
_f-a_250
  6
CONTINUOUS
 62
  250
 10
154.60901736351158
 20
111.08715819844124
 11
154.69853161903509
 21
111.08956622609021
  0
LINE
  8
_f-a_250
  6
CONTINUOUS
 62
  250
 10
154.69853161903509
 20
111.08956622609021
 11
154.90687369438308
 21
111.07652472981323
  0
LINE
  8
_f-a_250
  6
CONTINUOUS
 62
  250
 10
154.90687369438308
 20
111.07652472981323
 11
155.1043677243816
 21
111.03873538502572
  0
LINE
  8
_f-a_250
  6
CONTINUOUS
 62
  250
 10
155.1043677243816
 20
111.03873538502572
 11
155.28839110466109
 21
110.9782962752232
  0
LINE
  8
_f-a_250
  6
CONTINUOUS
 62
  250
 10
155.28839110466109
 20
110.9782962752232
 11
155.45636891456758
 21
110.89723395832871
  0
LINE
  8
_f-a_250
  6
CONTINUOUS
 62
  250
 10
155.45636891456758
 20
110.89723395832871
 11
155.60565470787159
 21
110.79769420155421
  0
LINE
  8
_f-a_250
  6
CONTINUOUS
 62
  250
 10
155.60565470787159
 20
110.79769420155421
 11
155.73364972206261
 21
110.68170356282121
  0
LINE
  8
_f-a_250
  6
CONTINUOUS
 62
  250
 10
155.73364972206261
 20
110.68170356282121
 11
155.83774327369807
 21
110.55131244191021
  0
LINE
  8
_f-a_250
  6
CONTINUOUS
 62
  250
 10
155.83774327369807
 20
110.55131244191021
 11
155.91532467933808
 21
110.40859508046023
  0
LINE
  8
_f-a_250
  6
CONTINUOUS
 62
  250
 10
155.91532467933808
 20
110.40859508046023
 11
155.96379517646906
 21
110.25567340382472
  0
LINE
  8
_f-a_250
  6
CONTINUOUS
 62
  250
 10
155.96379517646906
 20
110.25567340382472
 11
155.98053216072208
 21
110.0945739699257
  0
LINE
  8
_f-a_250
  6
CONTINUOUS
 62
  250
 10
155.98053216072208
 20
110.0945739699257
 11
155.97467898460508
 21
109.99872970112671
  0
LINE
  8
_f-a_250
  6
CONTINUOUS
 62
  250
 10
155.97467898460508
 20
109.99872970112671
 11
155.9574770841231
 21
109.90550803669821
  0
LINE
  8
_f-a_250
  6
CONTINUOUS
 62
  250
 10
155.9574770841231
 20
109.90550803669821
 11
155.92946290107858
 21
109.81531428822373
  0
LINE
  8
_f-a_250
  6
CONTINUOUS
 62
  250
 10
155.92946290107858
 20
109.81531428822373
 11
155.89116095634608
 21
109.72855376728873
  0
LINE
  8
_f-a_250
  6
CONTINUOUS
 62
  250
 10
155.89116095634608
 20
109.72855376728873
 11
155.84310769172811
 21
109.64563178547724
  0
LINE
  8
_f-a_250
  6
CONTINUOUS
 62
  250
 10
155.84310769172811
 20
109.64563178547724
 11
155.78582762809859
 21
109.56692981251572
  0
LINE
  8
_f-a_250
  6
CONTINUOUS
 62
  250
 10
155.78582762809859
 20
109.56692981251572
 11
155.71986912819057
 21
109.49290084370475
  0
LINE
  8
_f-a_250
  6
CONTINUOUS
 62
  250
 10
155.71986912819057
 20
109.49290084370475
 11
155.64575671287659
 21
109.42397403248674
  0
LINE
  8
_f-a_250
  6
CONTINUOUS
 62
  250
 10
155.64575671287659
 20
109.42397403248674
 11
155.56401490303156
 21
109.36048316487174
  0
LINE
  8
_f-a_250
  6
CONTINUOUS
 62
  250
 10
155.56401490303156
 20
109.36048316487174
 11
155.47519206138759
 21
109.30290507801871
  0
LINE
  8
_f-a_250
  6
CONTINUOUS
 62
  250
 10
155.47519206138759
 20
109.30290507801871
 11
155.44535397621308
 21
109.2845706892857
  0
LINE
  8
_f-a_250
  6
CONTINUOUS
 62
  250
 10
155.44535397621308
 20
109.2845706892857
 11
151.57686947914257
 21
107.04956340321424
  0
LINE
  8
_f-a_250
  6
CONTINUOUS
 62
  250
 10
142.69313096138109
 20
118.13371467121974
 11
142.77076005073661
 21
117.99092578419572
  0
LINE
  8
_f-a_250
  6
CONTINUOUS
 62
  250
 10
142.77076005073661
 20
117.99092578419572
 11
142.81927823158409
 21
117.8377418471227
  0
LINE
  8
_f-a_250
  6
CONTINUOUS
 62
  250
 10
142.81927823158409
 20
117.8377418471227
 11
142.83602713676558
 21
117.67623710163922
  0
LINE
  8
_f-a_250
  6
CONTINUOUS
 62
  250
 10
142.83602713676558
 20
117.67623710163922
 11
142.83017396064906
 21
117.58044051655621
  0
LINE
  8
_f-a_250
  6
CONTINUOUS
 62
  250
 10
142.83017396064906
 20
117.58044051655621
 11
142.81298398109558
 21
117.48733806141723
  0
LINE
  8
_f-a_250
  6
CONTINUOUS
 62
  250
 10
142.81298398109558
 20
117.48733806141723
 11
142.78495787712211
 21
117.3972873640907
  0
LINE
  8
_f-a_250
  6
CONTINUOUS
 62
  250
 10
142.78495787712211
 20
117.3972873640907
 11
142.74665593238959
 21
117.3106937361607
  0
LINE
  8
_f-a_250
  6
CONTINUOUS
 62
  250
 10
142.74665593238959
 20
117.3106937361607
 11
142.69860266777158
 21
117.22791480549672
  0
LINE
  8
_f-a_250
  6
CONTINUOUS
 62
  250
 10
142.69860266777158
 20
117.22791480549672
 11
142.64132260414257
 21
117.1493320418252
  0
LINE
  8
_f-a_250
  6
CONTINUOUS
 62
  250
 10
142.64132260414257
 20
117.1493320418252
 11
142.5753641042341
 21
117.07532691487172
  0
LINE
  8
_f-a_250
  6
CONTINUOUS
 62
  250
 10
142.5753641042341
 20
117.07532691487172
 11
142.50125168892058
 21
117.00628089436422
  0
LINE
  8
_f-a_250
  6
CONTINUOUS
 62
  250
 10
142.50125168892058
 20
117.00628089436422
 11
142.41950987907558
 21
116.9425754500282
  0
LINE
  8
_f-a_250
  6
CONTINUOUS
 62
  250
 10
142.41950987907558
 20
116.9425754500282
 11
142.33068703743109
 21
116.8845920515907
  0
LINE
  8
_f-a_250
  6
CONTINUOUS
 62
  250
 10
142.33068703743109
 20
116.8845920515907
 11
142.30019330116409
 21
116.86625766285771
  0
LINE
  8
_f-a_250
  6
CONTINUOUS
 62
  250
 10
142.30019330116409
 20
116.86625766285771
 11
138.41668843361009
 21
114.62457465657121
  0
LINE
  8
_f-a_250
  6
CONTINUOUS
 62
  250
 10
142.5618219289411
 20
117.99779223927372
 11
142.65275477501061
 21
117.93360995777971
  0
LINE
  8
_f-a_250
  6
CONTINUOUS
 62
  250
 10
142.65275477501061
 20
117.93360995777971
 11
142.7354264173141
 21
117.86291884907574
  0
LINE
  8
_f-a_250
  6
CONTINUOUS
 62
  250
 10
142.7354264173141
 20
117.86291884907574
 11
142.80918120475908
 21
117.78624343403672
  0
LINE
  8
_f-a_250
  6
CONTINUOUS
 62
  250
 10
149.48118208976859
 20
107.76956367024273
 11
154.0540265950786
 21
110.40790366658072
  0
LINE
  8
_f-a_250
  6
CONTINUOUS
 62
  250
 10
154.0540265950786
 20
110.40790366658072
 11
154.08201693626509
 21
110.41956233509873
  0
LINE
  8
_f-a_250
  6
CONTINUOUS
 62
  250
 10
154.08201693626509
 20
110.41956233509873
 11
154.14958476158259
 21
110.4584245634922
  0
LINE
  8
_f-a_250
  6
CONTINUOUS
 62
  250
 10
154.14958476158259
 20
110.4584245634922
 11
154.22044276329157
 21
110.49394893177873
  0
LINE
  8
_f-a_250
  6
CONTINUOUS
 62
  250
 10
154.22044276329157
 20
110.49394893177873
 11
154.29437636467111
 21
110.5258970213782
  0
LINE
  8
_f-a_250
  6
CONTINUOUS
 62
  250
 10
154.29437636467111
 20
110.5258970213782
 11
154.37120675178659
 21
110.55414962300171
  0
LINE
  8
_f-a_250
  6
CONTINUOUS
 62
  250
 10
154.37120675178659
 20
110.55414962300171
 11
154.45068358513009
 21
110.5785160017857
  0
LINE
  8
_f-a_250
  6
CONTINUOUS
 62
  250
 10
154.45068358513009
 20
110.5785160017857
 11
154.5326280507671
 21
110.59885310658325
  0
LINE
  8
_f-a_250
  6
CONTINUOUS
 62
  250
 10
154.5326280507671
 20
110.59885310658325
 11
154.6168255719771
 21
110.61494636067273
  0
LINE
  8
_f-a_250
  6
CONTINUOUS
 62
  250
 10
154.6168255719771
 20
110.61494636067273
 11
154.70307349296709
 21
110.6266527129067
  0
LINE
  8
_f-a_250
  6
CONTINUOUS
 62
  250
 10
154.70307349296709
 20
110.6266527129067
 11
154.7911453160871
 21
110.6338291121377
  0
LINE
  8
_f-a_250
  6
CONTINUOUS
 62
  250
 10
154.7911453160871
 20
110.6338291121377
 11
154.8808622274031
 21
110.63623713978623
  0
LINE
  8
_f-a_250
  6
CONTINUOUS
 62
  250
 10
154.8808622274031
 20
110.63623713978623
 11
155.01196860405111
 21
110.63106345661973
  0
LINE
  8
_f-a_250
  6
CONTINUOUS
 62
  250
 10
155.01196860405111
 20
110.63106345661973
 11
155.1392722043621
 21
110.61590003498922
  0
LINE
  8
_f-a_250
  6
CONTINUOUS
 62
  250
 10
155.1392722043621
 20
110.61590003498922
 11
155.26214121910209
 21
110.59129523762573
  0
LINE
  8
_f-a_250
  6
CONTINUOUS
 62
  250
 10
155.26214121910209
 20
110.59129523762573
 11
155.37989615532058
 21
110.55767821797222
  0
LINE
  8
_f-a_250
  6
CONTINUOUS
 62
  250
 10
155.37989615532058
 20
110.55767821797222
 11
155.49191712471156
 21
110.5155973387612
  0
LINE
  8
_f-a_250
  6
CONTINUOUS
 62
  250
 10
155.49191712471156
 20
110.5155973387612
 11
155.5975603971111
 21
110.4656009627232
  0
LINE
  8
_f-a_250
  6
CONTINUOUS
 62
  250
 10
155.5975603971111
 20
110.4656009627232
 11
155.69617032142756
 21
110.40814208515972
  0
LINE
  8
_f-a_250
  6
CONTINUOUS
 62
  250
 10
155.69617032142756
 20
110.40814208515972
 11
155.78709124656808
 21
110.3437452269447
  0
LINE
  8
_f-a_250
  6
CONTINUOUS
 62
  250
 10
155.78709124656808
 20
110.3437452269447
 11
155.86971520515559
 21
110.27295875080924
  0
LINE
  8
_f-a_250
  6
CONTINUOUS
 62
  250
 10
155.86971520515559
 20
110.27295875080924
 11
155.94336270424006
 21
110.1962356520547
  0
LINE
  8
_f-a_250
  6
CONTINUOUS
 62
  250
 10
144.26235436531209
 20
112.66291427143921
 11
147.02286004158159
 21
114.25454902180523
  0
LINE
  8
_f-a_250
  6
CONTINUOUS
 62
  250
 10
147.02286004158159
 20
114.25454902180523
 11
147.0515179547896
 21
114.26623153218121
  0
LINE
  8
_f-a_250
  6
CONTINUOUS
 62
  250
 10
147.0515179547896
 20
114.26623153218121
 11
147.11887120338557
 21
114.3050937605752
  0
LINE
  8
_f-a_250
  6
CONTINUOUS
 62
  250
 10
147.11887120338557
 20
114.3050937605752
 11
147.18956231208909
 21
114.3405942870032
  0
LINE
  8
_f-a_250
  6
CONTINUOUS
 62
  250
 10
147.18956231208909
 20
114.3405942870032
 11
147.26340054603708
 21
114.37256621846072
  0
LINE
  8
_f-a_250
  6
CONTINUOUS
 62
  250
 10
147.26340054603708
 20
114.37256621846072
 11
147.34018324943659
 21
114.40081882008423
  0
LINE
  8
_f-a_250
  6
CONTINUOUS
 62
  250
 10
147.34018324943659
 20
114.40081882008423
 11
147.41969584556711
 21
114.42518519886822
  0
LINE
  8
_f-a_250
  6
CONTINUOUS
 62
  250
 10
147.41969584556711
 20
114.42518519886822
 11
147.50172375770711
 21
114.44549846180772
  0
LINE
  8
_f-a_250
  6
CONTINUOUS
 62
  250
 10
147.50172375770711
 20
114.44549846180772
 11
147.58605240913508
 21
114.46161555775521
  0
LINE
  8
_f-a_250
  6
CONTINUOUS
 62
  250
 10
147.58605240913508
 20
114.46161555775521
 11
147.67250298591759
 21
114.47332190998922
  0
LINE
  8
_f-a_250
  6
CONTINUOUS
 62
  250
 10
147.67250298591759
 20
114.47332190998922
 11
147.76083706947458
 21
114.48047446736223
  0
LINE
  8
_f-a_250
  6
CONTINUOUS
 62
  250
 10
147.76083706947458
 20
114.48047446736223
 11
147.8508639249431
 21
114.4828824950112
  0
LINE
  8
_f-a_250
  6
CONTINUOUS
 62
  250
 10
147.8508639249431
 20
114.4828824950112
 11
147.9818391713726
 21
114.47778033741821
  0
LINE
  8
_f-a_250
  6
CONTINUOUS
 62
  250
 10
147.9818391713726
 20
114.47778033741821
 11
148.10902356239461
 21
114.46273612507672
  0
LINE
  8
_f-a_250
  6
CONTINUOUS
 62
  250
 10
148.10902356239461
 20
114.46273612507672
 11
148.23179720970259
 21
114.4382982207192
  0
LINE
  8
_f-a_250
  6
CONTINUOUS
 62
  250
 10
148.23179720970259
 20
114.4382982207192
 11
148.34949254127608
 21
114.40491961964472
  0
LINE
  8
_f-a_250
  6
CONTINUOUS
 62
  250
 10
148.34949254127608
 20
114.40491961964472
 11
148.46146582695158
 21
114.36310100087022
  0
LINE
  8
_f-a_250
  6
CONTINUOUS
 62
  250
 10
148.46146582695158
 20
114.36310100087022
 11
148.56704949470659
 21
114.31334304341172
  0
LINE
  8
_f-a_250
  6
CONTINUOUS
 62
  250
 10
148.56704949470659
 20
114.31334304341172
 11
148.6656117353071
 21
114.2560987425697
  0
LINE
  8
_f-a_250
  6
CONTINUOUS
 62
  250
 10
148.6656117353071
 20
114.2560987425697
 11
148.75650881858957
 21
114.19191646107575
  0
LINE
  8
_f-a_250
  6
CONTINUOUS
 62
  250
 10
148.75650881858957
 20
114.19191646107575
 11
148.83907317253258
 21
114.12122535237174
  0
LINE
  8
_f-a_250
  6
CONTINUOUS
 62
  250
 10
148.83907317253258
 20
114.12122535237174
 11
148.91268490883007
 21
114.0445499373327
  0
LINE
  8
_f-a_250
  6
CONTINUOUS
 62
  250
 10
146.57751797767756
 20
112.0679168654332
 11
146.3300275716411
 21
111.9245557738197
  0
LINE
  8
_f-a_250
  6
CONTINUOUS
 62
  250
 10
146.3300275716411
 20
111.9245557738197
 11
146.30018948646659
 21
111.91289710530172
  0
LINE
  8
_f-a_250
  6
CONTINUOUS
 62
  250
 10
146.30018948646659
 20
111.91289710530172
 11
146.23296736808908
 21
111.87358188160769
  0
LINE
  8
_f-a_250
  6
CONTINUOUS
 62
  250
 10
146.23296736808908
 20
111.87358188160769
 11
146.1623954686751
 21
111.83772372731073
  0
LINE
  8
_f-a_250
  6
CONTINUOUS
 62
  250
 10
146.1623954686751
 20
111.83772372731073
 11
146.08866452308808
 21
111.8054895354162
  0
LINE
  8
_f-a_250
  6
CONTINUOUS
 62
  250
 10
146.08866452308808
 20
111.8054895354162
 11
146.01200102897758
 21
111.7770223570717
  0
LINE
  8
_f-a_250
  6
CONTINUOUS
 62
  250
 10
146.01200102897758
 20
111.7770223570717
 11
145.93261956306608
 21
111.75248908528224
  0
LINE
  8
_f-a_250
  6
CONTINUOUS
 62
  250
 10
145.93261956306608
 20
111.75248908528224
 11
145.85074662300258
 21
111.7320804549107
  0
LINE
  8
_f-a_250
  6
CONTINUOUS
 62
  250
 10
145.85074662300258
 20
111.7320804549107
 11
145.76660870643761
 21
111.7158918333897
  0
LINE
  8
_f-a_250
  6
CONTINUOUS
 62
  250
 10
145.76660870643761
 20
111.7158918333897
 11
145.68039654823409
 21
111.70416163929822
  0
LINE
  8
_f-a_250
  6
CONTINUOUS
 62
  250
 10
145.68039654823409
 20
111.70416163929822
 11
145.59236048790109
 21
111.69698524006722
  0
LINE
  8
_f-a_250
  6
CONTINUOUS
 62
  250
 10
145.59236048790109
 20
111.69698524006722
 11
145.50269126030111
 21
111.69457721241821
  0
LINE
  8
_f-a_250
  6
CONTINUOUS
 62
  250
 10
145.50269126030111
 20
111.69457721241821
 11
145.29467105003508
 21
111.70759486683724
  0
LINE
  8
_f-a_250
  6
CONTINUOUS
 62
  250
 10
145.29467105003508
 20
111.70759486683724
 11
145.0973558339706
 21
111.74524116047724
  0
LINE
  8
_f-a_250
  6
CONTINUOUS
 62
  250
 10
145.0973558339706
 20
111.74524116047724
 11
144.91340397926459
 21
111.8055372191322
  0
LINE
  8
_f-a_250
  6
CONTINUOUS
 62
  250
 10
144.91340397926459
 20
111.8055372191322
 11
144.7454142484296
 21
111.88640880116324
  0
LINE
  8
_f-a_250
  6
CONTINUOUS
 62
  250
 10
144.7454142484296
 20
111.88640880116324
 11
144.59606885048058
 21
111.98582934864871
  0
LINE
  8
_f-a_250
  6
CONTINUOUS
 62
  250
 10
144.59606885048058
 20
111.98582934864871
 11
144.46795462700007
 21
112.1017246199502
  0
LINE
  8
_f-a_250
  6
CONTINUOUS
 62
  250
 10
144.46795462700007
 20
112.1017246199502
 11
144.3637299451461
 21
112.23211574086072
  0
LINE
  8
_f-a_250
  6
CONTINUOUS
 62
  250
 10
144.3637299451461
 20
112.23211574086072
 11
144.28601740928761
 21
112.37488078602674
  0
LINE
  8
_f-a_250
  6
CONTINUOUS
 62
  250
 10
144.28601740928761
 20
112.37488078602674
 11
144.2374634656536
 21
112.52804088124171
  0
LINE
  8
_f-a_250
  6
CONTINUOUS
 62
  250
 10
144.2374634656536
 20
112.52804088124171
 11
144.22069071861409
 21
112.6895694685827
  0
LINE
  8
_f-a_250
  6
CONTINUOUS
 62
  250
 10
144.22069071861409
 20
112.6895694685827
 11
144.22653197380211
 21
112.78538989552371
  0
LINE
  8
_f-a_250
  6
CONTINUOUS
 62
  250
 10
144.22653197380211
 20
112.78538989552371
 11
144.24373387428409
 21
112.87863540181021
  0
LINE
  8
_f-a_250
  6
CONTINUOUS
 62
  250
 10
144.24373387428409
 20
112.87863540181021
 11
144.27174805732858
 21
112.96887683400024
  0
LINE
  8
_f-a_250
  6
CONTINUOUS
 62
  250
 10
144.27174805732858
 20
112.96887683400024
 11
144.31005000206108
 21
113.0557088805092
  0
LINE
  8
_f-a_250
  6
CONTINUOUS
 62
  250
 10
144.31005000206108
 20
113.0557088805092
 11
144.35807942482109
 21
113.13875007161023
  0
LINE
  8
_f-a_250
  6
CONTINUOUS
 62
  250
 10
144.35807942482109
 20
113.13875007161023
 11
144.41534756752159
 21
113.21757125386121
  0
LINE
  8
_f-a_250
  6
CONTINUOUS
 62
  250
 10
144.41534756752159
 20
113.21757125386121
 11
144.4812822255721
 21
113.29181479939322
  0
LINE
  8
_f-a_250
  6
CONTINUOUS
 62
  250
 10
144.4812822255721
 20
113.29181479939322
 11
144.5553707990276
 21
113.36105155476422
  0
LINE
  8
_f-a_250
  6
CONTINUOUS
 62
  250
 10
144.5553707990276
 20
113.36105155476422
 11
144.63707684608607
 21
113.4248762083897
  0
LINE
  8
_f-a_250
  6
CONTINUOUS
 62
  250
 10
144.63707684608607
 20
113.4248762083897
 11
144.7258639249431
 21
113.48290729054321
  0
LINE
  8
_f-a_250
  6
CONTINUOUS
 62
  250
 10
144.7258639249431
 20
113.48290729054321
 11
144.7558569821941
 21
113.49957274922222
  0
LINE
  8
_f-a_250
  6
CONTINUOUS
 62
  250
 10
144.7558569821941
 20
113.49957274922222
 11
145.02802371116758
 21
113.6579065276037
  0
LINE
  8
_f-a_250
  6
CONTINUOUS
 62
  250
 10
145.02802371116758
 20
113.6579065276037
 11
145.06252287956357
 21
113.68124770649771
  0
LINE
  8
_f-a_250
  6
CONTINUOUS
 62
  250
 10
145.06252287956357
 20
113.68124770649771
 11
146.84052943321359
 21
114.70623301991324
  0
LINE
  8
_f-a_250
  6
CONTINUOUS
 62
  250
 10
146.84052943321359
 20
114.70623301991324
 11
146.8691873464216
 21
114.71956061848523
  0
LINE
  8
_f-a_250
  6
CONTINUOUS
 62
  250
 10
146.8691873464216
 20
114.71956061848523
 11
146.9366717252361
 21
114.75885200032121
  0
LINE
  8
_f-a_250
  6
CONTINUOUS
 62
  250
 10
146.9366717252361
 20
114.75885200032121
 11
147.00742243858457
 21
114.79456710347071
  0
LINE
  8
_f-a_250
  6
CONTINUOUS
 62
  250
 10
147.00742243858457
 20
114.79456710347071
 11
147.08122490974557
 21
114.8266344023597
  0
LINE
  8
_f-a_250
  6
CONTINUOUS
 62
  250
 10
147.08122490974557
 20
114.8266344023597
 11
147.15791224571359
 21
114.85486316212524
  0
LINE
  8
_f-a_250
  6
CONTINUOUS
 62
  250
 10
147.15791224571359
 20
114.85486316212524
 11
147.23728179069658
 21
114.87915801533572
  0
LINE
  8
_f-a_250
  6
CONTINUOUS
 62
  250
 10
147.23728179069658
 20
114.87915801533572
 11
147.31917857261809
 21
114.89932822712771
  0
LINE
  8
_f-a_250
  6
CONTINUOUS
 62
  250
 10
147.31917857261809
 20
114.89932822712771
 11
147.4033760938276
 21
114.9152545882117
  0
LINE
  8
_f-a_250
  6
CONTINUOUS
 62
  250
 10
147.4033760938276
 20
114.9152545882117
 11
147.48970746132011
 21
114.92681788929822
  0
LINE
  8
_f-a_250
  6
CONTINUOUS
 62
  250
 10
147.48970746132011
 20
114.92681788929822
 11
147.57799386116159
 21
114.93385123738172
  0
LINE
  8
_f-a_250
  6
CONTINUOUS
 62
  250
 10
147.57799386116159
 20
114.93385123738172
 11
147.66803263755909
 21
114.93623542317273
  0
LINE
  8
_f-a_250
  6
CONTINUOUS
 62
  250
 10
147.66803263755909
 20
114.93623542317273
 11
147.87587403389108
 21
114.92321776875374
  0
LINE
  8
_f-a_250
  6
CONTINUOUS
 62
  250
 10
147.87587403389108
 20
114.92321776875374
 11
148.0730700406661
 21
114.88554763325574
  0
LINE
  8
_f-a_250
  6
CONTINUOUS
 62
  250
 10
148.0730700406661
 20
114.88554763325574
 11
148.25697421165611
 21
114.82529925831673
  0
LINE
  8
_f-a_250
  6
CONTINUOUS
 62
  250
 10
148.25697421165611
 20
114.82529925831673
 11
148.42494010063308
 21
114.74449920185921
  0
LINE
  8
_f-a_250
  6
CONTINUOUS
 62
  250
 10
148.42494010063308
 20
114.74449920185921
 11
148.57432126136911
 21
114.64517402180523
  0
LINE
  8
_f-a_250
  6
CONTINUOUS
 62
  250
 10
148.57432126136911
 20
114.64517402180523
 11
148.7024593267071
 21
114.52942180165174
  0
LINE
  8
_f-a_250
  6
CONTINUOUS
 62
  250
 10
148.7024593267071
 20
114.52942180165174
 11
148.80673169227711
 21
114.39929294117823
  0
LINE
  8
_f-a_250
  6
CONTINUOUS
 62
  250
 10
148.80673169227711
 20
114.39929294117823
 11
148.88446806999357
 21
114.25676631459123
  0
LINE
  8
_f-a_250
  6
CONTINUOUS
 62
  250
 10
148.88446806999357
 20
114.25676631459123
 11
148.93306969734309
 21
114.10396384724473
  0
LINE
  8
_f-a_250
  6
CONTINUOUS
 62
  250
 10
148.93306969734309
 20
114.10396384724473
 11
148.94985436531209
 21
113.94288825520371
  0
LINE
  8
_f-a_250
  6
CONTINUOUS
 62
  250
 10
148.94985436531209
 20
113.94288825520371
 11
148.9439773473371
 21
113.84706782826325
  0
LINE
  8
_f-a_250
  6
CONTINUOUS
 62
  250
 10
148.9439773473371
 20
113.84706782826325
 11
148.92673968406808
 21
113.75384616383423
  0
LINE
  8
_f-a_250
  6
CONTINUOUS
 62
  250
 10
148.92673968406808
 20
113.75384616383423
 11
148.8986420545211
 21
113.66360473164423
  0
LINE
  8
_f-a_250
  6
CONTINUOUS
 62
  250
 10
148.8986420545211
 20
113.66360473164423
 11
148.86023282142756
 21
113.57677268513571
  0
LINE
  8
_f-a_250
  6
CONTINUOUS
 62
  250
 10
148.86023282142756
 20
113.57677268513571
 11
148.81202458473359
 21
113.49373149403424
  0
LINE
  8
_f-a_250
  6
CONTINUOUS
 62
  250
 10
148.81202458473359
 20
113.49373149403424
 11
148.75456570717006
 21
113.4149103117837
  0
LINE
  8
_f-a_250
  6
CONTINUOUS
 62
  250
 10
148.75456570717006
 20
113.4149103117837
 11
148.68836878868208
 21
113.34066676625122
  0
LINE
  8
_f-a_250
  6
CONTINUOUS
 62
  250
 10
148.68836878868208
 20
113.34066676625122
 11
148.61397027107358
 21
113.27143001088021
  0
LINE
  8
_f-a_250
  6
CONTINUOUS
 62
  250
 10
148.61397027107358
 20
113.27143001088021
 11
148.5318946752181
 21
113.20760535725472
  0
LINE
  8
_f-a_250
  6
CONTINUOUS
 62
  250
 10
148.5318946752181
 20
113.20760535725472
 11
148.44269036384708
 21
113.14957427510123
  0
LINE
  8
_f-a_250
  6
CONTINUOUS
 62
  250
 10
148.44269036384708
 20
113.14957427510123
 11
148.41400860878107
 21
113.1329088164222
  0
LINE
  8
_f-a_250
  6
CONTINUOUS
 62
  250
 10
148.41400860878107
 20
113.1329088164222
 11
146.61002635093809
 21
112.08956527241571
  0
LINE
  8
_f-a_250
  6
CONTINUOUS
 62
  250
 10
146.61002635093809
 20
112.08956527241571
 11
146.57751797767756
 21
112.0679168654332
  0
LINE
  8
_f-a_250
  6
CONTINUOUS
 62
  250
 10
266.18434666725307
 20
174.71289920338523
 11
266.10750435920858
 21
174.72915935047973
  0
LINE
  8
_f-a_250
  6
CONTINUOUS
 62
  250
 10
266.10750435920858
 20
174.72915935047973
 11
266.03464364143508
 21
174.77624701985224
  0
LINE
  8
_f-a_250
  6
CONTINUOUS
 62
  250
 10
266.03464364143508
 20
174.77624701985224
 11
265.96671818824905
 21
174.85161113270618
  0
LINE
  8
_f-a_250
  6
CONTINUOUS
 62
  250
 10
265.96671818824905
 20
174.85161113270618
 11
265.90470551582456
 21
174.9526767683877
  0
LINE
  8
_f-a_250
  6
CONTINUOUS
 62
  250
 10
265.90470551582456
 20
174.9526767683877
 11
265.8495592984786
 21
175.07684516438371
  0
LINE
  8
_f-a_250
  6
CONTINUOUS
 62
  250
 10
265.8495592984786
 20
175.07684516438371
 11
265.80228089424253
 21
175.22158908375621
  0
LINE
  8
_f-a_250
  6
CONTINUOUS
 62
  250
 10
265.80228089424253
 20
175.22158908375621
 11
265.76380013557554
 21
175.38428592213523
  0
LINE
  8
_f-a_250
  6
CONTINUOUS
 62
  250
 10
265.76380013557554
 20
175.38428592213523
 11
265.73514222236753
 21
175.56240844258173
  0
LINE
  8
_f-a_250
  6
CONTINUOUS
 62
  250
 10
265.73514222236753
 20
175.56240844258173
 11
265.71721314521909
 21
175.75335788258423
  0
LINE
  8
_f-a_250
  6
CONTINUOUS
 62
  250
 10
265.71721314521909
 20
175.75335788258423
 11
265.71101426216256
 21
175.9545831633462
  0
LINE
  8
_f-a_250
  6
CONTINUOUS
 62
  250
 10
265.71101426216256
 20
175.9545831633462
 11
265.71721314521909
 21
176.1557607603917
  0
LINE
  8
_f-a_250
  6
CONTINUOUS
 62
  250
 10
265.71721314521909
 20
176.1557607603917
 11
265.73514222236753
 21
176.34656714924671
  0
LINE
  8
_f-a_250
  6
CONTINUOUS
 62
  250
 10
265.73514222236753
 20
176.34656714924671
 11
265.76380013557554
 21
176.52449893483021
  0
LINE
  8
_f-a_250
  6
CONTINUOUS
 62
  250
 10
265.76380013557554
 20
176.52449893483021
 11
265.80228089424253
 21
176.6869811964882
  0
LINE
  8
_f-a_250
  6
CONTINUOUS
 62
  250
 10
265.80228089424253
 20
176.6869811964882
 11
265.8495592984786
 21
176.8314390135657
  0
LINE
  8
_f-a_250
  6
CONTINUOUS
 62
  250
 10
265.8495592984786
 20
176.8314390135657
 11
265.90470551582456
 21
176.95536899098269
  0
LINE
  8
_f-a_250
  6
CONTINUOUS
 62
  250
 10
265.90470551582456
 20
176.95536899098269
 11
265.96671818824905
 21
177.05619620808471
  0
LINE
  8
_f-a_250
  6
CONTINUOUS
 62
  250
 10
265.96671818824905
 20
177.05619620808471
 11
266.03464364143508
 21
177.13136958607575
  0
LINE
  8
_f-a_250
  6
CONTINUOUS
 62
  250
 10
266.03464364143508
 20
177.13136958607575
 11
266.10750435920858
 21
177.1783380461587
  0
LINE
  8
_f-a_250
  6
CONTINUOUS
 62
  250
 10
266.10750435920858
 20
177.1783380461587
 11
266.18434666725307
 21
177.1945743513952
  0
LINE
  8
_f-a_250
  6
CONTINUOUS
 62
  250
 10
168.08435200782907
 20
105.54788398274273
 11
167.2443437490096
 21
105.02622413166873
  0
LINE
  8
_f-a_250
  6
CONTINUOUS
 62
  250
 10
160.43168782325859
 20
109.6845655394447
 11
160.43168782325859
 21
109.13789557942273
  0
LINE
  8
_f-a_250
  6
CONTINUOUS
 62
  250
 10
151.56318425270209
 20
107.09290790089472
 11
151.56318425270209
 21
106.54623794087271
  0
LINE
  8
_f-a_250
  6
CONTINUOUS
 62
  250
 10
117.0983600530256
 20
113.9762668562782
 11
117.07883357139707
 21
113.96675395497174
  0
LINE
  8
_f-a_250
  6
CONTINUOUS
 62
  250
 10
117.07883357139707
 20
113.96675395497174
 11
117.05898522468709
 21
113.95728873738172
  0
LINE
  8
_f-a_250
  6
CONTINUOUS
 62
  250
 10
117.05898522468709
 20
113.95728873738172
 11
117.0388150128951
 21
113.9478712035072
  0
LINE
  8
_f-a_250
  6
CONTINUOUS
 62
  250
 10
117.0388150128951
 20
113.9478712035072
 11
117.01837061973711
 21
113.9385728789222
  0
LINE
  8
_f-a_250
  6
CONTINUOUS
 62
  250
 10
117.01837061973711
 20
113.9385728789222
 11
116.99764012428406
 21
113.92936992176871
  0
LINE
  8
_f-a_250
  6
CONTINUOUS
 62
  250
 10
116.99764012428406
 20
113.92936992176871
 11
116.97667121025208
 21
113.9203338576207
  0
LINE
  8
_f-a_250
  6
CONTINUOUS
 62
  250
 10
116.97667121025208
 20
113.9203338576207
 11
116.95547579857012
 21
113.91146468647821
  0
LINE
  8
_f-a_250
  6
CONTINUOUS
 62
  250
 10
116.95547579857012
 20
113.91146468647821
 11
116.9340658101666
 21
113.90281009205674
  0
LINE
  8
_f-a_250
  6
CONTINUOUS
 62
  250
 10
116.9340658101666
 20
113.90281009205674
 11
116.91246508690008
 21
113.89439391621472
  0
LINE
  8
_f-a_250
  6
CONTINUOUS
 62
  250
 10
116.91246508690008
 20
113.89439391621472
 11
116.89068554969907
 21
113.88624000080924
  0
LINE
  8
_f-a_250
  6
CONTINUOUS
 62
  250
 10
116.89068554969907
 20
113.88624000080924
 11
116.6755962285626
 21
113.82592010029671
  0
LINE
  8
_f-a_250
  6
CONTINUOUS
 62
  250
 10
116.6755962285626
 20
113.82592010029671
 11
116.45676373573409
 21
113.79323291310172
  0
LINE
  8
_f-a_250
  6
CONTINUOUS
 62
  250
 10
116.45676373573409
 20
113.79323291310172
 11
116.23807429405358
 21
113.78712939747672
  0
LINE
  8
_f-a_250
  6
CONTINUOUS
 62
  250
 10
115.08299588295105
 20
115.35046386250374
 11
115.1811051282516
 21
115.46869563588021
  0
LINE
  8
_f-a_250
  6
CONTINUOUS
 62
  250
 10
115.1811051282516
 20
115.46869563588021
 11
115.29934882255711
 21
115.57731914051871
  0
LINE
  8
_f-a_250
  6
CONTINUOUS
 62
  250
 10
115.29934882255711
 20
115.57731914051871
 11
115.43685673805356
 21
115.67457007893424
  0
LINE
  8
_f-a_250
  6
CONTINUOUS
 62
  250
 10
115.43685673805356
 20
115.67457007893424
 11
115.47068833442808
 21
115.69123553761374
  0
LINE
  8
_f-a_250
  6
CONTINUOUS
 62
  250
 10
144.19601439567711
 20
132.59790229328974
 11
144.25452231498861
 21
132.6245574904332
  0
LINE
  8
_f-a_250
  6
CONTINUOUS
 62
  250
 10
144.25452231498861
 20
132.6245574904332
 11
144.27383421989558
 21
132.63445186146623
  0
LINE
  8
_f-a_250
  6
CONTINUOUS
 62
  250
 10
144.27383421989558
 20
132.63445186146623
 11
144.29349183174259
 21
132.64415549763572
  0
LINE
  8
_f-a_250
  6
CONTINUOUS
 62
  250
 10
144.29349183174259
 20
132.64415549763572
 11
144.3134355458846
 21
132.65362071522574
  0
LINE
  8
_f-a_250
  6
CONTINUOUS
 62
  250
 10
144.3134355458846
 20
132.65362071522574
 11
144.33367728325007
 21
132.66287135609522
  0
LINE
  8
_f-a_250
  6
CONTINUOUS
 62
  250
 10
144.33367728325007
 20
132.66287135609522
 11
144.35415743919509
 21
132.67185973652721
  0
LINE
  8
_f-a_250
  6
CONTINUOUS
 62
  250
 10
144.35415743919509
 20
132.67185973652721
 11
144.37488793464809
 21
132.68060969838021
  0
LINE
  8
_f-a_250
  6
CONTINUOUS
 62
  250
 10
144.37488793464809
 20
132.68060969838021
 11
144.39582108589309
 21
132.68909739979622
  0
LINE
  8
_f-a_250
  6
CONTINUOUS
 62
  250
 10
144.39582108589309
 20
132.68909739979622
 11
144.41695689293059
 21
132.69729899891723
  0
LINE
  8
_f-a_250
  6
CONTINUOUS
 62
  250
 10
144.41695689293059
 20
132.69729899891723
 11
144.43824767204407
 21
132.70526217945923
  0
LINE
  8
_f-a_250
  6
CONTINUOUS
 62
  250
 10
144.43824767204407
 20
132.70526217945923
 11
144.45969342323409
 21
132.71291541584822
  0
LINE
  8
_f-a_250
  6
CONTINUOUS
 62
  250
 10
144.45969342323409
 20
132.71291541584822
 11
144.67410325142058
 21
132.77328300007673
  0
LINE
  8
_f-a_250
  6
CONTINUOUS
 62
  250
 10
144.67410325142058
 20
132.77328300007673
 11
144.89218472572458
 21
132.80611323841921
  0
LINE
  8
_f-a_250
  6
CONTINUOUS
 62
  250
 10
144.89218472572458
 20
132.80611323841921
 11
145.11011122795259
 21
132.81243133076524
  0
LINE
  8
_f-a_250
  6
CONTINUOUS
 62
  250
 10
145.11011122795259
 20
132.81243133076524
 11
145.32402037712211
 21
132.79331016072175
  0
LINE
  8
_f-a_250
  6
CONTINUOUS
 62
  250
 10
145.32402037712211
 20
132.79331016072175
 11
145.53009747596857
 21
132.74977492817771
  0
LINE
  8
_f-a_250
  6
CONTINUOUS
 62
  250
 10
145.53009747596857
 20
132.74977492817771
 11
145.7245039853681
 21
132.68289851673973
  0
LINE
  8
_f-a_250
  6
CONTINUOUS
 62
  250
 10
145.7245039853681
 20
132.68289851673973
 11
145.90336560341009
 21
132.59370612629772
  0
LINE
  8
_f-a_250
  6
CONTINUOUS
 62
  250
 10
145.90336560341009
 20
132.59370612629772
 11
146.06290339561608
 21
132.4832944823157
  0
LINE
  8
_f-a_250
  6
CONTINUOUS
 62
  250
 10
146.06290339561608
 20
132.4832944823157
 11
146.19921921821708
 21
132.35266494282575
  0
LINE
  8
_f-a_250
  6
CONTINUOUS
 62
  250
 10
146.19921921821708
 20
132.35266494282575
 11
146.30851029487758
 21
132.20289039143424
  0
LINE
  8
_f-a_250
  6
CONTINUOUS
 62
  250
 10
146.30851029487758
 20
132.20289039143424
 11
146.37562512489461
 21
132.06653880604622
  0
LINE
  8
_f-a_250
  6
CONTINUOUS
 62
  250
 10
146.37562512489461
 20
132.06653880604622
 11
146.4165377530681
 21
131.92763614186174
  0
LINE
  8
_f-a_250
  6
CONTINUOUS
 62
  250
 10
146.4165377530681
 20
131.92763614186174
 11
146.43214224907058
 21
131.78792285450822
  0
LINE
  8
_f-a_250
  6
CONTINUOUS
 62
  250
 10
146.43214224907058
 20
131.78792285450822
 11
146.42330884071461
 21
131.64918708332871
  0
LINE
  8
_f-a_250
  6
CONTINUOUS
 62
  250
 10
146.42330884071461
 20
131.64918708332871
 11
146.3909435186016
 21
131.51309775837771
  0
LINE
  8
_f-a_250
  6
CONTINUOUS
 62
  250
 10
146.3909435186016
 20
131.51309775837771
 11
146.33590458961606
 21
131.38149070271371
  0
LINE
  8
_f-a_250
  6
CONTINUOUS
 62
  250
 10
146.33590458961606
 20
131.38149070271371
 11
146.25909804435861
 21
131.25608253010623
  0
LINE
  8
_f-a_250
  6
CONTINUOUS
 62
  250
 10
146.25909804435861
 20
131.25608253010623
 11
146.16139411064259
 21
131.13863753804071
  0
LINE
  8
_f-a_250
  6
CONTINUOUS
 62
  250
 10
146.16139411064259
 20
131.13863753804071
 11
146.04368685814009
 21
131.03087234028672
  0
LINE
  8
_f-a_250
  6
CONTINUOUS
 62
  250
 10
146.04368685814009
 20
131.03087234028672
 11
145.9068584355941
 21
130.93457507618774
  0
LINE
  8
_f-a_250
  6
CONTINUOUS
 62
  250
 10
145.9068584355941
 20
130.93457507618774
 11
145.88019131752159
 21
130.91292666920523
  0
LINE
  8
_f-a_250
  6
CONTINUOUS
 62
  250
 10
117.12434767814759
 20
113.99123954304574
 11
117.0983600530256
 21
113.9762668562782
  0
LINE
  8
_0-7_7
  6
CONTINUOUS
 62
    7
 10
117.0983600530256
 20
113.9762668562782
 11
117.07883357139707
 21
113.96675395497174
  0
LINE
  8
_0-7_7
  6
CONTINUOUS
 62
    7
 10
117.07883357139707
 20
113.96675395497174
 11
117.05898522468709
 21
113.95728873738172
  0
LINE
  8
_0-7_7
  6
CONTINUOUS
 62
    7
 10
117.05898522468709
 20
113.95728873738172
 11
117.0388150128951
 21
113.9478712035072
  0
LINE
  8
_0-7_7
  6
CONTINUOUS
 62
    7
 10
117.0388150128951
 20
113.9478712035072
 11
117.01837061973711
 21
113.9385728789222
  0
LINE
  8
_0-7_7
  6
CONTINUOUS
 62
    7
 10
117.01837061973711
 20
113.9385728789222
 11
116.99764012428406
 21
113.92936992176871
  0
LINE
  8
_0-7_7
  6
CONTINUOUS
 62
    7
 10
116.99764012428406
 20
113.92936992176871
 11
116.97667121025208
 21
113.9203338576207
  0
LINE
  8
_0-7_7
  6
CONTINUOUS
 62
    7
 10
116.97667121025208
 20
113.9203338576207
 11
116.95547579857012
 21
113.91146468647821
  0
LINE
  8
_0-7_7
  6
CONTINUOUS
 62
    7
 10
116.95547579857012
 20
113.91146468647821
 11
116.9340658101666
 21
113.90281009205674
  0
LINE
  8
_0-7_7
  6
CONTINUOUS
 62
    7
 10
116.9340658101666
 20
113.90281009205674
 11
116.91246508690008
 21
113.89439391621472
  0
LINE
  8
_0-7_7
  6
CONTINUOUS
 62
    7
 10
116.91246508690008
 20
113.89439391621472
 11
116.89068554969907
 21
113.88624000080924
  0
LINE
  8
_0-7_7
  6
CONTINUOUS
 62
    7
 10
116.89068554969907
 20
113.88624000080924
 11
116.6755962285626
 21
113.82592010029671
  0
LINE
  8
_0-7_7
  6
CONTINUOUS
 62
    7
 10
116.6755962285626
 20
113.82592010029671
 11
116.45676373573409
 21
113.79323291310172
  0
LINE
  8
_0-7_7
  6
CONTINUOUS
 62
    7
 10
116.45676373573409
 20
113.79323291310172
 11
116.23807429405358
 21
113.78712939747672
  0
LINE
  8
_0-7_7
  6
CONTINUOUS
 62
    7
 10
116.23807429405358
 20
113.78712939747672
 11
116.02331875892759
 21
113.8065366698157
  0
LINE
  8
_0-7_7
  6
CONTINUOUS
 62
    7
 10
114.95064972969212
 20
115.0920658064732
 11
115.0058793935406
 21
115.22434043415925
  0
LINE
  8
_0-7_7
  6
CONTINUOUS
 62
    7
 10
115.0058793935406
 20
115.22434043415925
 11
115.08299588295105
 21
115.35046386250374
  0
LINE
  8
_0-7_7
  6
CONTINUOUS
 62
    7
 10
115.08299588295105
 20
115.35046386250374
 11
115.1811051282516
 21
115.46869563588021
  0
LINE
  8
_0-7_7
  6
CONTINUOUS
 62
    7
 10
115.1811051282516
 20
115.46869563588021
 11
115.29934882255711
 21
115.57731914051871
  0
LINE
  8
_0-7_7
  6
CONTINUOUS
 62
    7
 10
115.29934882255711
 20
115.57731914051871
 11
115.43685673805356
 21
115.67457007893424
  0
LINE
  8
_0-7_7
  6
CONTINUOUS
 62
    7
 10
115.43685673805356
 20
115.67457007893424
 11
115.47068833442808
 21
115.69123553761374
  0
LINE
  8
_0-7_7
  6
CONTINUOUS
 62
    7
 10
144.19601439567711
 20
132.59790229328974
 11
144.25452231498861
 21
132.6245574904332
  0
LINE
  8
_0-7_7
  6
CONTINUOUS
 62
    7
 10
144.25452231498861
 20
132.6245574904332
 11
144.27383421989558
 21
132.63445186146623
  0
LINE
  8
_0-7_7
  6
CONTINUOUS
 62
    7
 10
144.27383421989558
 20
132.63445186146623
 11
144.29349183174259
 21
132.64415549763572
  0
LINE
  8
_0-7_7
  6
CONTINUOUS
 62
    7
 10
144.29349183174259
 20
132.64415549763572
 11
144.3134355458846
 21
132.65362071522574
  0
LINE
  8
_0-7_7
  6
CONTINUOUS
 62
    7
 10
144.3134355458846
 20
132.65362071522574
 11
144.33367728325007
 21
132.66287135609522
  0
LINE
  8
_0-7_7
  6
CONTINUOUS
 62
    7
 10
144.33367728325007
 20
132.66287135609522
 11
144.35415743919509
 21
132.67185973652721
  0
LINE
  8
_0-7_7
  6
CONTINUOUS
 62
    7
 10
144.35415743919509
 20
132.67185973652721
 11
144.37488793464809
 21
132.68060969838021
  0
LINE
  8
_0-7_7
  6
CONTINUOUS
 62
    7
 10
144.37488793464809
 20
132.68060969838021
 11
144.39582108589309
 21
132.68909739979622
  0
LINE
  8
_0-7_7
  6
CONTINUOUS
 62
    7
 10
144.39582108589309
 20
132.68909739979622
 11
144.41695689293059
 21
132.69729899891723
  0
LINE
  8
_0-7_7
  6
CONTINUOUS
 62
    7
 10
144.41695689293059
 20
132.69729899891723
 11
144.43824767204407
 21
132.70526217945923
  0
LINE
  8
_0-7_7
  6
CONTINUOUS
 62
    7
 10
144.43824767204407
 20
132.70526217945923
 11
144.45969342323409
 21
132.71291541584822
  0
LINE
  8
_0-7_7
  6
CONTINUOUS
 62
    7
 10
144.45969342323409
 20
132.71291541584822
 11
144.67410325142058
 21
132.77328300007673
  0
LINE
  8
_0-7_7
  6
CONTINUOUS
 62
    7
 10
144.67410325142058
 20
132.77328300007673
 11
144.89218472572458
 21
132.80611323841921
  0
LINE
  8
_0-7_7
  6
CONTINUOUS
 62
    7
 10
144.89218472572458
 20
132.80611323841921
 11
145.11011122795259
 21
132.81243133076524
  0
LINE
  8
_0-7_7
  6
CONTINUOUS
 62
    7
 10
145.11011122795259
 20
132.81243133076524
 11
145.32402037712211
 21
132.79331016072175
  0
LINE
  8
_0-7_7
  6
CONTINUOUS
 62
    7
 10
145.32402037712211
 20
132.79331016072175
 11
145.53009747596857
 21
132.74977492817771
  0
LINE
  8
_0-7_7
  6
CONTINUOUS
 62
    7
 10
145.53009747596857
 20
132.74977492817771
 11
145.7245039853681
 21
132.68289851673973
  0
LINE
  8
_0-7_7
  6
CONTINUOUS
 62
    7
 10
145.7245039853681
 20
132.68289851673973
 11
145.90336560341009
 21
132.59370612629772
  0
LINE
  8
_0-7_7
  6
CONTINUOUS
 62
    7
 10
145.90336560341009
 20
132.59370612629772
 11
146.06290339561608
 21
132.4832944823157
  0
LINE
  8
_0-7_7
  6
CONTINUOUS
 62
    7
 10
146.06290339561608
 20
132.4832944823157
 11
146.19921921821708
 21
132.35266494282575
  0
LINE
  8
_0-7_7
  6
CONTINUOUS
 62
    7
 10
146.19921921821708
 20
132.35266494282575
 11
146.30851029487758
 21
132.20289039143424
  0
LINE
  8
_0-7_7
  6
CONTINUOUS
 62
    7
 10
146.30851029487758
 20
132.20289039143424
 11
146.37562512489461
 21
132.06653880604622
  0
LINE
  8
_0-7_7
  6
CONTINUOUS
 62
    7
 10
146.37562512489461
 20
132.06653880604622
 11
146.4165377530681
 21
131.92763614186174
  0
LINE
  8
_0-7_7
  6
CONTINUOUS
 62
    7
 10
146.4165377530681
 20
131.92763614186174
 11
146.43214224907058
 21
131.78792285450822
  0
LINE
  8
_0-7_7
  6
CONTINUOUS
 62
    7
 10
146.43214224907058
 20
131.78792285450822
 11
146.42330884071461
 21
131.64918708332871
  0
LINE
  8
_0-7_7
  6
CONTINUOUS
 62
    7
 10
146.42330884071461
 20
131.64918708332871
 11
146.3909435186016
 21
131.51309775837771
  0
LINE
  8
_0-7_7
  6
CONTINUOUS
 62
    7
 10
146.3909435186016
 20
131.51309775837771
 11
146.33590458961606
 21
131.38149070271371
  0
LINE
  8
_0-7_7
  6
CONTINUOUS
 62
    7
 10
146.33590458961606
 20
131.38149070271371
 11
146.25909804435861
 21
131.25608253010623
  0
LINE
  8
_0-7_7
  6
CONTINUOUS
 62
    7
 10
146.25909804435861
 20
131.25608253010623
 11
146.16139411064259
 21
131.13863753804071
  0
LINE
  8
_0-7_7
  6
CONTINUOUS
 62
    7
 10
146.16139411064259
 20
131.13863753804071
 11
146.04368685814009
 21
131.03087234028672
  0
LINE
  8
_0-7_7
  6
CONTINUOUS
 62
    7
 10
146.04368685814009
 20
131.03087234028672
 11
145.9068584355941
 21
130.93457507618774
  0
LINE
  8
_0-7_7
  6
CONTINUOUS
 62
    7
 10
145.9068584355941
 20
130.93457507618774
 11
145.88019131752159
 21
130.91292666920523
  0
LINE
  8
_0-7_7
  6
CONTINUOUS
 62
    7
 10
117.12434767814759
 20
113.99123954304574
 11
117.0983600530256
 21
113.9762668562782
  0
LINE
  8
_0-7_7
  6
CONTINUOUS
 62
    7
 10
115.45569180580259
 20
115.68956660755973
 11
115.4750037107101
 21
115.69946097859274
  0
LINE
  8
_0-7_7
  6
CONTINUOUS
 62
    7
 10
115.4750037107101
 20
115.69946097859274
 11
115.49466132255711
 21
115.70914077290422
  0
LINE
  8
_0-7_7
  6
CONTINUOUS
 62
    7
 10
115.49466132255711
 20
115.70914077290422
 11
115.51461695762757
 21
115.71862983235224
  0
LINE
  8
_0-7_7
  6
CONTINUOUS
 62
    7
 10
115.51461695762757
 20
115.71862983235224
 11
115.53484677406459
 21
115.72785663136374
  0
LINE
  8
_0-7_7
  6
CONTINUOUS
 62
    7
 10
115.53484677406459
 20
115.72785663136374
 11
115.55533885093809
 21
115.73686885365373
  0
LINE
  8
_0-7_7
  6
CONTINUOUS
 62
    7
 10
115.55533885093809
 20
115.73686885365373
 11
115.5760574254621
 21
115.74561881550672
  0
LINE
  8
_0-7_7
  6
CONTINUOUS
 62
    7
 10
115.5760574254621
 20
115.74561881550672
 11
115.59700249763608
 21
115.75410651692273
  0
LINE
  8
_0-7_7
  6
CONTINUOUS
 62
    7
 10
115.59700249763608
 20
115.75410651692273
 11
115.6181263837446
 21
115.76230811604373
  0
LINE
  8
_0-7_7
  6
CONTINUOUS
 62
    7
 10
115.6181263837446
 20
115.76230811604373
 11
115.63941716285862
 21
115.77024745472772
  0
LINE
  8
_0-7_7
  6
CONTINUOUS
 62
    7
 10
115.63941716285862
 20
115.77024745472772
 11
115.6608509931196
 21
115.7779006911172
  0
LINE
  8
_0-7_7
  6
CONTINUOUS
 62
    7
 10
115.6608509931196
 20
115.7779006911172
 11
115.87511777015808
 21
115.83822059162972
  0
LINE
  8
_0-7_7
  6
CONTINUOUS
 62
    7
 10
115.87511777015808
 20
115.83822059162972
 11
116.09312771888855
 21
115.87090777882472
  0
LINE
  8
_0-7_7
  6
CONTINUOUS
 62
    7
 10
116.09312771888855
 20
115.87090777882472
 11
116.31106614204558
 21
115.87701129444972
  0
LINE
  8
_0-7_7
  6
CONTINUOUS
 62
    7
 10
116.31106614204558
 20
115.87701129444972
 11
116.52511834236259
 21
115.85760402211072
  0
LINE
  8
_0-7_7
  6
CONTINUOUS
 62
    7
 10
116.52511834236259
 20
115.85760402211072
 11
116.7314338597881
 21
115.81373500355572
  0
LINE
  8
_0-7_7
  6
CONTINUOUS
 62
    7
 10
116.7314338597881
 20
115.81373500355572
 11
116.92618607612758
 21
115.74647712239121
  0
LINE
  8
_0-7_7
  6
CONTINUOUS
 62
    7
 10
116.92618607612758
 20
115.74647712239121
 11
117.10556029411458
 21
115.6568317366492
  0
LINE
  8
_0-7_7
  6
CONTINUOUS
 62
    7
 10
117.10556029411458
 20
115.6568317366492
 11
117.2657060536971
 21
115.5459670973672
  0
LINE
  8
_0-7_7
  6
CONTINUOUS
 62
    7
 10
117.2657060536971
 20
115.5459670973672
 11
117.40280865760909
 21
115.41483687886121
  0
LINE
  8
_0-7_7
  6
CONTINUOUS
 62
    7
 10
117.40280865760909
 20
115.41483687886121
 11
117.51301764579912
 21
115.26458549031122
  0
LINE
  8
_0-7_7
  6
CONTINUOUS
 62
    7
 10
117.51301764579912
 20
115.26458549031122
 11
117.5801324758161
 21
115.1277570677647
  0
LINE
  8
_0-7_7
  6
CONTINUOUS
 62
    7
 10
117.5801324758161
 20
115.1277570677647
 11
117.62115239235058
 21
114.9884967757117
  0
LINE
  8
_0-7_7
  6
CONTINUOUS
 62
    7
 10
117.62115239235058
 20
114.9884967757117
 11
117.63693570228708
 21
114.84847354420523
  0
LINE
  8
_0-7_7
  6
CONTINUOUS
 62
    7
 10
117.63693570228708
 20
114.84847354420523
 11
117.6283049497236
 21
114.70942782887323
  0
LINE
  8
_0-7_7
  6
CONTINUOUS
 62
    7
 10
117.6283049497236
 20
114.70942782887323
 11
117.5961422834026
 21
114.57310008534323
  0
LINE
  8
_0-7_7
  6
CONTINUOUS
 62
    7
 10
117.5961422834026
 20
114.57310008534323
 11
117.54128216835161
 21
114.44125461109971
  0
LINE
  8
_0-7_7
  6
CONTINUOUS
 62
    7
 10
117.54128216835161
 20
114.44125461109971
 11
117.46460675331258
 21
114.31558417805523
  0
LINE
  8
_0-7_7
  6
CONTINUOUS
 62
    7
 10
117.46460675331258
 20
114.31558417805523
 11
117.36692666145458
 21
114.19780539997925
  0
LINE
  8
_0-7_7
  6
CONTINUOUS
 62
    7
 10
117.36692666145458
 20
114.19780539997925
 11
117.2491121205916
 21
114.08968257435671
  0
LINE
  8
_0-7_7
  6
CONTINUOUS
 62
    7
 10
117.2491121205916
 20
114.08968257435671
 11
117.11203335853708
 21
113.99290847309922
  0
LINE
  8
_0-7_7
  6
CONTINUOUS
 62
    7
 10
133.65035533043059
 20
118.75789451130723
 11
133.56346367927659
 21
118.77920913227922
  0
LINE
  8
_0-7_7
  6
CONTINUOUS
 62
    7
 10
133.56346367927659
 20
118.77920913227922
 11
133.32760809990057
 21
118.85173606404175
  0
LINE
  8
_0-7_7
  6
CONTINUOUS
 62
    7
 10
133.32760809990057
 20
118.85173606404175
 11
132.98006533714411
 21
118.98820685871974
  0
LINE
  8
_0-7_7
  6
CONTINUOUS
 62
    7
 10
132.98006533714411
 20
118.98820685871974
 11
132.5580882939926
 21
119.20142459401022
  0
LINE
  8
_0-7_7
  6
CONTINUOUS
 62
    7
 10
132.5580882939926
 20
119.20142459401022
 11
132.0989298734296
 21
119.5041446638952
  0
LINE
  8
_0-7_7
  6
CONTINUOUS
 62
    7
 10
132.0989298734296
 20
119.5041446638952
 11
131.63985489936957
 21
119.90917014607321
  0
LINE
  8
_0-7_7
  6
CONTINUOUS
 62
    7
 10
131.63985489936957
 20
119.90917014607321
 11
131.21811627479659
 21
120.42928027638322
  0
LINE
  8
_0-7_7
  6
CONTINUOUS
 62
    7
 10
131.21811627479659
 20
120.42928027638322
 11
130.87097882362511
 21
121.07727813252323
  0
LINE
  8
_0-7_7
  6
CONTINUOUS
 62
    7
 10
130.87097882362511
 20
121.07727813252323
 11
130.63569544883856
 21
121.86587142475973
  0
LINE
  8
_0-7_7
  6
CONTINUOUS
 62
    7
 10
130.63569544883856
 20
121.86587142475973
 11
130.5495190534221
 21
122.80791091450574
  0
LINE
  8
_0-7_7
  6
CONTINUOUS
 62
    7
 10
130.5495190534221
 20
122.80791091450574
 11
130.46225785347107
 21
123.75521945484971
  0
LINE
  8
_0-7_7
  6
CONTINUOUS
 62
    7
 10
130.46225785347107
 20
123.75521945484971
 11
130.22038220497259
 21
124.55461310871974
  0
LINE
  8
_0-7_7
  6
CONTINUOUS
 62
    7
 10
130.22038220497259
 20
124.55461310871974
 11
129.86246823402558
 21
125.21753596791123
  0
LINE
  8
_0-7_7
  6
CONTINUOUS
 62
    7
 10
129.86246823402558
 20
125.21753596791123
 11
129.4271159085861
 21
125.7552890730752
  0
LINE
  8
_0-7_7
  6
CONTINUOUS
 62
    7
 10
129.4271159085861
 20
125.7552890730752
 11
128.95288943382408
 21
126.17914962300171
  0
LINE
  8
_0-7_7
  6
CONTINUOUS
 62
    7
 10
128.95288943382408
 20
126.17914962300171
 11
128.4783887776961
 21
126.50053786763074
  0
LINE
  8
_0-7_7
  6
CONTINUOUS
 62
    7
 10
128.4783887776961
 20
126.50053786763074
 11
128.04215430351408
 21
126.7307786894692
  0
LINE
  8
_0-7_7
  6
CONTINUOUS
 62
    7
 10
128.04215430351408
 20
126.7307786894692
 11
127.68279790016308
 21
126.88119697102421
  0
LINE
  8
_0-7_7
  6
CONTINUOUS
 62
    7
 10
127.68279790016308
 20
126.88119697102421
 11
127.4388956937421
 21
126.96311759480372
  0
LINE
  8
_0-7_7
  6
CONTINUOUS
 62
    7
 10
128.4655260953536
 20
127.8412370634922
 11
128.55529069038511
 21
127.81644153126572
  0
LINE
  8
_0-7_7
  6
CONTINUOUS
 62
    7
 10
128.55529069038511
 20
127.81644153126572
 11
128.79893063636908
 21
127.73454474934474
  0
LINE
  8
_0-7_7
  6
CONTINUOUS
 62
    7
 10
128.79893063636908
 20
127.73454474934474
 11
129.15792941185109
 21
127.58415030964721
  0
LINE
  8
_0-7_7
  6
CONTINUOUS
 62
    7
 10
129.15792941185109
 20
127.58415030964721
 11
129.5937704953781
 21
127.35400485524073
  0
LINE
  8
_0-7_7
  6
CONTINUOUS
 62
    7
 10
129.5937704953781
 20
127.35400485524073
 11
130.06796120735311
 21
127.0326881361852
  0
LINE
  8
_0-7_7
  6
CONTINUOUS
 62
    7
 10
130.06796120735311
 20
127.0326881361852
 11
130.54196118446461
 21
126.60897063740622
  0
LINE
  8
_0-7_7
  6
CONTINUOUS
 62
    7
 10
130.54196118446461
 20
126.60897063740622
 11
130.97728966804658
 21
126.0714559508217
  0
LINE
  8
_0-7_7
  6
CONTINUOUS
 62
    7
 10
130.97728966804658
 20
126.0714559508217
 11
131.33540629478608
 21
125.40881919392473
  0
LINE
  8
_0-7_7
  6
CONTINUOUS
 62
    7
 10
131.33540629478608
 20
125.40881919392473
 11
131.5778303060161
 21
124.6097354842077
  0
LINE
  8
_0-7_7
  6
CONTINUOUS
 62
    7
 10
131.5778303060161
 20
124.6097354842077
 11
131.66602133842611
 21
123.66292762287972
  0
LINE
  8
_0-7_7
  6
CONTINUOUS
 62
    7
 10
131.66602133842611
 20
123.66292762287972
 11
131.75036191078308
 21
122.71926688679574
  0
LINE
  8
_0-7_7
  6
CONTINUOUS
 62
    7
 10
131.75036191078308
 20
122.71926688679574
 11
131.9846081647506
 21
121.92971992024273
  0
LINE
  8
_0-7_7
  6
CONTINUOUS
 62
    7
 10
131.9846081647506
 20
121.92971992024273
 11
132.33138798805356
 21
121.28136443623421
  0
LINE
  8
_0-7_7
  6
CONTINUOUS
 62
    7
 10
132.33138798805356
 20
121.28136443623421
 11
132.75328158470259
 21
120.7613019896397
  0
LINE
  8
_0-7_7
  6
CONTINUOUS
 62
    7
 10
132.75328158470259
 20
120.7613019896397
 11
133.21290492149458
 21
120.35665797718872
  0
LINE
  8
_0-7_7
  6
CONTINUOUS
 62
    7
 10
133.21290492149458
 20
120.35665797718872
 11
133.67282628151057
 21
120.05451011189321
  0
LINE
  8
_0-7_7
  6
CONTINUOUS
 62
    7
 10
133.67282628151057
 20
120.05451011189321
 11
134.09564971061857
 21
119.84193610676621
  0
LINE
  8
_0-7_7
  6
CONTINUOUS
 62
    7
 10
134.09564971061857
 20
119.84193610676621
 11
134.44397925468562
 21
119.70610904225224
  0
LINE
  8
_0-7_7
  6
CONTINUOUS
 62
    7
 10
134.44397925468562
 20
119.70610904225224
 11
134.68040703865159
 21
119.63403510578974
  0
LINE
  8
_0-7_7
  6
CONTINUOUS
 62
    7
 10
134.68040703865159
 20
119.63403510578974
 11
134.76752518745559
 21
119.6128873778237
  0
LINE
  8
_f-a_250
  6
CONTINUOUS
 62
  250
 10
128.4655260953536
 20
127.8412370634922
 11
128.55529069038511
 21
127.81644153126572
  0
LINE
  8
_f-a_250
  6
CONTINUOUS
 62
  250
 10
128.55529069038511
 20
127.81644153126572
 11
128.79893063636908
 21
127.73454474934474
  0
LINE
  8
_f-a_250
  6
CONTINUOUS
 62
  250
 10
128.79893063636908
 20
127.73454474934474
 11
129.15792941185109
 21
127.58415030964721
  0
LINE
  8
_f-a_250
  6
CONTINUOUS
 62
  250
 10
129.15792941185109
 20
127.58415030964721
 11
129.5937704953781
 21
127.35400485524073
  0
LINE
  8
_f-a_250
  6
CONTINUOUS
 62
  250
 10
129.5937704953781
 20
127.35400485524073
 11
130.06796120735311
 21
127.0326881361852
  0
LINE
  8
_f-a_250
  6
CONTINUOUS
 62
  250
 10
130.06796120735311
 20
127.0326881361852
 11
130.54196118446461
 21
126.60897063740622
  0
LINE
  8
_f-a_250
  6
CONTINUOUS
 62
  250
 10
130.54196118446461
 20
126.60897063740622
 11
130.97728966804658
 21
126.0714559508217
  0
LINE
  8
_f-a_250
  6
CONTINUOUS
 62
  250
 10
130.97728966804658
 20
126.0714559508217
 11
131.33540629478608
 21
125.40881919392473
  0
LINE
  8
_f-a_250
  6
CONTINUOUS
 62
  250
 10
131.33540629478608
 20
125.40881919392473
 11
131.5778303060161
 21
124.6097354842077
  0
LINE
  8
_f-a_250
  6
CONTINUOUS
 62
  250
 10
131.5778303060161
 20
124.6097354842077
 11
131.66602133842611
 21
123.66292762287972
  0
LINE
  8
_f-a_250
  6
CONTINUOUS
 62
  250
 10
131.66602133842611
 20
123.66292762287972
 11
131.75036191078308
 21
122.71926688679574
  0
LINE
  8
_f-a_250
  6
CONTINUOUS
 62
  250
 10
131.75036191078308
 20
122.71926688679574
 11
131.9846081647506
 21
121.92971992024273
  0
LINE
  8
_f-a_250
  6
CONTINUOUS
 62
  250
 10
131.9846081647506
 20
121.92971992024273
 11
132.33138798805356
 21
121.28136443623421
  0
LINE
  8
_f-a_250
  6
CONTINUOUS
 62
  250
 10
132.33138798805356
 20
121.28136443623421
 11
132.75328158470259
 21
120.7613019896397
  0
LINE
  8
_f-a_250
  6
CONTINUOUS
 62
  250
 10
132.75328158470259
 20
120.7613019896397
 11
133.21290492149458
 21
120.35665797718872
  0
LINE
  8
_f-a_250
  6
CONTINUOUS
 62
  250
 10
133.21290492149458
 20
120.35665797718872
 11
133.67282628151057
 21
120.05451011189321
  0
LINE
  8
_f-a_250
  6
CONTINUOUS
 62
  250
 10
133.67282628151057
 20
120.05451011189321
 11
134.09564971061857
 21
119.84193610676621
  0
LINE
  8
_f-a_250
  6
CONTINUOUS
 62
  250
 10
134.09564971061857
 20
119.84193610676621
 11
134.44397925468562
 21
119.70610904225224
  0
LINE
  8
_f-a_250
  6
CONTINUOUS
 62
  250
 10
134.44397925468562
 20
119.70610904225224
 11
134.68040703865159
 21
119.63403510578974
  0
LINE
  8
_f-a_250
  6
CONTINUOUS
 62
  250
 10
134.68040703865159
 20
119.63403510578974
 11
134.76752518745559
 21
119.6128873778237
  0
LINE
  8
_f-a_250
  6
CONTINUOUS
 62
  250
 10
127.4388956937421
 20
126.96311759480372
 11
127.68279790016308
 21
126.88119697102421
  0
LINE
  8
_f-a_250
  6
CONTINUOUS
 62
  250
 10
127.68279790016308
 20
126.88119697102421
 11
128.04215430351408
 21
126.7307786894692
  0
LINE
  8
_f-a_250
  6
CONTINUOUS
 62
  250
 10
128.04215430351408
 20
126.7307786894692
 11
128.4783887776961
 21
126.50053786763074
  0
LINE
  8
_f-a_250
  6
CONTINUOUS
 62
  250
 10
128.4783887776961
 20
126.50053786763074
 11
128.95288943382408
 21
126.17914962300171
  0
LINE
  8
_f-a_250
  6
CONTINUOUS
 62
  250
 10
128.95288943382408
 20
126.17914962300171
 11
129.4271159085861
 21
125.7552890730752
  0
LINE
  8
_f-a_250
  6
CONTINUOUS
 62
  250
 10
129.4271159085861
 20
125.7552890730752
 11
129.86246823402558
 21
125.21753596791123
  0
LINE
  8
_f-a_250
  6
CONTINUOUS
 62
  250
 10
129.86246823402558
 20
125.21753596791123
 11
130.22038220497259
 21
124.55461310871974
  0
LINE
  8
_f-a_250
  6
CONTINUOUS
 62
  250
 10
130.22038220497259
 20
124.55461310871974
 11
130.46225785347107
 21
123.75521945484971
  0
LINE
  8
_f-a_250
  6
CONTINUOUS
 62
  250
 10
130.46225785347107
 20
123.75521945484971
 11
130.5495190534221
 21
122.80791091450574
  0
LINE
  8
_f-a_250
  6
CONTINUOUS
 62
  250
 10
130.5495190534221
 20
122.80791091450574
 11
130.63569544883856
 21
121.86587142475973
  0
LINE
  8
_f-a_250
  6
CONTINUOUS
 62
  250
 10
130.63569544883856
 20
121.86587142475973
 11
130.87097882362511
 21
121.07727813252323
  0
LINE
  8
_f-a_250
  6
CONTINUOUS
 62
  250
 10
130.87097882362511
 20
121.07727813252323
 11
131.21811627479659
 21
120.42928027638322
  0
LINE
  8
_f-a_250
  6
CONTINUOUS
 62
  250
 10
131.21811627479659
 20
120.42928027638322
 11
131.63985489936957
 21
119.90917014607321
  0
LINE
  8
_f-a_250
  6
CONTINUOUS
 62
  250
 10
131.63985489936957
 20
119.90917014607321
 11
132.0989298734296
 21
119.5041446638952
  0
LINE
  8
_f-a_250
  6
CONTINUOUS
 62
  250
 10
132.0989298734296
 20
119.5041446638952
 11
132.5580882939926
 21
119.20142459401022
  0
LINE
  8
_f-a_250
  6
CONTINUOUS
 62
  250
 10
132.5580882939926
 20
119.20142459401022
 11
132.98006533714411
 21
118.98820685871974
  0
LINE
  8
_f-a_250
  6
CONTINUOUS
 62
  250
 10
132.98006533714411
 20
118.98820685871974
 11
133.32760809990057
 21
118.85173606404175
  0
LINE
  8
_f-a_250
  6
CONTINUOUS
 62
  250
 10
133.32760809990057
 20
118.85173606404175
 11
133.56346367927659
 21
118.77920913227922
  0
LINE
  8
_f-a_250
  6
CONTINUOUS
 62
  250
 10
133.56346367927659
 20
118.77920913227922
 11
133.65035533043059
 21
118.75789451130723
  0
LINE
  8
_0-7_7
  6
CONTINUOUS
 62
    7
 10
116.45118474098362
 20
114.09957694538922
 11
116.31721734138608
 21
114.0860824538122
  0
LINE
  8
_0-7_7
  6
CONTINUOUS
 62
    7
 10
115.51357983680859
 20
115.26811408528224
 11
115.60205697151306
 21
115.3575687361607
  0
LINE
  8
_0-7_7
  6
CONTINUOUS
 62
    7
 10
115.60205697151306
 20
115.3575687361607
 11
115.70742606254709
 21
115.43534087666373
  0
LINE
  8
_0-7_7
  6
CONTINUOUS
 62
    7
 10
115.70742606254709
 20
115.43534087666373
 11
115.82853077980158
 21
115.49945163258423
  0
LINE
  8
_0-7_7
  6
CONTINUOUS
 62
    7
 10
115.82853077980158
 20
115.49945163258423
 11
115.9641909513106
 21
115.5479221297157
  0
LINE
  8
_0-7_7
  6
CONTINUOUS
 62
    7
 10
115.9641909513106
 20
115.5479221297157
 11
115.97519396873608
 21
115.55044936665422
  0
LINE
  8
_0-7_7
  6
CONTINUOUS
 62
    7
 10
115.97519396873608
 20
115.55044936665422
 11
115.98630427452207
 21
115.5530719710242
  0
LINE
  8
_0-7_7
  6
CONTINUOUS
 62
    7
 10
115.98630427452207
 20
115.5530719710242
 11
115.99752186866908
 21
115.55569457539423
  0
LINE
  8
_0-7_7
  6
CONTINUOUS
 62
    7
 10
115.99752186866908
 20
115.55569457539423
 11
116.00884675117609
 21
115.55826949604871
  0
LINE
  8
_0-7_7
  6
CONTINUOUS
 62
    7
 10
116.00884675117609
 20
115.55826949604871
 11
116.02026700111509
 21
115.56082057484522
  0
LINE
  8
_0-7_7
  6
CONTINUOUS
 62
    7
 10
116.02026700111509
 20
115.56082057484522
 11
116.03179453941459
 21
115.56327628620971
  0
LINE
  8
_0-7_7
  6
CONTINUOUS
 62
    7
 10
116.03179453941459
 20
115.56327628620971
 11
116.04341744514608
 21
115.56556510456922
  0
LINE
  8
_0-7_7
  6
CONTINUOUS
 62
    7
 10
116.04341744514608
 20
115.56556510456922
 11
116.05513571830861
 21
115.56771087178122
  0
LINE
  8
_0-7_7
  6
CONTINUOUS
 62
    7
 10
116.05513571830861
 20
115.56771087178122
 11
116.06694935890312
 21
115.56959437855572
  0
LINE
  8
_0-7_7
  6
CONTINUOUS
 62
    7
 10
116.06694935890312
 20
115.56959437855572
 11
116.0788464460006
 21
115.57123946675171
  0
LINE
  8
_0-7_7
  6
CONTINUOUS
 62
    7
 10
116.0788464460006
 20
115.57123946675171
 11
116.21275424095259
 21
115.5847816420447
  0
LINE
  8
_0-7_7
  6
CONTINUOUS
 62
    7
 10
116.21275424095259
 20
115.5847816420447
 11
116.34498118492257
 21
115.58201598652722
  0
LINE
  8
_0-7_7
  6
CONTINUOUS
 62
    7
 10
116.34498118492257
 20
115.58201598652722
 11
116.47370337577959
 21
115.56375312336773
  0
LINE
  8
_0-7_7
  6
CONTINUOUS
 62
    7
 10
116.47370337577959
 20
115.56375312336773
 11
116.59713267418059
 21
115.53092288502572
  0
LINE
  8
_0-7_7
  6
CONTINUOUS
 62
    7
 10
116.59713267418059
 20
115.53092288502572
 11
116.7134332570661
 21
115.48438357838522
  0
LINE
  8
_0-7_7
  6
CONTINUOUS
 62
    7
 10
116.7134332570661
 20
115.48438357838522
 11
116.8208289060226
 21
115.42496966847271
  0
LINE
  8
_0-7_7
  6
CONTINUOUS
 62
    7
 10
116.8208289060226
 20
115.42496966847271
 11
116.91748379799009
 21
115.35356330403224
  0
LINE
  8
_0-7_7
  6
CONTINUOUS
 62
    7
 10
116.91748379799009
 20
115.35356330403224
 11
117.00160979362607
 21
115.27109431752075
  0
LINE
  8
_0-7_7
  6
CONTINUOUS
 62
    7
 10
117.00160979362607
 20
115.27109431752075
 11
117.07140683265808
 21
115.17834949025024
  0
LINE
  8
_0-7_7
  6
CONTINUOUS
 62
    7
 10
117.07140683265808
 20
115.17834949025024
 11
117.12502717109808
 21
115.07623481282121
  0
LINE
  8
_0-7_7
  6
CONTINUOUS
 62
    7
 10
117.12502717109808
 20
115.07623481282121
 11
117.14699744316206
 21
115.0159625960242
  0
LINE
  8
_0-7_7
  6
CONTINUOUS
 62
    7
 10
117.14699744316206
 20
115.0159625960242
 11
117.16289996238856
 21
114.95530890950073
  0
LINE
  8
_0-7_7
  6
CONTINUOUS
 62
    7
 10
117.16289996238856
 20
114.95530890950073
 11
117.17273472877608
 21
114.89444064625623
  0
LINE
  8
_0-7_7
  6
CONTINUOUS
 62
    7
 10
117.17273472877608
 20
114.89444064625623
 11
117.17648982139707
 21
114.83357238301173
  0
LINE
  8
_0-7_7
  6
CONTINUOUS
 62
    7
 10
117.17648982139707
 20
114.83357238301173
 11
117.1741533193221
 21
114.77289485463021
  0
LINE
  8
_0-7_7
  6
CONTINUOUS
 62
    7
 10
117.1741533193221
 20
114.77289485463021
 11
117.16572522255058
 21
114.71262263783325
  0
LINE
  8
_0-7_7
  6
CONTINUOUS
 62
    7
 10
117.16572522255058
 20
114.71262263783325
 11
117.15121745201259
 21
114.65297030934221
  0
LINE
  8
_0-7_7
  6
CONTINUOUS
 62
    7
 10
117.15121745201259
 20
114.65297030934221
 11
117.1305942449201
 21
114.59408092030421
  0
LINE
  8
_0-7_7
  6
CONTINUOUS
 62
    7
 10
117.1305942449201
 20
114.59408092030421
 11
117.10385560127406
 21
114.53624057301373
  0
LINE
  8
_0-7_7
  6
CONTINUOUS
 62
    7
 10
117.10385560127406
 20
114.53624057301373
 11
117.07102536293161
 21
114.47956847676173
  0
LINE
  8
_0-7_7
  6
CONTINUOUS
 62
    7
 10
117.07102536293161
 20
114.47956847676173
 11
117.0364189061751
 21
114.42988204487671
  0
LINE
  8
_0-7_7
  6
CONTINUOUS
 62
    7
 10
117.0364189061751
 20
114.42988204487671
 11
116.99768780800008
 21
114.38293742665174
  0
LINE
  8
_0-7_7
  6
CONTINUOUS
 62
    7
 10
116.99768780800008
 20
114.38293742665174
 11
116.95505856605661
 21
114.33890151509172
  0
LINE
  8
_0-7_7
  6
CONTINUOUS
 62
    7
 10
116.95505856605661
 20
114.33890151509172
 11
116.90875767799508
 21
114.2978458357702
  0
LINE
  8
_0-7_7
  6
CONTINUOUS
 62
    7
 10
116.90875767799508
 20
114.2978458357702
 11
116.85902356239461
 21
114.25998496540925
  0
LINE
  8
_0-7_7
  6
CONTINUOUS
 62
    7
 10
116.85902356239461
 20
114.25998496540925
 11
116.80609463783409
 21
114.22541427143921
  0
LINE
  8
_0-7_7
  6
CONTINUOUS
 62
    7
 10
116.80609463783409
 20
114.22541427143921
 11
116.75018548103455
 21
114.19427680500871
  0
LINE
  8
_0-7_7
  6
CONTINUOUS
 62
    7
 10
116.75018548103455
 20
114.19427680500871
 11
116.69155835243359
 21
114.16671561726422
  0
LINE
  8
_0-7_7
  6
CONTINUOUS
 62
    7
 10
116.69155835243359
 20
114.16671561726422
 11
116.63042782875209
 21
114.14289760121224
  0
LINE
  8
_0-7_7
  6
CONTINUOUS
 62
    7
 10
116.63042782875209
 20
114.14289760121224
 11
116.56702040764011
 21
114.1229181242837
  0
LINE
  8
_0-7_7
  6
CONTINUOUS
 62
    7
 10
116.56702040764011
 20
114.1229181242837
 11
116.55499219032407
 21
114.11996173390271
  0
LINE
  8
_0-7_7
  6
CONTINUOUS
 62
    7
 10
116.55499219032407
 20
114.11996173390271
 11
116.54305934044007
 21
114.11712455281122
  0
LINE
  8
_0-7_7
  6
CONTINUOUS
 62
    7
 10
116.54305934044007
 20
114.11712455281122
 11
116.53124569984558
 21
114.11438273915174
  0
LINE
  8
_0-7_7
  6
CONTINUOUS
 62
    7
 10
116.53124569984558
 20
114.11438273915174
 11
116.51952742668257
 21
114.11180781849723
  0
LINE
  8
_0-7_7
  6
CONTINUOUS
 62
    7
 10
116.51952742668257
 20
114.11180781849723
 11
116.50791644188058
 21
114.10937594899073
  0
LINE
  8
_0-7_7
  6
CONTINUOUS
 62
    7
 10
116.50791644188058
 20
114.10937594899073
 11
116.49640082451009
 21
114.10706328877322
  0
LINE
  8
_0-7_7
  6
CONTINUOUS
 62
    7
 10
116.49640082451009
 20
114.10706328877322
 11
116.4849805745711
 21
114.10491752156122
  0
LINE
  8
_0-7_7
  6
CONTINUOUS
 62
    7
 10
116.4849805745711
 20
114.10491752156122
 11
116.47364377113459
 21
114.10293864735473
  0
LINE
  8
_0-7_7
  6
CONTINUOUS
 62
    7
 10
116.47364377113459
 20
114.10293864735473
 11
116.46237849327207
 21
114.10117434986924
  0
LINE
  8
_0-7_7
  6
CONTINUOUS
 62
    7
 10
116.46237849327207
 20
114.10117434986924
 11
116.45118474098362
 21
114.09957694538922
  0
LINE
  8
_f-a_250
  6
CONTINUOUS
 62
  250
 10
147.5925254735576
 20
132.91456985005271
 11
147.73583888145561
 21
132.39214705952523
  0
LINE
  8
_f-a_250
  6
CONTINUOUS
 62
  250
 10
147.73583888145561
 20
132.39214705952523
 11
147.81686543556359
 21
131.87823581227173
  0
LINE
  8
_f-a_250
  6
CONTINUOUS
 62
  250
 10
147.81686543556359
 20
131.87823581227173
 11
147.83789395424006
 21
131.38082313069222
  0
LINE
  8
_f-a_250
  6
CONTINUOUS
 62
  250
 10
147.83789395424006
 20
131.38082313069222
 11
147.8011894139876
 21
130.90789603718622
  0
LINE
  8
_f-a_250
  6
CONTINUOUS
 62
  250
 10
147.8011894139876
 20
130.90789603718622
 11
147.70901679130708
 21
130.46748923786973
  0
LINE
  8
_f-a_250
  6
CONTINUOUS
 62
  250
 10
147.70901679130708
 20
130.46748923786973
 11
147.56364106269959
 21
130.06756591328474
  0
LINE
  8
_f-a_250
  6
CONTINUOUS
 62
  250
 10
147.56364106269959
 20
130.06756591328474
 11
147.36735104652558
 21
129.7161607695472
  0
LINE
  8
_f-a_250
  6
CONTINUOUS
 62
  250
 10
147.36735104652558
 20
129.7161607695472
 11
147.12237595649859
 21
129.42123698719871
  0
LINE
  8
_f-a_250
  6
CONTINUOUS
 62
  250
 10
147.12237595649859
 20
129.42123698719871
 11
146.8310046109786
 21
129.19080543049674
  0
LINE
  8
_f-a_250
  6
CONTINUOUS
 62
  250
 10
146.8310046109786
 20
129.19080543049674
 11
146.49551390739558
 21
129.03290080555772
  0
LINE
  8
_f-a_250
  6
CONTINUOUS
 62
  250
 10
146.49551390739558
 20
129.03290080555772
 11
146.13270043464809
 21
128.95734595784069
  0
LINE
  8
_f-a_250
  6
CONTINUOUS
 62
  250
 10
146.13270043464809
 20
128.95734595784069
 11
145.7615303907026
 21
128.96635818013073
  0
LINE
  8
_f-a_250
  6
CONTINUOUS
 62
  250
 10
145.7615303907026
 20
128.96635818013073
 11
145.38865565391657
 21
129.05488299855125
  0
LINE
  8
_f-a_250
  6
CONTINUOUS
 62
  250
 10
145.38865565391657
 20
129.05488299855125
 11
145.02066849800258
 21
129.2178420973672
  0
LINE
  8
_f-a_250
  6
CONTINUOUS
 62
  250
 10
145.02066849800258
 20
129.2178420973672
 11
144.66420888038758
 21
129.45020484455924
  0
LINE
  8
_f-a_250
  6
CONTINUOUS
 62
  250
 10
143.14320563408009
 20
131.99916171559221
 11
143.06215523811457
 21
132.51357364186174
  0
LINE
  8
_f-a_250
  6
CONTINUOUS
 62
  250
 10
143.06215523811457
 20
132.51357364186174
 11
143.04110287758007
 21
133.01143931874171
  0
LINE
  8
_f-a_250
  6
CONTINUOUS
 62
  250
 10
143.04110287758007
 20
133.01143931874171
 11
143.07775973411708
 21
133.48481940754772
  0
LINE
  8
_f-a_250
  6
CONTINUOUS
 62
  250
 10
143.07775973411708
 20
133.48481940754772
 11
143.1698727521526
 21
133.92560767659072
  0
LINE
  8
_f-a_250
  6
CONTINUOUS
 62
  250
 10
143.1698727521526
 20
133.92560767659072
 11
143.31518887611506
 21
134.32588862904424
  0
LINE
  8
_f-a_250
  6
CONTINUOUS
 62
  250
 10
143.31518887611506
 20
134.32588862904424
 11
143.5113954457866
 21
134.6775798750767
  0
LINE
  8
_f-a_250
  6
CONTINUOUS
 62
  250
 10
143.5113954457866
 20
134.6775798750767
 11
143.75626324745309
 21
134.97271823414673
  0
LINE
  8
_f-a_250
  6
CONTINUOUS
 62
  250
 10
143.75626324745309
 20
134.97271823414673
 11
144.04750346275461
 21
135.20326900013825
  0
LINE
  8
_f-a_250
  6
CONTINUOUS
 62
  250
 10
144.04750346275461
 20
135.20326900013825
 11
144.38285111519008
 21
135.36124515065072
  0
LINE
  8
_f-a_250
  6
CONTINUOUS
 62
  250
 10
144.38285111519008
 20
135.36124515065072
 11
144.74586724373009
 21
135.43632316120971
  0
LINE
  8
_f-a_250
  6
CONTINUOUS
 62
  250
 10
144.74586724373009
 20
135.43632316120971
 11
145.11716841789359
 21
135.42692946919325
  0
LINE
  8
_f-a_250
  6
CONTINUOUS
 62
  250
 10
145.11716841789359
 20
135.42692946919325
 11
145.49017428489807
 21
135.33811854847772
  0
LINE
  8
_f-a_250
  6
CONTINUOUS
 62
  250
 10
145.49017428489807
 20
135.33811854847772
 11
145.8582448873151
 21
135.17489718922471
  0
LINE
  8
_f-a_250
  6
CONTINUOUS
 62
  250
 10
145.8582448873151
 20
135.17489718922471
 11
146.21475218864558
 21
134.94227218159571
  0
LINE
  8
_f-a_250
  6
CONTINUOUS
 62
  250
 10
146.21475218864558
 20
134.94227218159571
 11
146.55310391517756
 21
134.64532184132472
  0
LINE
  8
_f-a_250
  6
CONTINUOUS
 62
  250
 10
146.55310391517756
 20
134.64532184132472
 11
146.86667203041208
 21
134.28902911671523
  0
LINE
  8
_f-a_250
  6
CONTINUOUS
 62
  250
 10
146.86667203041208
 20
134.28902911671523
 11
147.14885233970759
 21
133.87847232350225
  0
LINE
  8
_f-a_250
  6
CONTINUOUS
 62
  250
 10
147.14885233970759
 20
133.87847232350225
 11
147.39300488563657
 21
133.41863440998924
  0
LINE
  8
_f-a_250
  6
CONTINUOUS
 62
  250
 10
147.39300488563657
 20
133.41863440998924
 11
147.5925254735576
 21
132.91456985005271
  0
LINE
  8
_f-a_250
  6
CONTINUOUS
 62
  250
 10
118.83335589500558
 20
104.3479232741247
 11
118.80953787895308
 21
104.3366222334752
  0
LINE
  8
_f-a_250
  6
CONTINUOUS
 62
  250
 10
118.80953787895308
 20
104.3366222334752
 11
118.78537415596156
 21
104.32572650441021
  0
LINE
  8
_f-a_250
  6
CONTINUOUS
 62
  250
 10
118.78537415596156
 20
104.32572650441021
 11
118.76088856788758
 21
104.3152599287877
  0
LINE
  8
_f-a_250
  6
CONTINUOUS
 62
  250
 10
118.76088856788758
 20
104.3152599287877
 11
118.73608111473206
 21
104.30522250660769
  0
LINE
  8
_f-a_250
  6
CONTINUOUS
 62
  250
 10
118.73608111473206
 20
104.30522250660769
 11
118.71097563835258
 21
104.29561423786973
  0
LINE
  8
_f-a_250
  6
CONTINUOUS
 62
  250
 10
118.71097563835258
 20
104.29561423786973
 11
118.68559598060756
 21
104.28645896443223
  0
LINE
  8
_f-a_250
  6
CONTINUOUS
 62
  250
 10
118.68559598060756
 20
104.28645896443223
 11
118.65991829963806
 21
104.2777805281532
  0
LINE
  8
_f-a_250
  6
CONTINUOUS
 62
  250
 10
118.65991829963806
 20
104.2777805281532
 11
118.63397835823207
 21
104.26955508717424
  0
LINE
  8
_f-a_250
  6
CONTINUOUS
 62
  250
 10
118.63397835823207
 20
104.26955508717424
 11
118.60778807731759
 21
104.26180648335321
  0
LINE
  8
_f-a_250
  6
CONTINUOUS
 62
  250
 10
118.60778807731759
 20
104.26180648335321
 11
118.58135937782407
 21
104.25455855854871
  0
LINE
  8
_f-a_250
  6
CONTINUOUS
 62
  250
 10
118.58135937782407
 20
104.25455855854871
 11
118.32588194938808
 21
104.21083259114121
  0
LINE
  8
_f-a_250
  6
CONTINUOUS
 62
  250
 10
118.32588194938808
 20
104.21083259114121
 11
118.07127474876509
 21
104.2147903395547
  0
LINE
  8
_f-a_250
  6
CONTINUOUS
 62
  250
 10
118.07127474876509
 20
104.2147903395547
 11
117.82168625923308
 21
104.26352309712271
  0
LINE
  8
_f-a_250
  6
CONTINUOUS
 62
  250
 10
117.82168625923308
 20
104.26352309712271
 11
117.5812888059246
 21
104.35426520832871
  0
LINE
  8
_f-a_250
  6
CONTINUOUS
 62
  250
 10
117.5812888059246
 20
104.35426520832871
 11
117.35426663490409
 21
104.4841556502232
  0
LINE
  8
_f-a_250
  6
CONTINUOUS
 62
  250
 10
116.4936828527081
 20
106.1170606566322
 11
116.50181292625558
 21
106.35779189595074
  0
LINE
  8
_f-a_250
  6
CONTINUOUS
 62
  250
 10
116.50181292625558
 20
106.35779189595074
 11
116.53762339683655
 21
106.59015464314322
  0
LINE
  8
_f-a_250
  6
CONTINUOUS
 62
  250
 10
116.53762339683655
 20
106.59015464314322
 11
116.59974335762158
 21
106.81145476826524
  0
LINE
  8
_f-a_250
  6
CONTINUOUS
 62
  250
 10
116.59974335762158
 20
106.81145476826524
 11
116.6868972692121
 21
107.01902198323123
  0
LINE
  8
_f-a_250
  6
CONTINUOUS
 62
  250
 10
116.6868972692121
 20
107.01902198323123
 11
116.79773806663658
 21
107.21011447438123
  0
LINE
  8
_f-a_250
  6
CONTINUOUS
 62
  250
 10
116.79773806663658
 20
107.21011447438123
 11
116.93095444770958
 21
107.38208579548723
  0
LINE
  8
_f-a_250
  6
CONTINUOUS
 62
  250
 10
116.93095444770958
 20
107.38208579548723
 11
117.08521126838806
 21
107.53226565846322
  0
LINE
  8
_f-a_250
  6
CONTINUOUS
 62
  250
 10
117.08521126838806
 20
107.53226565846322
 11
117.25918530555859
 21
107.65791224964974
  0
LINE
  8
_f-a_250
  6
CONTINUOUS
 62
  250
 10
117.25918530555859
 20
107.65791224964974
 11
117.30019330116411
 21
107.6795606566322
  0
LINE
  8
_f-a_250
  6
CONTINUOUS
 62
  250
 10
153.03718327613959
 20
128.31290053852922
 11
153.10801743599058
 21
128.34124850758423
  0
LINE
  8
_f-a_250
  6
CONTINUOUS
 62
  250
 10
153.10801743599058
 20
128.34124850758423
 11
153.13216923805356
 21
128.35252570637573
  0
LINE
  8
_f-a_250
  6
CONTINUOUS
 62
  250
 10
153.13216923805356
 20
128.35252570637573
 11
153.15651177498009
 21
128.3634214354407
  0
LINE
  8
_f-a_250
  6
CONTINUOUS
 62
  250
 10
153.15651177498009
 20
128.3634214354407
 11
153.18104504676961
 21
128.37388801106323
  0
LINE
  8
_f-a_250
  6
CONTINUOUS
 62
  250
 10
153.18104504676961
 20
128.37388801106323
 11
153.20578097435111
 21
128.38392543324323
  0
LINE
  8
_f-a_250
  6
CONTINUOUS
 62
  250
 10
153.20578097435111
 20
128.38392543324323
 11
153.23073147865409
 21
128.39353370198123
  0
LINE
  8
_f-a_250
  6
CONTINUOUS
 62
  250
 10
153.23073147865409
 20
128.39353370198123
 11
153.25588463874959
 21
128.40268897541873
  0
LINE
  8
_f-a_250
  6
CONTINUOUS
 62
  250
 10
153.25588463874959
 20
128.40268897541873
 11
153.28126429649458
 21
128.41136741169822
  0
LINE
  8
_f-a_250
  6
CONTINUOUS
 62
  250
 10
153.28126429649458
 20
128.41136741169822
 11
153.3068346891036
 21
128.41959285267723
  0
LINE
  8
_f-a_250
  6
CONTINUOUS
 62
  250
 10
153.3068346891036
 20
128.41959285267723
 11
153.33265542122007
 21
128.42731761463972
  0
LINE
  8
_f-a_250
  6
CONTINUOUS
 62
  250
 10
153.33265542122007
 20
128.42731761463972
 11
153.35869073005807
 21
128.43456553944469
  0
LINE
  8
_f-a_250
  6
CONTINUOUS
 62
  250
 10
153.35869073005807
 20
128.43456553944469
 11
153.61299990745658
 21
128.47795772084123
  0
LINE
  8
_f-a_250
  6
CONTINUOUS
 62
  250
 10
153.61299990745658
 20
128.47795772084123
 11
153.86645077797058
 21
128.47392844685425
  0
LINE
  8
_f-a_250
  6
CONTINUOUS
 62
  250
 10
153.86645077797058
 20
128.47392844685425
 11
154.11489485832359
 21
128.42531489857575
  0
LINE
  8
_f-a_250
  6
CONTINUOUS
 62
  250
 10
154.11489485832359
 20
128.42531489857575
 11
154.35417174430961
 21
128.3349542570962
  0
LINE
  8
_f-a_250
  6
CONTINUOUS
 62
  250
 10
154.35417174430961
 20
128.3349542570962
 11
154.58009718986659
 21
128.2056360197912
  0
LINE
  8
_f-a_250
  6
CONTINUOUS
 62
  250
 10
154.58009718986659
 20
128.2056360197912
 11
154.7885346326461
 21
128.04012584217921
  0
LINE
  8
_f-a_250
  6
CONTINUOUS
 62
  250
 10
154.7885346326461
 20
128.04012584217921
 11
154.97529982658509
 21
127.84130858906624
  0
LINE
  8
_f-a_250
  6
CONTINUOUS
 62
  250
 10
154.97529982658509
 20
127.84130858906624
 11
155.13625620933658
 21
127.61194991597071
  0
LINE
  8
_f-a_250
  6
CONTINUOUS
 62
  250
 10
155.13625620933658
 20
127.61194991597071
 11
155.26720761390808
 21
127.35488700398324
  0
LINE
  8
_f-a_250
  6
CONTINUOUS
 62
  250
 10
155.26720761390808
 20
127.35488700398324
 11
155.36401747795259
 21
127.07288550862172
  0
LINE
  8
_f-a_250
  6
CONTINUOUS
 62
  250
 10
155.36401747795259
 20
127.07288550862172
 11
155.41522978874357
 21
126.82493018635624
  0
LINE
  8
_f-a_250
  6
CONTINUOUS
 62
  250
 10
155.41522978874357
 20
126.82493018635624
 11
155.43624638649106
 21
126.57988357075574
  0
LINE
  8
_f-a_250
  6
CONTINUOUS
 62
  250
 10
155.43624638649106
 20
126.57988357075574
 11
155.4283785733806
 21
126.34041594990622
  0
LINE
  8
_f-a_250
  6
CONTINUOUS
 62
  250
 10
155.4283785733806
 20
126.34041594990622
 11
155.39292573066859
 21
126.10919761189321
  0
LINE
  8
_f-a_250
  6
CONTINUOUS
 62
  250
 10
155.39292573066859
 20
126.10919761189321
 11
155.33119916053909
 21
125.88894652851923
  0
LINE
  8
_f-a_250
  6
CONTINUOUS
 62
  250
 10
155.33119916053909
 20
125.88894652851923
 11
155.24453400703558
 21
125.68233298786973
  0
LINE
  8
_f-a_250
  6
CONTINUOUS
 62
  250
 10
155.24453400703558
 20
125.68233298786973
 11
155.13421773048509
 21
125.49207496174672
  0
LINE
  8
_f-a_250
  6
CONTINUOUS
 62
  250
 10
155.13421773048509
 20
125.49207496174672
 11
155.00157355400208
 21
125.32084273823621
  0
LINE
  8
_f-a_250
  6
CONTINUOUS
 62
  250
 10
155.00157355400208
 20
125.32084273823621
 11
154.84790085884208
 21
125.1713304472817
  0
LINE
  8
_f-a_250
  6
CONTINUOUS
 62
  250
 10
154.84790085884208
 20
125.1713304472817
 11
154.6745228681196
 21
125.04623221882672
  0
LINE
  8
_f-a_250
  6
CONTINUOUS
 62
  250
 10
154.6745228681196
 20
125.04623221882672
 11
154.64069127174508
 21
125.01790809162972
  0
LINE
  8
_f-a_250
  6
CONTINUOUS
 62
  250
 10
118.86717557045105
 20
104.36289596089225
 11
118.83335589500558
 21
104.3479232741247
  0
LINE
  8
_0-7_7
  6
CONTINUOUS
 62
    7
 10
118.83335589500558
 20
104.3479232741247
 11
118.80953787895308
 21
104.3366222334752
  0
LINE
  8
_0-7_7
  6
CONTINUOUS
 62
    7
 10
118.80953787895308
 20
104.3366222334752
 11
118.78537415596156
 21
104.32572650441021
  0
LINE
  8
_0-7_7
  6
CONTINUOUS
 62
    7
 10
118.78537415596156
 20
104.32572650441021
 11
118.76088856788758
 21
104.3152599287877
  0
LINE
  8
_0-7_7
  6
CONTINUOUS
 62
    7
 10
118.76088856788758
 20
104.3152599287877
 11
118.73608111473206
 21
104.30522250660769
  0
LINE
  8
_0-7_7
  6
CONTINUOUS
 62
    7
 10
118.73608111473206
 20
104.30522250660769
 11
118.71097563835258
 21
104.29561423786973
  0
LINE
  8
_0-7_7
  6
CONTINUOUS
 62
    7
 10
118.71097563835258
 20
104.29561423786973
 11
118.68559598060756
 21
104.28645896443223
  0
LINE
  8
_0-7_7
  6
CONTINUOUS
 62
    7
 10
118.68559598060756
 20
104.28645896443223
 11
118.65991829963806
 21
104.2777805281532
  0
LINE
  8
_0-7_7
  6
CONTINUOUS
 62
    7
 10
118.65991829963806
 20
104.2777805281532
 11
118.63397835823207
 21
104.26955508717424
  0
LINE
  8
_0-7_7
  6
CONTINUOUS
 62
    7
 10
118.63397835823207
 20
104.26955508717424
 11
118.60778807731759
 21
104.26180648335321
  0
LINE
  8
_0-7_7
  6
CONTINUOUS
 62
    7
 10
118.60778807731759
 20
104.26180648335321
 11
118.58135937782407
 21
104.25455855854871
  0
LINE
  8
_0-7_7
  6
CONTINUOUS
 62
    7
 10
118.58135937782407
 20
104.25455855854871
 11
118.32588194938808
 21
104.21083259114121
  0
LINE
  8
_0-7_7
  6
CONTINUOUS
 62
    7
 10
118.32588194938808
 20
104.21083259114121
 11
118.07127474876509
 21
104.2147903395547
  0
LINE
  8
_0-7_7
  6
CONTINUOUS
 62
    7
 10
118.07127474876509
 20
104.2147903395547
 11
117.82168625923308
 21
104.26352309712271
  0
LINE
  8
_0-7_7
  6
CONTINUOUS
 62
    7
 10
116.4936828527081
 20
106.1170606566322
 11
116.50181292625558
 21
106.35779189595074
  0
LINE
  8
_0-7_7
  6
CONTINUOUS
 62
    7
 10
116.50181292625558
 20
106.35779189595074
 11
116.53762339683655
 21
106.59015464314322
  0
LINE
  8
_0-7_7
  6
CONTINUOUS
 62
    7
 10
116.53762339683655
 20
106.59015464314322
 11
116.59974335762158
 21
106.81145476826524
  0
LINE
  8
_0-7_7
  6
CONTINUOUS
 62
    7
 10
116.59974335762158
 20
106.81145476826524
 11
116.6868972692121
 21
107.01902198323123
  0
LINE
  8
_0-7_7
  6
CONTINUOUS
 62
    7
 10
116.6868972692121
 20
107.01902198323123
 11
116.79773806663658
 21
107.21011447438123
  0
LINE
  8
_0-7_7
  6
CONTINUOUS
 62
    7
 10
116.79773806663658
 20
107.21011447438123
 11
116.93095444770958
 21
107.38208579548723
  0
LINE
  8
_0-7_7
  6
CONTINUOUS
 62
    7
 10
116.93095444770958
 20
107.38208579548723
 11
117.08521126838806
 21
107.53226565846322
  0
LINE
  8
_0-7_7
  6
CONTINUOUS
 62
    7
 10
117.08521126838806
 20
107.53226565846322
 11
117.25918530555859
 21
107.65791224964974
  0
LINE
  8
_0-7_7
  6
CONTINUOUS
 62
    7
 10
117.25918530555859
 20
107.65791224964974
 11
117.30019330116411
 21
107.6795606566322
  0
LINE
  8
_0-7_7
  6
CONTINUOUS
 62
    7
 10
153.03718327613959
 20
128.31290053852922
 11
153.10801743599058
 21
128.34124850758423
  0
LINE
  8
_0-7_7
  6
CONTINUOUS
 62
    7
 10
153.10801743599058
 20
128.34124850758423
 11
153.13216923805356
 21
128.35252570637573
  0
LINE
  8
_0-7_7
  6
CONTINUOUS
 62
    7
 10
153.13216923805356
 20
128.35252570637573
 11
153.15651177498009
 21
128.3634214354407
  0
LINE
  8
_0-7_7
  6
CONTINUOUS
 62
    7
 10
153.15651177498009
 20
128.3634214354407
 11
153.18104504676961
 21
128.37388801106323
  0
LINE
  8
_0-7_7
  6
CONTINUOUS
 62
    7
 10
153.18104504676961
 20
128.37388801106323
 11
153.20578097435111
 21
128.38392543324323
  0
LINE
  8
_0-7_7
  6
CONTINUOUS
 62
    7
 10
153.20578097435111
 20
128.38392543324323
 11
153.23073147865409
 21
128.39353370198123
  0
LINE
  8
_0-7_7
  6
CONTINUOUS
 62
    7
 10
153.23073147865409
 20
128.39353370198123
 11
153.25588463874959
 21
128.40268897541873
  0
LINE
  8
_0-7_7
  6
CONTINUOUS
 62
    7
 10
153.25588463874959
 20
128.40268897541873
 11
153.28126429649458
 21
128.41136741169822
  0
LINE
  8
_0-7_7
  6
CONTINUOUS
 62
    7
 10
153.28126429649458
 20
128.41136741169822
 11
153.3068346891036
 21
128.41959285267723
  0
LINE
  8
_0-7_7
  6
CONTINUOUS
 62
    7
 10
153.3068346891036
 20
128.41959285267723
 11
153.33265542122007
 21
128.42731761463972
  0
LINE
  8
_0-7_7
  6
CONTINUOUS
 62
    7
 10
153.33265542122007
 20
128.42731761463972
 11
153.35869073005807
 21
128.43456553944469
  0
LINE
  8
_0-7_7
  6
CONTINUOUS
 62
    7
 10
153.35869073005807
 20
128.43456553944469
 11
153.61299990745658
 21
128.47795772084123
  0
LINE
  8
_0-7_7
  6
CONTINUOUS
 62
    7
 10
153.61299990745658
 20
128.47795772084123
 11
153.86645077797058
 21
128.47392844685425
  0
LINE
  8
_0-7_7
  6
CONTINUOUS
 62
    7
 10
153.86645077797058
 20
128.47392844685425
 11
154.11489485832359
 21
128.42531489857575
  0
LINE
  8
_0-7_7
  6
CONTINUOUS
 62
    7
 10
154.11489485832359
 20
128.42531489857575
 11
154.35417174430961
 21
128.3349542570962
  0
LINE
  8
_0-7_7
  6
CONTINUOUS
 62
    7
 10
154.35417174430961
 20
128.3349542570962
 11
154.58009718986659
 21
128.2056360197912
  0
LINE
  8
_0-7_7
  6
CONTINUOUS
 62
    7
 10
154.58009718986659
 20
128.2056360197912
 11
154.7885346326461
 21
128.04012584217921
  0
LINE
  8
_0-7_7
  6
CONTINUOUS
 62
    7
 10
154.7885346326461
 20
128.04012584217921
 11
154.97529982658509
 21
127.84130858906624
  0
LINE
  8
_0-7_7
  6
CONTINUOUS
 62
    7
 10
154.97529982658509
 20
127.84130858906624
 11
155.13625620933658
 21
127.61194991597071
  0
LINE
  8
_0-7_7
  6
CONTINUOUS
 62
    7
 10
155.13625620933658
 20
127.61194991597071
 11
155.26720761390808
 21
127.35488700398324
  0
LINE
  8
_0-7_7
  6
CONTINUOUS
 62
    7
 10
155.26720761390808
 20
127.35488700398324
 11
155.36401747795259
 21
127.07288550862172
  0
LINE
  8
_0-7_7
  6
CONTINUOUS
 62
    7
 10
155.36401747795259
 20
127.07288550862172
 11
155.41522978874357
 21
126.82493018635624
  0
LINE
  8
_0-7_7
  6
CONTINUOUS
 62
    7
 10
155.41522978874357
 20
126.82493018635624
 11
155.43624638649106
 21
126.57988357075574
  0
LINE
  8
_0-7_7
  6
CONTINUOUS
 62
    7
 10
155.43624638649106
 20
126.57988357075574
 11
155.4283785733806
 21
126.34041594990622
  0
LINE
  8
_0-7_7
  6
CONTINUOUS
 62
    7
 10
155.4283785733806
 20
126.34041594990622
 11
155.39292573066859
 21
126.10919761189321
  0
LINE
  8
_0-7_7
  6
CONTINUOUS
 62
    7
 10
155.39292573066859
 20
126.10919761189321
 11
155.33119916053909
 21
125.88894652851923
  0
LINE
  8
_0-7_7
  6
CONTINUOUS
 62
    7
 10
155.33119916053909
 20
125.88894652851923
 11
155.24453400703558
 21
125.68233298786973
  0
LINE
  8
_0-7_7
  6
CONTINUOUS
 62
    7
 10
155.24453400703558
 20
125.68233298786973
 11
155.13421773048509
 21
125.49207496174672
  0
LINE
  8
_0-7_7
  6
CONTINUOUS
 62
    7
 10
155.13421773048509
 20
125.49207496174672
 11
155.00157355400208
 21
125.32084273823621
  0
LINE
  8
_0-7_7
  6
CONTINUOUS
 62
    7
 10
155.00157355400208
 20
125.32084273823621
 11
154.84790085884208
 21
125.1713304472817
  0
LINE
  8
_0-7_7
  6
CONTINUOUS
 62
    7
 10
154.84790085884208
 20
125.1713304472817
 11
154.6745228681196
 21
125.04623221882672
  0
LINE
  8
_0-7_7
  6
CONTINUOUS
 62
    7
 10
154.6745228681196
 20
125.04623221882672
 11
154.64069127174508
 21
125.01790809162972
  0
LINE
  8
_0-7_7
  6
CONTINUOUS
 62
    7
 10
118.86717557045105
 20
104.36289596089225
 11
118.83335589500558
 21
104.3479232741247
  0
LINE
  8
_0-7_7
  6
CONTINUOUS
 62
    7
 10
117.28452920051708
 20
107.6795606566322
 11
117.30795382591361
 21
107.6908616972817
  0
LINE
  8
_0-7_7
  6
CONTINUOUS
 62
    7
 10
117.30795382591361
 20
107.6908616972817
 11
117.33171223732109
 21
107.70175742634675
  0
LINE
  8
_0-7_7
  6
CONTINUOUS
 62
    7
 10
117.33171223732109
 20
107.70175742634675
 11
117.35581635566859
 21
107.7122240019692
  0
LINE
  8
_0-7_7
  6
CONTINUOUS
 62
    7
 10
117.35581635566859
 20
107.7122240019692
 11
117.38024233909758
 21
107.7222614241492
  0
LINE
  8
_0-7_7
  6
CONTINUOUS
 62
    7
 10
117.38024233909758
 20
107.7222614241492
 11
117.40499018760809
 21
107.73184585102922
  0
LINE
  8
_0-7_7
  6
CONTINUOUS
 62
    7
 10
117.40499018760809
 20
107.73184585102922
 11
117.4300360593426
 21
107.74100112446672
  0
LINE
  8
_0-7_7
  6
CONTINUOUS
 62
    7
 10
117.4300360593426
 20
107.74100112446672
 11
117.45539187523008
 21
107.7497034026037
  0
LINE
  8
_0-7_7
  6
CONTINUOUS
 62
    7
 10
117.45539187523008
 20
107.7497034026037
 11
117.4810457143416
 21
107.7579288435827
  0
LINE
  8
_0-7_7
  6
CONTINUOUS
 62
    7
 10
117.4810457143416
 20
107.7579288435827
 11
117.50697373481856
 21
107.76565360554574
  0
LINE
  8
_0-7_7
  6
CONTINUOUS
 62
    7
 10
117.50697373481856
 20
107.76565360554574
 11
117.53318785759112
 21
107.7729015303502
  0
LINE
  8
_0-7_7
  6
CONTINUOUS
 62
    7
 10
117.53318785759112
 20
107.7729015303502
 11
117.78766392799508
 21
107.81617450245722
  0
LINE
  8
_0-7_7
  6
CONTINUOUS
 62
    7
 10
117.78766392799508
 20
107.81617450245722
 11
118.04130553337211
 21
107.8118591261757
  0
LINE
  8
_0-7_7
  6
CONTINUOUS
 62
    7
 10
118.04130553337211
 20
107.8118591261757
 11
118.28996419044609
 21
107.76279258259675
  0
LINE
  8
_0-7_7
  6
CONTINUOUS
 62
    7
 10
118.28996419044609
 20
107.76279258259675
 11
118.52947949501157
 21
107.67176436909571
  0
LINE
  8
_0-7_7
  6
CONTINUOUS
 62
    7
 10
118.52947949501157
 20
107.67176436909571
 11
118.75569104286308
 21
107.54163550862174
  0
LINE
  8
_0-7_7
  6
CONTINUOUS
 62
    7
 10
118.75569104286308
 20
107.54163550862174
 11
118.96445035072458
 21
107.37521934040925
  0
LINE
  8
_0-7_7
  6
CONTINUOUS
 62
    7
 10
118.96445035072458
 20
107.37521934040925
 11
119.15157317253258
 21
107.17530536183222
  0
LINE
  8
_0-7_7
  6
CONTINUOUS
 62
    7
 10
119.15157317253258
 20
107.17530536183222
 11
119.31293486686857
 21
106.94473075398324
  0
LINE
  8
_0-7_7
  6
CONTINUOUS
 62
    7
 10
119.31293486686857
 20
106.94473075398324
 11
119.44436310859808
 21
106.68633269795274
  0
LINE
  8
_0-7_7
  6
CONTINUOUS
 62
    7
 10
119.44436310859808
 20
106.68633269795274
 11
119.54169749351607
 21
106.4029006911172
  0
LINE
  8
_0-7_7
  6
CONTINUOUS
 62
    7
 10
119.54169749351607
 20
106.4029006911172
 11
119.59312438102862
 21
106.15480231770371
  0
LINE
  8
_0-7_7
  6
CONTINUOUS
 62
    7
 10
119.59312438102862
 20
106.15480231770371
 11
119.61430787178159
 21
105.90937423237671
  0
LINE
  8
_0-7_7
  6
CONTINUOUS
 62
    7
 10
119.61430787178159
 20
105.90937423237671
 11
119.60655926796107
 21
105.6693344069372
  0
LINE
  8
_0-7_7
  6
CONTINUOUS
 62
    7
 10
119.60655926796107
 20
105.6693344069372
 11
119.57118987175107
 21
105.4374484969032
  0
LINE
  8
_0-7_7
  6
CONTINUOUS
 62
    7
 10
119.57118987175107
 20
105.4374484969032
 11
119.50952290626657
 21
105.21645831593375
  0
LINE
  8
_0-7_7
  6
CONTINUOUS
 62
    7
 10
119.50952290626657
 20
105.21645831593375
 11
119.42288159462109
 21
105.00910567768921
  0
LINE
  8
_0-7_7
  6
CONTINUOUS
 62
    7
 10
119.42288159462109
 20
105.00910567768921
 11
119.3125653180706
 21
104.81815623768671
  0
LINE
  8
_0-7_7
  6
CONTINUOUS
 62
    7
 10
119.3125653180706
 20
104.81815623768671
 11
119.17992114158758
 21
104.64637565144422
  0
LINE
  8
_0-7_7
  6
CONTINUOUS
 62
    7
 10
119.17992114158758
 20
104.64637565144422
 11
119.02624844642759
 21
104.4965057326207
  0
LINE
  8
_0-7_7
  6
CONTINUOUS
 62
    7
 10
119.02624844642759
 20
104.4965057326207
 11
118.85285853477609
 21
104.3712406111607
  0
LINE
  8
_0-7_7
  6
CONTINUOUS
 62
    7
 10
134.20836209388858
 20
109.59124850758423
 11
134.12148236366409
 21
109.61256312855572
  0
LINE
  8
_0-7_7
  6
CONTINUOUS
 62
    7
 10
134.12148236366409
 20
109.61256312855572
 11
133.88568638893261
 21
109.68509006031873
  0
LINE
  8
_0-7_7
  6
CONTINUOUS
 62
    7
 10
133.88568638893261
 20
109.68509006031873
 11
133.53821515175011
 21
109.82153701313824
  0
LINE
  8
_0-7_7
  6
CONTINUOUS
 62
    7
 10
133.53821515175011
 20
109.82153701313824
 11
133.11630963417159
 21
110.03475474842921
  0
LINE
  8
_0-7_7
  6
CONTINUOUS
 62
    7
 10
133.11630963417159
 20
110.03475474842921
 11
132.6572465810406
 21
110.3374986601722
  0
LINE
  8
_0-7_7
  6
CONTINUOUS
 62
    7
 10
132.6572465810406
 20
110.3374986601722
 11
132.19825505348359
 21
110.74252414234971
  0
LINE
  8
_0-7_7
  6
CONTINUOUS
 62
    7
 10
132.19825505348359
 20
110.74252414234971
 11
131.77658795448409
 21
111.26263427265972
  0
LINE
  8
_0-7_7
  6
CONTINUOUS
 62
    7
 10
131.77658795448409
 20
111.26263427265972
 11
131.42949818702809
 21
111.91060828694222
  0
LINE
  8
_0-7_7
  6
CONTINUOUS
 62
    7
 10
131.42949818702809
 20
111.91060828694222
 11
131.19421481224211
 21
112.69920157917872
  0
LINE
  8
_0-7_7
  6
CONTINUOUS
 62
    7
 10
131.19421481224211
 20
112.69920157917872
 11
131.1080145749676
 21
113.64124106892473
  0
LINE
  8
_0-7_7
  6
CONTINUOUS
 62
    7
 10
131.1080145749676
 20
113.64124106892473
 11
131.02080105873259
 21
114.58850192555323
  0
LINE
  8
_0-7_7
  6
CONTINUOUS
 62
    7
 10
131.02080105873259
 20
114.58850192555323
 11
130.77894925209162
 21
115.38780021199122
  0
LINE
  8
_0-7_7
  6
CONTINUOUS
 62
    7
 10
130.77894925209162
 20
115.38780021199122
 11
130.42104720207359
 21
116.0505084944617
  0
LINE
  8
_0-7_7
  6
CONTINUOUS
 62
    7
 10
130.42104720207359
 20
116.0505084944617
 11
129.98568295570507
 21
116.58799933918823
  0
LINE
  8
_0-7_7
  6
CONTINUOUS
 62
    7
 10
129.98568295570507
 20
116.58799933918823
 11
129.51145648094311
 21
117.0116453123937
  0
LINE
  8
_0-7_7
  6
CONTINUOUS
 62
    7
 10
129.51145648094311
 20
117.0116453123937
 11
129.0369319829571
 21
117.33279513844373
  0
LINE
  8
_0-7_7
  6
CONTINUOUS
 62
    7
 10
129.0369319829571
 20
117.33279513844373
 11
128.60068558784607
 21
117.56279754170274
  0
LINE
  8
_0-7_7
  6
CONTINUOUS
 62
    7
 10
128.60068558784607
 20
117.56279754170274
 11
128.24131726356657
 21
117.71302508839472
  0
LINE
  8
_0-7_7
  6
CONTINUOUS
 62
    7
 10
128.24131726356657
 20
117.71302508839472
 11
127.99739121528759
 21
117.79480266102674
  0
LINE
  8
_0-7_7
  6
CONTINUOUS
 62
    7
 10
127.99739121528759
 20
117.79480266102674
 11
127.90751933189509
 21
117.8195743513952
  0
LINE
  8
_0-7_7
  6
CONTINUOUS
 62
    7
 10
129.02467726799159
 20
118.67623614796521
 11
129.11445378395209
 21
118.65139293202274
  0
LINE
  8
_0-7_7
  6
CONTINUOUS
 62
    7
 10
129.11445378395209
 20
118.65139293202274
 11
129.35810565086507
 21
118.56935309895371
  0
LINE
  8
_0-7_7
  6
CONTINUOUS
 62
    7
 10
129.35810565086507
 20
118.56935309895371
 11
129.71712826820507
 21
118.41879176625122
  0
LINE
  8
_0-7_7
  6
CONTINUOUS
 62
    7
 10
129.71712826820507
 20
118.41879176625122
 11
130.15298127266058
 21
118.18840789326524
  0
LINE
  8
_0-7_7
  6
CONTINUOUS
 62
    7
 10
130.15298127266058
 20
118.18840789326524
 11
130.62718390556458
 21
117.86687659748922
  0
LINE
  8
_0-7_7
  6
CONTINUOUS
 62
    7
 10
130.62718390556458
 20
117.86687659748922
 11
131.10119580360558
 21
117.44287299641474
  0
LINE
  8
_0-7_7
  6
CONTINUOUS
 62
    7
 10
131.10119580360558
 20
117.44287299641474
 11
131.53652428718709
 21
116.90514373310921
  0
LINE
  8
_0-7_7
  6
CONTINUOUS
 62
    7
 10
131.53652428718709
 20
116.90514373310921
 11
131.89464091392659
 21
116.24231624134873
  0
LINE
  8
_0-7_7
  6
CONTINUOUS
 62
    7
 10
131.89464091392659
 20
116.24231624134873
 11
132.13702916237011
 21
115.44313716420075
  0
LINE
  8
_0-7_7
  6
CONTINUOUS
 62
    7
 10
132.13702916237011
 20
115.44313716420075
 11
132.22518443199309
 21
114.4962339354407
  0
LINE
  8
_0-7_7
  6
CONTINUOUS
 62
    7
 10
132.22518443199309
 20
114.4962339354407
 11
132.30933426948658
 21
113.55259704121472
  0
LINE
  8
_0-7_7
  6
CONTINUOUS
 62
    7
 10
132.30933426948658
 20
113.55259704121472
 11
132.5434613141646
 21
112.76305007466172
  0
LINE
  8
_0-7_7
  6
CONTINUOUS
 62
    7
 10
132.5434613141646
 20
112.76305007466172
 11
132.89015769096508
 21
112.1146945906532
  0
LINE
  8
_0-7_7
  6
CONTINUOUS
 62
    7
 10
132.89015769096508
 20
112.1146945906532
 11
133.31199168296959
 21
111.59465598591675
  0
LINE
  8
_0-7_7
  6
CONTINUOUS
 62
    7
 10
133.31199168296959
 20
111.59465598591675
 11
133.77156733604559
 21
111.1900119734657
  0
LINE
  8
_0-7_7
  6
CONTINUOUS
 62
    7
 10
133.77156733604559
 20
111.1900119734657
 11
134.23146485420361
 21
110.8878402663122
  0
LINE
  8
_0-7_7
  6
CONTINUOUS
 62
    7
 10
134.23146485420361
 20
110.8878402663122
 11
134.65430020424006
 21
110.67529010304321
  0
LINE
  8
_0-7_7
  6
CONTINUOUS
 62
    7
 10
134.65430020424006
 20
110.67529010304321
 11
135.00262974830761
 21
110.53943919667122
  0
LINE
  8
_0-7_7
  6
CONTINUOUS
 62
    7
 10
135.00262974830761
 20
110.53943919667122
 11
135.23906945320257
 21
110.46738910206673
  0
LINE
  8
_0-7_7
  6
CONTINUOUS
 62
    7
 10
135.23906945320257
 20
110.46738910206673
 11
135.32618760200609
 21
110.4462413741002
  0
LINE
  8
_f-a_250
  6
CONTINUOUS
 62
  250
 10
129.02467726799159
 20
118.67623614796521
 11
129.11445378395209
 21
118.65139293202274
  0
LINE
  8
_f-a_250
  6
CONTINUOUS
 62
  250
 10
129.11445378395209
 20
118.65139293202274
 11
129.35810565086507
 21
118.56935309895371
  0
LINE
  8
_f-a_250
  6
CONTINUOUS
 62
  250
 10
129.35810565086507
 20
118.56935309895371
 11
129.71712826820507
 21
118.41879176625122
  0
LINE
  8
_f-a_250
  6
CONTINUOUS
 62
  250
 10
129.71712826820507
 20
118.41879176625122
 11
130.15298127266058
 21
118.18840789326524
  0
LINE
  8
_f-a_250
  6
CONTINUOUS
 62
  250
 10
130.15298127266058
 20
118.18840789326524
 11
130.62718390556458
 21
117.86687659748922
  0
LINE
  8
_f-a_250
  6
CONTINUOUS
 62
  250
 10
130.62718390556458
 20
117.86687659748922
 11
131.10119580360558
 21
117.44287299641474
  0
LINE
  8
_f-a_250
  6
CONTINUOUS
 62
  250
 10
131.10119580360558
 20
117.44287299641474
 11
131.53652428718709
 21
116.90514373310921
  0
LINE
  8
_f-a_250
  6
CONTINUOUS
 62
  250
 10
131.53652428718709
 20
116.90514373310921
 11
131.89464091392659
 21
116.24231624134873
  0
LINE
  8
_f-a_250
  6
CONTINUOUS
 62
  250
 10
131.89464091392659
 20
116.24231624134873
 11
132.13702916237011
 21
115.44313716420075
  0
LINE
  8
_f-a_250
  6
CONTINUOUS
 62
  250
 10
132.13702916237011
 20
115.44313716420075
 11
132.22518443199309
 21
114.4962339354407
  0
LINE
  8
_f-a_250
  6
CONTINUOUS
 62
  250
 10
132.22518443199309
 20
114.4962339354407
 11
132.30933426948658
 21
113.55259704121472
  0
LINE
  8
_f-a_250
  6
CONTINUOUS
 62
  250
 10
132.30933426948658
 20
113.55259704121472
 11
132.5434613141646
 21
112.76305007466172
  0
LINE
  8
_f-a_250
  6
CONTINUOUS
 62
  250
 10
132.5434613141646
 20
112.76305007466172
 11
132.89015769096508
 21
112.1146945906532
  0
LINE
  8
_f-a_250
  6
CONTINUOUS
 62
  250
 10
132.89015769096508
 20
112.1146945906532
 11
133.31199168296959
 21
111.59465598591675
  0
LINE
  8
_f-a_250
  6
CONTINUOUS
 62
  250
 10
133.31199168296959
 20
111.59465598591675
 11
133.77156733604559
 21
111.1900119734657
  0
LINE
  8
_f-a_250
  6
CONTINUOUS
 62
  250
 10
133.77156733604559
 20
111.1900119734657
 11
134.23146485420361
 21
110.8878402663122
  0
LINE
  8
_f-a_250
  6
CONTINUOUS
 62
  250
 10
134.23146485420361
 20
110.8878402663122
 11
134.65430020424006
 21
110.67529010304321
  0
LINE
  8
_f-a_250
  6
CONTINUOUS
 62
  250
 10
134.65430020424006
 20
110.67529010304321
 11
135.00262974830761
 21
110.53943919667122
  0
LINE
  8
_f-a_250
  6
CONTINUOUS
 62
  250
 10
135.00262974830761
 20
110.53943919667122
 11
135.23906945320257
 21
110.46738910206673
  0
LINE
  8
_f-a_250
  6
CONTINUOUS
 62
  250
 10
135.23906945320257
 20
110.46738910206673
 11
135.32618760200609
 21
110.4462413741002
  0
LINE
  8
_f-a_250
  6
CONTINUOUS
 62
  250
 10
127.90751933189509
 20
117.8195743513952
 11
127.99739121528759
 21
117.79480266102674
  0
LINE
  8
_f-a_250
  6
CONTINUOUS
 62
  250
 10
127.99739121528759
 20
117.79480266102674
 11
128.24131726356657
 21
117.71302508839472
  0
LINE
  8
_f-a_250
  6
CONTINUOUS
 62
  250
 10
128.24131726356657
 20
117.71302508839472
 11
128.60068558784607
 21
117.56279754170274
  0
LINE
  8
_f-a_250
  6
CONTINUOUS
 62
  250
 10
128.60068558784607
 20
117.56279754170274
 11
129.0369319829571
 21
117.33279513844373
  0
LINE
  8
_f-a_250
  6
CONTINUOUS
 62
  250
 10
129.0369319829571
 20
117.33279513844373
 11
129.51145648094311
 21
117.0116453123937
  0
LINE
  8
_f-a_250
  6
CONTINUOUS
 62
  250
 10
129.51145648094311
 20
117.0116453123937
 11
129.98568295570507
 21
116.58799933918823
  0
LINE
  8
_f-a_250
  6
CONTINUOUS
 62
  250
 10
129.98568295570507
 20
116.58799933918823
 11
130.42104720207359
 21
116.0505084944617
  0
LINE
  8
_f-a_250
  6
CONTINUOUS
 62
  250
 10
130.42104720207359
 20
116.0505084944617
 11
130.77894925209162
 21
115.38780021199122
  0
LINE
  8
_f-a_250
  6
CONTINUOUS
 62
  250
 10
130.77894925209162
 20
115.38780021199122
 11
131.02080105873259
 21
114.58850192555323
  0
LINE
  8
_f-a_250
  6
CONTINUOUS
 62
  250
 10
131.02080105873259
 20
114.58850192555323
 11
131.1080145749676
 21
113.64124106892473
  0
LINE
  8
_f-a_250
  6
CONTINUOUS
 62
  250
 10
131.1080145749676
 20
113.64124106892473
 11
131.19421481224211
 21
112.69920157917872
  0
LINE
  8
_f-a_250
  6
CONTINUOUS
 62
  250
 10
131.19421481224211
 20
112.69920157917872
 11
131.42949818702809
 21
111.91060828694222
  0
LINE
  8
_f-a_250
  6
CONTINUOUS
 62
  250
 10
131.42949818702809
 20
111.91060828694222
 11
131.77658795448409
 21
111.26263427265972
  0
LINE
  8
_f-a_250
  6
CONTINUOUS
 62
  250
 10
131.77658795448409
 20
111.26263427265972
 11
132.19825505348359
 21
110.74252414234971
  0
LINE
  8
_f-a_250
  6
CONTINUOUS
 62
  250
 10
132.19825505348359
 20
110.74252414234971
 11
132.6572465810406
 21
110.3374986601722
  0
LINE
  8
_f-a_250
  6
CONTINUOUS
 62
  250
 10
132.6572465810406
 20
110.3374986601722
 11
133.11630963417159
 21
110.03475474842921
  0
LINE
  8
_f-a_250
  6
CONTINUOUS
 62
  250
 10
133.11630963417159
 20
110.03475474842921
 11
133.53821515175011
 21
109.82153701313824
  0
LINE
  8
_f-a_250
  6
CONTINUOUS
 62
  250
 10
133.53821515175011
 20
109.82153701313824
 11
133.88568638893261
 21
109.68509006031873
  0
LINE
  8
_f-a_250
  6
CONTINUOUS
 62
  250
 10
133.88568638893261
 20
109.68509006031873
 11
134.12148236366409
 21
109.61256312855572
  0
LINE
  8
_f-a_250
  6
CONTINUOUS
 62
  250
 10
134.12148236366409
 20
109.61256312855572
 11
134.20836209388858
 21
109.59124850758423
  0
LINE
  8
_0-7_7
  6
CONTINUOUS
 62
    7
 10
118.1205201062786
 20
104.73122882374625
 11
117.96617983909758
 21
104.74536704548723
  0
LINE
  8
_0-7_7
  6
CONTINUOUS
 62
    7
 10
117.96617983909758
 20
104.74536704548723
 11
117.81666754814259
 21
104.7864465666662
  0
LINE
  8
_0-7_7
  6
CONTINUOUS
 62
    7
 10
117.03982829185608
 20
106.4597873640907
 11
117.09537982078658
 21
106.64122390278672
  0
LINE
  8
_0-7_7
  6
CONTINUOUS
 62
    7
 10
117.09537982078658
 20
106.64122390278672
 11
117.17306851478708
 21
106.80728244313123
  0
LINE
  8
_0-7_7
  6
CONTINUOUS
 62
    7
 10
117.17306851478708
 20
106.80728244313123
 11
117.27117776008757
 21
106.95498275288473
  0
LINE
  8
_0-7_7
  6
CONTINUOUS
 62
    7
 10
117.27117776008757
 20
106.95498275288473
 11
117.38801478477609
 21
107.0813684416662
  0
LINE
  8
_0-7_7
  6
CONTINUOUS
 62
    7
 10
117.38801478477609
 20
107.0813684416662
 11
117.52189873787057
 21
107.18345927723772
  0
LINE
  8
_0-7_7
  6
CONTINUOUS
 62
    7
 10
117.52189873787057
 20
107.18345927723772
 11
117.67113684745908
 21
107.25829886921774
  0
LINE
  8
_0-7_7
  6
CONTINUOUS
 62
    7
 10
117.67113684745908
 20
107.25829886921774
 11
117.83402442070158
 21
107.3029069853672
  0
LINE
  8
_0-7_7
  6
CONTINUOUS
 62
    7
 10
117.83402442070158
 20
107.3029069853672
 11
117.84730433555708
 21
107.30481433400024
  0
LINE
  8
_0-7_7
  6
CONTINUOUS
 62
    7
 10
117.84730433555708
 20
107.30481433400024
 11
117.86062001320008
 21
107.30650710591172
  0
LINE
  8
_0-7_7
  6
CONTINUOUS
 62
    7
 10
117.86062001320008
 20
107.30650710591172
 11
117.87397145363011
 21
107.30800914296023
  0
LINE
  8
_0-7_7
  6
CONTINUOUS
 62
    7
 10
117.87397145363011
 20
107.30800914296023
 11
117.88737057777561
 21
107.3093204451452
  0
LINE
  8
_0-7_7
  6
CONTINUOUS
 62
    7
 10
117.88737057777561
 20
107.3093204451452
 11
117.9007935437786
 21
107.31041717060921
  0
LINE
  8
_0-7_7
  6
CONTINUOUS
 62
    7
 10
117.9007935437786
 20
107.31041717060921
 11
117.9142403516401
 21
107.31129931935172
  0
LINE
  8
_0-7_7
  6
CONTINUOUS
 62
    7
 10
117.9142403516401
 20
107.31129931935172
 11
117.92771100135909
 21
107.31199073323123
  0
LINE
  8
_0-7_7
  6
CONTINUOUS
 62
    7
 10
117.92771100135909
 20
107.31199073323123
 11
117.94119357200762
 21
107.31249141224723
  0
LINE
  8
_0-7_7
  6
CONTINUOUS
 62
    7
 10
117.94119357200762
 20
107.31249141224723
 11
117.95468806358457
 21
107.31277751454223
  0
LINE
  8
_0-7_7
  6
CONTINUOUS
 62
    7
 10
117.95468806358457
 20
107.31277751454223
 11
117.96818255516158
 21
107.31289672383173
  0
LINE
  8
_0-7_7
  6
CONTINUOUS
 62
    7
 10
117.96818255516158
 20
107.31289672383173
 11
118.12298773857259
 21
107.29871081837524
  0
LINE
  8
_0-7_7
  6
CONTINUOUS
 62
    7
 10
118.12298773857259
 20
107.29871081837524
 11
118.27291726204061
 21
107.2575120879067
  0
LINE
  8
_0-7_7
  6
CONTINUOUS
 62
    7
 10
118.27291726204061
 20
107.2575120879067
 11
118.41605185600409
 21
107.1912317229162
  0
LINE
  8
_0-7_7
  6
CONTINUOUS
 62
    7
 10
118.41605185600409
 20
107.1912317229162
 11
118.55048417183062
 21
107.1018009138952
  0
LINE
  8
_0-7_7
  6
CONTINUOUS
 62
    7
 10
118.55048417183062
 20
107.1018009138952
 11
118.67429493995809
 21
106.99122237690821
  0
LINE
  8
_0-7_7
  6
CONTINUOUS
 62
    7
 10
118.67429493995809
 20
106.99122237690821
 11
118.78556489082459
 21
106.8614749861607
  0
LINE
  8
_0-7_7
  6
CONTINUOUS
 62
    7
 10
118.78556489082459
 20
106.8614749861607
 11
118.8823985967266
 21
106.71444224842921
  0
LINE
  8
_0-7_7
  6
CONTINUOUS
 62
    7
 10
118.8823985967266
 20
106.71444224842921
 11
118.9628529462446
 21
106.55215072163473
  0
LINE
  8
_0-7_7
  6
CONTINUOUS
 62
    7
 10
118.9628529462446
 20
106.55215072163473
 11
119.02503251167411
 21
106.37653159626822
  0
LINE
  8
_0-7_7
  6
CONTINUOUS
 62
    7
 10
119.02503251167411
 20
106.37653159626822
 11
119.06701802345407
 21
106.18956374653672
  0
LINE
  8
_0-7_7
  6
CONTINUOUS
 62
    7
 10
119.06701802345407
 20
106.18956374653672
 11
119.08090590568659
 21
106.08289527424674
  0
LINE
  8
_0-7_7
  6
CONTINUOUS
 62
    7
 10
119.08090590568659
 20
106.08289527424674
 11
119.08778428169356
 21
105.97703742512573
  0
LINE
  8
_0-7_7
  6
CONTINUOUS
 62
    7
 10
119.08778428169356
 20
105.97703742512573
 11
119.08771275612008
 21
105.87239551075822
  0
LINE
  8
_0-7_7
  6
CONTINUOUS
 62
    7
 10
119.08771275612008
 20
105.87239551075822
 11
119.08070324989461
 21
105.76930331715471
  0
LINE
  8
_0-7_7
  6
CONTINUOUS
 62
    7
 10
119.08070324989461
 20
105.76930331715471
 11
119.06679152580409
 21
105.66809463032574
  0
LINE
  8
_0-7_7
  6
CONTINUOUS
 62
    7
 10
119.06679152580409
 20
105.66809463032574
 11
119.0460371884931
 21
105.56917476185671
  0
LINE
  8
_0-7_7
  6
CONTINUOUS
 62
    7
 10
119.0460371884931
 20
105.56917476185671
 11
119.01845215889108
 21
105.47282981404175
  0
LINE
  8
_0-7_7
  6
CONTINUOUS
 62
    7
 10
119.01845215889108
 20
105.47282981404175
 11
118.98409604164257
 21
105.3794650984657
  0
LINE
  8
_0-7_7
  6
CONTINUOUS
 62
    7
 10
118.98409604164257
 20
105.3794650984657
 11
118.94299267860558
 21
105.28936671742322
  0
LINE
  8
_0-7_7
  6
CONTINUOUS
 62
    7
 10
118.94299267860558
 20
105.28936671742322
 11
118.89518975349557
 21
105.20291614064072
  0
LINE
  8
_0-7_7
  6
CONTINUOUS
 62
    7
 10
118.89518975349557
 20
105.20291614064072
 11
118.84657620521659
 21
105.12919711598269
  0
LINE
  8
_0-7_7
  6
CONTINUOUS
 62
    7
 10
118.84657620521659
 20
105.12919711598269
 11
118.79393338295105
 21
105.0611524535072
  0
LINE
  8
_0-7_7
  6
CONTINUOUS
 62
    7
 10
118.79393338295105
 20
105.0611524535072
 11
118.73747586342006
 21
104.9989728880772
  0
LINE
  8
_0-7_7
  6
CONTINUOUS
 62
    7
 10
118.73747586342006
 20
104.9989728880772
 11
118.67744206520209
 21
104.94282531269923
  0
LINE
  8
_0-7_7
  6
CONTINUOUS
 62
    7
 10
118.67744206520209
 20
104.94282531269923
 11
118.61408232780607
 21
104.89290046223523
  0
LINE
  8
_0-7_7
  6
CONTINUOUS
 62
    7
 10
118.61408232780607
 20
104.89290046223523
 11
118.54764699073908
 21
104.84938907154924
  0
LINE
  8
_0-7_7
  6
CONTINUOUS
 62
    7
 10
118.54764699073908
 20
104.84938907154924
 11
118.47836255165211
 21
104.81243419178824
  0
LINE
  8
_0-7_7
  6
CONTINUOUS
 62
    7
 10
118.47836255165211
 20
104.81243419178824
 11
118.40646742912409
 21
104.78227424153224
  0
LINE
  8
_0-7_7
  6
CONTINUOUS
 62
    7
 10
118.40646742912409
 20
104.78227424153224
 11
118.33222388359209
 21
104.7590284300697
  0
LINE
  8
_0-7_7
  6
CONTINUOUS
 62
    7
 10
118.33222388359209
 20
104.7590284300697
 11
118.25585841270561
 21
104.74291133412223
  0
LINE
  8
_0-7_7
  6
CONTINUOUS
 62
    7
 10
118.25585841270561
 20
104.74291133412223
 11
118.24185132118359
 21
104.74055099018921
  0
LINE
  8
_0-7_7
  6
CONTINUOUS
 62
    7
 10
118.24185132118359
 20
104.74055099018921
 11
118.22797535988011
 21
104.73847674855124
  0
LINE
  8
_0-7_7
  6
CONTINUOUS
 62
    7
 10
118.22797535988011
 20
104.73847674855124
 11
118.21419476600761
 21
104.7366886092077
  0
LINE
  8
_0-7_7
  6
CONTINUOUS
 62
    7
 10
118.21419476600761
 20
104.7366886092077
 11
118.20050953956761
 21
104.73518657215924
  0
LINE
  8
_0-7_7
  6
CONTINUOUS
 62
    7
 10
118.20050953956761
 20
104.73518657215924
 11
118.1869316014876
 21
104.73394679554822
  0
LINE
  8
_0-7_7
  6
CONTINUOUS
 62
    7
 10
118.1869316014876
 20
104.73394679554822
 11
118.17346095176811
 21
104.73292159565821
  0
LINE
  8
_0-7_7
  6
CONTINUOUS
 62
    7
 10
118.17346095176811
 20
104.73292159565821
 11
118.16008566948057
 21
104.73218249806274
  0
LINE
  8
_0-7_7
  6
CONTINUOUS
 62
    7
 10
118.16008566948057
 20
104.73218249806274
 11
118.1467938336956
 21
104.73163413533072
  0
LINE
  8
_0-7_7
  6
CONTINUOUS
 62
    7
 10
118.1467938336956
 20
104.73163413533072
 11
118.13360928627159
 21
104.7313480330357
  0
LINE
  8
_0-7_7
  6
CONTINUOUS
 62
    7
 10
118.13360928627159
 20
104.7313480330357
 11
118.1205201062786
 21
104.73122882374625
  0
LINE
  8
_f-a_250
  6
CONTINUOUS
 62
  250
 10
97.946690312348579
 20
97.341230387772214
 11
105.55668353172408
 21
101.8729238463292
  0
LINE
  8
_f-a_250
  6
CONTINUOUS
 62
  250
 10
105.55668353172408
 20
101.8729238463292
 11
105.59981345268358
 21
101.89595508107072
  0
LINE
  8
_f-a_250
  6
CONTINUOUS
 62
  250
 10
105.59981345268358
 20
101.89595508107072
 11
105.71750878425706
 21
101.95358085163922
  0
LINE
  8
_f-a_250
  6
CONTINUOUS
 62
  250
 10
105.71750878425706
 20
101.95358085163922
 11
105.90394019218559
 21
102.03609752186671
  0
LINE
  8
_f-a_250
  6
CONTINUOUS
 62
  250
 10
105.90394019218559
 20
102.03609752186671
 11
106.15327834221009
 21
102.13382529744023
  0
LINE
  8
_f-a_250
  6
CONTINUOUS
 62
  250
 10
106.15327834221009
 20
102.13382529744023
 11
106.45972966285862
 21
102.23708438404924
  0
LINE
  8
_f-a_250
  6
CONTINUOUS
 62
  250
 10
106.45972966285862
 20
102.23708438404924
 11
106.81744097801356
 21
102.3360996199502
  0
LINE
  8
_f-a_250
  6
CONTINUOUS
 62
  250
 10
106.81744097801356
 20
102.3360996199502
 11
107.22060679527405
 21
102.4212388945472
  0
LINE
  8
_f-a_250
  6
CONTINUOUS
 62
  250
 10
107.22060679527405
 20
102.4212388945472
 11
107.6633858594526
 21
102.48277472981323
  0
LINE
  8
_f-a_250
  6
CONTINUOUS
 62
  250
 10
107.6633858594526
 20
102.48277472981323
 11
108.1399607572186
 21
102.51100348957871
  0
LINE
  8
_f-a_250
  6
CONTINUOUS
 62
  250
 10
108.1399607572186
 20
102.51100348957871
 11
108.64451407524257
 21
102.49624537953272
  0
LINE
  8
_f-a_250
  6
CONTINUOUS
 62
  250
 10
108.64451407524257
 20
102.49624537953272
 11
108.81886958213957
 21
102.48306083210824
  0
LINE
  8
_f-a_250
  6
CONTINUOUS
 62
  250
 10
108.81886958213957
 20
102.48306083210824
 11
109.1403055104841
 21
102.48496818074122
  0
LINE
  8
_f-a_250
  6
CONTINUOUS
 62
  250
 10
109.1403055104841
 20
102.48496818074122
 11
109.61875199409607
 21
102.5251417113197
  0
LINE
  8
_f-a_250
  6
CONTINUOUS
 62
  250
 10
109.61875199409607
 20
102.5251417113197
 11
110.2641034040081
 21
102.6267795515907
  0
LINE
  8
_f-a_250
  6
CONTINUOUS
 62
  250
 10
110.2641034040081
 20
102.6267795515907
 11
111.0862660321821
 21
102.81312751301621
  0
LINE
  8
_f-a_250
  6
CONTINUOUS
 62
  250
 10
111.0862660321821
 20
102.81312751301621
 11
112.0951580915081
 21
103.10726451405421
  0
LINE
  8
_f-a_250
  6
CONTINUOUS
 62
  250
 10
112.0951580915081
 20
103.10726451405421
 11
113.30067395301961
 21
103.53248404988172
  0
LINE
  8
_f-a_250
  6
CONTINUOUS
 62
  250
 10
113.30067395301961
 20
103.53248404988172
 11
114.71270798774859
 21
104.1119127226722
  0
LINE
  8
_f-a_250
  6
CONTINUOUS
 62
  250
 10
118.31799029441956
 20
106.25515269764773
 11
118.28943966957209
 21
106.40507030018671
  0
LINE
  8
_f-a_250
  6
CONTINUOUS
 62
  250
 10
118.28943966957209
 20
106.40507030018671
 11
118.21970223518511
 21
106.51870059498674
  0
LINE
  8
_f-a_250
  6
CONTINUOUS
 62
  250
 10
118.21970223518511
 20
106.51870059498674
 11
118.12263011070357
 21
106.60105037220825
  0
LINE
  8
_f-a_250
  6
CONTINUOUS
 62
  250
 10
118.12263011070357
 20
106.60105037220825
 11
118.01209925743208
 21
106.65712642201325
  0
LINE
  8
_f-a_250
  6
CONTINUOUS
 62
  250
 10
118.01209925743208
 20
106.65712642201325
 11
117.90198563667411
 21
106.69198321827771
  0
LINE
  8
_f-a_250
  6
CONTINUOUS
 62
  250
 10
117.90198563667411
 20
106.69198321827771
 11
117.80615328880458
 21
106.71067523487923
  0
LINE
  8
_f-a_250
  6
CONTINUOUS
 62
  250
 10
117.80615328880458
 20
106.71067523487923
 11
117.73850201698409
 21
106.7181854201207
  0
LINE
  8
_f-a_250
  6
CONTINUOUS
 62
  250
 10
117.73850201698409
 20
106.7181854201207
 11
117.7128481778731
 21
106.71956824787972
  0
LINE
  8
_f-a_250
  6
CONTINUOUS
 62
  250
 10
117.7128481778731
 20
106.71956824787972
 11
115.88141202064659
 21
105.77442931660522
  0
LINE
  8
_f-a_250
  6
CONTINUOUS
 62
  250
 10
115.88141202064659
 20
105.77442931660522
 11
114.28636788459909
 21
105.03351974018921
  0
LINE
  8
_f-a_250
  6
CONTINUOUS
 62
  250
 10
114.28636788459909
 20
105.03351974018921
 11
112.9173207196821
 21
104.47225856312622
  0
LINE
  8
_f-a_250
  6
CONTINUOUS
 62
  250
 10
112.9173207196821
 20
104.47225856312622
 11
111.76386355491758
 21
104.06594562062125
  0
LINE
  8
_f-a_250
  6
CONTINUOUS
 62
  250
 10
111.76386355491758
 20
104.06594562062125
 11
110.81560134025707
 21
103.78999995716921
  0
LINE
  8
_f-a_250
  6
CONTINUOUS
 62
  250
 10
110.81560134025707
 20
103.78999995716921
 11
110.06215094658006
 21
103.6197452498327
  0
LINE
  8
_f-a_250
  6
CONTINUOUS
 62
  250
 10
110.06215094658006
 20
103.6197452498327
 11
109.49309348198057
 21
103.53052901753321
  0
LINE
  8
_f-a_250
  6
CONTINUOUS
 62
  250
 10
109.49309348198057
 20
103.53052901753321
 11
109.09803389640956
 21
103.49777030476422
  0
LINE
  8
_f-a_250
  6
CONTINUOUS
 62
  250
 10
109.09803389640956
 20
103.49777030476422
 11
108.86658906074658
 21
103.49674510487421
  0
LINE
  8
_f-a_250
  6
CONTINUOUS
 62
  250
 10
108.86658906074658
 20
103.49674510487421
 11
108.78836392494307
 21
103.50289630421521
  0
LINE
  8
_f-a_250
  6
CONTINUOUS
 62
  250
 10
108.78836392494307
 20
103.50289630421521
 11
108.73768805595506
 21
103.50790309437622
  0
LINE
  8
_f-a_250
  6
CONTINUOUS
 62
  250
 10
108.73768805595506
 20
103.50790309437622
 11
108.14234494300959
 21
103.52635669239872
  0
LINE
  8
_f-a_250
  6
CONTINUOUS
 62
  250
 10
108.14234494300959
 20
103.52635669239872
 11
107.58054732414359
 21
103.49417018422022
  0
LINE
  8
_f-a_250
  6
CONTINUOUS
 62
  250
 10
107.58054732414359
 20
103.49417018422022
 11
107.0585775289166
 21
103.42247771748421
  0
LINE
  8
_f-a_250
  6
CONTINUOUS
 62
  250
 10
107.0585775289166
 20
103.42247771748421
 11
106.58270596595909
 21
103.32243728169324
  0
LINE
  8
_f-a_250
  6
CONTINUOUS
 62
  250
 10
106.58270596595909
 20
103.32243728169324
 11
106.15925072761658
 21
103.20520686634873
  0
LINE
  8
_f-a_250
  6
CONTINUOUS
 62
  250
 10
106.15925072761658
 20
103.20520686634873
 11
105.79449414344907
 21
103.08189677723772
  0
LINE
  8
_f-a_250
  6
CONTINUOUS
 62
  250
 10
105.79449414344907
 20
103.08189677723772
 11
105.49470662208708
 21
102.96371268757672
  0
LINE
  8
_f-a_250
  6
CONTINUOUS
 62
  250
 10
105.49470662208708
 20
102.96371268757672
 11
105.26620625587609
 21
102.8617649031532
  0
LINE
  8
_f-a_250
  6
CONTINUOUS
 62
  250
 10
105.26620625587609
 20
102.8617649031532
 11
105.11527537437559
 21
102.78721141346823
  0
LINE
  8
_f-a_250
  6
CONTINUOUS
 62
  250
 10
105.11527537437559
 20
102.78721141346823
 11
105.04819630714559
 21
102.75123404988172
  0
LINE
  8
_f-a_250
  6
CONTINUOUS
 62
  250
 10
105.04819630714559
 20
102.75123404988172
 11
97.200517645799067
 21
98.077919955338217
  0
LINE
  8
_f-a_250
  6
CONTINUOUS
 62
  250
 10
97.200517645799067
 20
98.077919955338217
 11
97.198473206483072
 21
98.062184329117201
  0
LINE
  8
_f-a_250
  6
CONTINUOUS
 62
  250
 10
97.946690312348579
 20
97.341230387772214
 11
105.55668353172408
 21
101.8729238463292
  0
LINE
  8
_f-a_250
  6
CONTINUOUS
 62
  250
 10
105.55668353172408
 20
101.8729238463292
 11
105.59981345268358
 21
101.89595508107072
  0
LINE
  8
_f-a_250
  6
CONTINUOUS
 62
  250
 10
105.59981345268358
 20
101.89595508107072
 11
105.71750878425706
 21
101.95358085163922
  0
LINE
  8
_f-a_250
  6
CONTINUOUS
 62
  250
 10
105.71750878425706
 20
101.95358085163922
 11
105.90394019218559
 21
102.03609752186671
  0
LINE
  8
_f-a_250
  6
CONTINUOUS
 62
  250
 10
105.90394019218559
 20
102.03609752186671
 11
106.15327834221009
 21
102.13382529744023
  0
LINE
  8
_f-a_250
  6
CONTINUOUS
 62
  250
 10
106.15327834221009
 20
102.13382529744023
 11
106.45972966285862
 21
102.23708438404924
  0
LINE
  8
_f-a_250
  6
CONTINUOUS
 62
  250
 10
106.45972966285862
 20
102.23708438404924
 11
106.81744097801356
 21
102.3360996199502
  0
LINE
  8
_f-a_250
  6
CONTINUOUS
 62
  250
 10
106.81744097801356
 20
102.3360996199502
 11
107.22060679527405
 21
102.4212388945472
  0
LINE
  8
_f-a_250
  6
CONTINUOUS
 62
  250
 10
107.22060679527405
 20
102.4212388945472
 11
107.6633858594526
 21
102.48277472981323
  0
LINE
  8
_f-a_250
  6
CONTINUOUS
 62
  250
 10
107.6633858594526
 20
102.48277472981323
 11
108.1399607572186
 21
102.51100348957871
  0
LINE
  8
_f-a_250
  6
CONTINUOUS
 62
  250
 10
108.1399607572186
 20
102.51100348957871
 11
108.64451407524257
 21
102.49624537953272
  0
LINE
  8
_f-a_250
  6
CONTINUOUS
 62
  250
 10
108.64451407524257
 20
102.49624537953272
 11
108.81886958213957
 21
102.48306083210824
  0
LINE
  8
_f-a_250
  6
CONTINUOUS
 62
  250
 10
108.81886958213957
 20
102.48306083210824
 11
109.1403055104841
 21
102.48496818074122
  0
LINE
  8
_f-a_250
  6
CONTINUOUS
 62
  250
 10
109.1403055104841
 20
102.48496818074122
 11
109.61875199409607
 21
102.5251417113197
  0
LINE
  8
_f-a_250
  6
CONTINUOUS
 62
  250
 10
109.61875199409607
 20
102.5251417113197
 11
110.2641034040081
 21
102.6267795515907
  0
LINE
  8
_f-a_250
  6
CONTINUOUS
 62
  250
 10
110.2641034040081
 20
102.6267795515907
 11
111.0862660321821
 21
102.81312751301621
  0
LINE
  8
_f-a_250
  6
CONTINUOUS
 62
  250
 10
111.0862660321821
 20
102.81312751301621
 11
112.0951580915081
 21
103.10726451405421
  0
LINE
  8
_f-a_250
  6
CONTINUOUS
 62
  250
 10
112.0951580915081
 20
103.10726451405421
 11
113.30067395301961
 21
103.53248404988172
  0
LINE
  8
_f-a_250
  6
CONTINUOUS
 62
  250
 10
113.30067395301961
 20
103.53248404988172
 11
114.71270798774859
 21
104.1119127226722
  0
LINE
  8
_f-a_250
  6
CONTINUOUS
 62
  250
 10
118.31799029441956
 20
106.25515269764773
 11
118.28943966957209
 21
106.40507030018671
  0
LINE
  8
_f-a_250
  6
CONTINUOUS
 62
  250
 10
118.28943966957209
 20
106.40507030018671
 11
118.21970223518511
 21
106.51870059498674
  0
LINE
  8
_f-a_250
  6
CONTINUOUS
 62
  250
 10
118.21970223518511
 20
106.51870059498674
 11
118.12263011070357
 21
106.60105037220825
  0
LINE
  8
_f-a_250
  6
CONTINUOUS
 62
  250
 10
118.12263011070357
 20
106.60105037220825
 11
118.01209925743208
 21
106.65712642201325
  0
LINE
  8
_f-a_250
  6
CONTINUOUS
 62
  250
 10
118.01209925743208
 20
106.65712642201325
 11
117.90198563667411
 21
106.69198321827771
  0
LINE
  8
_f-a_250
  6
CONTINUOUS
 62
  250
 10
117.90198563667411
 20
106.69198321827771
 11
117.80615328880458
 21
106.71067523487923
  0
LINE
  8
_f-a_250
  6
CONTINUOUS
 62
  250
 10
117.80615328880458
 20
106.71067523487923
 11
117.73850201698409
 21
106.7181854201207
  0
LINE
  8
_f-a_250
  6
CONTINUOUS
 62
  250
 10
117.73850201698409
 20
106.7181854201207
 11
117.7128481778731
 21
106.71956824787972
  0
LINE
  8
_f-a_250
  6
CONTINUOUS
 62
  250
 10
117.7128481778731
 20
106.71956824787972
 11
115.88141202064659
 21
105.77442931660522
  0
LINE
  8
_f-a_250
  6
CONTINUOUS
 62
  250
 10
115.88141202064659
 20
105.77442931660522
 11
114.28636788459909
 21
105.03351974018921
  0
LINE
  8
_f-a_250
  6
CONTINUOUS
 62
  250
 10
114.28636788459909
 20
105.03351974018921
 11
112.9173207196821
 21
104.47225856312622
  0
LINE
  8
_f-a_250
  6
CONTINUOUS
 62
  250
 10
112.9173207196821
 20
104.47225856312622
 11
111.76386355491758
 21
104.06594562062125
  0
LINE
  8
_f-a_250
  6
CONTINUOUS
 62
  250
 10
111.76386355491758
 20
104.06594562062125
 11
110.81560134025707
 21
103.78999995716921
  0
LINE
  8
_f-a_250
  6
CONTINUOUS
 62
  250
 10
110.81560134025707
 20
103.78999995716921
 11
110.06215094658006
 21
103.6197452498327
  0
LINE
  8
_f-a_250
  6
CONTINUOUS
 62
  250
 10
110.06215094658006
 20
103.6197452498327
 11
109.49309348198057
 21
103.53052901753321
  0
LINE
  8
_f-a_250
  6
CONTINUOUS
 62
  250
 10
109.49309348198057
 20
103.53052901753321
 11
109.09803389640956
 21
103.49777030476422
  0
LINE
  8
_f-a_250
  6
CONTINUOUS
 62
  250
 10
109.09803389640956
 20
103.49777030476422
 11
108.86658906074658
 21
103.49674510487421
  0
LINE
  8
_f-a_250
  6
CONTINUOUS
 62
  250
 10
108.86658906074658
 20
103.49674510487421
 11
108.78836392494307
 21
103.50289630421521
  0
LINE
  8
_f-a_250
  6
CONTINUOUS
 62
  250
 10
108.78836392494307
 20
103.50289630421521
 11
108.73768805595506
 21
103.50790309437622
  0
LINE
  8
_f-a_250
  6
CONTINUOUS
 62
  250
 10
108.73768805595506
 20
103.50790309437622
 11
108.14234494300959
 21
103.52635669239872
  0
LINE
  8
_f-a_250
  6
CONTINUOUS
 62
  250
 10
108.14234494300959
 20
103.52635669239872
 11
107.58054732414359
 21
103.49417018422022
  0
LINE
  8
_f-a_250
  6
CONTINUOUS
 62
  250
 10
107.58054732414359
 20
103.49417018422022
 11
107.0585775289166
 21
103.42247771748421
  0
LINE
  8
_f-a_250
  6
CONTINUOUS
 62
  250
 10
107.0585775289166
 20
103.42247771748421
 11
106.58270596595909
 21
103.32243728169324
  0
LINE
  8
_f-a_250
  6
CONTINUOUS
 62
  250
 10
106.58270596595909
 20
103.32243728169324
 11
106.15925072761658
 21
103.20520686634873
  0
LINE
  8
_f-a_250
  6
CONTINUOUS
 62
  250
 10
106.15925072761658
 20
103.20520686634873
 11
105.79449414344907
 21
103.08189677723772
  0
LINE
  8
_f-a_250
  6
CONTINUOUS
 62
  250
 10
105.79449414344907
 20
103.08189677723772
 11
105.49470662208708
 21
102.96371268757672
  0
LINE
  8
_f-a_250
  6
CONTINUOUS
 62
  250
 10
105.49470662208708
 20
102.96371268757672
 11
105.26620625587609
 21
102.8617649031532
  0
LINE
  8
_f-a_250
  6
CONTINUOUS
 62
  250
 10
105.26620625587609
 20
102.8617649031532
 11
105.11527537437559
 21
102.78721141346823
  0
LINE
  8
_f-a_250
  6
CONTINUOUS
 62
  250
 10
105.11527537437559
 20
102.78721141346823
 11
105.04819630714559
 21
102.75123404988172
  0
LINE
  8
_f-a_250
  6
CONTINUOUS
 62
  250
 10
105.04819630714559
 20
102.75123404988172
 11
97.200517645799067
 21
98.077919955338217
  0
LINE
  8
_f-a_250
  6
CONTINUOUS
 62
  250
 10
97.200517645799067
 20
98.077919955338217
 11
97.198473206483072
 21
98.062184329117201
  0
LINE
  8
_f-a_250
  6
CONTINUOUS
 62
  250
 10
110.51885365577812
 20
98.327901835526205
 11
110.61920403572205
 21
98.397448535050216
  0
LINE
  8
_f-a_250
  6
CONTINUOUS
 62
  250
 10
110.61920403572205
 20
98.397448535050216
 11
110.83968161674608
 21
98.553827281082704
  0
LINE
  8
_f-a_250
  6
CONTINUOUS
 62
  250
 10
110.83968161674608
 20
98.553827281082704
 11
111.15555047126907
 21
98.784497256363736
  0
LINE
  8
_f-a_250
  6
CONTINUOUS
 62
  250
 10
111.15555047126907
 20
98.784497256363736
 11
111.54209851356657
 21
99.076965327347224
  0
LINE
  8
_f-a_250
  6
CONTINUOUS
 62
  250
 10
111.54209851356657
 20
99.076965327347224
 11
111.97462557884359
 21
99.418738360489712
  0
LINE
  8
_f-a_250
  6
CONTINUOUS
 62
  250
 10
111.97462557884359
 20
99.418738360489712
 11
112.42839573951858
 21
99.797299380387216
  0
LINE
  8
_f-a_250
  6
CONTINUOUS
 62
  250
 10
112.42839573951858
 20
99.797299380387216
 11
112.87867306800959
 21
100.20015525349473
  0
LINE
  8
_f-a_250
  6
CONTINUOUS
 62
  250
 10
112.87867306800959
 20
100.20015525349473
 11
113.30078124138009
 21
100.61483668812622
  0
LINE
  8
_f-a_250
  6
CONTINUOUS
 62
  250
 10
113.30078124138009
 20
100.61483668812622
 11
113.66996049019008
 21
101.0288028670202
  0
LINE
  8
_f-a_250
  6
CONTINUOUS
 62
  250
 10
113.66996049019008
 20
101.0288028670202
 11
113.96152257057309
 21
101.4295606566322
  0
LINE
  8
_f-a_250
  6
CONTINUOUS
 62
  250
 10
113.96152257057309
 20
101.4295606566322
 11
114.01403426262007
 21
101.49984645375122
  0
LINE
  8
_f-a_250
  6
CONTINUOUS
 62
  250
 10
114.01403426262007
 20
101.49984645375122
 11
114.16327237220909
 21
101.68669509419324
  0
LINE
  8
_f-a_250
  6
CONTINUOUS
 62
  250
 10
114.16327237220909
 20
101.68669509419324
 11
114.41022633644261
 21
101.9737749052892
  0
LINE
  8
_f-a_250
  6
CONTINUOUS
 62
  250
 10
114.41022633644261
 20
101.9737749052892
 11
114.75592135521057
 21
102.34465884693974
  0
LINE
  8
_f-a_250
  6
CONTINUOUS
 62
  250
 10
114.75592135521057
 20
102.34465884693974
 11
115.20137070747509
 21
102.78291987904423
  0
LINE
  8
_f-a_250
  6
CONTINUOUS
 62
  250
 10
115.20137070747509
 20
102.78291987904423
 11
115.74758767219657
 21
103.27217864521872
  0
LINE
  8
_f-a_250
  6
CONTINUOUS
 62
  250
 10
115.74758767219657
 20
103.27217864521872
 11
116.3955736074081
 21
103.79603194722071
  0
LINE
  8
_f-a_250
  6
CONTINUOUS
 62
  250
 10
116.3955736074081
 20
103.79603194722071
 11
117.14636563392759
 21
104.33810042866571
  0
LINE
  8
_f-a_250
  6
CONTINUOUS
 62
  250
 10
117.14636563392759
 20
104.33810042866571
 11
118.00095318885909
 21
104.8819808913122
  0
LINE
  8
_f-a_250
  6
CONTINUOUS
 62
  250
 10
118.00095318885909
 20
104.8819808913122
 11
118.96034955116411
 21
105.41124629505973
  0
LINE
  8
_f-a_250
  6
CONTINUOUS
 62
  250
 10
118.96034955116411
 20
105.41124629505973
 11
118.98535966011161
 21
105.64673232563824
  0
LINE
  8
_f-a_250
  6
CONTINUOUS
 62
  250
 10
118.98535966011161
 20
105.64673232563824
 11
118.97224663826108
 21
105.83734797963021
  0
LINE
  8
_f-a_250
  6
CONTINUOUS
 62
  250
 10
118.97224663826108
 20
105.83734797963021
 11
118.92935513588057
 21
105.98781394490121
  0
LINE
  8
_f-a_250
  6
CONTINUOUS
 62
  250
 10
118.92935513588057
 20
105.98781394490121
 11
118.86507748695507
 21
106.1028985930337
  0
LINE
  8
_f-a_250
  6
CONTINUOUS
 62
  250
 10
118.86507748695507
 20
106.1028985930337
 11
118.78774642082359
 21
106.1872749281777
  0
LINE
  8
_f-a_250
  6
CONTINUOUS
 62
  250
 10
118.78774642082359
 20
106.1872749281777
 11
118.70574235054158
 21
106.24571132191522
  0
LINE
  8
_f-a_250
  6
CONTINUOUS
 62
  250
 10
118.70574235054158
 20
106.24571132191522
 11
118.62740992637757
 21
106.2829284621132
  0
LINE
  8
_f-a_250
  6
CONTINUOUS
 62
  250
 10
118.62740992637757
 20
106.2829284621132
 11
118.56109379860058
 21
106.30364703663722
  0
LINE
  8
_f-a_250
  6
CONTINUOUS
 62
  250
 10
118.56109379860058
 20
106.30364703663722
 11
118.51518630119457
 21
106.31263541706922
  0
LINE
  8
_f-a_250
  6
CONTINUOUS
 62
  250
 10
118.51518630119457
 20
106.31263541706922
 11
118.49802016349909
 21
106.31456660755973
  0
LINE
  8
_f-a_250
  6
CONTINUOUS
 62
  250
 10
118.49802016349909
 20
106.31456660755973
 11
117.4722361478436
 21
105.74922847279421
  0
LINE
  8
_f-a_250
  6
CONTINUOUS
 62
  250
 10
117.4722361478436
 20
105.74922847279421
 11
116.55997513862758
 21
105.16927527912972
  0
LINE
  8
_f-a_250
  6
CONTINUOUS
 62
  250
 10
116.55997513862758
 20
105.16927527912972
 11
115.75931786628863
 21
104.59122943409771
  0
LINE
  8
_f-a_250
  6
CONTINUOUS
 62
  250
 10
115.75931786628863
 20
104.59122943409771
 11
115.0683092984786
 21
104.0317325545202
  0
LINE
  8
_f-a_250
  6
CONTINUOUS
 62
  250
 10
115.0683092984786
 20
104.0317325545202
 11
114.48503016563558
 21
103.50728320607072
  0
LINE
  8
_f-a_250
  6
CONTINUOUS
 62
  250
 10
114.48503016563558
 20
103.50728320607072
 11
114.00752543541111
 21
103.03449916371224
  0
LINE
  8
_f-a_250
  6
CONTINUOUS
 62
  250
 10
114.00752543541111
 20
103.03449916371224
 11
113.63385199638509
 21
102.62992667683471
  0
LINE
  8
_f-a_250
  6
CONTINUOUS
 62
  250
 10
113.63385199638509
 20
102.62992667683471
 11
113.36209057899609
 21
102.31015967854374
  0
LINE
  8
_f-a_250
  6
CONTINUOUS
 62
  250
 10
113.36209057899609
 20
102.31015967854374
 11
113.1902980718246
 21
102.0917444182287
  0
LINE
  8
_f-a_250
  6
CONTINUOUS
 62
  250
 10
113.1902980718246
 20
102.0917444182287
 11
113.11651944252159
 21
101.9912509871377
  0
LINE
  8
_f-a_250
  6
CONTINUOUS
 62
  250
 10
113.11651944252159
 20
101.9912509871377
 11
112.90145396324309
 21
101.69387149342424
  0
LINE
  8
_f-a_250
  6
CONTINUOUS
 62
  250
 10
112.90145396324309
 20
101.69387149342424
 11
112.62377976509208
 21
101.3774661970982
  0
LINE
  8
_f-a_250
  6
CONTINUOUS
 62
  250
 10
112.62377976509208
 20
101.3774661970982
 11
112.29881524177657
 21
101.05054664143422
  0
LINE
  8
_f-a_250
  6
CONTINUOUS
 62
  250
 10
112.29881524177657
 20
101.05054664143422
 11
111.94179534050107
 21
100.72174357899522
  0
LINE
  8
_f-a_250
  6
CONTINUOUS
 62
  250
 10
111.94179534050107
 20
100.72174357899522
 11
111.56800269218559
 21
100.39956855305523
  0
LINE
  8
_f-a_250
  6
CONTINUOUS
 62
  250
 10
111.56800269218559
 20
100.39956855305523
 11
111.1927080068221
 21
100.09260463246224
  0
LINE
  8
_f-a_250
  6
CONTINUOUS
 62
  250
 10
111.1927080068221
 20
100.09260463246224
 11
110.83118199440108
 21
99.809387202347224
  0
LINE
  8
_f-a_250
  6
CONTINUOUS
 62
  250
 10
110.83118199440108
 20
99.809387202347224
 11
110.49868344398607
 21
99.55847548970074
  0
LINE
  8
_f-a_250
  6
CONTINUOUS
 62
  250
 10
110.49868344398607
 20
99.55847548970074
 11
110.21048306556807
 21
99.348476405228212
  0
LINE
  8
_f-a_250
  6
CONTINUOUS
 62
  250
 10
110.21048306556807
 20
99.348476405228212
 11
109.98186349006758
 21
99.187901492203224
  0
LINE
  8
_f-a_250
  6
CONTINUOUS
 62
  250
 10
109.98186349006758
 20
99.187901492203224
 11
102.62102364631758
 21
94.972923274124696
  0
LINE
  8
_0-7_7
  6
CONTINUOUS
 62
    7
 10
110.51885365577812
 20
98.327901835526205
 11
110.61920403572205
 21
98.397448535050216
  0
LINE
  8
_0-7_7
  6
CONTINUOUS
 62
    7
 10
110.61920403572205
 20
98.397448535050216
 11
110.83968161674608
 21
98.553827281082704
  0
LINE
  8
_0-7_7
  6
CONTINUOUS
 62
    7
 10
110.83968161674608
 20
98.553827281082704
 11
111.15555047126907
 21
98.784497256363736
  0
LINE
  8
_0-7_7
  6
CONTINUOUS
 62
    7
 10
111.15555047126907
 20
98.784497256363736
 11
111.54209851356657
 21
99.076965327347224
  0
LINE
  8
_0-7_7
  6
CONTINUOUS
 62
    7
 10
111.54209851356657
 20
99.076965327347224
 11
111.97462557884359
 21
99.418738360489712
  0
LINE
  8
_0-7_7
  6
CONTINUOUS
 62
    7
 10
111.97462557884359
 20
99.418738360489712
 11
112.42839573951858
 21
99.797299380387216
  0
LINE
  8
_0-7_7
  6
CONTINUOUS
 62
    7
 10
112.42839573951858
 20
99.797299380387216
 11
112.87867306800959
 21
100.20015525349473
  0
LINE
  8
_0-7_7
  6
CONTINUOUS
 62
    7
 10
112.87867306800959
 20
100.20015525349473
 11
113.30078124138009
 21
100.61483668812622
  0
LINE
  8
_0-7_7
  6
CONTINUOUS
 62
    7
 10
113.30078124138009
 20
100.61483668812622
 11
113.66996049019008
 21
101.0288028670202
  0
LINE
  8
_0-7_7
  6
CONTINUOUS
 62
    7
 10
113.66996049019008
 20
101.0288028670202
 11
113.96152257057309
 21
101.4295606566322
  0
LINE
  8
_0-7_7
  6
CONTINUOUS
 62
    7
 10
113.96152257057309
 20
101.4295606566322
 11
114.01403426262007
 21
101.49984645375122
  0
LINE
  8
_0-7_7
  6
CONTINUOUS
 62
    7
 10
114.01403426262007
 20
101.49984645375122
 11
114.16327237220909
 21
101.68669509419324
  0
LINE
  8
_0-7_7
  6
CONTINUOUS
 62
    7
 10
114.16327237220909
 20
101.68669509419324
 11
114.41022633644261
 21
101.9737749052892
  0
LINE
  8
_0-7_7
  6
CONTINUOUS
 62
    7
 10
114.41022633644261
 20
101.9737749052892
 11
114.75592135521057
 21
102.34465884693974
  0
LINE
  8
_0-7_7
  6
CONTINUOUS
 62
    7
 10
114.75592135521057
 20
102.34465884693974
 11
115.20137070747509
 21
102.78291987904423
  0
LINE
  8
_0-7_7
  6
CONTINUOUS
 62
    7
 10
115.20137070747509
 20
102.78291987904423
 11
115.74758767219657
 21
103.27217864521872
  0
LINE
  8
_0-7_7
  6
CONTINUOUS
 62
    7
 10
115.74758767219657
 20
103.27217864521872
 11
116.3955736074081
 21
103.79603194722071
  0
LINE
  8
_0-7_7
  6
CONTINUOUS
 62
    7
 10
116.3955736074081
 20
103.79603194722071
 11
117.14636563392759
 21
104.33810042866571
  0
LINE
  8
_0-7_7
  6
CONTINUOUS
 62
    7
 10
117.14636563392759
 20
104.33810042866571
 11
118.00095318885909
 21
104.8819808913122
  0
LINE
  8
_0-7_7
  6
CONTINUOUS
 62
    7
 10
118.00095318885909
 20
104.8819808913122
 11
118.96034955116411
 21
105.41124629505973
  0
LINE
  8
_0-7_7
  6
CONTINUOUS
 62
    7
 10
118.96034955116411
 20
105.41124629505973
 11
118.98535966011161
 21
105.64673232563824
  0
LINE
  8
_0-7_7
  6
CONTINUOUS
 62
    7
 10
118.98535966011161
 20
105.64673232563824
 11
118.97224663826108
 21
105.83734797963021
  0
LINE
  8
_0-7_7
  6
CONTINUOUS
 62
    7
 10
118.97224663826108
 20
105.83734797963021
 11
118.92935513588057
 21
105.98781394490121
  0
LINE
  8
_0-7_7
  6
CONTINUOUS
 62
    7
 10
118.92935513588057
 20
105.98781394490121
 11
118.86507748695507
 21
106.1028985930337
  0
LINE
  8
_0-7_7
  6
CONTINUOUS
 62
    7
 10
118.86507748695507
 20
106.1028985930337
 11
118.78774642082359
 21
106.1872749281777
  0
LINE
  8
_0-7_7
  6
CONTINUOUS
 62
    7
 10
118.78774642082359
 20
106.1872749281777
 11
118.70574235054158
 21
106.24571132191522
  0
LINE
  8
_0-7_7
  6
CONTINUOUS
 62
    7
 10
118.70574235054158
 20
106.24571132191522
 11
118.62740992637757
 21
106.2829284621132
  0
LINE
  8
_0-7_7
  6
CONTINUOUS
 62
    7
 10
118.62740992637757
 20
106.2829284621132
 11
118.56109379860058
 21
106.30364703663722
  0
LINE
  8
_0-7_7
  6
CONTINUOUS
 62
    7
 10
118.56109379860058
 20
106.30364703663722
 11
118.51518630119457
 21
106.31263541706922
  0
LINE
  8
_0-7_7
  6
CONTINUOUS
 62
    7
 10
118.51518630119457
 20
106.31263541706922
 11
118.49802016349909
 21
106.31456660755973
  0
LINE
  8
_0-7_7
  6
CONTINUOUS
 62
    7
 10
118.49802016349909
 20
106.31456660755973
 11
117.4722361478436
 21
105.74922847279421
  0
LINE
  8
_0-7_7
  6
CONTINUOUS
 62
    7
 10
116.55997513862758
 20
105.16927527912972
 11
115.75931786628863
 21
104.59122943409771
  0
LINE
  8
_0-7_7
  6
CONTINUOUS
 62
    7
 10
115.75931786628863
 20
104.59122943409771
 11
115.0683092984786
 21
104.0317325545202
  0
LINE
  8
_0-7_7
  6
CONTINUOUS
 62
    7
 10
115.0683092984786
 20
104.0317325545202
 11
114.48503016563558
 21
103.50728320607072
  0
LINE
  8
_0-7_7
  6
CONTINUOUS
 62
    7
 10
114.48503016563558
 20
103.50728320607072
 11
114.00752543541111
 21
103.03449916371224
  0
LINE
  8
_0-7_7
  6
CONTINUOUS
 62
    7
 10
114.00752543541111
 20
103.03449916371224
 11
113.63385199638509
 21
102.62992667683471
  0
LINE
  8
_0-7_7
  6
CONTINUOUS
 62
    7
 10
113.63385199638509
 20
102.62992667683471
 11
113.36209057899609
 21
102.31015967854374
  0
LINE
  8
_0-7_7
  6
CONTINUOUS
 62
    7
 10
113.36209057899609
 20
102.31015967854374
 11
113.1902980718246
 21
102.0917444182287
  0
LINE
  8
_0-7_7
  6
CONTINUOUS
 62
    7
 10
113.1902980718246
 20
102.0917444182287
 11
113.11651944252159
 21
101.9912509871377
  0
LINE
  8
_0-7_7
  6
CONTINUOUS
 62
    7
 10
113.11651944252159
 20
101.9912509871377
 11
112.90145396324309
 21
101.69387149342424
  0
LINE
  8
_0-7_7
  6
CONTINUOUS
 62
    7
 10
112.90145396324309
 20
101.69387149342424
 11
112.62377976509208
 21
101.3774661970982
  0
LINE
  8
_0-7_7
  6
CONTINUOUS
 62
    7
 10
112.62377976509208
 20
101.3774661970982
 11
112.29881524177657
 21
101.05054664143422
  0
LINE
  8
_0-7_7
  6
CONTINUOUS
 62
    7
 10
112.29881524177657
 20
101.05054664143422
 11
111.94179534050107
 21
100.72174357899522
  0
LINE
  8
_0-7_7
  6
CONTINUOUS
 62
    7
 10
111.94179534050107
 20
100.72174357899522
 11
111.56800269218559
 21
100.39956855305523
  0
LINE
  8
_0-7_7
  6
CONTINUOUS
 62
    7
 10
111.56800269218559
 20
100.39956855305523
 11
111.1927080068221
 21
100.09260463246224
  0
LINE
  8
_0-7_7
  6
CONTINUOUS
 62
    7
 10
111.1927080068221
 20
100.09260463246224
 11
110.83118199440108
 21
99.809387202347224
  0
LINE
  8
_0-7_7
  6
CONTINUOUS
 62
    7
 10
110.83118199440108
 20
99.809387202347224
 11
110.49868344398607
 21
99.55847548970074
  0
LINE
  8
_0-7_7
  6
CONTINUOUS
 62
    7
 10
110.49868344398607
 20
99.55847548970074
 11
110.21048306556807
 21
99.348476405228212
  0
LINE
  8
_0-7_7
  6
CONTINUOUS
 62
    7
 10
110.21048306556807
 20
99.348476405228212
 11
109.98186349006758
 21
99.187901492203224
  0
LINE
  8
_0-7_7
  6
CONTINUOUS
 62
    7
 10
109.98186349006758
 20
99.187901492203224
 11
102.62102364631758
 21
94.972923274124696
  0
LINE
  8
_f-a_250
  6
CONTINUOUS
 62
  250
 10
156.99419259163008
 20
127.71289634236223
 11
157.1375179204571
 21
127.19002055653424
  0
LINE
  8
_f-a_250
  6
CONTINUOUS
 62
  250
 10
157.1375179204571
 20
127.19002055653424
 11
157.21860407920957
 21
126.6757755232702
  0
LINE
  8
_f-a_250
  6
CONTINUOUS
 62
  250
 10
157.21860407920957
 20
126.6757755232702
 11
157.23969220253107
 21
126.1780528975377
  0
LINE
  8
_f-a_250
  6
CONTINUOUS
 62
  250
 10
157.23969220253107
 20
126.1780528975377
 11
157.20305918785209
 21
125.70493506916874
  0
LINE
  8
_f-a_250
  6
CONTINUOUS
 62
  250
 10
157.20305918785209
 20
125.70493506916874
 11
157.11094616981657
 21
125.26436137684674
  0
LINE
  8
_f-a_250
  6
CONTINUOUS
 62
  250
 10
157.11094616981657
 20
125.26436137684674
 11
156.96560620399609
 21
124.86436652668823
  0
LINE
  8
_f-a_250
  6
CONTINUOUS
 62
  250
 10
156.96560620399609
 20
124.86436652668823
 11
156.76930426689259
 21
124.5128660155187
  0
LINE
  8
_f-a_250
  6
CONTINUOUS
 62
  250
 10
156.76930426689259
 20
124.5128660155187
 11
156.52430533500808
 21
124.2179183913122
  0
LINE
  8
_f-a_250
  6
CONTINUOUS
 62
  250
 10
156.52430533500808
 20
124.2179183913122
 11
156.23283862205659
 21
123.98751067646872
  0
LINE
  8
_f-a_250
  6
CONTINUOUS
 62
  250
 10
156.23283862205659
 20
123.98751067646872
 11
155.89719294639707
 21
123.82958220967171
  0
LINE
  8
_f-a_250
  6
CONTINUOUS
 62
  250
 10
155.89719294639707
 20
123.82958220967171
 11
155.53435563179161
 21
123.75448035725472
  0
LINE
  8
_f-a_250
  6
CONTINUOUS
 62
  250
 10
155.53435563179161
 20
123.75448035725472
 11
155.16319750877508
 21
123.76385020741323
  0
LINE
  8
_f-a_250
  6
CONTINUOUS
 62
  250
 10
155.16319750877508
 20
123.76385020741323
 11
154.7903108510601
 21
123.85266112812874
  0
LINE
  8
_f-a_250
  6
CONTINUOUS
 62
  250
 10
154.7903108510601
 20
123.85266112812874
 11
154.42233561607509
 21
124.01581096180772
  0
LINE
  8
_f-a_250
  6
CONTINUOUS
 62
  250
 10
154.42233561607509
 20
124.01581096180772
 11
154.06586407753107
 21
124.24831676014774
  0
LINE
  8
_f-a_250
  6
CONTINUOUS
 62
  250
 10
154.06586407753107
 20
124.24831676014774
 11
153.72756003471508
 21
124.54512404927124
  0
LINE
  8
_f-a_250
  6
CONTINUOUS
 62
  250
 10
152.57128953071708
 20
128.72312354573123
 11
152.71665333839562
 21
129.12311839588972
  0
LINE
  8
_f-a_250
  6
CONTINUOUS
 62
  250
 10
152.71665333839562
 20
129.12311839588972
 11
152.91294335456959
 21
129.47461890705924
  0
LINE
  8
_f-a_250
  6
CONTINUOUS
 62
  250
 10
152.91294335456959
 20
129.47461890705924
 11
153.1578707608806
 21
129.76956653126572
  0
LINE
  8
_f-a_250
  6
CONTINUOUS
 62
  250
 10
153.1578707608806
 20
129.76956653126572
 11
153.44914673896906
 21
129.9999742461097
  0
LINE
  8
_f-a_250
  6
CONTINUOUS
 62
  250
 10
153.44914673896906
 20
129.9999742461097
 11
153.78453015419157
 21
130.15790271290672
  0
LINE
  8
_f-a_250
  6
CONTINUOUS
 62
  250
 10
153.78453015419157
 20
130.15790271290672
 11
154.14768933387907
 21
130.23298072346569
  0
LINE
  8
_f-a_250
  6
CONTINUOUS
 62
  250
 10
154.14768933387907
 20
130.23298072346569
 11
154.51909779640312
 21
130.22363471516474
  0
LINE
  8
_f-a_250
  6
CONTINUOUS
 62
  250
 10
154.51909779640312
 20
130.22363471516474
 11
154.89212750526559
 21
130.13482379444972
  0
LINE
  8
_f-a_250
  6
CONTINUOUS
 62
  250
 10
154.89212750526559
 20
130.13482379444972
 11
155.2601861867536
 21
129.9716739607702
  0
LINE
  8
_f-a_250
  6
CONTINUOUS
 62
  250
 10
155.2601861867536
 20
129.9716739607702
 11
155.61666964622611
 21
129.73916816243025
  0
LINE
  8
_f-a_250
  6
CONTINUOUS
 62
  250
 10
155.61666964622611
 20
129.73916816243025
 11
155.95496176811361
 21
129.44233703144923
  0
LINE
  8
_f-a_250
  6
CONTINUOUS
 62
  250
 10
155.95496176811361
 20
129.44233703144923
 11
156.26847027870309
 21
129.08628272541873
  0
LINE
  8
_f-a_250
  6
CONTINUOUS
 62
  250
 10
156.26847027870309
 20
129.08628272541873
 11
156.55056714149609
 21
128.67598819264273
  0
LINE
  8
_f-a_250
  6
CONTINUOUS
 62
  250
 10
156.55056714149609
 20
128.67598819264273
 11
156.79468392463809
 21
128.21650790699823
  0
LINE
  8
_f-a_250
  6
CONTINUOUS
 62
  250
 10
156.79468392463809
 20
128.21650790699823
 11
156.99419259163008
 21
127.71289634236223
  0
LINE
  8
_f-a_250
  6
CONTINUOUS
 62
  250
 10
111.00037573906059
 20
112.99014377125623
 11
111.54448269935756
 21
113.1504564238442
  0
LINE
  8
_f-a_250
  6
CONTINUOUS
 62
  250
 10
111.54448269935756
 20
113.1504564238442
 11
112.11983441444511
 21
113.32676696308972
  0
LINE
  8
_f-a_250
  6
CONTINUOUS
 62
  250
 10
112.11983441444511
 20
113.32676696308972
 11
112.72694348426961
 21
113.51979064473022
  0
LINE
  8
_f-a_250
  6
CONTINUOUS
 62
  250
 10
112.72694348426961
 20
113.51979064473022
 11
113.36629866691709
 21
113.7302427245032
  0
LINE
  8
_f-a_250
  6
CONTINUOUS
 62
  250
 10
113.36629866691709
 20
113.7302427245032
 11
114.03843640419157
 21
113.95890998371974
  0
LINE
  8
_f-a_250
  6
CONTINUOUS
 62
  250
 10
114.03843640419157
 20
113.95890998371974
 11
114.74385737510809
 21
114.20648383625871
  0
LINE
  8
_f-a_250
  6
CONTINUOUS
 62
  250
 10
114.74385737510809
 20
114.20648383625871
 11
115.48305033775461
 21
114.47367953785769
  0
LINE
  8
_f-a_250
  6
CONTINUOUS
 62
  250
 10
116.35032176109459
 20
114.90874576100222
 11
116.3705754193891
 21
115.02299594410769
  0
LINE
  8
_f-a_250
  6
CONTINUOUS
 62
  250
 10
116.3705754193891
 20
115.02299594410769
 11
116.33230923744307
 21
115.10820674427873
  0
LINE
  8
_f-a_250
  6
CONTINUOUS
 62
  250
 10
116.33230923744307
 20
115.10820674427873
 11
116.25048398109558
 21
115.1685266447912
  0
LINE
  8
_f-a_250
  6
CONTINUOUS
 62
  250
 10
116.25048398109558
 20
115.1685266447912
 11
116.1401319417586
 21
115.2081041289222
  0
LINE
  8
_f-a_250
  6
CONTINUOUS
 62
  250
 10
116.1401319417586
 20
115.2081041289222
 11
116.01621388527059
 21
115.23113536366324
  0
LINE
  8
_f-a_250
  6
CONTINUOUS
 62
  250
 10
116.01621388527059
 20
115.23113536366324
 11
115.89372634025707
 21
115.2418165160072
  0
LINE
  8
_f-a_250
  6
CONTINUOUS
 62
  250
 10
115.89372634025707
 20
115.2418165160072
 11
115.78767775627259
 21
115.24427222737174
  0
LINE
  8
_f-a_250
  6
CONTINUOUS
 62
  250
 10
115.78767775627259
 20
115.24427222737174
 11
115.71306466194258
 21
115.2426986647497
  0
LINE
  8
_f-a_250
  6
CONTINUOUS
 62
  250
 10
115.71306466194258
 20
115.2426986647497
 11
115.68485974403509
 21
115.24122046955924
  0
LINE
  8
_f-a_250
  6
CONTINUOUS
 62
  250
 10
115.68485974403509
 20
115.24122046955924
 11
114.86899136634958
 21
114.9375705672157
  0
LINE
  8
_f-a_250
  6
CONTINUOUS
 62
  250
 10
114.86899136634958
 20
114.9375705672157
 11
114.0939640912641
 21
114.6579055739297
  0
LINE
  8
_f-a_250
  6
CONTINUOUS
 62
  250
 10
114.0939640912641
 20
114.6579055739297
 11
113.35914610954407
 21
114.40127181538473
  0
LINE
  8
_f-a_250
  6
CONTINUOUS
 62
  250
 10
113.35914610954407
 20
114.40127181538473
 11
112.66390561195507
 21
114.16666793354871
  0
LINE
  8
_f-a_250
  6
CONTINUOUS
 62
  250
 10
112.66390561195507
 20
114.16666793354871
 11
112.00758694740409
 21
113.95311641224723
  0
LINE
  8
_f-a_250
  6
CONTINUOUS
 62
  250
 10
112.00758694740409
 20
113.95311641224723
 11
111.38957022758606
 21
113.7595920515907
  0
LINE
  8
_f-a_250
  6
CONTINUOUS
 62
  250
 10
111.38957022758606
 20
113.7595920515907
 11
110.80919980140808
 21
113.58514117726222
  0
LINE
  8
_f-a_250
  6
CONTINUOUS
 62
  250
 10
110.80919980140808
 20
113.58514117726222
 11
110.26585578056458
 21
113.42873858937125
  0
LINE
  8
_f-a_250
  6
CONTINUOUS
 62
  250
 10
110.26585578056458
 20
113.42873858937125
 11
109.75889443489208
 21
113.28943061360224
  0
LINE
  8
_f-a_250
  6
CONTINUOUS
 62
  250
 10
111.54448269935756
 20
113.1504564238442
 11
112.11983441444511
 21
113.32676696308972
  0
LINE
  8
_f-a_250
  6
CONTINUOUS
 62
  250
 10
112.11983441444511
 20
113.32676696308972
 11
112.72694348426961
 21
113.51979064473022
  0
LINE
  8
_f-a_250
  6
CONTINUOUS
 62
  250
 10
112.72694348426961
 20
113.51979064473022
 11
113.36629866691709
 21
113.7302427245032
  0
LINE
  8
_f-a_250
  6
CONTINUOUS
 62
  250
 10
113.36629866691709
 20
113.7302427245032
 11
114.03843640419157
 21
113.95890998371974
  0
LINE
  8
_f-a_250
  6
CONTINUOUS
 62
  250
 10
114.03843640419157
 20
113.95890998371974
 11
114.74385737510809
 21
114.20648383625871
  0
LINE
  8
_f-a_250
  6
CONTINUOUS
 62
  250
 10
114.74385737510809
 20
114.20648383625871
 11
115.48305033775461
 21
114.47367953785769
  0
LINE
  8
_f-a_250
  6
CONTINUOUS
 62
  250
 10
116.35032176109459
 20
114.90874576100222
 11
116.3705754193891
 21
115.02299594410769
  0
LINE
  8
_f-a_250
  6
CONTINUOUS
 62
  250
 10
116.3705754193891
 20
115.02299594410769
 11
116.33230923744307
 21
115.10820674427873
  0
LINE
  8
_f-a_250
  6
CONTINUOUS
 62
  250
 10
116.33230923744307
 20
115.10820674427873
 11
116.25048398109558
 21
115.1685266447912
  0
LINE
  8
_f-a_250
  6
CONTINUOUS
 62
  250
 10
116.25048398109558
 20
115.1685266447912
 11
116.1401319417586
 21
115.2081041289222
  0
LINE
  8
_f-a_250
  6
CONTINUOUS
 62
  250
 10
116.1401319417586
 20
115.2081041289222
 11
116.01621388527059
 21
115.23113536366324
  0
LINE
  8
_f-a_250
  6
CONTINUOUS
 62
  250
 10
116.01621388527059
 20
115.23113536366324
 11
115.89372634025707
 21
115.2418165160072
  0
LINE
  8
_f-a_250
  6
CONTINUOUS
 62
  250
 10
115.89372634025707
 20
115.2418165160072
 11
115.78767775627259
 21
115.24427222737174
  0
LINE
  8
_f-a_250
  6
CONTINUOUS
 62
  250
 10
115.78767775627259
 20
115.24427222737174
 11
115.71306466194258
 21
115.2426986647497
  0
LINE
  8
_f-a_250
  6
CONTINUOUS
 62
  250
 10
115.71306466194258
 20
115.2426986647497
 11
115.68485974403509
 21
115.24122046955924
  0
LINE
  8
_f-a_250
  6
CONTINUOUS
 62
  250
 10
115.68485974403509
 20
115.24122046955924
 11
114.86899136634958
 21
114.9375705672157
  0
LINE
  8
_f-a_250
  6
CONTINUOUS
 62
  250
 10
114.86899136634958
 20
114.9375705672157
 11
114.0939640912641
 21
114.6579055739297
  0
LINE
  8
_f-a_250
  6
CONTINUOUS
 62
  250
 10
114.0939640912641
 20
114.6579055739297
 11
113.35914610954407
 21
114.40127181538473
  0
LINE
  8
_f-a_250
  6
CONTINUOUS
 62
  250
 10
113.35914610954407
 20
114.40127181538473
 11
112.66390561195507
 21
114.16666793354871
  0
LINE
  8
_f-a_250
  6
CONTINUOUS
 62
  250
 10
112.66390561195507
 20
114.16666793354871
 11
112.00758694740409
 21
113.95311641224723
  0
LINE
  8
_f-a_250
  6
CONTINUOUS
 62
  250
 10
112.00758694740409
 20
113.95311641224723
 11
111.38957022758606
 21
113.7595920515907
  0
LINE
  8
_f-a_250
  6
CONTINUOUS
 62
  250
 10
117.30019330116411
 20
107.6795606566322
 11
130.79226545164934
 21
115.46943077683474
  0
LINE
  8
_f-a_250
  6
CONTINUOUS
 62
  250
 10
131.92132528082445
 20
116.12131206898272
 11
153.03718327613959
 21
128.31290053852922
  0
LINE
  8
_f-a_250
  6
CONTINUOUS
 62
  250
 10
154.64069127174508
 20
125.01790809162972
 11
132.69353055845411
 21
112.34599531253789
  0
LINE
  8
_f-a_250
  6
CONTINUOUS
 62
  250
 10
131.56447842970567
 20
111.69410004984526
 11
118.86717557045105
 21
104.36289596089225
  0
LINE
  8
_f-a_250
  6
CONTINUOUS
 62
  250
 10
115.47068833442808
 20
115.69123553761374
 11
130.30941637663355
 21
124.42476321116399
  0
LINE
  8
_f-a_250
  6
CONTINUOUS
 62
  250
 10
131.39095742050418
 20
125.06131835321244
 11
144.19601439567711
 21
132.59790229328974
  0
LINE
  8
_f-a_250
  6
CONTINUOUS
 62
  250
 10
145.88019131752159
 20
130.91292666920523
 11
131.77048198452727
 21
122.60991564409798
  0
LINE
  8
_f-a_250
  6
CONTINUOUS
 62
  250
 10
130.67975420851957
 20
121.96806509028075
 11
117.12434767814759
 21
113.99123954304574
  0
LINE
  8
_f-a_250
  6
CONTINUOUS
 62
  250
 10
137.44918583961606
 20
122.34516900463146
 11
137.44918583961606
 21
126.00498933121065
  0
LINE
  8
_f-a_250
  6
CONTINUOUS
 62
  250
 10
137.44918583961606
 20
122.34516900463146
 11
140.03040900991454
 21
120.85406011801672
  0
LINE
  8
_f-a_250
  6
CONTINUOUS
 62
  250
 10
137.44918583961606
 20
128.63904929212256
 11
137.44918583961606
 21
147.07958983906624
  0
LINE
  8
_f-a_250
  6
CONTINUOUS
 62
  250
 10
138.44370125862258
 20
129.23460292347772
 11
138.48372324728655
 21
129.23652657993392
  0
LINE
  8
_f-a_250
  6
CONTINUOUS
 62
  250
 10
138.05743352496279
 20
128.98565595208208
 11
138.0156922254196
 21
129.00789069661022
  0
LINE
  8
_f-a_250
  6
CONTINUOUS
 62
  250
 10
144.40153345245619
 20
118.9283905150117
 11
160.43168782325859
 21
109.67290687092672
  0
LINE
  8
_f-a_250
  6
CONTINUOUS
 62
  250
 10
144.66420888038758
 20
129.45020484455924
 11
144.16738659501874
 21
129.88589593117879
  0
LINE
  8
_f-a_250
  6
CONTINUOUS
 62
  250
 10
152.45659783441141
 20
127.99166670410946
 11
152.47914074989461
 21
128.28252601155174
  0
LINE
  8
_0-7_7
  6
CONTINUOUS
 62
    7
 10
324.60591690617628
 20
233.58729203894808
 11
326.79602383705264
 21
234.85122012623674
  0
LINE
  8
_0-7_7
  6
CONTINUOUS
 62
    7
 10
327.03267811866908
 20
234.43792151936424
 11
325.01296501729325
 21
233.27140815856615
  0
LINE
  8
_0-7_7
  6
CONTINUOUS
 62
    7
 10
325.26088820462394
 20
233.19666061081182
 11
327.43770360084659
 21
234.45291804798973
  0
LINE
  8
_0-7_7
  6
CONTINUOUS
 62
    7
 10
327.67767190071254
 20
234.04126452931274
 11
325.52425888625748
 21
232.79845006091386
  0
LINE
  8
_0-7_7
  6
CONTINUOUS
 62
    7
 10
325.52599557290694
 20
232.6915213441485
 11
327.6093649777996
 21
233.8962345076452
  0
LINE
  8
_0-7_7
  6
CONTINUOUS
 62
    7
 10
327.84768818946964
 20
233.4812192870032
 11
325.78974435332395
 21
232.29265953394224
  0
LINE
  8
_f-a_250
  6
CONTINUOUS
 62
  250
 10
324.83472107978957
 20
233.3459405852212
 11
324.85947980701633
 21
233.25196925540746
  0
LINE
  8
_0-7_7
  6
CONTINUOUS
 62
    7
 10
325.50831961372273
 20
232.67378608415117
 11
325.57434319587855
 21
232.63559627064575
  0
LINE
  8
_f-a_250
  6
CONTINUOUS
 62
  250
 10
289.65895379829072
 20
213.68341547855448
 11
324.29267644020206
 21
233.6795597029577
  0
LINE
  8
_0-7_7
  6
CONTINUOUS
 62
    7
 10
290.13319007323821
 20
213.18822906091697
 11
324.93433236213809
 21
233.28290271290672
  0
LINE
  8
_0-7_7
  6
CONTINUOUS
 62
    7
 10
325.44101952644462
 20
232.40454482563825
 11
290.51729608654716
 21
212.24350595714114
  0
LINE
  8
_0-7_7
  6
CONTINUOUS
 62
    7
 10
325.70602177711612
 20
231.89456748494021
 11
290.55167922784813
 21
211.60129431717033
  0
LINE
  8
_f-a_250
  6
CONTINUOUS
 62
  250
 10
325.70602177711612
 20
231.89456748494021
 11
290.56766040689917
 21
211.61051964776982
  0
LINE
  8
_0-7_7
  6
CONTINUOUS
 62
    7
 10
254.17603730293408
 20
194.12291335591172
 11
265.98591263177116
 21
200.94137928270121
  0
LINE
  8
_0-7_7
  6
CONTINUOUS
 62
    7
 10
267.2003071712013
 20
201.6425135079343
 11
288.13268422218459
 21
213.72788238057024
  0
LINE
  8
_0-7_7
  6
CONTINUOUS
 62
    7
 10
289.73769425483806
 20
210.4312210036172
 11
268.00200901443105
 21
197.88420161450034
  0
LINE
  8
_0-7_7
  6
CONTINUOUS
 62
    7
 10
266.7691770807179
 20
197.17254398766534
 11
257.86270379158157
 21
192.0312433195962
  0
LINE
  8
_0-7_7
  6
CONTINUOUS
 62
    7
 10
115.43626757058993
 20
115.15922762568026
 11
115.51357983680859
 21
115.26811408528224
  0
LINE
  8
_0-7_7
  6
CONTINUOUS
 62
    7
 10
115.53565709254525
 20
114.38984857488494
 11
115.47415683024218
 21
114.47136074427851
  0
LINE
  8
_f-a_250
  6
CONTINUOUS
 62
  250
 10
116.23807429405358
 20
113.78712939747672
 11
115.9159087850995
 21
113.81624321643756
  0
LINE
  8
_0-0_0
  6
CONTINUOUS
 62
    7
 10
114.9499473072286
 20
115.09043397726285
 11
114.93142272598652
 21
115.01942308250152
  0
LINE
  8
_0-0_0
  6
CONTINUOUS
 62
    7
 10
114.93142272598652
 20
115.01942308250152
 11
114.92524786557249
 21
114.96384933877526
  0
LINE
  8
_f-a_250
  6
CONTINUOUS
 62
  250
 10
114.71270798774859
 20
104.1119127226722
 11
115.69341756963431
 21
104.56771111773196
  0
LINE
  8
_f-a_250
  6
CONTINUOUS
 62
  250
 10
118.31212092575626
 20
106.21280562499874
 11
118.31799029441956
 21
106.25515269764773
  0
LINE
  8
_f-a_250
  6
CONTINUOUS
 62
  250
 10
114.71270798774859
 20
104.1119127226722
 11
115.75897001483276
 21
104.59817752681532
  0
LINE
  8
_0-7_7
  6
CONTINUOUS
 62
    7
 10
117.02416199789613
 20
106.3641306086316
 11
117.03982829185608
 21
106.4597873640907
  0
LINE
  8
_f-a_250
  6
CONTINUOUS
 62
  250
 10
118.3117811701598
 20
106.21035431281319
 11
118.31799029441956
 21
106.25515269764773
  0
LINE
  8
_f-a_250
  6
CONTINUOUS
 62
  250
 10
108.11035143768956
 20
96.94762778970356
 11
110.51885365577812
 21
98.327901835526205
  0
LINE
  8
_0-0_0
  6
CONTINUOUS
 62
  250
 10
97.968873729559817
 20
97.351690584912134
 11
97.960359207245716
 21
97.347542484297449
  0
LINE
  8
_0-0_0
  6
CONTINUOUS
 62
  250
 10
97.960359207245716
 20
97.347542484297449
 11
97.951704335662839
 21
97.343415176167326
  0
LINE
  8
_0-0_0
  6
CONTINUOUS
 62
  250
 10
97.951704335662839
 20
97.343415176167326
 11
97.942909114810931
 21
97.33930866052134
  0
LINE
  8
_0-0_0
  6
CONTINUOUS
 62
  250
 10
97.942909114810931
 20
97.33930866052134
 11
97.933994337174397
 21
97.335254126086056
  0
LINE
  8
_0-0_0
  6
CONTINUOUS
 62
  250
 10
97.933994337174397
 20
97.335254126086056
 11
97.92495480463208
 21
97.331241176619272
  0
LINE
  8
_0-0_0
  6
CONTINUOUS
 62
  250
 10
97.92495480463208
 20
97.331241176619272
 11
97.915811309668442
 21
97.327301000847541
  0
LINE
  8
_0-0_0
  6
CONTINUOUS
 62
  250
 10
97.915811309668442
 20
97.327301000847541
 11
97.906569050404499
 21
97.323433598770848
  0
LINE
  8
_0-0_0
  6
CONTINUOUS
 62
  250
 10
97.906569050404499
 20
97.323433598770848
 11
97.897233224961155
 21
97.319659762873371
  0
LINE
  8
_0-0_0
  6
CONTINUOUS
 62
  250
 10
97.897233224961155
 20
97.319659762873371
 11
97.887814229580812
 21
97.315989889397457
  0
LINE
  8
_0-0_0
  6
CONTINUOUS
 62
  250
 10
97.887814229580812
 20
97.315989889397457
 11
97.878317262384286
 21
97.312434374584882
  0
LINE
  8
_0-0_0
  6
CONTINUOUS
 62
  250
 10
97.878317262384286
 20
97.312434374584882
 11
97.784527563902742
 21
97.286131881966412
  0
LINE
  8
_0-0_0
  6
CONTINUOUS
 62
  250
 10
97.784527563902742
 20
97.286131881966412
 11
97.689105655404859
 21
97.271878633990028
  0
LINE
  8
_0-0_0
  6
CONTINUOUS
 62
  250
 10
97.689105655404859
 20
97.271878633990028
 11
97.593746124360081
 21
97.269217196001748
  0
LINE
  8
_0-0_0
  6
CONTINUOUS
 62
  250
 10
97.593746124360081
 20
97.269217196001748
 11
97.500101973268386
 21
97.27767973710516
  0
LINE
  8
_0-0_0
  6
CONTINUOUS
 62
  250
 10
97.500101973268386
 20
97.27767973710516
 11
97.409862591478287
 21
97.296808822645858
  0
LINE
  8
_0-0_0
  6
CONTINUOUS
 62
  250
 10
97.409862591478287
 20
97.296808822645858
 11
97.324701773974397
 21
97.326147017969816
  0
LINE
  8
_0-0_0
  6
CONTINUOUS
 62
  250
 10
97.324701773974397
 20
97.326147017969816
 11
97.246298513862541
 21
97.365226492180653
  0
LINE
  8
_0-0_0
  6
CONTINUOUS
 62
  250
 10
97.246298513862541
 20
97.365226492180653
 11
97.176321408006515
 21
97.413569018139583
  0
LINE
  8
_0-0_0
  6
CONTINUOUS
 62
  250
 10
97.176321408006515
 20
97.413569018139583
 11
97.116444251391272
 21
97.47074834991912
  0
LINE
  8
_0-0_0
  6
CONTINUOUS
 62
  250
 10
97.116444251391272
 20
97.47074834991912
 11
97.068356433364698
 21
97.536265467896328
  0
LINE
  8
_0-0_0
  6
CONTINUOUS
 62
  250
 10
97.068356433364698
 20
97.536265467896328
 11
97.039033832403987
 21
97.595950294031894
  0
LINE
  8
_0-0_0
  6
CONTINUOUS
 62
  250
 10
97.039033832403987
 20
97.595950294031894
 11
97.021157494041319
 21
97.656747518076656
  0
LINE
  8
_0-0_0
  6
CONTINUOUS
 62
  250
 10
97.021157494041319
 20
97.656747518076656
 11
97.014337559196377
 21
97.71789821435425
  0
LINE
  8
_0-0_0
  6
CONTINUOUS
 62
  250
 10
97.014337559196377
 20
97.71789821435425
 11
97.018199763151983
 21
97.778653853430512
  0
LINE
  8
_0-0_0
  6
CONTINUOUS
 62
  250
 10
97.018199763151983
 20
97.778653853430512
 11
97.032364643070281
 21
97.838234717144672
  0
LINE
  8
_0-0_0
  6
CONTINUOUS
 62
  250
 10
97.032364643070281
 20
97.838234717144672
 11
97.056447537991374
 21
97.895913068547173
  0
LINE
  8
_0-0_0
  6
CONTINUOUS
 62
  250
 10
97.056447537991374
 20
97.895913068547173
 11
97.090074183198823
 21
97.950909189476789
  0
LINE
  8
_0-0_0
  6
CONTINUOUS
 62
  250
 10
97.090074183198823
 20
97.950909189476789
 11
97.132854719612141
 21
98.002464154257581
  0
LINE
  8
_0-0_0
  6
CONTINUOUS
 62
  250
 10
97.132854719612141
 20
98.002464154257581
 11
97.184414882514034
 21
98.049829433455216
  0
LINE
  8
_0-0_0
  6
CONTINUOUS
 62
  250
 10
97.184414882514034
 20
98.049829433455216
 11
97.244375209066277
 21
98.092235705151296
  0
LINE
  8
_0-0_0
  6
CONTINUOUS
 62
  250
 10
97.244375209066277
 20
98.092235705151296
 11
97.259127476665384
 21
98.099502678408498
  0
LINE
  8
_0-0_0
  6
CONTINUOUS
 62
  250
 10
97.980205633494279
 20
97.358219424977108
 11
97.968873729559817
 21
97.351690584912134
  0
LINE
  8
_0-0_0
  6
CONTINUOUS
 62
    7
 10
97.968873729559817
 20
97.351690584912134
 11
97.960359207245716
 21
97.347542484297449
  0
LINE
  8
_0-0_0
  6
CONTINUOUS
 62
    7
 10
97.960359207245716
 20
97.347542484297449
 11
97.951704335662839
 21
97.343415176167326
  0
LINE
  8
_0-0_0
  6
CONTINUOUS
 62
    7
 10
97.951704335662839
 20
97.343415176167326
 11
97.942909114810931
 21
97.33930866052134
  0
LINE
  8
_0-0_0
  6
CONTINUOUS
 62
    7
 10
97.942909114810931
 20
97.33930866052134
 11
97.933994337174397
 21
97.335254126086056
  0
LINE
  8
_0-0_0
  6
CONTINUOUS
 62
    7
 10
97.933994337174397
 20
97.335254126086056
 11
97.92495480463208
 21
97.331241176619272
  0
LINE
  8
_0-0_0
  6
CONTINUOUS
 62
    7
 10
97.92495480463208
 20
97.331241176619272
 11
97.915811309668442
 21
97.327301000847541
  0
LINE
  8
_0-0_0
  6
CONTINUOUS
 62
    7
 10
97.915811309668442
 20
97.327301000847541
 11
97.906569050404499
 21
97.323433598770848
  0
LINE
  8
_0-0_0
  6
CONTINUOUS
 62
    7
 10
97.906569050404499
 20
97.323433598770848
 11
97.897233224961155
 21
97.319659762873371
  0
LINE
  8
_0-0_0
  6
CONTINUOUS
 62
    7
 10
97.897233224961155
 20
97.319659762873371
 11
97.887814229580812
 21
97.315989889397457
  0
LINE
  8
_0-0_0
  6
CONTINUOUS
 62
    7
 10
97.887814229580812
 20
97.315989889397457
 11
97.878317262384286
 21
97.312434374584882
  0
LINE
  8
_0-0_0
  6
CONTINUOUS
 62
    7
 10
97.878317262384286
 20
97.312434374584882
 11
97.784527563902742
 21
97.286131881966412
  0
LINE
  8
_0-0_0
  6
CONTINUOUS
 62
    7
 10
97.784527563902742
 20
97.286131881966412
 11
97.689105655404859
 21
97.271878633990028
  0
LINE
  8
_0-0_0
  6
CONTINUOUS
 62
    7
 10
97.689105655404859
 20
97.271878633990028
 11
97.593746124360081
 21
97.269217196001748
  0
LINE
  8
_0-0_0
  6
CONTINUOUS
 62
    7
 10
97.593746124360081
 20
97.269217196001748
 11
97.500101973268386
 21
97.27767973710516
  0
LINE
  8
_0-0_0
  6
CONTINUOUS
 62
    7
 10
97.500101973268386
 20
97.27767973710516
 11
97.409862591478287
 21
97.296808822645858
  0
LINE
  8
_0-0_0
  6
CONTINUOUS
 62
    7
 10
97.409862591478287
 20
97.296808822645858
 11
97.324701773974397
 21
97.326147017969816
  0
LINE
  8
_0-0_0
  6
CONTINUOUS
 62
    7
 10
97.324701773974397
 20
97.326147017969816
 11
97.246298513862541
 21
97.365226492180653
  0
LINE
  8
_0-0_0
  6
CONTINUOUS
 62
    7
 10
97.246298513862541
 20
97.365226492180653
 11
97.176321408006515
 21
97.413569018139583
  0
LINE
  8
_0-0_0
  6
CONTINUOUS
 62
    7
 10
97.176321408006515
 20
97.413569018139583
 11
97.116444251391272
 21
97.47074834991912
  0
LINE
  8
_0-0_0
  6
CONTINUOUS
 62
    7
 10
97.116444251391272
 20
97.47074834991912
 11
97.068356433364698
 21
97.536265467896328
  0
LINE
  8
_0-0_0
  6
CONTINUOUS
 62
    7
 10
97.068356433364698
 20
97.536265467896328
 11
97.039033832403987
 21
97.595950294031894
  0
LINE
  8
_0-0_0
  6
CONTINUOUS
 62
    7
 10
97.039033832403987
 20
97.595950294031894
 11
97.021157494041319
 21
97.656747518076656
  0
LINE
  8
_0-0_0
  6
CONTINUOUS
 62
    7
 10
97.021157494041319
 20
97.656747518076656
 11
97.014337559196377
 21
97.71789821435425
  0
LINE
  8
_0-0_0
  6
CONTINUOUS
 62
    7
 10
97.014337559196377
 20
97.71789821435425
 11
97.018199763151983
 21
97.778653853430512
  0
LINE
  8
_0-0_0
  6
CONTINUOUS
 62
    7
 10
97.018199763151983
 20
97.778653853430512
 11
97.032364643070281
 21
97.838234717144672
  0
LINE
  8
_0-0_0
  6
CONTINUOUS
 62
    7
 10
97.032364643070281
 20
97.838234717144672
 11
97.056447537991374
 21
97.895913068547173
  0
LINE
  8
_0-0_0
  6
CONTINUOUS
 62
    7
 10
97.056447537991374
 20
97.895913068547173
 11
97.090074183198823
 21
97.950909189476789
  0
LINE
  8
_0-0_0
  6
CONTINUOUS
 62
    7
 10
97.090074183198823
 20
97.950909189476789
 11
97.132854719612141
 21
98.002464154257581
  0
LINE
  8
_0-0_0
  6
CONTINUOUS
 62
    7
 10
97.132854719612141
 20
98.002464154257581
 11
97.184414882514034
 21
98.049829433455216
  0
LINE
  8
_0-0_0
  6
CONTINUOUS
 62
    7
 10
97.184414882514034
 20
98.049829433455216
 11
97.244375209066277
 21
98.092235705151296
  0
LINE
  8
_0-0_0
  6
CONTINUOUS
 62
    7
 10
97.244375209066277
 20
98.092235705151296
 11
97.259127476665384
 21
98.099502678408498
  0
LINE
  8
_0-0_0
  6
CONTINUOUS
 62
    7
 10
97.980205633494279
 20
97.358219424977108
 11
97.968873729559817
 21
97.351690584912134
  0
LINE
  8
_0-0_0
  6
CONTINUOUS
 62
    7
 10
97.252588240358222
 20
98.098774941458444
 11
97.261009196493177
 21
98.103089381947399
  0
LINE
  8
_0-0_0
  6
CONTINUOUS
 62
    7
 10
97.261009196493177
 20
98.103089381947399
 11
97.269580898139054
 21
98.107310256256909
  0
LINE
  8
_0-0_0
  6
CONTINUOUS
 62
    7
 10
97.269580898139054
 20
98.107310256256909
 11
97.278282552811532
 21
98.111447960629221
  0
LINE
  8
_0-0_0
  6
CONTINUOUS
 62
    7
 10
97.278282552811532
 20
98.111447960629221
 11
97.287103764268892
 21
98.115471306338179
  0
LINE
  8
_0-0_0
  6
CONTINUOUS
 62
    7
 10
97.287103764268892
 20
98.115471306338179
 11
97.296039334389576
 21
98.119401085867736
  0
LINE
  8
_0-0_0
  6
CONTINUOUS
 62
    7
 10
97.296039334389576
 20
98.119401085867736
 11
97.305073668810763
 21
98.123216506733741
  0
LINE
  8
_0-0_0
  6
CONTINUOUS
 62
    7
 10
97.305073668810763
 20
98.123216506733741
 11
97.314206767532227
 21
98.126917568936193
  0
LINE
  8
_0-0_0
  6
CONTINUOUS
 62
    7
 10
97.314206767532227
 20
98.126917568936193
 11
97.323417838069844
 21
98.13049387623289
  0
LINE
  8
_0-0_0
  6
CONTINUOUS
 62
    7
 10
97.323417838069844
 20
98.13049387623289
 11
97.332701682302513
 21
98.133955824866035
  0
LINE
  8
_0-0_0
  6
CONTINUOUS
 62
    7
 10
97.332701682302513
 20
98.133955824866035
 11
97.342047903987833
 21
98.137293018593681
  0
LINE
  8
_0-0_0
  6
CONTINUOUS
 62
    7
 10
97.342047903987833
 20
98.137293018593681
 11
97.435478932115444
 21
98.163595511212151
  0
LINE
  8
_0-0_0
  6
CONTINUOUS
 62
    7
 10
97.435478932115444
 20
98.163595511212151
 11
97.530542170259366
 21
98.177848759188535
  0
LINE
  8
_0-0_0
  6
CONTINUOUS
 62
    7
 10
97.530542170259366
 20
98.177848759188535
 11
97.625574219676992
 21
98.180510197176829
  0
LINE
  8
_0-0_0
  6
CONTINUOUS
 62
    7
 10
97.625574219676992
 20
98.180510197176829
 11
97.718911681625229
 21
98.172047656073403
  0
LINE
  8
_0-0_0
  6
CONTINUOUS
 62
    7
 10
97.718911681625229
 20
98.172047656073403
 11
97.808875562998622
 21
98.152918570532506
  0
LINE
  8
_0-0_0
  6
CONTINUOUS
 62
    7
 10
97.808875562998622
 20
98.152918570532506
 11
97.893797266933461
 21
98.123590771450722
  0
LINE
  8
_0-0_0
  6
CONTINUOUS
 62
    7
 10
97.893797266933461
 20
98.123590771450722
 11
97.972013394686684
 21
98.084500900997909
  0
LINE
  8
_0-0_0
  6
CONTINUOUS
 62
    7
 10
97.972013394686684
 20
98.084500900997909
 11
98.041844953152633
 21
98.03615837503898
  0
LINE
  8
_0-0_0
  6
CONTINUOUS
 62
    7
 10
98.041844953152633
 20
98.03615837503898
 11
98.101628543588475
 21
97.978979043259471
  0
LINE
  8
_0-0_0
  6
CONTINUOUS
 62
    7
 10
98.101628543588475
 20
97.978979043259471
 11
98.149685172888724
 21
97.913461925282235
  0
LINE
  8
_0-0_0
  6
CONTINUOUS
 62
    7
 10
98.149685172888724
 20
97.913461925282235
 11
98.17895059451763
 21
97.853797891630833
  0
LINE
  8
_0-0_0
  6
CONTINUOUS
 62
    7
 10
98.17895059451763
 20
97.853797891630833
 11
98.196837329122502
 21
97.793073441281109
  0
LINE
  8
_0-0_0
  6
CONTINUOUS
 62
    7
 10
98.196837329122502
 20
97.793073441281109
 11
98.203719641420292
 21
97.732016311182718
  0
LINE
  8
_0-0_0
  6
CONTINUOUS
 62
    7
 10
98.203719641420292
 20
97.732016311182718
 11
98.199956201764991
 21
97.671385427012197
  0
LINE
  8
_0-0_0
  6
CONTINUOUS
 62
    7
 10
98.199956201764991
 20
97.671385427012197
 11
98.185931671115725
 21
97.611939714445938
  0
LINE
  8
_0-0_0
  6
CONTINUOUS
 62
    7
 10
98.185931671115725
 20
97.611939714445938
 11
98.162009917947728
 21
97.554448495402056
  0
LINE
  8
_0-0_0
  6
CONTINUOUS
 62
    7
 10
98.162009917947728
 20
97.554448495402056
 11
98.128575603219986
 21
97.499649903073006
  0
LINE
  8
_0-0_0
  6
CONTINUOUS
 62
    7
 10
98.128575603219986
 20
97.499649903073006
 11
98.085982199165301
 21
97.44829246689298
  0
LINE
  8
_0-0_0
  6
CONTINUOUS
 62
    7
 10
98.085982199165301
 20
97.44829246689298
 11
98.034609168621984
 21
97.401145508780274
  0
LINE
  8
_0-0_0
  6
CONTINUOUS
 62
    7
 10
98.034609168621984
 20
97.401145508780274
 11
97.974835974428089
 21
97.358947161926949
  0
LINE
  8
_f-a_250
  6
CONTINUOUS
 62
  250
 10
102.5108571831199
 20
94.929014784608995
 11
102.5088127438039
 21
94.913279158387979
  0
LINE
  8
_f-a_250
  6
CONTINUOUS
 62
  250
 10
102.5108571831199
 20
94.929014784608995
 11
102.5088127438039
 21
94.913279158387979
  0
LINE
  8
_0-0_0
  6
CONTINUOUS
 62
  250
 10
103.27921326688067
 20
94.202785414182927
 11
103.27069874456654
 21
94.198637313568241
  0
LINE
  8
_0-0_0
  6
CONTINUOUS
 62
  250
 10
103.27069874456654
 20
94.198637313568241
 11
103.26204387298367
 21
94.194510005438104
  0
LINE
  8
_0-0_0
  6
CONTINUOUS
 62
  250
 10
103.26204387298367
 20
94.194510005438104
 11
103.25324865213176
 21
94.190403489792118
  0
LINE
  8
_0-0_0
  6
CONTINUOUS
 62
  250
 10
103.25324865213176
 20
94.190403489792118
 11
103.24433387449523
 21
94.186348955356834
  0
LINE
  8
_0-0_0
  6
CONTINUOUS
 62
  250
 10
103.24433387449523
 20
94.186348955356834
 11
103.23529434195294
 21
94.182336005890051
  0
LINE
  8
_0-0_0
  6
CONTINUOUS
 62
  250
 10
103.23529434195294
 20
94.182336005890051
 11
103.22615084698927
 21
94.178395830118319
  0
LINE
  8
_0-0_0
  6
CONTINUOUS
 62
  250
 10
103.22615084698927
 20
94.178395830118319
 11
103.21690858772536
 21
94.17452842804164
  0
LINE
  8
_0-0_0
  6
CONTINUOUS
 62
  250
 10
103.21690858772536
 20
94.17452842804164
 11
103.20757276228201
 21
94.170754592144164
  0
LINE
  8
_0-0_0
  6
CONTINUOUS
 62
  250
 10
103.20757276228201
 20
94.170754592144164
 11
103.19815376690164
 21
94.167084718668235
  0
LINE
  8
_0-0_0
  6
CONTINUOUS
 62
  250
 10
103.19815376690164
 20
94.167084718668235
 11
103.18865679970514
 21
94.163529203855674
  0
LINE
  8
_0-0_0
  6
CONTINUOUS
 62
  250
 10
103.18865679970514
 20
94.163529203855674
 11
103.09486710122357
 21
94.13722671123719
  0
LINE
  8
_0-0_0
  6
CONTINUOUS
 62
  250
 10
103.09486710122357
 20
94.13722671123719
 11
102.99944519272572
 21
94.12297346326082
  0
LINE
  8
_0-0_0
  6
CONTINUOUS
 62
  250
 10
102.99944519272572
 20
94.12297346326082
 11
102.90408566168091
 21
94.12031202527254
  0
LINE
  8
_0-0_0
  6
CONTINUOUS
 62
  250
 10
102.90408566168091
 20
94.12031202527254
 11
102.81044151058924
 21
94.128774566375952
  0
LINE
  8
_0-0_0
  6
CONTINUOUS
 62
  250
 10
102.81044151058924
 20
94.128774566375952
 11
102.72020212879914
 21
94.14790365191665
  0
LINE
  8
_0-0_0
  6
CONTINUOUS
 62
  250
 10
102.72020212879914
 20
94.14790365191665
 11
102.63504131129523
 21
94.177241847240609
  0
LINE
  8
_0-0_0
  6
CONTINUOUS
 62
  250
 10
102.63504131129523
 20
94.177241847240609
 11
102.5566380511834
 21
94.216321321451446
  0
LINE
  8
_0-0_0
  6
CONTINUOUS
 62
  250
 10
102.5566380511834
 20
94.216321321451446
 11
102.48666094532734
 21
94.264663847410361
  0
LINE
  8
_0-0_0
  6
CONTINUOUS
 62
  250
 10
102.48666094532734
 20
94.264663847410361
 11
102.42678378871213
 21
94.321843179189898
  0
LINE
  8
_0-0_0
  6
CONTINUOUS
 62
  250
 10
102.42678378871213
 20
94.321843179189898
 11
102.37869597068553
 21
94.38736029716712
  0
LINE
  8
_0-0_0
  6
CONTINUOUS
 62
  250
 10
102.37869597068553
 20
94.38736029716712
 11
102.34937336972484
 21
94.447045123302672
  0
LINE
  8
_0-0_0
  6
CONTINUOUS
 62
  250
 10
102.34937336972484
 20
94.447045123302672
 11
102.33149703136218
 21
94.507842347347434
  0
LINE
  8
_0-0_0
  6
CONTINUOUS
 62
  250
 10
102.33149703136218
 20
94.507842347347434
 11
102.32467709651721
 21
94.568993043625042
  0
LINE
  8
_0-0_0
  6
CONTINUOUS
 62
  250
 10
102.32467709651721
 20
94.568993043625042
 11
102.32853930047284
 21
94.62974868270129
  0
LINE
  8
_0-0_0
  6
CONTINUOUS
 62
  250
 10
102.32853930047284
 20
94.62974868270129
 11
102.34270418039111
 21
94.689329546415451
  0
LINE
  8
_0-0_0
  6
CONTINUOUS
 62
  250
 10
102.34270418039111
 20
94.689329546415451
 11
102.36678707531223
 21
94.747007897817952
  0
LINE
  8
_0-0_0
  6
CONTINUOUS
 62
  250
 10
102.36678707531223
 20
94.747007897817952
 11
102.40041372051968
 21
94.802004018747567
  0
LINE
  8
_0-0_0
  6
CONTINUOUS
 62
  250
 10
102.40041372051968
 20
94.802004018747567
 11
102.44319425693297
 21
94.853558983528373
  0
LINE
  8
_0-0_0
  6
CONTINUOUS
 62
  250
 10
102.44319425693297
 20
94.853558983528373
 11
102.49475441983489
 21
94.900924262725994
  0
LINE
  8
_0-0_0
  6
CONTINUOUS
 62
  250
 10
102.49475441983489
 20
94.900924262725994
 11
102.55471474638711
 21
94.943330534422074
  0
LINE
  8
_0-0_0
  6
CONTINUOUS
 62
  250
 10
102.55471474638711
 20
94.943330534422074
 11
102.56946701398621
 21
94.950597507679277
  0
LINE
  8
_0-0_0
  6
CONTINUOUS
 62
  250
 10
103.29054517081514
 20
94.2093142542479
 11
103.27921326688067
 21
94.202785414182927
  0
LINE
  8
_0-0_0
  6
CONTINUOUS
 62
    7
 10
103.27921326688067
 20
94.202785414182927
 11
103.27069874456654
 21
94.198637313568241
  0
LINE
  8
_0-0_0
  6
CONTINUOUS
 62
    7
 10
103.27069874456654
 20
94.198637313568241
 11
103.26204387298367
 21
94.194510005438104
  0
LINE
  8
_0-0_0
  6
CONTINUOUS
 62
    7
 10
103.26204387298367
 20
94.194510005438104
 11
103.25324865213176
 21
94.190403489792118
  0
LINE
  8
_0-0_0
  6
CONTINUOUS
 62
    7
 10
103.25324865213176
 20
94.190403489792118
 11
103.24433387449523
 21
94.186348955356834
  0
LINE
  8
_0-0_0
  6
CONTINUOUS
 62
    7
 10
103.24433387449523
 20
94.186348955356834
 11
103.23529434195294
 21
94.182336005890051
  0
LINE
  8
_0-0_0
  6
CONTINUOUS
 62
    7
 10
103.23529434195294
 20
94.182336005890051
 11
103.22615084698927
 21
94.178395830118319
  0
LINE
  8
_0-0_0
  6
CONTINUOUS
 62
    7
 10
103.22615084698927
 20
94.178395830118319
 11
103.21690858772536
 21
94.17452842804164
  0
LINE
  8
_0-0_0
  6
CONTINUOUS
 62
    7
 10
103.21690858772536
 20
94.17452842804164
 11
103.20757276228201
 21
94.170754592144164
  0
LINE
  8
_0-0_0
  6
CONTINUOUS
 62
    7
 10
103.20757276228201
 20
94.170754592144164
 11
103.19815376690164
 21
94.167084718668235
  0
LINE
  8
_0-0_0
  6
CONTINUOUS
 62
    7
 10
103.19815376690164
 20
94.167084718668235
 11
103.18865679970514
 21
94.163529203855674
  0
LINE
  8
_0-0_0
  6
CONTINUOUS
 62
    7
 10
103.18865679970514
 20
94.163529203855674
 11
103.09486710122357
 21
94.13722671123719
  0
LINE
  8
_0-0_0
  6
CONTINUOUS
 62
    7
 10
103.09486710122357
 20
94.13722671123719
 11
102.99944519272572
 21
94.12297346326082
  0
LINE
  8
_0-0_0
  6
CONTINUOUS
 62
    7
 10
102.99944519272572
 20
94.12297346326082
 11
102.90408566168091
 21
94.12031202527254
  0
LINE
  8
_0-0_0
  6
CONTINUOUS
 62
    7
 10
102.90408566168091
 20
94.12031202527254
 11
102.81044151058924
 21
94.128774566375952
  0
LINE
  8
_0-0_0
  6
CONTINUOUS
 62
    7
 10
102.81044151058924
 20
94.128774566375952
 11
102.72020212879914
 21
94.14790365191665
  0
LINE
  8
_0-0_0
  6
CONTINUOUS
 62
    7
 10
102.72020212879914
 20
94.14790365191665
 11
102.63504131129523
 21
94.177241847240609
  0
LINE
  8
_0-0_0
  6
CONTINUOUS
 62
    7
 10
102.63504131129523
 20
94.177241847240609
 11
102.5566380511834
 21
94.216321321451446
  0
LINE
  8
_0-0_0
  6
CONTINUOUS
 62
    7
 10
102.5566380511834
 20
94.216321321451446
 11
102.48666094532734
 21
94.264663847410361
  0
LINE
  8
_0-0_0
  6
CONTINUOUS
 62
    7
 10
102.48666094532734
 20
94.264663847410361
 11
102.42678378871213
 21
94.321843179189898
  0
LINE
  8
_0-0_0
  6
CONTINUOUS
 62
    7
 10
102.42678378871213
 20
94.321843179189898
 11
102.37869597068553
 21
94.38736029716712
  0
LINE
  8
_0-0_0
  6
CONTINUOUS
 62
    7
 10
102.37869597068553
 20
94.38736029716712
 11
102.34937336972484
 21
94.447045123302672
  0
LINE
  8
_0-0_0
  6
CONTINUOUS
 62
    7
 10
102.34937336972484
 20
94.447045123302672
 11
102.33149703136218
 21
94.507842347347434
  0
LINE
  8
_0-0_0
  6
CONTINUOUS
 62
    7
 10
102.33149703136218
 20
94.507842347347434
 11
102.32467709651721
 21
94.568993043625042
  0
LINE
  8
_0-0_0
  6
CONTINUOUS
 62
    7
 10
102.32467709651721
 20
94.568993043625042
 11
102.32853930047284
 21
94.62974868270129
  0
LINE
  8
_0-0_0
  6
CONTINUOUS
 62
    7
 10
102.32853930047284
 20
94.62974868270129
 11
102.34270418039111
 21
94.689329546415451
  0
LINE
  8
_0-0_0
  6
CONTINUOUS
 62
    7
 10
102.34270418039111
 20
94.689329546415451
 11
102.36678707531223
 21
94.747007897817952
  0
LINE
  8
_0-0_0
  6
CONTINUOUS
 62
    7
 10
102.36678707531223
 20
94.747007897817952
 11
102.40041372051968
 21
94.802004018747567
  0
LINE
  8
_0-0_0
  6
CONTINUOUS
 62
    7
 10
102.40041372051968
 20
94.802004018747567
 11
102.44319425693297
 21
94.853558983528373
  0
LINE
  8
_0-0_0
  6
CONTINUOUS
 62
    7
 10
102.44319425693297
 20
94.853558983528373
 11
102.49475441983489
 21
94.900924262725994
  0
LINE
  8
_0-0_0
  6
CONTINUOUS
 62
    7
 10
102.49475441983489
 20
94.900924262725994
 11
102.55471474638711
 21
94.943330534422074
  0
LINE
  8
_0-0_0
  6
CONTINUOUS
 62
    7
 10
102.55471474638711
 20
94.943330534422074
 11
102.56946701398621
 21
94.950597507679277
  0
LINE
  8
_0-0_0
  6
CONTINUOUS
 62
    7
 10
103.29054517081514
 20
94.2093142542479
 11
103.27921326688067
 21
94.202785414182927
  0
LINE
  8
_0-0_0
  6
CONTINUOUS
 62
    7
 10
102.56292777767908
 20
94.949869770729237
 11
102.57134873381401
 21
94.954184211218177
  0
LINE
  8
_0-0_0
  6
CONTINUOUS
 62
    7
 10
102.57134873381401
 20
94.954184211218177
 11
102.57992043545988
 21
94.958405085527687
  0
LINE
  8
_0-0_0
  6
CONTINUOUS
 62
    7
 10
102.57992043545988
 20
94.958405085527687
 11
102.58862209013236
 21
94.962542789899999
  0
LINE
  8
_0-0_0
  6
CONTINUOUS
 62
    7
 10
102.58862209013236
 20
94.962542789899999
 11
102.59744330158972
 21
94.966566135608971
  0
LINE
  8
_0-0_0
  6
CONTINUOUS
 62
    7
 10
102.59744330158972
 20
94.966566135608971
 11
102.6063788717104
 21
94.970495915138514
  0
LINE
  8
_0-0_0
  6
CONTINUOUS
 62
    7
 10
102.6063788717104
 20
94.970495915138514
 11
102.61541320613162
 21
94.974311336004519
  0
LINE
  8
_0-0_0
  6
CONTINUOUS
 62
    7
 10
102.61541320613162
 20
94.974311336004519
 11
102.62454630485308
 21
94.978012398206971
  0
LINE
  8
_0-0_0
  6
CONTINUOUS
 62
    7
 10
102.62454630485308
 20
94.978012398206971
 11
102.6337573753907
 21
94.981588705503668
  0
LINE
  8
_0-0_0
  6
CONTINUOUS
 62
    7
 10
102.6337573753907
 20
94.981588705503668
 11
102.64304121962337
 21
94.985050654136828
  0
LINE
  8
_0-0_0
  6
CONTINUOUS
 62
    7
 10
102.64304121962337
 20
94.985050654136828
 11
102.65238744130866
 21
94.988387847864459
  0
LINE
  8
_0-0_0
  6
CONTINUOUS
 62
    7
 10
102.65238744130866
 20
94.988387847864459
 11
102.7458184694363
 21
95.014690340482943
  0
LINE
  8
_0-0_0
  6
CONTINUOUS
 62
    7
 10
102.7458184694363
 20
95.014690340482943
 11
102.84088170758022
 21
95.028943588459327
  0
LINE
  8
_0-0_0
  6
CONTINUOUS
 62
    7
 10
102.84088170758022
 20
95.028943588459327
 11
102.93591375699785
 21
95.031605026447608
  0
LINE
  8
_0-0_0
  6
CONTINUOUS
 62
    7
 10
102.93591375699785
 20
95.031605026447608
 11
103.02925121894609
 21
95.023142485344181
  0
LINE
  8
_0-0_0
  6
CONTINUOUS
 62
    7
 10
103.02925121894609
 20
95.023142485344181
 11
103.11921510031945
 21
95.004013399803284
  0
LINE
  8
_0-0_0
  6
CONTINUOUS
 62
    7
 10
103.11921510031945
 20
95.004013399803284
 11
103.20413680425429
 21
94.9746856007215
  0
LINE
  8
_0-0_0
  6
CONTINUOUS
 62
    7
 10
103.20413680425429
 20
94.9746856007215
 11
103.28235293200754
 21
94.935595730268687
  0
LINE
  8
_0-0_0
  6
CONTINUOUS
 62
    7
 10
103.28235293200754
 20
94.935595730268687
 11
103.35218449047349
 21
94.887253204309772
  0
LINE
  8
_0-0_0
  6
CONTINUOUS
 62
    7
 10
103.35218449047349
 20
94.887253204309772
 11
103.4119680809093
 21
94.830073872530249
  0
LINE
  8
_0-0_0
  6
CONTINUOUS
 62
    7
 10
103.4119680809093
 20
94.830073872530249
 11
103.46002471020955
 21
94.764556754553013
  0
LINE
  8
_0-0_0
  6
CONTINUOUS
 62
    7
 10
103.46002471020955
 20
94.764556754553013
 11
103.48929013183849
 21
94.704892720901626
  0
LINE
  8
_0-0_0
  6
CONTINUOUS
 62
    7
 10
103.48929013183849
 20
94.704892720901626
 11
103.50717686644333
 21
94.644168270551901
  0
LINE
  8
_0-0_0
  6
CONTINUOUS
 62
    7
 10
103.50717686644333
 20
94.644168270551901
 11
103.51405917874115
 21
94.583111140453497
  0
LINE
  8
_0-0_0
  6
CONTINUOUS
 62
    7
 10
103.51405917874115
 20
94.583111140453497
 11
103.51029573908582
 21
94.522480256282989
  0
LINE
  8
_0-0_0
  6
CONTINUOUS
 62
    7
 10
103.51029573908582
 20
94.522480256282989
 11
103.49627120843655
 21
94.463034543716731
  0
LINE
  8
_0-0_0
  6
CONTINUOUS
 62
    7
 10
103.49627120843655
 20
94.463034543716731
 11
103.47234945526858
 21
94.405543324672834
  0
LINE
  8
_0-0_0
  6
CONTINUOUS
 62
    7
 10
103.47234945526858
 20
94.405543324672834
 11
103.43891514054081
 21
94.350744732343799
  0
LINE
  8
_0-0_0
  6
CONTINUOUS
 62
    7
 10
103.43891514054081
 20
94.350744732343799
 11
103.39632173648613
 21
94.299387296163758
  0
LINE
  8
_0-0_0
  6
CONTINUOUS
 62
    7
 10
103.39632173648613
 20
94.299387296163758
 11
103.34494870594284
 21
94.252240338051053
  0
LINE
  8
_0-0_0
  6
CONTINUOUS
 62
    7
 10
103.34494870594284
 20
94.252240338051053
 11
103.28517551174895
 21
94.210041991197727
  0
LINE
  8
_0-0_0
  6
CONTINUOUS
 62
    7
 10
103.25703110716432
 20
94.203769308597799
 11
108.08151089588702
 21
96.934339980807408
  0
LINE
  8
_f-a_250
  6
CONTINUOUS
 62
  250
 10
107.68716079133047
 20
112.73654160285659
 11
106.93277190803839
 21
112.54492802022386
  0
LINE
  8
_f-a_250
  6
CONTINUOUS
 62
  250
 10
106.93277190803839
 20
112.54492802022386
 11
106.21972993486867
 21
112.3718110789427
  0
LINE
  8
_f-a_250
  6
CONTINUOUS
 62
  250
 10
106.21972993486867
 20
112.3718110789427
 11
105.54729651953039
 21
112.21627412634083
  0
LINE
  8
_f-a_250
  6
CONTINUOUS
 62
  250
 10
105.54729651953039
 20
112.21627412634083
 11
104.91476478052284
 21
112.07734989054941
  0
LINE
  8
_f-a_250
  6
CONTINUOUS
 62
  250
 10
104.91476478052284
 20
112.07734989054941
 11
104.32139844351001
 21
111.95414547002824
  0
LINE
  8
_f-a_250
  6
CONTINUOUS
 62
  250
 10
104.32139844351001
 20
111.95414547002824
 11
103.76649062699057
 21
111.84569359290754
  0
LINE
  8
_f-a_250
  6
CONTINUOUS
 62
  250
 10
103.76649062699057
 20
111.84569359290754
 11
103.24931693219536
 21
111.75110031867099
  0
LINE
  8
_f-a_250
  6
CONTINUOUS
 62
  250
 10
103.24931693219536
 20
111.75110031867099
 11
102.76916068001115
 21
111.66942316555892
  0
LINE
  8
_f-a_250
  6
CONTINUOUS
 62
  250
 10
108.48361326385748
 20
112.9475943086002
 11
107.68716079133047
 21
112.73654160285659
  0
LINE
  8
_f-a_250
  6
CONTINUOUS
 62
  250
 10
107.68716079133047
 20
112.73654160285659
 11
106.93277190803839
 21
112.54492802022386
  0
LINE
  8
_f-a_250
  6
CONTINUOUS
 62
  250
 10
106.93277190803839
 20
112.54492802022386
 11
106.21972993486867
 21
112.3718110789427
  0
LINE
  8
_f-a_250
  6
CONTINUOUS
 62
  250
 10
106.21972993486867
 20
112.3718110789427
 11
105.54729651953039
 21
112.21627412634083
  0
LINE
  8
_f-a_250
  6
CONTINUOUS
 62
  250
 10
105.54729651953039
 20
112.21627412634083
 11
104.91476478052284
 21
112.07734989054941
  0
LINE
  8
_0-0_0
  6
CONTINUOUS
 62
  250
 10
103.12015014664131
 20
111.1102985349801
 11
103.11429220215275
 21
111.10744466458817
  0
LINE
  8
_0-0_0
  6
CONTINUOUS
 62
  250
 10
103.11429220215275
 20
111.10744466458817
 11
103.10833769813978
 21
111.10460509931116
  0
LINE
  8
_0-0_0
  6
CONTINUOUS
 62
  250
 10
103.10833769813978
 20
111.10460509931116
 11
103.10228663460218
 21
111.1017798391488
  0
LINE
  8
_0-0_0
  6
CONTINUOUS
 62
  250
 10
103.10228663460218
 20
111.1017798391488
 11
103.09615331665476
 21
111.0989903417733
  0
LINE
  8
_0-0_0
  6
CONTINUOUS
 62
  250
 10
103.09615331665476
 20
111.0989903417733
 11
103.08993416801887
 21
111.09622945462726
  0
LINE
  8
_0-0_0
  6
CONTINUOUS
 62
  250
 10
103.08993416801887
 20
111.09622945462726
 11
103.08364349380928
 21
111.09351863538285
  0
LINE
  8
_0-0_0
  6
CONTINUOUS
 62
  250
 10
103.08364349380928
 20
111.09351863538285
 11
103.07728487030467
 21
111.0908578840401
  0
LINE
  8
_0-0_0
  6
CONTINUOUS
 62
  250
 10
103.07728487030467
 20
111.0908578840401
 11
103.07086187378361
 21
111.08826150571366
  0
LINE
  8
_0-0_0
  6
CONTINUOUS
 62
  250
 10
103.07086187378361
 20
111.08826150571366
 11
103.06438165680366
 21
111.08573665296106
  0
LINE
  8
_0-0_0
  6
CONTINUOUS
 62
  250
 10
103.06438165680366
 20
111.08573665296106
 11
103.05784779564335
 21
111.08329047833942
  0
LINE
  8
_0-0_0
  6
CONTINUOUS
 62
  250
 10
103.05784779564335
 20
111.08329047833942
 11
102.99332099930241
 21
111.06519450818566
  0
LINE
  8
_0-0_0
  6
CONTINUOUS
 62
  250
 10
102.99332099930241
 20
111.06519450818566
 11
102.92767125145387
 21
111.05538835202717
  0
LINE
  8
_0-0_0
  6
CONTINUOUS
 62
  250
 10
102.92767125145387
 20
111.05538835202717
 11
102.86206441894971
 21
111.05355729733967
  0
LINE
  8
_0-0_0
  6
CONTINUOUS
 62
  250
 10
102.86206441894971
 20
111.05355729733967
 11
102.79763775841191
 21
111.05937947904135
  0
LINE
  8
_0-0_0
  6
CONTINUOUS
 62
  250
 10
102.79763775841191
 20
111.05937947904135
 11
102.73555356041392
 21
111.0725401846077
  0
LINE
  8
_0-0_0
  6
CONTINUOUS
 62
  250
 10
102.73555356041392
 20
111.0725401846077
 11
102.67696338669261
 21
111.09272470151447
  0
LINE
  8
_0-0_0
  6
CONTINUOUS
 62
  250
 10
102.67696338669261
 20
111.09272470151447
 11
102.62302237526377
 21
111.11961116467981
  0
LINE
  8
_0-0_0
  6
CONTINUOUS
 62
  250
 10
102.62302237526377
 20
111.11961116467981
 11
102.57487851158571
 21
111.15287055646442
  0
LINE
  8
_0-0_0
  6
CONTINUOUS
 62
  250
 10
102.57487851158571
 20
111.15287055646442
 11
102.53368335739567
 21
111.19220962201621
  0
LINE
  8
_0-0_0
  6
CONTINUOUS
 62
  250
 10
102.53368335739567
 20
111.19220962201621
 11
102.50059920326662
 21
111.23728503858121
  0
LINE
  8
_0-0_0
  6
CONTINUOUS
 62
  250
 10
102.50059920326662
 20
111.23728503858121
 11
102.48042541519597
 21
111.27834787045981
  0
LINE
  8
_0-0_0
  6
CONTINUOUS
 62
  250
 10
102.48042541519597
 20
111.27834787045981
 11
102.46812659279301
 21
111.32017602597736
  0
LINE
  8
_0-0_0
  6
CONTINUOUS
 62
  250
 10
102.46812659279301
 20
111.32017602597736
 11
102.46343451515632
 21
111.36224736844562
  0
LINE
  8
_0-0_0
  6
CONTINUOUS
 62
  250
 10
102.46343451515632
 20
111.36224736844562
 11
102.46609169022038
 21
111.40404691373371
  0
LINE
  8
_0-0_0
  6
CONTINUOUS
 62
  250
 10
102.46609169022038
 20
111.40404691373371
 11
102.47583704964127
 21
111.44503822003861
  0
LINE
  8
_0-0_0
  6
CONTINUOUS
 62
  250
 10
102.47583704964127
 20
111.44503822003861
 11
102.49240594879582
 21
111.48472060834442
  0
LINE
  8
_0-0_0
  6
CONTINUOUS
 62
  250
 10
102.49240594879582
 20
111.48472060834442
 11
102.51554089561897
 21
111.52255763684776
  0
LINE
  8
_0-0_0
  6
CONTINUOUS
 62
  250
 10
102.51554089561897
 20
111.52255763684776
 11
102.54497366920911
 21
111.5580271688607
  0
LINE
  8
_0-0_0
  6
CONTINUOUS
 62
  250
 10
102.54497366920911
 20
111.5580271688607
 11
102.58044677750077
 21
111.59061422025226
  0
LINE
  8
_0-0_0
  6
CONTINUOUS
 62
  250
 10
102.58044677750077
 20
111.59061422025226
 11
102.6216991521497
 21
111.61978950177692
  0
LINE
  8
_0-0_0
  6
CONTINUOUS
 62
  250
 10
102.6216991521497
 20
111.61978950177692
 11
102.63184863106206
 21
111.62478913938077
  0
LINE
  8
_0-0_0
  6
CONTINUOUS
 62
  250
 10
103.12794643417793
 20
111.11479034101036
 11
103.12015014664131
 21
111.1102985349801
  0
LINE
  8
_0-0_0
  6
CONTINUOUS
 62
    7
 10
103.12015014664131
 20
111.1102985349801
 11
103.11429220215275
 21
111.10744466458817
  0
LINE
  8
_0-0_0
  6
CONTINUOUS
 62
    7
 10
103.11429220215275
 20
111.10744466458817
 11
103.10833769813978
 21
111.10460509931116
  0
LINE
  8
_0-0_0
  6
CONTINUOUS
 62
    7
 10
103.10833769813978
 20
111.10460509931116
 11
103.10228663460218
 21
111.1017798391488
  0
LINE
  8
_0-0_0
  6
CONTINUOUS
 62
    7
 10
103.10228663460218
 20
111.1017798391488
 11
103.09615331665476
 21
111.0989903417733
  0
LINE
  8
_0-0_0
  6
CONTINUOUS
 62
    7
 10
103.09615331665476
 20
111.0989903417733
 11
103.08993416801887
 21
111.09622945462726
  0
LINE
  8
_0-0_0
  6
CONTINUOUS
 62
    7
 10
103.08993416801887
 20
111.09622945462726
 11
103.08364349380928
 21
111.09351863538285
  0
LINE
  8
_0-0_0
  6
CONTINUOUS
 62
    7
 10
103.08364349380928
 20
111.09351863538285
 11
103.07728487030467
 21
111.0908578840401
  0
LINE
  8
_0-0_0
  6
CONTINUOUS
 62
    7
 10
103.07728487030467
 20
111.0908578840401
 11
103.07086187378361
 21
111.08826150571366
  0
LINE
  8
_0-0_0
  6
CONTINUOUS
 62
    7
 10
103.07086187378361
 20
111.08826150571366
 11
103.06438165680366
 21
111.08573665296106
  0
LINE
  8
_0-0_0
  6
CONTINUOUS
 62
    7
 10
103.06438165680366
 20
111.08573665296106
 11
103.05784779564335
 21
111.08329047833942
  0
LINE
  8
_0-0_0
  6
CONTINUOUS
 62
    7
 10
103.05784779564335
 20
111.08329047833942
 11
102.99332099930241
 21
111.06519450818566
  0
LINE
  8
_0-0_0
  6
CONTINUOUS
 62
    7
 10
102.99332099930241
 20
111.06519450818566
 11
102.92767125145387
 21
111.05538835202717
  0
LINE
  8
_0-0_0
  6
CONTINUOUS
 62
    7
 10
102.92767125145387
 20
111.05538835202717
 11
102.86206441894971
 21
111.05355729733967
  0
LINE
  8
_0-0_0
  6
CONTINUOUS
 62
    7
 10
102.86206441894971
 20
111.05355729733967
 11
102.79763775841191
 21
111.05937947904135
  0
LINE
  8
_0-0_0
  6
CONTINUOUS
 62
    7
 10
102.79763775841191
 20
111.05937947904135
 11
102.73555356041392
 21
111.0725401846077
  0
LINE
  8
_0-0_0
  6
CONTINUOUS
 62
    7
 10
102.73555356041392
 20
111.0725401846077
 11
102.67696338669261
 21
111.09272470151447
  0
LINE
  8
_0-0_0
  6
CONTINUOUS
 62
    7
 10
102.67696338669261
 20
111.09272470151447
 11
102.62302237526377
 21
111.11961116467981
  0
LINE
  8
_0-0_0
  6
CONTINUOUS
 62
    7
 10
102.62302237526377
 20
111.11961116467981
 11
102.57487851158571
 21
111.15287055646442
  0
LINE
  8
_0-0_0
  6
CONTINUOUS
 62
    7
 10
102.57487851158571
 20
111.15287055646442
 11
102.53368335739567
 21
111.19220962201621
  0
LINE
  8
_0-0_0
  6
CONTINUOUS
 62
    7
 10
102.53368335739567
 20
111.19220962201621
 11
102.50059920326662
 21
111.23728503858121
  0
LINE
  8
_0-0_0
  6
CONTINUOUS
 62
    7
 10
102.50059920326662
 20
111.23728503858121
 11
102.48042541519597
 21
111.27834787045981
  0
LINE
  8
_0-0_0
  6
CONTINUOUS
 62
    7
 10
102.48042541519597
 20
111.27834787045981
 11
102.46812659279301
 21
111.32017602597736
  0
LINE
  8
_0-0_0
  6
CONTINUOUS
 62
    7
 10
102.46812659279301
 20
111.32017602597736
 11
102.46343451515632
 21
111.36224736844562
  0
LINE
  8
_0-0_0
  6
CONTINUOUS
 62
    7
 10
102.46343451515632
 20
111.36224736844562
 11
102.46609169022038
 21
111.40404691373371
  0
LINE
  8
_0-0_0
  6
CONTINUOUS
 62
    7
 10
102.46609169022038
 20
111.40404691373371
 11
102.47583704964127
 21
111.44503822003861
  0
LINE
  8
_0-0_0
  6
CONTINUOUS
 62
    7
 10
102.47583704964127
 20
111.44503822003861
 11
102.49240594879582
 21
111.48472060834442
  0
LINE
  8
_0-0_0
  6
CONTINUOUS
 62
    7
 10
102.49240594879582
 20
111.48472060834442
 11
102.51554089561897
 21
111.52255763684776
  0
LINE
  8
_0-0_0
  6
CONTINUOUS
 62
    7
 10
102.51554089561897
 20
111.52255763684776
 11
102.54497366920911
 21
111.5580271688607
  0
LINE
  8
_0-0_0
  6
CONTINUOUS
 62
    7
 10
102.54497366920911
 20
111.5580271688607
 11
102.58044677750077
 21
111.59061422025226
  0
LINE
  8
_0-0_0
  6
CONTINUOUS
 62
    7
 10
102.58044677750077
 20
111.59061422025226
 11
102.6216991521497
 21
111.61978950177692
  0
LINE
  8
_0-0_0
  6
CONTINUOUS
 62
    7
 10
102.6216991521497
 20
111.61978950177692
 11
102.63184863106206
 21
111.62478913938077
  0
LINE
  8
_0-0_0
  6
CONTINUOUS
 62
    7
 10
103.12794643417793
 20
111.11479034101036
 11
103.12015014664131
 21
111.1102985349801
  0
LINE
  8
_0-0_0
  6
CONTINUOUS
 62
    7
 10
102.62734967247441
 20
111.62428846036457
 11
102.63314324394666
 21
111.62725677167447
  0
LINE
  8
_0-0_0
  6
CONTINUOUS
 62
    7
 10
102.63314324394666
 20
111.62725677167447
 11
102.63904052750077
 21
111.63016070996791
  0
LINE
  8
_0-0_0
  6
CONTINUOUS
 62
    7
 10
102.63904052750077
 20
111.63016070996791
 11
102.64502721802192
 21
111.63300742780231
  0
LINE
  8
_0-0_0
  6
CONTINUOUS
 62
    7
 10
102.64502721802192
 20
111.63300742780231
 11
102.65109616295301
 21
111.63577546750577
  0
LINE
  8
_0-0_0
  6
CONTINUOUS
 62
    7
 10
102.65109616295301
 20
111.63577546750577
 11
102.65724378601506
 21
111.63847913419276
  0
LINE
  8
_0-0_0
  6
CONTINUOUS
 62
    7
 10
102.65724378601506
 20
111.63847913419276
 11
102.66345935837226
 21
111.64110412274866
  0
LINE
  8
_0-0_0
  6
CONTINUOUS
 62
    7
 10
102.66345935837226
 20
111.64110412274866
 11
102.66974288002446
 21
111.64365043317346
  0
LINE
  8
_0-0_0
  6
CONTINUOUS
 62
    7
 10
102.66974288002446
 20
111.64365043317346
 11
102.67608004585701
 21
111.64611091290976
  0
LINE
  8
_0-0_0
  6
CONTINUOUS
 62
    7
 10
102.67608004585701
 20
111.64611091290976
 11
102.68246727959122
 21
111.64849271451496
  0
LINE
  8
_0-0_0
  6
CONTINUOUS
 62
    7
 10
102.68246727959122
 20
111.64849271451496
 11
102.68889742866951
 21
111.65078868543179
  0
LINE
  8
_0-0_0
  6
CONTINUOUS
 62
    7
 10
102.68889742866951
 20
111.65078868543179
 11
102.75317746178108
 21
111.66888465558556
  0
LINE
  8
_0-0_0
  6
CONTINUOUS
 62
    7
 10
102.75317746178108
 20
111.66888465558556
 11
102.81858044640022
 21
111.67869081174405
  0
LINE
  8
_0-0_0
  6
CONTINUOUS
 62
    7
 10
102.81858044640022
 20
111.67869081174405
 11
102.88396197334733
 21
111.68052186643155
  0
LINE
  8
_0-0_0
  6
CONTINUOUS
 62
    7
 10
102.88396197334733
 20
111.68052186643155
 11
102.94817763344243
 21
111.67469968472986
  0
LINE
  8
_0-0_0
  6
CONTINUOUS
 62
    7
 10
102.94817763344243
 20
111.67469968472986
 11
103.01007228867006
 21
111.66153897916337
  0
LINE
  8
_0-0_0
  6
CONTINUOUS
 62
    7
 10
103.01007228867006
 20
111.66153897916337
 11
103.06849795357191
 21
111.641361614814
  0
LINE
  8
_0-0_0
  6
CONTINUOUS
 62
    7
 10
103.06849795357191
 20
111.641361614814
 11
103.12231021896802
 21
111.6144679990914
  0
LINE
  8
_0-0_0
  6
CONTINUOUS
 62
    7
 10
103.12231021896802
 20
111.6144679990914
 11
103.17035394684278
 21
111.58120860730679
  0
LINE
  8
_0-0_0
  6
CONTINUOUS
 62
    7
 10
103.17035394684278
 20
111.58120860730679
 11
103.21148472801637
 21
111.54186954175501
  0
LINE
  8
_0-0_0
  6
CONTINUOUS
 62
    7
 10
103.21148472801637
 20
111.54186954175501
 11
103.24454742447337
 21
111.49679412519001
  0
LINE
  8
_0-0_0
  6
CONTINUOUS
 62
    7
 10
103.24454742447337
 20
111.49679412519001
 11
103.26468187347847
 21
111.45574559842606
  0
LINE
  8
_0-0_0
  6
CONTINUOUS
 62
    7
 10
103.26468187347847
 20
111.45574559842606
 11
103.27698784843882
 21
111.41396751081015
  0
LINE
  8
_0-0_0
  6
CONTINUOUS
 62
    7
 10
103.27698784843882
 20
111.41396751081015
 11
103.28172284141975
 21
111.37196054135822
  0
LINE
  8
_0-0_0
  6
CONTINUOUS
 62
    7
 10
103.28172284141975
 20
111.37196054135822
 11
103.27913361565071
 21
111.33024682675861
  0
LINE
  8
_0-0_0
  6
CONTINUOUS
 62
    7
 10
103.27913361565071
 20
111.33024682675861
 11
103.26948481575441
 21
111.28934850369961
  0
LINE
  8
_0-0_0
  6
CONTINUOUS
 62
    7
 10
103.26948481575441
 20
111.28934850369961
 11
103.25302678123911
 21
111.24979486142655
  0
LINE
  8
_0-0_0
  6
CONTINUOUS
 62
    7
 10
103.25302678123911
 20
111.24979486142655
 11
103.23002415672742
 21
111.21209373151322
  0
LINE
  8
_0-0_0
  6
CONTINUOUS
 62
    7
 10
103.23002415672742
 20
111.21209373151322
 11
103.20072012917002
 21
111.17676009809043
  0
LINE
  8
_0-0_0
  6
CONTINUOUS
 62
    7
 10
103.20072012917002
 20
111.17676009809043
 11
103.16537576691111
 21
111.14432325040366
  0
LINE
  8
_0-0_0
  6
CONTINUOUS
 62
    7
 10
103.16537576691111
 20
111.14432325040366
 11
103.12425213829475
 21
111.1152910200264
  0
LINE
  8
_f-a_250
  6
CONTINUOUS
 62
  250
 10
109.54378392060838
 20
112.56634258592155
 11
108.70455533564335
 21
112.33495577757235
  0
LINE
  8
_f-a_250
  6
CONTINUOUS
 62
  250
 10
108.70455533564335
 20
112.33495577757235
 11
107.90810286311634
 21
112.12390307182874
  0
LINE
  8
_f-a_250
  6
CONTINUOUS
 62
  250
 10
107.90810286311634
 20
112.12390307182874
 11
107.15371397982426
 21
111.93228948919602
  0
LINE
  8
_f-a_250
  6
CONTINUOUS
 62
  250
 10
107.15371397982426
 20
111.93228948919602
 11
106.44067200665454
 21
111.75917254791486
  0
LINE
  8
_f-a_250
  6
CONTINUOUS
 62
  250
 10
106.44067200665454
 20
111.75917254791486
 11
105.76823859131626
 21
111.60363559531299
  0
LINE
  8
_f-a_250
  6
CONTINUOUS
 62
  250
 10
105.76823859131626
 20
111.60363559531299
 11
105.13570685230872
 21
111.46471135952157
  0
LINE
  8
_f-a_250
  6
CONTINUOUS
 62
  250
 10
105.13570685230872
 20
111.46471135952157
 11
104.54234051529588
 21
111.3415069390004
  0
LINE
  8
_f-a_250
  6
CONTINUOUS
 62
  250
 10
104.54234051529588
 20
111.3415069390004
 11
103.98743269877644
 21
111.2330550618797
  0
LINE
  8
_f-a_250
  6
CONTINUOUS
 62
  250
 10
103.98743269877644
 20
111.2330550618797
 11
103.47025900398123
 21
111.13846178764315
  0
LINE
  8
_f-a_250
  6
CONTINUOUS
 62
  250
 10
103.47025900398123
 20
111.13846178764315
 11
102.99010275179702
 21
111.05678463453108
  0
LINE
  8
_f-a_250
  6
CONTINUOUS
 62
  250
 10
108.70455533564335
 20
112.33495577757235
 11
107.90810286311634
 21
112.12390307182874
  0
LINE
  8
_f-a_250
  6
CONTINUOUS
 62
  250
 10
107.90810286311634
 20
112.12390307182874
 11
107.15371397982426
 21
111.93228948919602
  0
LINE
  8
_f-a_250
  6
CONTINUOUS
 62
  250
 10
107.15371397982426
 20
111.93228948919602
 11
106.44067200665454
 21
111.75917254791486
  0
LINE
  8
_f-a_250
  6
CONTINUOUS
 62
  250
 10
106.44067200665454
 20
111.75917254791486
 11
105.76823859131626
 21
111.60363559531299
  0
LINE
  8
_f-a_250
  6
CONTINUOUS
 62
  250
 10
105.76823859131626
 20
111.60363559531299
 11
105.13570685230872
 21
111.46471135952157
  0
LINE
  8
_0-0_0
  6
CONTINUOUS
 62
    7
 10
109.5461919278728
 20
112.56673440215854
 11
110.13034351015759
 21
112.74431648317312
  0
LINE
  8
_f-a_250
  6
CONTINUOUS
 62
  250
 10
110.13034351015759
 20
112.74431648317312
 11
111.00037573906059
 21
112.99014377125623
  0
LINE
  8
_f-a_250
  6
CONTINUOUS
 62
  250
 10
109.62802526467439
 20
113.25085314398498
 11
107.68716079133047
 21
112.73654160285659
  0
LINE
  8
_0-0_0
  6
CONTINUOUS
 62
    7
 10
109.62771138402348
 20
113.25114322927229
 11
109.76008412374914
 21
113.28960287662501
  0
LINE
  8
_f-a_250
  6
CONTINUOUS
 62
  250
 10
112.19483442560745
 20
111.87396091576431
 11
112.70283717859697
 21
112.12632124105036
  0
LINE
  8
_f-a_250
  6
CONTINUOUS
 62
  250
 10
112.70283717859697
 20
112.12632124105036
 11
113.2388320044806
 21
112.3998620038796
  0
LINE
  8
_f-a_250
  6
CONTINUOUS
 62
  250
 10
113.2388320044806
 20
112.3998620038796
 11
113.80319951280437
 21
112.69537660569422
  0
LINE
  8
_f-a_250
  6
CONTINUOUS
 62
  250
 10
113.80319951280437
 20
112.69537660569422
 11
114.39629683346534
 21
113.01365430784084
  0
LINE
  8
_f-a_250
  6
CONTINUOUS
 62
  250
 10
114.39629683346534
 20
113.01365430784084
 11
115.01851563537029
 21
113.35556309079622
  0
LINE
  8
_f-a_250
  6
CONTINUOUS
 62
  250
 10
115.01851563537029
 20
113.35556309079622
 11
115.67022892833491
 21
113.72187080630739
  0
LINE
  8
_f-a_250
  6
CONTINUOUS
 62
  250
 10
115.67022892833491
 20
113.72187080630739
 11
116.35179384225816
 21
114.1133667157214
  0
LINE
  8
_f-a_250
  6
CONTINUOUS
 62
  250
 10
116.41725522611922
 20
114.90429081165195
 11
115.66650997452773
 21
114.46357997662146
  0
LINE
  8
_f-a_250
  6
CONTINUOUS
 62
  250
 10
115.66650997452773
 20
114.46357997662146
 11
114.95182042166897
 21
114.05358164902654
  0
LINE
  8
_f-a_250
  6
CONTINUOUS
 62
  250
 10
114.95182042166897
 20
114.05358164902654
 11
114.27272996071746
 21
113.67324693048423
  0
LINE
  8
_f-a_250
  6
CONTINUOUS
 62
  250
 10
114.27272996071746
 20
113.67324693048423
 11
113.62879026503816
 21
113.32147996331877
  0
LINE
  8
_f-a_250
  6
CONTINUOUS
 62
  250
 10
113.62879026503816
 20
113.32147996331877
 11
113.01952538825374
 21
112.99720422940544
  0
LINE
  8
_f-a_250
  6
CONTINUOUS
 62
  250
 10
113.01952538825374
 20
112.99720422940544
 11
112.44450288364793
 21
112.69930246147007
  0
LINE
  8
_f-a_250
  6
CONTINUOUS
 62
  250
 10
112.44450288364793
 20
112.69930246147007
 11
111.9032426647484
 21
112.42672162103403
  0
LINE
  8
_f-a_250
  6
CONTINUOUS
 62
  250
 10
111.9032426647484
 20
112.42672162103403
 11
111.39531228483855
 21
112.17834444082214
  0
LINE
  8
_f-a_250
  6
CONTINUOUS
 62
  250
 10
111.39531228483855
 20
112.17834444082214
 11
110.92024339726954
 21
111.95311995240478
  0
LINE
  8
_f-a_250
  6
CONTINUOUS
 62
  250
 10
112.70283717859697
 20
112.12632124105036
 11
113.2388320044806
 21
112.3998620038796
  0
LINE
  8
_f-a_250
  6
CONTINUOUS
 62
  250
 10
113.2388320044806
 20
112.3998620038796
 11
113.80319951280437
 21
112.69537660569422
  0
LINE
  8
_f-a_250
  6
CONTINUOUS
 62
  250
 10
113.80319951280437
 20
112.69537660569422
 11
114.39629683346534
 21
113.01365430784084
  0
LINE
  8
_f-a_250
  6
CONTINUOUS
 62
  250
 10
114.39629683346534
 20
113.01365430784084
 11
115.01851563537029
 21
113.35556309079622
  0
LINE
  8
_f-a_250
  6
CONTINUOUS
 62
  250
 10
115.01851563537029
 20
113.35556309079622
 11
115.67022892833491
 21
113.72187080630739
  0
LINE
  8
_f-a_250
  6
CONTINUOUS
 62
  250
 10
115.67022892833491
 20
113.72187080630739
 11
116.35179384225816
 21
114.1133667157214
  0
LINE
  8
_f-a_250
  6
CONTINUOUS
 62
  250
 10
115.66650997452773
 20
114.46357997662146
 11
114.95182042166897
 21
114.05358164902654
  0
LINE
  8
_f-a_250
  6
CONTINUOUS
 62
  250
 10
114.95182042166897
 20
114.05358164902654
 11
114.27272996071746
 21
113.67324693048423
  0
LINE
  8
_f-a_250
  6
CONTINUOUS
 62
  250
 10
114.27272996071746
 20
113.67324693048423
 11
113.62879026503816
 21
113.32147996331877
  0
LINE
  8
_f-a_250
  6
CONTINUOUS
 62
  250
 10
113.62879026503816
 20
113.32147996331877
 11
113.01952538825374
 21
112.99720422940544
  0
LINE
  8
_f-a_250
  6
CONTINUOUS
 62
  250
 10
113.01952538825374
 20
112.99720422940544
 11
112.44450288364793
 21
112.69930246147007
  0
LINE
  8
_f-a_250
  6
CONTINUOUS
 62
  250
 10
108.97599221208188
 20
111.04887779625146
 11
108.26633754047002
 21
110.72917699965646
  0
LINE
  8
_f-a_250
  6
CONTINUOUS
 62
  250
 10
108.26633754047002
 20
110.72917699965646
 11
107.5941897184461
 21
110.43487165446406
  0
LINE
  8
_f-a_250
  6
CONTINUOUS
 62
  250
 10
107.5941897184461
 20
110.43487165446406
 11
106.95898078601567
 21
110.16493082048601
  0
LINE
  8
_f-a_250
  6
CONTINUOUS
 62
  250
 10
106.95898078601567
 20
110.16493082048601
 11
106.36018256579369
 21
109.91827917220216
  0
LINE
  8
_f-a_250
  6
CONTINUOUS
 62
  250
 10
106.36018256579369
 20
109.91827917220216
 11
105.79722501983102
 21
109.69390952055633
  0
LINE
  8
_f-a_250
  6
CONTINUOUS
 62
  250
 10
105.79722501983102
 20
109.69390952055633
 11
105.26957997074217
 21
109.49074654002743
  0
LINE
  8
_f-a_250
  6
CONTINUOUS
 62
  250
 10
105.26957997074217
 20
109.49074654002743
 11
104.77668925614459
 21
109.307784080538
  0
LINE
  8
_f-a_250
  6
CONTINUOUS
 62
  250
 10
104.77668925614459
 20
109.307784080538
 11
104.31801074513123
 21
109.1439695287221
  0
LINE
  8
_f-a_250
  6
CONTINUOUS
 62
  250
 10
109.72369586418817
 20
111.39502665761461
 11
108.97599221208188
 21
111.04887779625146
  0
LINE
  8
_f-a_250
  6
CONTINUOUS
 62
  250
 10
108.97599221208188
 20
111.04887779625146
 11
108.26633754047002
 21
110.72917699965646
  0
LINE
  8
_f-a_250
  6
CONTINUOUS
 62
  250
 10
108.26633754047002
 20
110.72917699965646
 11
107.5941897184461
 21
110.43487165446406
  0
LINE
  8
_f-a_250
  6
CONTINUOUS
 62
  250
 10
107.5941897184461
 20
110.43487165446406
 11
106.95898078601567
 21
110.16493082048601
  0
LINE
  8
_f-a_250
  6
CONTINUOUS
 62
  250
 10
106.95898078601567
 20
110.16493082048601
 11
106.36018256579369
 21
109.91827917220216
  0
LINE
  8
_0-0_0
  6
CONTINUOUS
 62
  250
 10
104.76075886628294
 20
108.6542879388886
 11
104.75548548652675
 21
108.65046020381521
  0
LINE
  8
_0-0_0
  6
CONTINUOUS
 62
  250
 10
104.75548548652675
 20
108.65046020381521
 11
104.75011453014515
 21
108.64662978914447
  0
LINE
  8
_0-0_0
  6
CONTINUOUS
 62
  250
 10
104.75011453014515
 20
108.64662978914447
 11
104.74464599713799
 21
108.64279669487607
  0
LINE
  8
_0-0_0
  6
CONTINUOUS
 62
  250
 10
104.74464599713799
 20
108.64279669487607
 11
104.73909024920755
 21
108.63898453674904
  0
LINE
  8
_0-0_0
  6
CONTINUOUS
 62
  250
 10
104.73909024920755
 20
108.63898453674904
 11
104.73344500643543
 21
108.63518564985515
  0
LINE
  8
_0-0_0
  6
CONTINUOUS
 62
  250
 10
104.73344500643543
 20
108.63518564985515
 11
104.72772063052393
 21
108.63142364993347
  0
LINE
  8
_0-0_0
  6
CONTINUOUS
 62
  250
 10
104.72772063052393
 20
108.63142364993347
 11
104.72192064341999
 21
108.62769915799825
  0
LINE
  8
_0-0_0
  6
CONTINUOUS
 62
  250
 10
104.72192064341999
 20
108.62769915799825
 11
104.71604608301341
 21
108.62402688285158
  0
LINE
  8
_0-0_0
  6
CONTINUOUS
 62
  250
 10
104.71604608301341
 20
108.62402688285158
 11
104.71010275116973
 21
108.62041511041613
  0
LINE
  8
_0-0_0
  6
CONTINUOUS
 62
  250
 10
104.71010275116973
 20
108.62041511041613
 11
104.70409292780725
 21
108.6168715055999
  0
LINE
  8
_0-0_0
  6
CONTINUOUS
 62
  250
 10
104.70409292780725
 20
108.6168715055999
 11
104.64368877073397
 21
108.58784549329891
  0
LINE
  8
_0-0_0
  6
CONTINUOUS
 62
  250
 10
104.64368877073397
 20
108.58784549329891
 11
104.58073921121627
 21
108.56678835560858
  0
LINE
  8
_0-0_0
  6
CONTINUOUS
 62
  250
 10
104.58073921121627
 20
108.56678835560858
 11
104.51644705322529
 21
108.5535926118493
  0
LINE
  8
_0-0_0
  6
CONTINUOUS
 62
  250
 10
104.51644705322529
 20
108.5535926118493
 11
104.45198816718444
 21
108.54813876933301
  0
LINE
  8
_0-0_0
  6
CONTINUOUS
 62
  250
 10
104.45198816718444
 20
108.54813876933301
 11
104.38856183511805
 21
108.55031872636562
  0
LINE
  8
_0-0_0
  6
CONTINUOUS
 62
  250
 10
104.38856183511805
 20
108.55031872636562
 11
104.32735677320903
 21
108.56002251821029
  0
LINE
  8
_0-0_0
  6
CONTINUOUS
 62
  250
 10
104.32735677320903
 20
108.56002251821029
 11
104.26956646161602
 21
108.57713375725046
  0
LINE
  8
_0-0_0
  6
CONTINUOUS
 62
  250
 10
104.26956646161602
 20
108.57713375725046
 11
104.2163785786322
 21
108.60152776994687
  0
LINE
  8
_0-0_0
  6
CONTINUOUS
 62
  250
 10
104.2163785786322
 20
108.60152776994687
 11
104.16897811435513
 21
108.63311572324474
  0
LINE
  8
_0-0_0
  6
CONTINUOUS
 62
  250
 10
104.16897811435513
 20
108.63311572324474
 11
104.1285693189229
 21
108.67176133987404
  0
LINE
  8
_0-0_0
  6
CONTINUOUS
 62
  250
 10
104.1285693189229
 20
108.67176133987404
 11
104.10157153009773
 21
108.70869719353362
  0
LINE
  8
_0-0_0
  6
CONTINUOUS
 62
  250
 10
104.10157153009773
 20
108.70869719353362
 11
104.08219617146159
 21
108.74775421728378
  0
LINE
  8
_0-0_0
  6
CONTINUOUS
 62
  250
 10
104.08219617146159
 20
108.74775421728378
 11
104.07026976507562
 21
108.78837163079507
  0
LINE
  8
_0-0_0
  6
CONTINUOUS
 62
  250
 10
104.07026976507562
 20
108.78837163079507
 11
104.06562815681323
 21
108.82999756067477
  0
LINE
  8
_0-0_0
  6
CONTINUOUS
 62
  250
 10
104.06562815681323
 20
108.82999756067477
 11
104.06810739668678
 21
108.87205838083409
  0
LINE
  8
_0-0_0
  6
CONTINUOUS
 62
  250
 10
104.06810739668678
 20
108.87205838083409
 11
104.07753380261829
 21
108.91401506363982
  0
LINE
  8
_0-0_0
  6
CONTINUOUS
 62
  250
 10
104.07753380261829
 20
108.91401506363982
 11
104.09374694656732
 21
108.95529460401713
  0
LINE
  8
_0-0_0
  6
CONTINUOUS
 62
  250
 10
104.09374694656732
 20
108.95529460401713
 11
104.11657335059479
 21
108.99533622163679
  0
LINE
  8
_0-0_0
  6
CONTINUOUS
 62
  250
 10
104.11657335059479
 20
108.99533622163679
 11
104.14584886057418
 21
109.03358804310602
  0
LINE
  8
_0-0_0
  6
CONTINUOUS
 62
  250
 10
104.14584886057418
 20
109.03358804310602
 11
104.18140828448894
 21
109.06948348623004
  0
LINE
  8
_0-0_0
  6
CONTINUOUS
 62
  250
 10
104.18140828448894
 20
109.06948348623004
 11
104.19053539205196
 21
109.07616960662197
  0
LINE
  8
_0-0_0
  6
CONTINUOUS
 62
  250
 10
104.76765671676213
 20
108.66006531541552
 11
104.76075886628294
 21
108.6542879388886
  0
LINE
  8
_0-0_0
  6
CONTINUOUS
 62
    7
 10
104.76075886628294
 20
108.6542879388886
 11
104.75548548652675
 21
108.65046020381521
  0
LINE
  8
_0-0_0
  6
CONTINUOUS
 62
    7
 10
104.75548548652675
 20
108.65046020381521
 11
104.75011453014515
 21
108.64662978914447
  0
LINE
  8
_0-0_0
  6
CONTINUOUS
 62
    7
 10
104.75011453014515
 20
108.64662978914447
 11
104.74464599713799
 21
108.64279669487607
  0
LINE
  8
_0-0_0
  6
CONTINUOUS
 62
    7
 10
104.74464599713799
 20
108.64279669487607
 11
104.73909024920755
 21
108.63898453674904
  0
LINE
  8
_0-0_0
  6
CONTINUOUS
 62
    7
 10
104.73909024920755
 20
108.63898453674904
 11
104.73344500643543
 21
108.63518564985515
  0
LINE
  8
_0-0_0
  6
CONTINUOUS
 62
    7
 10
104.73344500643543
 20
108.63518564985515
 11
104.72772063052393
 21
108.63142364993347
  0
LINE
  8
_0-0_0
  6
CONTINUOUS
 62
    7
 10
104.72772063052393
 20
108.63142364993347
 11
104.72192064341999
 21
108.62769915799825
  0
LINE
  8
_0-0_0
  6
CONTINUOUS
 62
    7
 10
104.72192064341999
 20
108.62769915799825
 11
104.71604608301341
 21
108.62402688285158
  0
LINE
  8
_0-0_0
  6
CONTINUOUS
 62
    7
 10
104.71604608301341
 20
108.62402688285158
 11
104.71010275116973
 21
108.62041511041613
  0
LINE
  8
_0-0_0
  6
CONTINUOUS
 62
    7
 10
104.71010275116973
 20
108.62041511041613
 11
104.70409292780725
 21
108.6168715055999
  0
LINE
  8
_0-0_0
  6
CONTINUOUS
 62
    7
 10
104.70409292780725
 20
108.6168715055999
 11
104.64368877073397
 21
108.58784549329891
  0
LINE
  8
_0-0_0
  6
CONTINUOUS
 62
    7
 10
104.64368877073397
 20
108.58784549329891
 11
104.58073921121627
 21
108.56678835560858
  0
LINE
  8
_0-0_0
  6
CONTINUOUS
 62
    7
 10
104.58073921121627
 20
108.56678835560858
 11
104.51644705322529
 21
108.5535926118493
  0
LINE
  8
_0-0_0
  6
CONTINUOUS
 62
    7
 10
104.51644705322529
 20
108.5535926118493
 11
104.45198816718444
 21
108.54813876933301
  0
LINE
  8
_0-0_0
  6
CONTINUOUS
 62
    7
 10
104.45198816718444
 20
108.54813876933301
 11
104.38856183511805
 21
108.55031872636562
  0
LINE
  8
_0-0_0
  6
CONTINUOUS
 62
    7
 10
104.38856183511805
 20
108.55031872636562
 11
104.32735677320903
 21
108.56002251821029
  0
LINE
  8
_0-0_0
  6
CONTINUOUS
 62
    7
 10
104.32735677320903
 20
108.56002251821029
 11
104.26956646161602
 21
108.57713375725046
  0
LINE
  8
_0-0_0
  6
CONTINUOUS
 62
    7
 10
104.26956646161602
 20
108.57713375725046
 11
104.2163785786322
 21
108.60152776994687
  0
LINE
  8
_0-0_0
  6
CONTINUOUS
 62
    7
 10
104.2163785786322
 20
108.60152776994687
 11
104.16897811435513
 21
108.63311572324474
  0
LINE
  8
_0-0_0
  6
CONTINUOUS
 62
    7
 10
104.16897811435513
 20
108.63311572324474
 11
104.1285693189229
 21
108.67176133987404
  0
LINE
  8
_0-0_0
  6
CONTINUOUS
 62
    7
 10
104.1285693189229
 20
108.67176133987404
 11
104.10157153009773
 21
108.70869719353362
  0
LINE
  8
_0-0_0
  6
CONTINUOUS
 62
    7
 10
104.10157153009773
 20
108.70869719353362
 11
104.08219617146159
 21
108.74775421728378
  0
LINE
  8
_0-0_0
  6
CONTINUOUS
 62
    7
 10
104.08219617146159
 20
108.74775421728378
 11
104.07026976507562
 21
108.78837163079507
  0
LINE
  8
_0-0_0
  6
CONTINUOUS
 62
    7
 10
104.07026976507562
 20
108.78837163079507
 11
104.06562815681323
 21
108.82999756067477
  0
LINE
  8
_0-0_0
  6
CONTINUOUS
 62
    7
 10
104.06562815681323
 20
108.82999756067477
 11
104.06810739668678
 21
108.87205838083409
  0
LINE
  8
_0-0_0
  6
CONTINUOUS
 62
    7
 10
104.06810739668678
 20
108.87205838083409
 11
104.07753380261829
 21
108.91401506363982
  0
LINE
  8
_0-0_0
  6
CONTINUOUS
 62
    7
 10
104.07753380261829
 20
108.91401506363982
 11
104.09374694656732
 21
108.95529460401713
  0
LINE
  8
_0-0_0
  6
CONTINUOUS
 62
    7
 10
104.09374694656732
 20
108.95529460401713
 11
104.11657335059479
 21
108.99533622163679
  0
LINE
  8
_0-0_0
  6
CONTINUOUS
 62
    7
 10
104.11657335059479
 20
108.99533622163679
 11
104.14584886057418
 21
109.03358804310602
  0
LINE
  8
_0-0_0
  6
CONTINUOUS
 62
    7
 10
104.14584886057418
 20
109.03358804310602
 11
104.18140828448894
 21
109.06948348623004
  0
LINE
  8
_0-0_0
  6
CONTINUOUS
 62
    7
 10
104.18140828448894
 20
109.06948348623004
 11
104.19053539205196
 21
109.07616960662197
  0
LINE
  8
_0-0_0
  6
CONTINUOUS
 62
    7
 10
104.76765671676213
 20
108.66006531541552
 11
104.76075886628294
 21
108.6542879388886
  0
LINE
  8
_0-0_0
  6
CONTINUOUS
 62
    7
 10
104.18619172475312
 20
109.0748952980849
 11
104.19138183700692
 21
109.0788245572046
  0
LINE
  8
_0-0_0
  6
CONTINUOUS
 62
    7
 10
104.19138183700692
 20
109.0788245572046
 11
104.19668526397999
 21
109.08270843069261
  0
LINE
  8
_0-0_0
  6
CONTINUOUS
 62
    7
 10
104.19668526397999
 20
109.08270843069261
 11
104.20208667585584
 21
109.08655147838581
  0
LINE
  8
_0-0_0
  6
CONTINUOUS
 62
    7
 10
104.20208667585584
 20
109.08655147838581
 11
104.20758275482636
 21
109.09033132657406
  0
LINE
  8
_0-0_0
  6
CONTINUOUS
 62
    7
 10
104.20758275482636
 20
109.09033132657406
 11
104.21316749488724
 21
109.09406144203069
  0
LINE
  8
_0-0_0
  6
CONTINUOUS
 62
    7
 10
104.21316749488724
 20
109.09406144203069
 11
104.2188328142549
 21
109.09772587392507
  0
LINE
  8
_0-0_0
  6
CONTINUOUS
 62
    7
 10
104.2188328142549
 20
109.09772587392507
 11
104.22457871292916
 21
109.10132462225724
  0
LINE
  8
_0-0_0
  6
CONTINUOUS
 62
    7
 10
104.22457871292916
 20
109.10132462225724
 11
104.23039234515078
 21
109.10484815907608
  0
LINE
  8
_0-0_0
  6
CONTINUOUS
 62
    7
 10
104.23039234515078
 20
109.10484815907608
 11
104.23626894694424
 21
109.10830290726128
  0
LINE
  8
_0-0_0
  6
CONTINUOUS
 62
    7
 10
104.23626894694424
 20
109.10830290726128
 11
104.24220271644387
 21
109.11168058089046
  0
LINE
  8
_0-0_0
  6
CONTINUOUS
 62
    7
 10
104.24220271644387
 20
109.11168058089046
 11
104.3023638591757
 21
109.14066374320635
  0
LINE
  8
_0-0_0
  6
CONTINUOUS
 62
    7
 10
104.3023638591757
 20
109.14066374320635
 11
104.36507040435194
 21
109.16167803091157
  0
LINE
  8
_0-0_0
  6
CONTINUOUS
 62
    7
 10
104.36507040435194
 20
109.16167803091157
 11
104.42914067968353
 21
109.17483465077146
  0
LINE
  8
_0-0_0
  6
CONTINUOUS
 62
    7
 10
104.42914067968353
 20
109.17483465077146
 11
104.49339177085253
 21
109.18025185344538
  0
LINE
  8
_0-0_0
  6
CONTINUOUS
 62
    7
 10
104.49339177085253
 20
109.18025185344538
 11
104.55663143972914
 21
109.17803898265598
  0
LINE
  8
_0-0_0
  6
CONTINUOUS
 62
    7
 10
104.55663143972914
 20
109.17803898265598
 11
104.61767325004877
 21
109.16831366804857
  0
LINE
  8
_0-0_0
  6
CONTINUOUS
 62
    7
 10
104.61767325004877
 20
109.16831366804857
 11
104.67533801357912
 21
109.15117302860058
  0
LINE
  8
_0-0_0
  6
CONTINUOUS
 62
    7
 10
104.67533801357912
 20
109.15117302860058
 11
104.72842728204749
 21
109.12676162750441
  0
LINE
  8
_0-0_0
  6
CONTINUOUS
 62
    7
 10
104.72842728204749
 20
109.12676162750441
 11
104.77576435127888
 21
109.09516249594955
  0
LINE
  8
_0-0_0
  6
CONTINUOUS
 62
    7
 10
104.77576435127888
 20
109.09516249594955
 11
104.81615201502932
 21
109.05651315323462
  0
LINE
  8
_0-0_0
  6
CONTINUOUS
 62
    7
 10
104.81615201502932
 20
109.05651315323462
 11
104.84310857838064
 21
109.01958455620581
  0
LINE
  8
_0-0_0
  6
CONTINUOUS
 62
    7
 10
104.84310857838064
 20
109.01958455620581
 11
104.86248228671089
 21
108.98057808174192
  0
LINE
  8
_0-0_0
  6
CONTINUOUS
 62
    7
 10
104.86248228671089
 20
108.98057808174192
 11
104.87443977820359
 21
108.94003151544752
  0
LINE
  8
_0-0_0
  6
CONTINUOUS
 62
    7
 10
104.87443977820359
 20
108.94003151544752
 11
104.87913339911589
 21
108.89850191156651
  0
LINE
  8
_0-0_0
  6
CONTINUOUS
 62
    7
 10
104.87913339911589
 20
108.89850191156651
 11
104.87673310543957
 21
108.85654942941414
  0
LINE
  8
_0-0_0
  6
CONTINUOUS
 62
    7
 10
104.87673310543957
 20
108.85654942941414
 11
104.86739352335037
 21
108.81473878814222
  0
LINE
  8
_0-0_0
  6
CONTINUOUS
 62
    7
 10
104.86739352335037
 20
108.81473878814222
 11
104.85128709289707
 21
108.77361605927823
  0
LINE
  8
_0-0_0
  6
CONTINUOUS
 62
    7
 10
104.85128709289707
 20
108.77361605927823
 11
104.82856388041827
 21
108.73373063215772
  0
LINE
  8
_0-0_0
  6
CONTINUOUS
 62
    7
 10
104.82856388041827
 20
108.73373063215772
 11
104.7993890779305
 21
108.69564908897547
  0
LINE
  8
_0-0_0
  6
CONTINUOUS
 62
    7
 10
104.7993890779305
 20
108.69564908897547
 11
104.76393160353572
 21
108.65991688024442
  0
LINE
  8
_f-a_250
  6
CONTINUOUS
 62
  250
 10
110.83396381334802
 20
111.20366370783216
 11
110.04766489393101
 21
110.83006167059995
  0
LINE
  8
_f-a_250
  6
CONTINUOUS
 62
  250
 10
110.04766489393101
 20
110.83006167059995
 11
109.29996124182472
 21
110.4839128092368
  0
LINE
  8
_f-a_250
  6
CONTINUOUS
 62
  250
 10
109.29996124182472
 20
110.4839128092368
 11
108.59030657021286
 21
110.16421201264181
  0
LINE
  8
_f-a_250
  6
CONTINUOUS
 62
  250
 10
108.59030657021286
 20
110.16421201264181
 11
107.91815874818894
 21
109.8699066674494
  0
LINE
  8
_f-a_250
  6
CONTINUOUS
 62
  250
 10
107.91815874818894
 20
109.8699066674494
 11
107.28294981575851
 21
109.59996583347134
  0
LINE
  8
_f-a_250
  6
CONTINUOUS
 62
  250
 10
107.28294981575851
 20
109.59996583347134
 11
106.68415159553653
 21
109.35331418518751
  0
LINE
  8
_f-a_250
  6
CONTINUOUS
 62
  250
 10
106.68415159553653
 20
109.35331418518751
 11
106.12119404957384
 21
109.12894453354168
  0
LINE
  8
_f-a_250
  6
CONTINUOUS
 62
  250
 10
106.12119404957384
 20
109.12894453354168
 11
105.593549000485
 21
108.92578155301277
  0
LINE
  8
_f-a_250
  6
CONTINUOUS
 62
  250
 10
105.593549000485
 20
108.92578155301277
 11
105.10065828588743
 21
108.74281909352334
  0
LINE
  8
_f-a_250
  6
CONTINUOUS
 62
  250
 10
105.10065828588743
 20
108.74281909352334
 11
104.64197977487407
 21
108.57900454170745
  0
LINE
  8
_f-a_250
  6
CONTINUOUS
 62
  250
 10
110.04766489393101
 20
110.83006167059995
 11
109.29996124182472
 21
110.4839128092368
  0
LINE
  8
_f-a_250
  6
CONTINUOUS
 62
  250
 10
109.29996124182472
 20
110.4839128092368
 11
108.59030657021286
 21
110.16421201264181
  0
LINE
  8
_f-a_250
  6
CONTINUOUS
 62
  250
 10
108.59030657021286
 20
110.16421201264181
 11
107.91815874818894
 21
109.8699066674494
  0
LINE
  8
_f-a_250
  6
CONTINUOUS
 62
  250
 10
107.91815874818894
 20
109.8699066674494
 11
107.28294981575851
 21
109.59996583347134
  0
LINE
  8
_f-a_250
  6
CONTINUOUS
 62
  250
 10
107.28294981575851
 20
109.59996583347134
 11
106.68415159553653
 21
109.35331418518751
  0
LINE
  8
_0-0_0
  6
CONTINUOUS
 62
    7
 10
110.83626719939581
 20
111.20446771757338
 11
111.38070740180973
 21
111.48078878549759
  0
LINE
  8
_f-a_250
  6
CONTINUOUS
 62
  250
 10
111.38070740180973
 20
111.48078878549759
 11
112.19483442560745
 21
111.87396091576431
  0
LINE
  8
_f-a_250
  6
CONTINUOUS
 62
  250
 10
110.79806133110692
 20
111.89240336831301
 11
108.97599221208188
 21
111.04887779625146
  0
LINE
  8
_0-0_0
  6
CONTINUOUS
 62
    7
 10
110.79770184622687
 20
111.89263454174997
 11
110.92138509891966
 21
111.95349618566718
  0
LINE
  8
_0-7_7
  6
CONTINUOUS
 62
    7
 10
117.03238498678729
 20
114.53069858843469
 11
117.05507051458881
 21
114.68290500933321
  0
LINE
  8
_0-7_7
  6
CONTINUOUS
 62
    7
 10
117.05507051458881
 20
114.68290500933321
 11
117.0315862845473
 21
114.79353123003622
  0
LINE
  8
_0-7_7
  6
CONTINUOUS
 62
    7
 10
117.0315862845473
 20
114.79353123003622
 11
116.9722319792798
 21
114.86860924059522
  0
LINE
  8
_0-7_7
  6
CONTINUOUS
 62
    7
 10
116.9722319792798
 20
114.86860924059522
 11
116.88734304419083
 21
114.91412334734571
  0
LINE
  8
_0-7_7
  6
CONTINUOUS
 62
    7
 10
116.88734304419083
 20
114.91412334734571
 11
116.78721916189733
 21
114.93612938219673
  0
LINE
  8
_0-7_7
  6
CONTINUOUS
 62
    7
 10
116.78721916189733
 20
114.93612938219673
 11
116.68218385687379
 21
114.94063549334172
  0
LINE
  8
_0-7_7
  6
CONTINUOUS
 62
    7
 10
116.68218385687379
 20
114.94063549334172
 11
116.58253681173829
 21
114.93364982897421
  0
LINE
  8
_0-7_7
  6
CONTINUOUS
 62
    7
 10
116.58253681173829
 20
114.93364982897421
 11
116.4985896300368
 21
114.92122822100319
  0
LINE
  8
_0-7_7
  6
CONTINUOUS
 62
    7
 10
116.4985896300368
 20
114.92122822100319
 11
116.44066583624431
 21
114.9093549757637
  0
LINE
  8
_0-7_7
  6
CONTINUOUS
 62
    7
 10
116.44066583624431
 20
114.9093549757637
 11
116.41906511297731
 21
114.90406208330771
  0
LINE
  8
_f-a_250
  6
CONTINUOUS
 62
  250
 10
117.03238498678729
 20
114.53069858843469
 11
117.05507051458881
 21
114.68290500933321
  0
LINE
  8
_f-a_250
  6
CONTINUOUS
 62
  250
 10
117.05507051458881
 20
114.68290500933321
 11
117.0315862845473
 21
114.79353123003622
  0
LINE
  8
_f-a_250
  6
CONTINUOUS
 62
  250
 10
117.0315862845473
 20
114.79353123003622
 11
116.9722319792798
 21
114.86860924059522
  0
LINE
  8
_f-a_250
  6
CONTINUOUS
 62
  250
 10
116.9722319792798
 20
114.86860924059522
 11
116.88734304419083
 21
114.91412334734571
  0
LINE
  8
_f-a_250
  6
CONTINUOUS
 62
  250
 10
116.88734304419083
 20
114.91412334734571
 11
116.78721916189733
 21
114.93612938219673
  0
LINE
  8
_f-a_250
  6
CONTINUOUS
 62
  250
 10
116.78721916189733
 20
114.93612938219673
 11
116.68218385687379
 21
114.94063549334172
  0
LINE
  8
_f-a_250
  6
CONTINUOUS
 62
  250
 10
116.68218385687379
 20
114.94063549334172
 11
116.58253681173829
 21
114.93364982897421
  0
LINE
  8
_f-a_250
  6
CONTINUOUS
 62
  250
 10
116.58253681173829
 20
114.93364982897421
 11
116.4985896300368
 21
114.92122822100319
  0
LINE
  8
_f-a_250
  6
CONTINUOUS
 62
  250
 10
116.4985896300368
 20
114.92122822100319
 11
116.44066583624431
 21
114.9093549757637
  0
LINE
  8
_f-a_250
  6
CONTINUOUS
 62
  250
 10
116.44066583624431
 20
114.9093549757637
 11
116.41906511297731
 21
114.90406208330771
  0
LINE
  8
_f-a_250
  6
CONTINUOUS
 62
  250
 10
116.35179384225816
 20
114.1133667157214
 11
117.03632035129782
 21
114.51487458336922
  0
LINE
  8
_f-a_250
  6
CONTINUOUS
 62
  250
 10
116.3112149796891
 20
114.84724254377912
 11
116.35032176109459
 21
114.90874576100222
  0
LINE
  8
_f-a_250
  6
CONTINUOUS
 62
  250
 10
115.48305033775461
 20
114.47367953785769
 11
116.01701786676173
 21
114.67219326596806
  0
LINE
  8
_0-7_7
  6
CONTINUOUS
 62
    7
 10
115.19931029620435
 20
114.19598017843479
 11
115.14347075554008
 21
114.24930381306521
  0
LINE
  8
_0-7_7
  6
CONTINUOUS
 62
    7
 10
116.31721734138608
 20
114.0860824538122
 11
116.30532096721731
 21
114.08634395969483
  0
LINE
  8
_0-0_0
  6
CONTINUOUS
 62
    7
 10
115.91580753118234
 20
113.81623363360531
 11
115.86477521953984
 21
113.83364942249918
  0
LINE
  8
_f-a_250
  6
CONTINUOUS
 62
  250
 10
116.30424598979302
 20
114.83628241655822
 11
116.35032176109459
 21
114.90874576100222
  0
LINE
  8
_f-a_250
  6
CONTINUOUS
 62
  250
 10
115.48305033775461
 20
114.47367953785769
 11
116.03224597724186
 21
114.67785463827867
  0
ENDSEC
  0
EOF
