  0
SECTION
  2
HEADER
  9
$ACADVER
  1
AC1009
  9
$INSBASE
 10
0
 20
0
 30
0
  9
$EXTMIN
 10
0
 20
0
  9
$EXTMAX
 10
420
 20
297
  9
$LIMMIN
 10
0
 20
0
  9
$LIMMAX
 10
420
 20
297
  9
$LTSCALE
 40
1
  0
ENDSEC
  0
SECTION
  2
TABLES
  0
TABLE
  2
LTYPE
 70
     9
  0
LTYPE
  2
CONTINUOUS
 70
    64
  3
実線
 72
    65
 73
     0
 40
0.0
  0
LTYPE
  2
DASHED1
 70
    64
  3
--  --  --  --  --  --  --  --  
 72
    65
 73
     2
 40
2.5
 49
1.25
 49
-1.25
  0
LTYPE
  2
DASHED2
 70
    64
  3
----    ----    ----    ----    
 72
    65
 73
     2
 40
5.0
 49
2.5
 49
-2.5
  0
LTYPE
  2
DASHED3
 70
    64
  3
------  ------  ------  ------  
 72
    65
 73
     2
 40
5.0
 49
3.75
 49
-1.25
  0
LTYPE
  2
CENTER1
 70
    64
  3
----- - ----- - ----- - ----- - 
 72
    65
 73
     4
 40
10.0
 49
6.25
 49
-1.25
 49
1.25
 49
-1.25
  0
LTYPE
  2
CENTER2
 70
    64
  3
----------  --  ----------  --  
 72
    65
 73
     4
 40
20.0
 49
12.5
 49
-2.5
 49
2.5
 49
-2.5
  0
LTYPE
  2
PHANTOM1
 70
    64
  3
--- - - --- - - --- - - --- - - 
 72
    65
 73
     6
 40
10.0
 49
3.25
 49
-1.25
 49
1.25
 49
-1.25
 49
1.25
 49
-1.25
  0
LTYPE
  2
PHANTOM2
 70
    64
  3
--------  -  -  --------  -  -  
 72
    65
 73
     6
 40
20.0
 49
10.0
 49
-2.5
 49
1.25
 49
-2.5
 49
1.25
 49
-2.5
  0
LTYPE
  2
DOT
 70
    64
  3
-   -   -   -   -   -   -   -   
 72
    65
 73
     2
 40
2.5
 49
0.625
 49
-1.875
  0
LTYPE
  2
DUMMY
 70
    64
  3
ダミー
 72
    65
 73
     0
 40
0.0
  0
LTYPE
  2
RAND1
 70
    64
  3
ランダム線1
 72
    65
 73
     4
 40
10.0
 49
1.0
 49
-2.0
 49
3.0
 49
-4.0
  0
LTYPE
  2
RAND2
 70
    64
  3
ランダム線2
 72
    65
 73
     4
 40
14.0
 49
2.0
 49
-3.0
 49
4.0
 49
-5.0
  0
LTYPE
  2
RAND3
 70
    64
  3
ランダム線3
 72
    65
 73
     4
 40
18.0
 49
3.0
 49
-4.0
 49
5.0
 49
-6.0
  0
LTYPE
  2
RAND4
 70
    64
  3
ランダム線4
 72
    65
 73
     4
 40
22.0
 49
4.0
 49
-5.0
 49
6.0
 49
-7.0
  0
LTYPE
  2
RAND5
 70
    64
  3
ランダム線5
 72
    65
 73
     4
 40
26.0
 49
5.0
 49
-6.0
 49
7.0
 49
-8.0
  0
LTYPE
  2
LONG1
 70
    64
  3
----------  --  ----------  --  
 72
    65
 73
     4
 40
40.0
 49
32.5
 49
-2.5
 49
2.5
 49
-2.5
  0
LTYPE
  2
LONG2
 70
    64
  3
--------  -  -  --------  -  -  
 72
    65
 73
     6
 40
40.0
 49
30.0
 49
-2.5
 49
1.25
 49
-2.5
 49
1.25
 49
-2.5
  0
LTYPE
  2
LONG3
 70
    64
  3
+++++++++++++++..+++++++++++++++
 72
    65
 73
     2
 40
40.0
 49
37.5
 49
-2.5
  0
LTYPE
  2
LONG4
 70
    64
  3
+++++++++++++++..+++++++++++++++
 72
    65
 73
     2
 40
80.0
 49
75.0
 49
-5.0
  0
LTYPE
  2
LONG5
 70
    64
  3
----------  --  ----------  --  
 72
    65
 73
     4
 40
60.0
 49
37.5
 49
-7.5
 49
7.5
 49
-7.5
  0
LTYPE
  2
dashed
 70
   64
  3
-------   -------------   ------
 72
   65
 73
    2
 40
7.5
 49
6
 49
-1.5
  0
LTYPE
  2
dashed_spaced
 70
   64
  3
----        --------        ----
 72
   65
 73
    2
 40
12
 49
6
 49
-6
  0
LTYPE
  2
long_dashed_dotted
 70
   64
  3
------------- --- --------------
 72
   65
 73
    4
 40
15.25
 49
12
 49
-1.5
 49
0.25
 49
-1.5
  0
LTYPE
  2
long_dashed_double-dotted
 70
   64
  3
----------- --- --- ------------
 72
   65
 73
    6
 40
17
 49
12
 49
-1.5
 49
0.25
 49
-1.5
 49
0.25
 49
-1.5
  0
LTYPE
  2
long_dashed_triplicate-dotted
 70
   64
  3
--------- --- --- --- ----------
 72
   65
 73
    8
 40
18.75
 49
12
 49
-1.5
 49
0.25
 49
-1.5
 49
0.25
 49
-1.5
 49
0.25
 49
-1.5
  0
LTYPE
  2
dotted
 70
   64
  3
   -       -       -       -    
 72
   65
 73
    2
 40
1.75
 49
0.25
 49
-1.5
  0
LTYPE
  2
chain
 70
   64
  3
-------------- -- --------------
 72
   65
 73
    4
 40
18.5
 49
12
 49
-1.5
 49
3.5
 49
-1.5
  0
LTYPE
  2
chain_double_dash
 70
   64
  3
------------ -- -- -------------
 72
   65
 73
    6
 40
23.5
 49
12
 49
-1.5
 49
3.5
 49
-1.5
 49
3.5
 49
-1.5
  0
LTYPE
  2
dashed_dotted
 70
   64
  3
-----------     -     ----------
 72
   65
 73
    4
 40
9.25
 49
6
 49
-1.5
 49
0.25
 49
-1.5
  0
LTYPE
  2
double-dashed_dotted
 70
   64
  3
------   -----------   -   -----
 72
   65
 73
    6
 40
16.75
 49
6
 49
-1.5
 49
6
 49
-1.5
 49
0.25
 49
-1.5
  0
LTYPE
  2
dashed_double-dotted
 70
   64
  3
---------    -    -    ---------
 72
   65
 73
    6
 40
11
 49
6
 49
-1.5
 49
0.25
 49
-1.5
 49
0.25
 49
-1.5
  0
LTYPE
  2
double-dashed_double-dotted
 70
   64
  3
-----   ---------   -   -   ----
 72
   65
 73
    8
 40
18.5
 49
6
 49
-1.5
 49
6
 49
-1.5
 49
0.25
 49
-1.5
 49
0.25
 49
-1.5
  0
LTYPE
  2
dashed_triplicate-dotted
 70
   64
  3
-------    -    -    -    ------
 72
   65
 73
    8
 40
12.75
 49
6
 49
-1.5
 49
0.25
 49
-1.5
 49
0.25
 49
-1.5
 49
0.25
 49
-1.5
  0
LTYPE
  2
double-dashed_triplicate-dotted
 70
   64
  3
-----  ---------  -  -  -  -----
 72
   65
 73
   10
 40
20.25
 49
6
 49
-1.5
 49
6
 49
-1.5
 49
0.25
 49
-1.5
 49
0.25
 49
-1.5
 49
0.25
 49
-1.5
  0
LTYPE
  2
undefined
 70
   64
  3
--------------------------------
 72
   65
 73
    0
 40
0
  0
LTYPE
  2
_
 70
   64
  3
                                
 72
   65
 73
    0
 40
0
  0
LTYPE
  2
__18
 70
   64
  3
                                
 72
   65
 73
    0
 40
0
  0
LTYPE
  2
__19
 70
   64
  3
                                
 72
   65
 73
    0
 40
0
  0
LTYPE
  2
__20
 70
   64
  3
                                
 72
   65
 73
    0
 40
0
  0
LTYPE
  2
__21
 70
   64
  3
                                
 72
   65
 73
    0
 40
0
  0
LTYPE
  2
__22
 70
   64
  3
                                
 72
   65
 73
    0
 40
0
  0
LTYPE
  2
__23
 70
   64
  3
                                
 72
   65
 73
    0
 40
0
  0
LTYPE
  2
__24
 70
   64
  3
                                
 72
   65
 73
    0
 40
0
  0
LTYPE
  2
__25
 70
   64
  3
                                
 72
   65
 73
    0
 40
0
  0
LTYPE
  2
__26
 70
   64
  3
                                
 72
   65
 73
    0
 40
0
  0
LTYPE
  2
__27
 70
   64
  3
                                
 72
   65
 73
    0
 40
0
  0
LTYPE
  2
__28
 70
   64
  3
                                
 72
   65
 73
    0
 40
0
  0
LTYPE
  2
__29
 70
   64
  3
                                
 72
   65
 73
    0
 40
0
  0
LTYPE
  2
__30
 70
   64
  3
                                
 72
   65
 73
    0
 40
0
  0
LTYPE
  2
__31
 70
   64
  3
                                
 72
   65
 73
    0
 40
0
  0
LTYPE
  2
__32
 70
   64
  3
                                
 72
   65
 73
    0
 40
0
  0
ENDTAB
  0
TABLE
  2
STYLE
  5
3
100
AcDbSymbolTable
 70
     1
  0
STYLE
  5
10
100
AcDbSymbolTableRecord
100
AcDbTextStyleTableRecord
  2
STANDARD
 70
     0
 40
0.0
 41
1.0
 50
0.0
 71
     0
 42
0.2
  3
txt
  4
bigfont.shx
  0
STYLE
  5
26
100
AcDbSymbolTableRecord
100
AcDbTextStyleTableRecord
  2
TATEGAKI
 70
    68
 40
0.0
 41
1.0
 50
0.0
 71
     0
 42
1.0
  3
txt
  4
bigfont.shx
  0
ENDTAB
  0
TABLE
  2
LAYER
 70
    2
  0
LAYER
  2
_0-0_0
 70
   64
 62
    7
  6
CONTINUOUS
  0
LAYER
  2
ADD_LINE
 70
   64
 62
    7
  6
CONTINUOUS
  0
ENDTAB
  0
ENDSEC
  0
SECTION
  2
BLOCKS
  0
ENDSEC
  0
SECTION
  2
ENTITIES
  0
LINE
  8
_0-0_0
  6
CONTINUOUS
 62
  250
 10
90.729789009010148
 20
66.020360289897951
 11
90.729789009010148
 21
63.283677398052362
  0
LINE
  8
_0-0_0
  6
CONTINUOUS
 62
  250
 10
90.217589607154537
 20
66.431680022564365
 11
90.217589607154537
 21
63.526349364605153
  0
LINE
  8
_0-0_0
  6
CONTINUOUS
 62
  250
 10
87.550925483619352
 20
67.900338469829933
 11
87.550925483619352
 21
65.09901553281793
  0
LINE
  8
_0-0_0
  6
CONTINUOUS
 62
  250
 10
87.056125869666943
 20
69.248338042583583
 11
87.056125869666943
 21
64.85569506773038
  0
LINE
  8
_0-0_0
  6
CONTINUOUS
 62
  250
 10
113.42979358664692
 20
76.43969088682195
 11
113.42979358664692
 21
72.057690917339556
  0
LINE
  8
_0-0_0
  6
CONTINUOUS
 62
  250
 10
106.54672550193013
 20
80.501675902691176
 11
113.49445747367056
 21
76.493001281109173
  0
LINE
  8
_0-0_0
  6
CONTINUOUS
 62
  250
 10
93.582925071632133
 20
64.425683318462774
 11
93.582925071632133
 21
61.684346495952752
  0
LINE
  8
_0-0_0
  6
CONTINUOUS
 62
  250
 10
95.895461311256156
 20
64.349007903423569
 11
95.895461311256156
 21
62.773022948589585
  0
LINE
  8
_0-0_0
  6
CONTINUOUS
 62
  250
 10
94.570459594642557
 20
63.592343627300352
 11
94.570459594642557
 21
62.01969653257396
  0
LINE
  8
_0-0_0
  6
CONTINUOUS
 62
  250
 10
86.62979053488894
 20
67.91569262632396
 11
86.62979053488894
 21
66.253018676128789
  0
LINE
  8
_0-0_0
  6
CONTINUOUS
 62
  250
 10
86.62979053488894
 20
66.253018676128789
 11
87.027725448524137
 21
66.023679076519159
  0
LINE
  8
_0-0_0
  6
CONTINUOUS
 62
  250
 10
86.62979053488894
 20
67.87035494932195
 11
87.056125869666943
 21
67.62634783872636
  0
LINE
  8
_0-0_0
  6
CONTINUOUS
 62
  250
 10
86.648854484473759
 20
67.931008635845558
 11
86.899856796180558
 21
68.080354033794748
  0
LINE
  8
_0-0_0
  6
CONTINUOUS
 62
  250
 10
94.049324264442134
 20
63.907685576763583
 11
94.049324264442134
 21
62.24434405454673
  0
LINE
  8
_0-0_0
  6
CONTINUOUS
 62
  250
 10
94.011325111304956
 20
65.213017760601133
 11
94.011325111304956
 21
60.823693572368768
  0
LINE
  8
_0-0_0
  6
CONTINUOUS
 62
  250
 10
87.55479263297255
 20
64.985013305034755
 11
90.183457603370556
 21
63.473687468853171
  0
LINE
  8
_0-0_0
  6
CONTINUOUS
 62
  250
 10
90.729789009010148
 20
63.157697020855153
 11
93.538922538672949
 21
61.535687743511545
  0
LINE
  8
_0-0_0
  6
CONTINUOUS
 62
  250
 10
94.049324264442134
 20
62.24434405454673
 11
94.444922676002136
 21
62.01969653257396
  0
LINE
  8
_0-0_0
  6
CONTINUOUS
 62
  250
 10
95.324324836646952
 20
64.673028289165558
 11
95.745190849220137
 21
64.425683318462774
  0
LINE
  8
_0-0_0
  6
CONTINUOUS
 62
  250
 10
94.049324264442134
 20
63.865685759868768
 11
94.479588737403759
 21
63.617673217144358
  0
LINE
  8
_0-0_0
  6
CONTINUOUS
 62
  250
 10
87.056125869666943
 20
69.248338042583583
 11
94.011325111304956
 21
65.236344634380771
  0
LINE
  8
_0-0_0
  6
CONTINUOUS
 62
  250
 10
87.056125869666943
 20
64.836335479107163
 11
94.011325111304956
 21
60.823693572368768
  0
LINE
  8
_0-0_0
  6
CONTINUOUS
 62
  250
 10
87.056125869666943
 20
69.248338042583583
 11
106.54519008628054
 21
80.619683562603171
  0
LINE
  8
_0-0_0
  6
CONTINUOUS
 62
  250
 10
87.55479263297255
 20
64.996342955913946
 11
90.036858787452559
 21
66.43969088682195
  0
LINE
  8
_0-0_0
  6
CONTINUOUS
 62
  250
 10
90.862921943580545
 20
63.093018828716339
 11
93.377188911353755
 21
64.559006987896339
  0
LINE
  8
_0-0_0
  6
CONTINUOUS
 62
  250
 10
94.650663604652152
 20
62.035012542095558
 11
95.830859413062939
 21
62.723679839458725
  0
LINE
  8
_0-0_0
  6
CONTINUOUS
 62
  250
 10
94.650663604652152
 20
63.633675872173541
 11
95.720195045386959
 21
64.258351622905963
  0
LINE
  8
_0-0_0
  6
CONTINUOUS
 62
  250
 10
94.06812595359014
 20
63.923020659771169
 11
95.324324836646952
 21
64.661011992779152
  0
LINE
  8
_0-0_0
  6
CONTINUOUS
 62
  250
 10
94.011325111304956
 20
65.236344634380771
 11
113.42979358664692
 21
76.569009124126751
  0
LINE
  8
_0-0_0
  6
CONTINUOUS
 62
  250
 10
94.131125678931738
 20
60.823693572368768
 11
113.25045989981814
 21
72.057690917339556
  0
LINE
  8
_0-0_0
  6
CONTINUOUS
 62
  250
 10
113.94312309256733
 20
75.358357726421559
 11
113.94312309256733
 21
74.684357940044748
  0
LINE
  8
_0-0_0
  6
CONTINUOUS
 62
  250
 10
113.94312309256733
 20
74.684357940044748
 11
113.87845443717174
 21
74.642339049663974
  0
LINE
  8
_0-0_0
  6
CONTINUOUS
 62
  250
 10
113.87845443717174
 20
74.642339049663974
 11
112.70045684806016
 21
73.95300418027918
  0
LINE
  8
_0-0_0
  6
CONTINUOUS
 62
  250
 10
112.70045684806016
 20
73.95300418027918
 11
112.52512382498895
 21
73.961682616558363
  0
LINE
  8
_0-0_0
  6
CONTINUOUS
 62
  250
 10
112.52512382498895
 20
73.961682616558363
 11
112.09712432852893
 21
74.20900851377516
  0
LINE
  8
_0-0_0
  6
CONTINUOUS
 62
  250
 10
112.09712432852893
 20
74.20900851377516
 11
112.09712432852893
 21
74.247021972027198
  0
LINE
  8
_0-0_0
  6
CONTINUOUS
 62
  250
 10
112.09712432852893
 20
74.247021972027198
 11
112.09712432852893
 21
74.917016326275146
  0
LINE
  8
_0-0_0
  6
CONTINUOUS
 62
  250
 10
112.09712432852893
 20
74.917016326275146
 11
112.11646007529416
 21
74.928345977153953
  0
LINE
  8
_0-0_0
  6
CONTINUOUS
 62
  250
 10
112.11646007529416
 20
74.928345977153953
 11
113.37445663443734
 21
75.671010314312383
  0
LINE
  8
_0-0_0
  6
CONTINUOUS
 62
  250
 10
113.37445663443734
 20
75.671010314312383
 11
113.37045597068015
 21
75.681672393169578
  0
LINE
  8
_0-0_0
  6
CONTINUOUS
 62
  250
 10
113.37045597068015
 20
75.681672393169578
 11
113.79445480338254
 21
75.434346495952724
  0
LINE
  8
_0-0_0
  6
CONTINUOUS
 62
  250
 10
113.79445480338254
 20
75.434346495952724
 11
113.94312309256733
 21
75.358357726421559
  0
LINE
  8
_0-0_0
  6
CONTINUOUS
 62
  250
 10
112.52778934470334
 20
78.757691680279166
 11
112.31638359061415
 21
78.673901854839556
  0
LINE
  8
_0-0_0
  6
CONTINUOUS
 62
  250
 10
112.31638359061415
 20
78.673901854839556
 11
112.10214542380493
 21
78.594441710796758
  0
LINE
  8
_0-0_0
  6
CONTINUOUS
 62
  250
 10
112.10214542380493
 20
78.594441710796758
 11
111.88744472495253
 21
78.520989714947177
  0
LINE
  8
_0-0_0
  6
CONTINUOUS
 62
  250
 10
111.88744472495253
 20
78.520989714947177
 11
111.67464660636094
 21
78.455148040142376
  0
LINE
  8
_0-0_0
  6
CONTINUOUS
 62
  250
 10
111.67464660636094
 20
78.455148040142376
 11
111.46612571707894
 21
78.398595153179571
  0
LINE
  8
_0-0_0
  6
CONTINUOUS
 62
  250
 10
111.46612571707894
 20
78.398595153179571
 11
111.26423763266735
 21
78.353009520855153
  0
LINE
  8
_0-0_0
  6
CONTINUOUS
 62
  250
 10
111.26423763266735
 20
78.353009520855153
 11
111.07135700217415
 21
78.319974242534784
  0
LINE
  8
_0-0_0
  6
CONTINUOUS
 62
  250
 10
111.07135700217415
 20
78.319974242534784
 11
110.88985847464735
 21
78.301205931987965
  0
LINE
  8
_0-0_0
  6
CONTINUOUS
 62
  250
 10
110.88985847464735
 20
78.301205931987965
 11
110.72210239401974
 21
78.298344909038747
  0
LINE
  8
_0-0_0
  6
CONTINUOUS
 62
  250
 10
110.72210239401974
 20
78.298344909038747
 11
110.57045387259654
 21
78.31301242002516
  0
LINE
  8
_0-0_0
  6
CONTINUOUS
 62
  250
 10
114.16112350455455
 20
80.033021270122788
 11
114.09746574393455
 21
79.98642474302315
  0
LINE
  8
_0-0_0
  6
CONTINUOUS
 62
  250
 10
114.09746574393455
 20
79.98642474302315
 11
113.92469810477414
 21
79.856171904888356
  0
LINE
  8
_0-0_0
  6
CONTINUOUS
 62
  250
 10
113.92469810477414
 20
79.856171904888356
 11
113.67008613578014
 21
79.656606017437156
  0
LINE
  8
_0-0_0
  6
CONTINUOUS
 62
  250
 10
113.67008613578014
 20
79.656606017437156
 11
113.36090969077253
 21
79.402051268901971
  0
LINE
  8
_0-0_0
  6
CONTINUOUS
 62
  250
 10
113.36090969077253
 20
79.402051268901971
 11
113.02446292868774
 21
79.106774627056367
  0
LINE
  8
_0-0_0
  6
CONTINUOUS
 62
  250
 10
113.02446292868774
 20
79.106774627056367
 11
112.68800662985973
 21
78.785119353618754
  0
LINE
  8
_0-0_0
  6
CONTINUOUS
 62
  250
 10
112.68800662985973
 20
78.785119353618754
 11
112.37883018485215
 21
78.45140963682195
  0
LINE
  8
_0-0_0
  6
CONTINUOUS
 62
  250
 10
112.37883018485215
 20
78.45140963682195
 11
112.12421821585815
 21
78.119931517925551
  0
LINE
  8
_0-0_0
  6
CONTINUOUS
 62
  250
 10
112.12421821585815
 20
78.119931517925551
 11
111.95144580832655
 21
77.805047332134365
  0
LINE
  8
_0-0_0
  6
CONTINUOUS
 62
  250
 10
111.95144580832655
 20
77.805047332134365
 11
111.88779281607773
 21
77.52102404722234
  0
LINE
  8
_0-0_0
  6
CONTINUOUS
 62
  250
 10
91.757659187232548
 20
65.876355468120749
 11
91.757659187232548
 21
65.517678557720359
  0
LINE
  8
_0-0_0
  6
CONTINUOUS
 62
  250
 10
92.511057128822159
 20
65.529675780620749
 11
92.511057128822159
 21
65.17168551572837
  0
LINE
  8
_0-0_0
  6
CONTINUOUS
 62
  250
 10
90.828794708167749
 20
66.020360289897951
 11
91.656660308753743
 21
65.548348723735955
  0
LINE
  8
_0-0_0
  6
CONTINUOUS
 62
  250
 10
92.495993842994551
 20
65.065007506695139
 11
93.388656845008541
 21
64.554353057231964
  0
LINE
  8
_0-0_0
  6
CONTINUOUS
 62
  250
 10
91.83946060172255
 20
65.876355468120749
 11
92.511057128822159
 21
65.529675780620749
  0
LINE
  8
_0-0_0
  6
CONTINUOUS
 62
  250
 10
101.51785778037214
 20
63.500352202739947
 11
102.22619461051136
 21
65.578999816265565
  0
LINE
  8
_0-0_0
  6
CONTINUOUS
 62
  250
 10
96.835521926795735
 20
60.588345824565948
 11
95.183724632178951
 21
61.463685332622788
  0
LINE
  8
_0-0_0
  6
CONTINUOUS
 62
  250
 10
96.88112663260614
 20
60.687012969341566
 11
96.719655265723759
 21
62.24434405454673
  0
LINE
  8
_0-0_0
  6
CONTINUOUS
 62
  250
 10
97.101730575477347
 20
60.687012969341566
 11
101.38112472525773
 21
63.352341948833583
  0
LINE
  8
_0-0_0
  6
CONTINUOUS
 62
  250
 10
88.483723869239356
 20
67.749009429302362
 11
88.483723869239356
 21
67.394337951031162
  0
LINE
  8
_0-0_0
  6
CONTINUOUS
 62
  250
 10
89.237388839637333
 20
67.406354247417568
 11
89.237388839637333
 21
67.052350341167539
  0
LINE
  8
_0-0_0
  6
CONTINUOUS
 62
  250
 10
87.55479263297255
 20
67.900338469829933
 11
88.380855789100536
 21
67.421021758403953
  0
LINE
  8
_0-0_0
  6
CONTINUOUS
 62
  250
 10
89.222258796607747
 20
66.941685973491929
 11
90.120724906837353
 21
66.431680022564365
  0
LINE
  8
_0-0_0
  6
CONTINUOUS
 62
  250
 10
88.561591377174153
 20
67.749009429302362
 11
89.237388839637333
 21
67.406354247417568
  0
LINE
  8
_0-0_0
  6
CONTINUOUS
 62
  250
 10
112.62246059409296
 20
74.60102587827717
 11
112.62246059409296
 21
73.95300418027918
  0
LINE
  8
_0-0_0
  6
CONTINUOUS
 62
  250
 10
112.09712432852893
 20
74.875016509380771
 11
112.52512382498895
 21
74.627003966655963
  0
LINE
  8
_0-0_0
  6
CONTINUOUS
 62
  250
 10
112.52512382498895
 20
74.627003966655963
 11
112.70045684806016
 21
74.642339049663974
  0
LINE
  8
_0-0_0
  6
CONTINUOUS
 62
  250
 10
112.70045684806016
 20
74.642339049663974
 11
113.76446174613173
 21
75.263009368267177
  0
LINE
  8
_0-0_0
  6
CONTINUOUS
 62
  250
 10
113.94312309256733
 20
75.358357726421559
 11
113.94312309256733
 21
74.684357940044748
  0
LINE
  8
_0-0_0
  6
CONTINUOUS
 62
  250
 10
113.94312309256733
 20
74.684357940044748
 11
113.87845443717174
 21
74.642339049663974
  0
LINE
  8
_0-0_0
  6
CONTINUOUS
 62
  250
 10
113.87845443717174
 20
74.642339049663974
 11
112.70045684806016
 21
73.95300418027918
  0
LINE
  8
_0-0_0
  6
CONTINUOUS
 62
  250
 10
112.70045684806016
 20
73.95300418027918
 11
112.52512382498895
 21
73.961682616558363
  0
LINE
  8
_0-0_0
  6
CONTINUOUS
 62
  250
 10
112.52512382498895
 20
73.961682616558363
 11
112.09712432852893
 21
74.20900851377516
  0
LINE
  8
_0-0_0
  6
CONTINUOUS
 62
  250
 10
112.09712432852893
 20
74.20900851377516
 11
112.09712432852893
 21
74.247021972027198
  0
LINE
  8
_0-0_0
  6
CONTINUOUS
 62
  250
 10
112.09712432852893
 20
74.247021972027198
 11
112.09712432852893
 21
74.917016326275146
  0
LINE
  8
_0-0_0
  6
CONTINUOUS
 62
  250
 10
112.09712432852893
 20
74.917016326275146
 11
112.11646007529416
 21
74.928345977153953
  0
LINE
  8
_0-0_0
  6
CONTINUOUS
 62
  250
 10
112.11646007529416
 20
74.928345977153953
 11
113.37445663443734
 21
75.671010314312383
  0
LINE
  8
_0-0_0
  6
CONTINUOUS
 62
  250
 10
113.37445663443734
 20
75.671010314312383
 11
113.37045597068015
 21
75.681672393169578
  0
LINE
  8
_0-0_0
  6
CONTINUOUS
 62
  250
 10
113.37045597068015
 20
75.681672393169578
 11
113.79445480338254
 21
75.434346495952724
  0
LINE
  8
_0-0_0
  6
CONTINUOUS
 62
  250
 10
113.79445480338254
 20
75.434346495952724
 11
113.94312309256733
 21
75.358357726421559
  0
LINE
  8
_0-0_0
  6
CONTINUOUS
 62
  250
 10
177.13578628531616
 20
110.32700091489836
 11
178.16378997794294
 21
110.91700106748594
  0
LINE
  8
_0-0_0
  6
CONTINUOUS
 62
  250
 10
187.23312782279174
 20
104.59433108457594
 11
242.36513542166855
 21
136.13234072813074
  0
LINE
  8
_0-0_0
  6
CONTINUOUS
 62
  250
 10
172.17178749076055
 20
113.03434878477118
 11
176.92646430960815
 21
110.32700091489836
  0
LINE
  8
_0-0_0
  6
CONTINUOUS
 62
  250
 10
182.24445747367054
 20
107.37301379331595
 11
186.99511932364615
 21
104.66702014097234
  0
LINE
  8
_0-0_0
  6
CONTINUOUS
 62
  250
 10
188.23245452872456
 20
118.43166857847235
 11
241.40911506644414
 21
149.13301974424397
  0
LINE
  8
_0-0_0
  6
CONTINUOUS
 62
  250
 10
174.28112434378775
 20
127.38901644834557
 11
227.45777534476454
 21
158.09435397275956
  0
LINE
  8
_0-0_0
  6
CONTINUOUS
 62
  250
 10
177.46312545767935
 20
118.74102145322837
 11
183.64912437430536
 21
115.12033969053276
  0
LINE
  8
_0-0_0
  6
CONTINUOUS
 62
  250
 10
174.40779136649294
 20
124.23367053159754
 11
186.99511932364615
 21
116.88299685606036
  0
LINE
  8
_0-0_0
  6
CONTINUOUS
 62
  250
 10
214.79978965750851
 20
146.40701800474196
 11
222.28046821585812
 21
142.03300982603113
  0
LINE
  8
_0-0_0
  6
CONTINUOUS
 62
  250
 10
227.56578849784051
 20
153.13368350156793
 11
234.25114082328011
 21
149.22434359678275
  0
LINE
  8
_0-0_0
  6
CONTINUOUS
 62
  250
 10
215.50114082328011
 20
146.22034579404837
 11
227.47644828787972
 21
153.13368350156793
  0
LINE
  8
_0-0_0
  6
CONTINUOUS
 62
  250
 10
227.70113395682492
 20
153.55234652647036
 11
234.83446525565296
 21
149.38768893369715
  0
LINE
  8
_0-0_0
  6
CONTINUOUS
 62
  250
 10
222.43111061087771
 20
142.17434435972237
 11
234.78912757865135
 21
149.30769473203677
  0
LINE
  8
_0-0_0
  6
CONTINUOUS
 62
  250
 10
215.0437967681041
 20
146.56366854795476
 11
227.40379737845572
 21
153.69699984678275
  0
LINE
  8
_0-0_0
  6
CONTINUOUS
 62
  250
 10
205.16912864676655
 20
138.59968691953677
 11
207.89446281424696
 21
136.60034686216397
  0
LINE
  8
_0-0_0
  6
CONTINUOUS
 62
  250
 10
187.17111991873892
 20
105.07767230161676
 11
188.04978775016014
 21
118.79702120908753
  0
LINE
  8
_0-0_0
  6
CONTINUOUS
 62
  250
 10
186.50779174796256
 20
105.90767413267156
 11
187.13646339408095
 21
118.57302218564998
  0
LINE
  8
_0-0_0
  6
CONTINUOUS
 62
  250
 10
177.13578628531616
 20
110.38435488828674
 11
177.1317903899305
 21
111.24102145322834
  0
LINE
  8
_0-0_0
  6
CONTINUOUS
 62
  250
 10
182.24045204154174
 20
107.53700762876518
 11
182.23913597098493
 21
108.39300662168517
  0
LINE
  8
_0-0_0
  6
CONTINUOUS
 62
  250
 10
173.32178520194213
 20
113.31234484800353
 11
173.32512306204976
 21
125.53167849668517
  0
LINE
  8
_0-0_0
  6
CONTINUOUS
 62
  250
 10
174.28112434378775
 20
113.79169970640194
 11
174.28445266715215
 21
125.94702273496632
  0
LINE
  8
_0-0_0
  6
CONTINUOUS
 62
  250
 10
243.24446128836814
 20
137.51835375913637
 11
243.24446128836814
 21
148.65301638731034
  0
LINE
  8
_0-0_0
  6
CONTINUOUS
 62
  250
 10
174.40779136649294
 20
125.94702273496632
 11
174.40735267630734
 21
125.95755129941961
  0
LINE
  8
_0-0_0
  6
CONTINUOUS
 62
  250
 10
174.40735267630734
 20
125.95755129941961
 11
174.40948890677615
 21
125.98761111387276
  0
LINE
  8
_0-0_0
  6
CONTINUOUS
 62
  250
 10
174.40948890677615
 20
125.98761111387276
 11
174.41937850943734
 21
126.03464633115796
  0
LINE
  8
_0-0_0
  6
CONTINUOUS
 62
  250
 10
174.41937850943734
 20
126.03464633115796
 11
174.44219993582894
 21
126.09629183897037
  0
LINE
  8
_0-0_0
  6
CONTINUOUS
 62
  250
 10
174.44219993582894
 20
126.09629183897037
 11
174.48312210074576
 21
126.17010623106034
  0
LINE
  8
_0-0_0
  6
CONTINUOUS
 62
  250
 10
174.48312210074576
 20
126.17010623106034
 11
174.54732345572614
 21
126.25357180723196
  0
LINE
  8
_0-0_0
  6
CONTINUOUS
 62
  250
 10
174.54732345572614
 20
126.25357180723196
 11
174.63998245230854
 21
126.34434252866755
  0
LINE
  8
_0-0_0
  6
CONTINUOUS
 62
  250
 10
174.63998245230854
 20
126.34434252866755
 11
174.76627754203014
 21
126.43988162168515
  0
LINE
  8
_0-0_0
  6
CONTINUOUS
 62
  250
 10
174.76627754203014
 20
126.43988162168515
 11
174.93137763968613
 21
126.53782397398038
  0
LINE
  8
_0-0_0
  6
CONTINUOUS
 62
  250
 10
174.93137763968613
 20
126.53782397398038
 11
175.14046119681532
 21
126.63567095884356
  0
LINE
  8
_0-0_0
  6
CONTINUOUS
 62
  250
 10
174.28445266715215
 20
113.88700991758355
 11
174.28363250724013
 21
113.86395007261316
  0
LINE
  8
_0-0_0
  6
CONTINUOUS
 62
  250
 10
174.28363250724013
 20
113.86395007261316
 11
174.28388999930533
 21
113.79995852598195
  0
LINE
  8
_0-0_0
  6
CONTINUOUS
 62
  250
 10
174.28388999930533
 20
113.79995852598195
 11
174.28929733267933
 21
113.70272189268152
  0
LINE
  8
_0-0_0
  6
CONTINUOUS
 62
  250
 10
174.28929733267933
 20
113.70272189268152
 11
174.30393623343613
 21
113.58000308164634
  0
LINE
  8
_0-0_0
  6
CONTINUOUS
 62
  250
 10
174.30393623343613
 20
113.58000308164634
 11
174.33187889090692
 21
113.43950778135319
  0
LINE
  8
_0-0_0
  6
CONTINUOUS
 62
  250
 10
174.33187889090692
 20
113.43950778135319
 11
174.37719749442255
 21
113.28897982725158
  0
LINE
  8
_0-0_0
  6
CONTINUOUS
 62
  250
 10
174.37719749442255
 20
113.28897982725158
 11
174.44397377005734
 21
113.13614398130437
  0
LINE
  8
_0-0_0
  6
CONTINUOUS
 62
  250
 10
174.44397377005734
 20
113.13614398130437
 11
174.53627990714253
 21
112.98870593198797
  0
LINE
  8
_0-0_0
  6
CONTINUOUS
 62
  250
 10
174.53627990714253
 20
112.98870593198797
 11
174.65819763175173
 21
112.85442858823799
  0
LINE
  8
_0-0_0
  6
CONTINUOUS
 62
  250
 10
174.65819763175173
 20
112.85442858823799
 11
174.81378959647333
 21
112.74101763853113
  0
LINE
  8
_0-0_0
  6
CONTINUOUS
 62
  250
 10
173.32178520194213
 20
125.58500796445875
 11
173.32125114432495
 21
125.61060458311115
  0
LINE
  8
_0-0_0
  6
CONTINUOUS
 62
  250
 10
173.32125114432495
 20
125.61060458311115
 11
173.32371162406133
 21
125.68340808042552
  0
LINE
  8
_0-0_0
  6
CONTINUOUS
 62
  250
 10
173.32371162406133
 20
125.68340808042552
 11
173.33519386283095
 21
125.79739123472235
  0
LINE
  8
_0-0_0
  6
CONTINUOUS
 62
  250
 10
173.33519386283095
 20
125.79739123472235
 11
173.36179183951532
 21
125.94656497129473
  0
LINE
  8
_0-0_0
  6
CONTINUOUS
 62
  250
 10
173.36179183951532
 20
125.94656497129473
 11
173.40954231253775
 21
126.12494021543515
  0
LINE
  8
_0-0_0
  6
CONTINUOUS
 62
  250
 10
173.40954231253775
 20
126.12494021543515
 11
173.48450111380734
 21
126.32647067197834
  0
LINE
  8
_0-0_0
  6
CONTINUOUS
 62
  250
 10
173.48450111380734
 20
126.32647067197834
 11
173.59276222220575
 21
126.54516726621637
  0
LINE
  8
_0-0_0
  6
CONTINUOUS
 62
  250
 10
173.59276222220575
 20
126.54516726621637
 11
173.74035285941292
 21
126.77505999692954
  0
LINE
  8
_0-0_0
  6
CONTINUOUS
 62
  250
 10
173.74035285941292
 20
126.77505999692954
 11
173.93333839408092
 21
127.01010256895076
  0
LINE
  8
_0-0_0
  6
CONTINUOUS
 62
  250
 10
173.93333839408092
 20
127.01010256895076
 11
174.17778419486214
 21
127.24432498106034
  0
LINE
  8
_0-0_0
  6
CONTINUOUS
 62
  250
 10
242.36513542166855
 20
136.14433795103116
 11
242.38758491507693
 21
136.15965396055236
  0
LINE
  8
_0-0_0
  6
CONTINUOUS
 62
  250
 10
242.38758491507693
 20
136.15965396055236
 11
242.44852470389532
 21
136.20419055112879
  0
LINE
  8
_0-0_0
  6
CONTINUOUS
 62
  250
 10
242.44852470389532
 20
136.20419055112879
 11
242.53824638358293
 21
136.27596408018118
  0
LINE
  8
_0-0_0
  6
CONTINUOUS
 62
  250
 10
242.53824638358293
 20
136.27596408018118
 11
242.64706062308494
 21
136.37289553770077
  0
LINE
  8
_0-0_0
  6
CONTINUOUS
 62
  250
 10
242.64706062308494
 20
136.37289553770077
 11
242.76529716483293
 21
136.49300128110914
  0
LINE
  8
_0-0_0
  6
CONTINUOUS
 62
  250
 10
242.76529716483293
 20
136.49300128110914
 11
242.88322853079973
 21
136.63424044736877
  0
LINE
  8
_0-0_0
  6
CONTINUOUS
 62
  250
 10
242.88322853079973
 20
136.63424044736877
 11
242.99122261038934
 21
136.79453402647036
  0
LINE
  8
_0-0_0
  6
CONTINUOUS
 62
  250
 10
242.99122261038934
 20
136.79453402647036
 11
243.07953285208853
 21
136.97191744932195
  0
LINE
  8
_0-0_0
  6
CONTINUOUS
 62
  250
 10
243.07953285208853
 20
136.97191744932195
 11
243.13850807181535
 21
137.16429263242756
  0
LINE
  8
_0-0_0
  6
CONTINUOUS
 62
  250
 10
243.13850807181535
 20
137.16429263242756
 11
243.15845893851454
 21
137.36967593320873
  0
LINE
  8
_0-0_0
  6
CONTINUOUS
 62
  250
 10
243.18378852835812
 20
148.65301638731034
 11
243.17886756888535
 21
148.67819338926358
  0
LINE
  8
_0-0_0
  6
CONTINUOUS
 62
  250
 10
243.17886756888535
 20
148.67819338926358
 11
243.16172050467654
 21
148.74899417051358
  0
LINE
  8
_0-0_0
  6
CONTINUOUS
 62
  250
 10
243.16172050467654
 20
148.74899417051358
 11
243.12893318167852
 21
148.85824710020074
  0
LINE
  8
_0-0_0
  6
CONTINUOUS
 62
  250
 10
243.12893318167852
 20
148.85824710020074
 11
243.07699607840692
 21
148.99883776792552
  0
LINE
  8
_0-0_0
  6
CONTINUOUS
 62
  250
 10
243.07699607840692
 20
148.99883776792552
 11
243.00245689383655
 21
149.16357546934154
  0
LINE
  8
_0-0_0
  6
CONTINUOUS
 62
  250
 10
243.00245689383655
 20
149.16357546934154
 11
242.90184425345572
 21
149.34536486753478
  0
LINE
  8
_0-0_0
  6
CONTINUOUS
 62
  250
 10
242.90184425345572
 20
149.34536486753478
 11
242.77166770926652
 21
149.53699618467357
  0
LINE
  8
_0-0_0
  6
CONTINUOUS
 62
  250
 10
242.77166770926652
 20
149.53699618467357
 11
242.60847496024294
 21
149.73135501035716
  0
LINE
  8
_0-0_0
  6
CONTINUOUS
 62
  250
 10
242.60847496024294
 20
149.73135501035716
 11
242.40879463187372
 21
149.92130786069873
  0
LINE
  8
_0-0_0
  6
CONTINUOUS
 62
  250
 10
242.40879463187372
 20
149.92130786069873
 11
242.16911720267453
 21
150.09968310483958
  0
LINE
  8
_0-0_0
  6
CONTINUOUS
 62
  250
 10
183.64912437430536
 20
118.89633685239836
 11
183.64912437430536
 21
115.12033969053276
  0
LINE
  8
_0-0_0
  6
CONTINUOUS
 62
  250
 10
178.17311691275773
 20
121.60301715024954
 11
178.17311691275773
 21
119.31902438291559
  0
LINE
  8
_0-0_0
  6
CONTINUOUS
 62
  250
 10
177.46312545767935
 20
122.44768649229077
 11
177.46312545767935
 21
118.79702120908753
  0
LINE
  8
_0-0_0
  6
CONTINUOUS
 62
  250
 10
193.20845054618053
 20
132.09702044614795
 11
192.56111549369012
 21
129.51700717100158
  0
LINE
  8
_0-0_0
  6
CONTINUOUS
 62
  250
 10
192.56111549369012
 20
129.51700717100158
 11
196.10512184134657
 21
130.22501498350155
  0
LINE
  8
_0-0_0
  6
CONTINUOUS
 62
  250
 10
193.20845054618053
 20
132.09702044614795
 11
196.10512184134657
 21
130.36634951719316
  0
LINE
  8
_0-0_0
  6
CONTINUOUS
 62
  250
 10
208.78113197318254
 20
139.10568743833556
 11
207.89446281424696
 21
136.60034686216397
  0
LINE
  8
_0-0_0
  6
CONTINUOUS
 62
  250
 10
205.18446372977417
 20
138.73634844907798
 11
208.78113197318254
 21
139.10568743833556
  0
LINE
  8
_0-0_0
  6
CONTINUOUS
 62
  250
 10
199.43580078116571
 20
132.27301150449753
 11
199.43580078116571
 21
133.17833453306238
  0
LINE
  8
_0-0_0
  6
CONTINUOUS
 62
  250
 10
195.56445526114615
 20
132.27301150449753
 11
195.56445526114615
 21
133.17833453306238
  0
LINE
  8
_0-0_0
  6
CONTINUOUS
 62
  250
 10
199.43580078116571
 20
132.37568408140197
 11
199.41043304434933
 21
132.20665484556238
  0
LINE
  8
_0-0_0
  6
CONTINUOUS
 62
  250
 10
199.41043304434933
 20
132.20665484556238
 11
199.33700965872933
 21
132.04624682554277
  0
LINE
  8
_0-0_0
  6
CONTINUOUS
 62
  250
 10
199.33700965872933
 20
132.04624682554277
 11
199.21952651969136
 21
131.89659625181235
  0
LINE
  8
_0-0_0
  6
CONTINUOUS
 62
  250
 10
199.21952651969136
 20
131.89659625181235
 11
199.06204627982291
 21
131.75987750181235
  0
LINE
  8
_0-0_0
  6
CONTINUOUS
 62
  250
 10
199.06204627982291
 20
131.75987750181235
 11
198.86854576102411
 21
131.63826495298395
  0
LINE
  8
_0-0_0
  6
CONTINUOUS
 62
  250
 10
198.86854576102411
 20
131.63826495298395
 11
198.64306854239615
 21
131.53389483579676
  0
LINE
  8
_0-0_0
  6
CONTINUOUS
 62
  250
 10
198.64306854239615
 20
131.53389483579676
 11
198.38963912955452
 21
131.44897967466397
  0
LINE
  8
_0-0_0
  6
CONTINUOUS
 62
  250
 10
198.38963912955452
 20
131.44897967466397
 11
198.11226295462777
 21
131.38561755308152
  0
LINE
  8
_0-0_0
  6
CONTINUOUS
 62
  250
 10
198.11226295462777
 20
131.38561755308152
 11
197.81499313346055
 21
131.34604006895074
  0
LINE
  8
_0-0_0
  6
CONTINUOUS
 62
  250
 10
197.81499313346055
 20
131.34604006895074
 11
197.50179695120971
 21
131.33234530576718
  0
LINE
  8
_0-0_0
  6
CONTINUOUS
 62
  250
 10
197.50179695120971
 20
131.33234530576718
 11
197.18753265372456
 21
131.34604006895074
  0
LINE
  8
_0-0_0
  6
CONTINUOUS
 62
  250
 10
197.18753265372456
 20
131.34604006895074
 11
196.88942359915893
 21
131.38561755308152
  0
LINE
  8
_0-0_0
  6
CONTINUOUS
 62
  250
 10
196.88942359915893
 20
131.38561755308152
 11
196.61146568289934
 21
131.44897967466397
  0
LINE
  8
_0-0_0
  6
CONTINUOUS
 62
  250
 10
196.61146568289934
 20
131.44897967466397
 11
196.35760711661493
 21
131.53389483579676
  0
LINE
  8
_0-0_0
  6
CONTINUOUS
 62
  250
 10
196.35760711661493
 20
131.53389483579676
 11
196.13186286917855
 21
131.63826495298395
  0
LINE
  8
_0-0_0
  6
CONTINUOUS
 62
  250
 10
196.13186286917855
 20
131.63826495298395
 11
195.93822883597534
 21
131.75987750181235
  0
LINE
  8
_0-0_0
  6
CONTINUOUS
 62
  250
 10
195.93822883597534
 20
131.75987750181235
 11
195.78069137564813
 21
131.89659625181235
  0
LINE
  8
_0-0_0
  6
CONTINUOUS
 62
  250
 10
195.78069137564813
 20
131.89659625181235
 11
195.66321777335335
 21
132.04624682554277
  0
LINE
  8
_0-0_0
  6
CONTINUOUS
 62
  250
 10
195.66321777335335
 20
132.04624682554277
 11
195.58982299796256
 21
132.20665484556238
  0
LINE
  8
_0-0_0
  6
CONTINUOUS
 62
  250
 10
195.58982299796256
 20
132.20665484556238
 11
195.56445526114615
 21
132.37568408140197
  0
LINE
  8
_0-0_0
  6
CONTINUOUS
 62
  250
 10
203.17778038016493
 20
138.12767535337477
 11
203.35319923392456
 21
138.20881396421473
  0
LINE
  8
_0-0_0
  6
CONTINUOUS
 62
  250
 10
203.35319923392456
 20
138.20881396421473
 11
203.54059623709858
 21
138.28314334043517
  0
LINE
  8
_0-0_0
  6
CONTINUOUS
 62
  250
 10
203.54059623709858
 20
138.28314334043517
 11
203.73917030326055
 21
138.35024386533755
  0
LINE
  8
_0-0_0
  6
CONTINUOUS
 62
  250
 10
203.73917030326055
 20
138.35024386533755
 11
203.94813941947135
 21
138.40973406919511
  0
LINE
  8
_0-0_0
  6
CONTINUOUS
 62
  250
 10
203.94813941947135
 20
138.40973406919511
 11
204.16677879325093
 21
138.46117526182195
  0
LINE
  8
_0-0_0
  6
CONTINUOUS
 62
  250
 10
204.16677879325093
 20
138.46117526182195
 11
204.39428733817252
 21
138.50418597349193
  0
LINE
  8
_0-0_0
  6
CONTINUOUS
 62
  250
 10
204.39428733817252
 20
138.50418597349193
 11
204.62992118827012
 21
138.53836566099196
  0
LINE
  8
_0-0_0
  6
CONTINUOUS
 62
  250
 10
204.62992118827012
 20
138.53836566099196
 11
204.87289833060413
 21
138.56327563413635
  0
LINE
  8
_0-0_0
  6
CONTINUOUS
 62
  250
 10
204.87289833060413
 20
138.56327563413635
 11
205.12243675223496
 21
138.57851534971275
  0
LINE
  8
_0-0_0
  6
CONTINUOUS
 62
  250
 10
205.12243675223496
 20
138.57851534971275
 11
205.37779258719613
 21
138.58368426450755
  0
LINE
  8
_0-0_0
  6
CONTINUOUS
 62
  250
 10
205.37779258719613
 20
138.58368426450755
 11
205.88322090140494
 21
138.56321841367756
  0
LINE
  8
_0-0_0
  6
CONTINUOUS
 62
  250
 10
205.88322090140494
 20
138.56321841367756
 11
206.36249946585815
 21
138.50395709165596
  0
LINE
  8
_0-0_0
  6
CONTINUOUS
 62
  250
 10
206.36249946585815
 20
138.50395709165596
 11
206.80923866263535
 21
138.40916186460515
  0
LINE
  8
_0-0_0
  6
CONTINUOUS
 62
  250
 10
206.80923866263535
 20
138.40916186460515
 11
207.21704887381733
 21
138.28197985776916
  0
LINE
  8
_0-0_0
  6
CONTINUOUS
 62
  250
 10
207.21704887381733
 20
138.28197985776916
 11
207.57961677542852
 21
138.12567263731034
  0
LINE
  8
_0-0_0
  6
CONTINUOUS
 62
  250
 10
207.57961677542852
 20
138.12567263731034
 11
207.89053367606331
 21
137.94346362241757
  0
LINE
  8
_0-0_0
  6
CONTINUOUS
 62
  250
 10
207.89053367606331
 20
137.94346362241757
 11
208.14344810477414
 21
137.73853808530833
  0
LINE
  8
_0-0_0
  6
CONTINUOUS
 62
  250
 10
208.14344810477414
 20
137.73853808530833
 11
208.33197044364132
 21
137.51410037168517
  0
LINE
  8
_0-0_0
  6
CONTINUOUS
 62
  250
 10
208.33197044364132
 20
137.51410037168517
 11
208.44976829520374
 21
137.27343112119718
  0
LINE
  8
_0-0_0
  6
CONTINUOUS
 62
  250
 10
208.44976829520374
 20
137.27343112119718
 11
208.49045204154172
 21
137.01969653257393
  0
LINE
  8
_0-0_0
  6
CONTINUOUS
 62
  250
 10
208.49045204154172
 20
137.01969653257393
 11
208.47866462699093
 21
136.88295870908752
  0
LINE
  8
_0-0_0
  6
CONTINUOUS
 62
  250
 10
208.47866462699093
 20
136.88295870908752
 11
208.44395088187372
 21
136.74946337827717
  0
LINE
  8
_0-0_0
  6
CONTINUOUS
 62
  250
 10
208.44395088187372
 20
136.74946337827717
 11
208.38726448050653
 21
136.61974459775956
  0
LINE
  8
_0-0_0
  6
CONTINUOUS
 62
  250
 10
208.38726448050653
 20
136.61974459775956
 11
208.30955909720572
 21
136.49424105772036
  0
LINE
  8
_0-0_0
  6
CONTINUOUS
 62
  250
 10
208.30955909720572
 20
136.49424105772036
 11
208.21178840628772
 21
136.37350588926358
  0
LINE
  8
_0-0_0
  6
CONTINUOUS
 62
  250
 10
208.21178840628772
 20
136.37350588926358
 11
208.09488700858293
 21
136.25801592954673
  0
LINE
  8
_0-0_0
  6
CONTINUOUS
 62
  250
 10
208.09488700858293
 20
136.25801592954673
 11
207.95980857840692
 21
136.14826708921433
  0
LINE
  8
_0-0_0
  6
CONTINUOUS
 62
  250
 10
207.95980857840692
 20
136.14826708921433
 11
207.80752586356331
 21
136.04473620542555
  0
LINE
  8
_0-0_0
  6
CONTINUOUS
 62
  250
 10
207.80752586356331
 20
136.04473620542555
 11
207.63897346488176
 21
135.94793826231037
  0
LINE
  8
_0-0_0
  6
CONTINUOUS
 62
  250
 10
207.63897346488176
 20
135.94793826231037
 11
207.45512413016493
 21
135.85836917051358
  0
LINE
  8
_0-0_0
  6
CONTINUOUS
 62
  250
 10
198.04644989005254
 20
130.45767336973196
 11
197.89246009818254
 21
130.39862185606034
  0
LINE
  8
_0-0_0
  6
CONTINUOUS
 62
  250
 10
197.89246009818254
 20
130.39862185606034
 11
197.73115562430533
 21
130.34477740415596
  0
LINE
  8
_0-0_0
  6
CONTINUOUS
 62
  250
 10
197.73115562430533
 20
130.34477740415596
 11
197.56303237906613
 21
130.296426116314
  0
LINE
  8
_0-0_0
  6
CONTINUOUS
 62
  250
 10
197.56303237906613
 20
130.296426116314
 11
197.38857673636616
 21
130.25375872739838
  0
LINE
  8
_0-0_0
  6
CONTINUOUS
 62
  250
 10
197.38857673636616
 20
130.25375872739838
 11
197.20819877616094
 21
130.21702319273038
  0
LINE
  8
_0-0_0
  6
CONTINUOUS
 62
  250
 10
197.20819877616094
 20
130.21702319273038
 11
197.02241348258173
 21
130.18642932065993
  0
LINE
  8
_0-0_0
  6
CONTINUOUS
 62
  250
 10
197.02241348258173
 20
130.18642932065993
 11
196.83169769278695
 21
130.16224413999595
  0
LINE
  8
_0-0_0
  6
CONTINUOUS
 62
  250
 10
196.83169769278695
 20
130.16224413999595
 11
196.63647102347534
 21
130.14467745908755
  0
LINE
  8
_0-0_0
  6
CONTINUOUS
 62
  250
 10
196.63647102347534
 20
130.14467745908755
 11
196.43723892203494
 21
130.13397723325758
  0
LINE
  8
_0-0_0
  6
CONTINUOUS
 62
  250
 10
196.43723892203494
 20
130.13397723325758
 11
196.23444961539414
 21
130.13035327085515
  0
LINE
  8
_0-0_0
  6
CONTINUOUS
 62
  250
 10
196.23444961539414
 20
130.13035327085515
 11
195.74983047476934
 21
130.15127688535716
  0
LINE
  8
_0-0_0
  6
CONTINUOUS
 62
  250
 10
195.74983047476934
 20
130.15127688535716
 11
195.29010223380254
 21
130.21189242490797
  0
LINE
  8
_0-0_0
  6
CONTINUOUS
 62
  250
 10
195.29010223380254
 20
130.21189242490797
 11
194.86139701834853
 21
130.30890017637279
  0
LINE
  8
_0-0_0
  6
CONTINUOUS
 62
  250
 10
194.86139701834853
 20
130.30890017637279
 11
194.46987556449093
 21
130.43903857358958
  0
LINE
  8
_0-0_0
  6
CONTINUOUS
 62
  250
 10
194.46987556449093
 20
130.43903857358958
 11
194.12170814505734
 21
130.59900790342357
  0
LINE
  8
_0-0_0
  6
CONTINUOUS
 62
  250
 10
194.12170814505734
 20
130.59900790342357
 11
193.82303642264532
 21
130.78554659971277
  0
LINE
  8
_0-0_0
  6
CONTINUOUS
 62
  250
 10
193.82303642264532
 20
130.78554659971277
 11
193.58002113333853
 21
130.99535494932195
  0
LINE
  8
_0-0_0
  6
CONTINUOUS
 62
  250
 10
193.58002113333853
 20
130.99535494932195
 11
193.39881347647813
 21
131.22517138608956
  0
LINE
  8
_0-0_0
  6
CONTINUOUS
 62
  250
 10
193.39881347647813
 20
131.22517138608956
 11
193.28557418814813
 21
131.47169619688077
  0
LINE
  8
_0-0_0
  6
CONTINUOUS
 62
  250
 10
193.28557418814813
 20
131.47169619688077
 11
193.24646400443254
 21
131.73166781553277
  0
LINE
  8
_0-0_0
  6
CONTINUOUS
 62
  250
 10
193.24646400443254
 20
131.73166781553277
 11
193.25266288748895
 21
131.83722048887276
  0
LINE
  8
_0-0_0
  6
CONTINUOUS
 62
  250
 10
193.25266288748895
 20
131.83722048887276
 11
193.27103065482291
 21
131.94092303403878
  0
LINE
  8
_0-0_0
  6
CONTINUOUS
 62
  250
 10
193.27103065482291
 20
131.94092303403878
 11
193.30122398368053
 21
132.04258471616754
  0
LINE
  8
_0-0_0
  6
CONTINUOUS
 62
  250
 10
193.30122398368053
 20
132.04258471616754
 11
193.34286140433494
 21
132.14197665342357
  0
LINE
  8
_0-0_0
  6
CONTINUOUS
 62
  250
 10
193.34286140433494
 20
132.14197665342357
 11
193.39561866751814
 21
132.23892718442954
  0
LINE
  8
_0-0_0
  6
CONTINUOUS
 62
  250
 10
193.39561866751814
 20
132.23892718442954
 11
193.45915245047735
 21
132.33320742734918
  0
LINE
  8
_0-0_0
  6
CONTINUOUS
 62
  250
 10
193.45915245047735
 20
132.33320742734918
 11
193.53307174674214
 21
132.42464572080635
  0
LINE
  8
_0-0_0
  6
CONTINUOUS
 62
  250
 10
193.53307174674214
 20
132.42464572080635
 11
193.61706184378775
 21
132.51299410947834
  0
LINE
  8
_0-0_0
  6
CONTINUOUS
 62
  250
 10
193.61706184378775
 20
132.51299410947834
 11
193.71075080863176
 21
132.59808093198799
  0
LINE
  8
_0-0_0
  6
CONTINUOUS
 62
  250
 10
193.71075080863176
 20
132.59808093198799
 11
193.81378578177615
 21
132.67967730649954
  0
LINE
  8
_0-0_0
  6
CONTINUOUS
 62
  250
 10
193.80379127494012
 20
132.74834185728116
 11
202.98044609061415
 21
137.99101382383358
  0
LINE
  8
_0-0_0
  6
CONTINUOUS
 62
  250
 10
198.04644989005254
 20
130.32034426816958
 11
207.29313301078011
 21
135.60768633970275
  0
LINE
  8
_0-0_0
  6
CONTINUOUS
 62
  250
 10
199.43580078116571
 20
133.31167727598199
 11
199.41043304434933
 21
133.14293414243713
  0
LINE
  8
_0-0_0
  6
CONTINUOUS
 62
  250
 10
199.41043304434933
 20
133.14293414243713
 11
199.33700965872933
 21
132.98298388608958
  0
LINE
  8
_0-0_0
  6
CONTINUOUS
 62
  250
 10
199.33700965872933
 20
132.98298388608958
 11
199.21952651969136
 21
132.83390551694876
  0
LINE
  8
_0-0_0
  6
CONTINUOUS
 62
  250
 10
199.21952651969136
 20
132.83390551694876
 11
199.06204627982291
 21
132.69781619199796
  0
LINE
  8
_0-0_0
  6
CONTINUOUS
 62
  250
 10
199.06204627982291
 20
132.69781619199796
 11
198.86854576102411
 21
132.57685214170476
  0
LINE
  8
_0-0_0
  6
CONTINUOUS
 62
  250
 10
198.86854576102411
 20
132.57685214170476
 11
198.64306854239615
 21
132.47313052305236
  0
LINE
  8
_0-0_0
  6
CONTINUOUS
 62
  250
 10
198.64306854239615
 20
132.47313052305236
 11
198.38963912955452
 21
132.38876849302315
  0
LINE
  8
_0-0_0
  6
CONTINUOUS
 62
  250
 10
198.38963912955452
 20
132.38876849302315
 11
198.11226295462777
 21
132.32586413511314
  0
LINE
  8
_0-0_0
  6
CONTINUOUS
 62
  250
 10
198.11226295462777
 20
132.32586413511314
 11
197.81499313346055
 21
132.28659182676358
  0
LINE
  8
_0-0_0
  6
CONTINUOUS
 62
  250
 10
197.81499313346055
 20
132.28659182676358
 11
197.50179695120971
 21
132.27301150449753
  0
LINE
  8
_0-0_0
  6
CONTINUOUS
 62
  250
 10
197.50179695120971
 20
132.27301150449753
 11
197.18753265372456
 21
132.28659182676358
  0
LINE
  8
_0-0_0
  6
CONTINUOUS
 62
  250
 10
197.18753265372456
 20
132.28659182676358
 11
196.88942359915893
 21
132.32586413511314
  0
LINE
  8
_0-0_0
  6
CONTINUOUS
 62
  250
 10
196.88942359915893
 20
132.32586413511314
 11
196.61146568289934
 21
132.38876849302315
  0
LINE
  8
_0-0_0
  6
CONTINUOUS
 62
  250
 10
196.61146568289934
 20
132.38876849302315
 11
196.35760711661493
 21
132.47313052305236
  0
LINE
  8
_0-0_0
  6
CONTINUOUS
 62
  250
 10
196.35760711661493
 20
132.47313052305236
 11
196.13186286917855
 21
132.57685214170476
  0
LINE
  8
_0-0_0
  6
CONTINUOUS
 62
  250
 10
196.13186286917855
 20
132.57685214170476
 11
195.93822883597534
 21
132.69781619199796
  0
LINE
  8
_0-0_0
  6
CONTINUOUS
 62
  250
 10
195.93822883597534
 20
132.69781619199796
 11
195.78069137564813
 21
132.83390551694876
  0
LINE
  8
_0-0_0
  6
CONTINUOUS
 62
  250
 10
195.78069137564813
 20
132.83390551694876
 11
195.66321777335335
 21
132.98298388608958
  0
LINE
  8
_0-0_0
  6
CONTINUOUS
 62
  250
 10
195.66321777335335
 20
132.98298388608958
 11
195.58982299796256
 21
133.14293414243713
  0
LINE
  8
_0-0_0
  6
CONTINUOUS
 62
  250
 10
195.58982299796256
 20
133.14293414243713
 11
195.56445526114615
 21
133.31167727598199
  0
LINE
  8
_0-0_0
  6
CONTINUOUS
 62
  250
 10
195.56445526114615
 20
133.31167727598199
 11
195.58982299796256
 21
133.48166018613836
  0
LINE
  8
_0-0_0
  6
CONTINUOUS
 62
  250
 10
195.58982299796256
 20
133.48166018613836
 11
195.66321777335335
 21
133.64264041074796
  0
LINE
  8
_0-0_0
  6
CONTINUOUS
 62
  250
 10
195.66321777335335
 20
133.64264041074796
 11
195.78069137564813
 21
133.79251986631434
  0
LINE
  8
_0-0_0
  6
CONTINUOUS
 62
  250
 10
195.78069137564813
 20
133.79251986631434
 11
195.93822883597534
 21
133.92920046934157
  0
LINE
  8
_0-0_0
  6
CONTINUOUS
 62
  250
 10
195.93822883597534
 20
133.92920046934157
 11
196.13186286917855
 21
134.05060320981997
  0
LINE
  8
_0-0_0
  6
CONTINUOUS
 62
  250
 10
196.13186286917855
 20
134.05060320981997
 11
196.35760711661493
 21
134.15461093076715
  0
LINE
  8
_0-0_0
  6
CONTINUOUS
 62
  250
 10
196.35760711661493
 20
134.15461093076715
 11
196.61146568289934
 21
134.23914462217354
  0
LINE
  8
_0-0_0
  6
CONTINUOUS
 62
  250
 10
196.61146568289934
 20
134.23914462217354
 11
196.88942359915893
 21
134.30212527402915
  0
LINE
  8
_0-0_0
  6
CONTINUOUS
 62
  250
 10
196.88942359915893
 20
134.30212527402915
 11
197.18753265372456
 21
134.34145480283757
  0
LINE
  8
_0-0_0
  6
CONTINUOUS
 62
  250
 10
197.18753265372456
 20
134.34145480283757
 11
197.50179695120971
 21
134.35501605161676
  0
LINE
  8
_0-0_0
  6
CONTINUOUS
 62
  250
 10
197.50179695120971
 20
134.35501605161676
 11
197.81499313346055
 21
134.34145480283757
  0
LINE
  8
_0-0_0
  6
CONTINUOUS
 62
  250
 10
197.81499313346055
 20
134.34145480283757
 11
198.11226295462777
 21
134.30212527402915
  0
LINE
  8
_0-0_0
  6
CONTINUOUS
 62
  250
 10
198.11226295462777
 20
134.30212527402915
 11
198.38963912955452
 21
134.23914462217354
  0
LINE
  8
_0-0_0
  6
CONTINUOUS
 62
  250
 10
198.38963912955452
 20
134.23914462217354
 11
198.64306854239615
 21
134.15461093076715
  0
LINE
  8
_0-0_0
  6
CONTINUOUS
 62
  250
 10
198.64306854239615
 20
134.15461093076715
 11
198.86854576102411
 21
134.05060320981997
  0
LINE
  8
_0-0_0
  6
CONTINUOUS
 62
  250
 10
198.86854576102411
 20
134.05060320981997
 11
199.06204627982291
 21
133.92920046934157
  0
LINE
  8
_0-0_0
  6
CONTINUOUS
 62
  250
 10
199.06204627982291
 20
133.92920046934157
 11
199.21952651969136
 21
133.79251986631434
  0
LINE
  8
_0-0_0
  6
CONTINUOUS
 62
  250
 10
199.21952651969136
 20
133.79251986631434
 11
199.33700965872933
 21
133.64264041074796
  0
LINE
  8
_0-0_0
  6
CONTINUOUS
 62
  250
 10
199.33700965872933
 20
133.64264041074796
 11
199.41043304434933
 21
133.48166018613836
  0
LINE
  8
_0-0_0
  6
CONTINUOUS
 62
  250
 10
199.41043304434933
 20
133.48166018613836
 11
199.43580078116571
 21
133.31167727598199
  0
LINE
  8
_0-0_0
  6
CONTINUOUS
 62
  250
 10
229.25445960990129
 20
158.09767275938077
 11
229.23191474906133
 21
158.11544924863836
  0
LINE
  8
_0-0_0
  6
CONTINUOUS
 62
  250
 10
229.23191474906133
 20
158.11544924863836
 11
229.16649269095572
 21
158.16088229307195
  0
LINE
  8
_0-0_0
  6
CONTINUOUS
 62
  250
 10
229.16649269095572
 20
158.16088229307195
 11
229.06137870780174
 21
158.22207003721277
  0
LINE
  8
_0-0_0
  6
CONTINUOUS
 62
  250
 10
229.06137870780174
 20
158.22207003721277
 11
228.91979621878772
 21
158.28714877256434
  0
LINE
  8
_0-0_0
  6
CONTINUOUS
 62
  250
 10
228.91979621878772
 20
158.28714877256434
 11
228.74494956961814
 21
158.34425479063077
  0
LINE
  8
_0-0_0
  6
CONTINUOUS
 62
  250
 10
228.74494956961814
 20
158.34425479063077
 11
228.54008125296772
 21
158.38150530942954
  0
LINE
  8
_0-0_0
  6
CONTINUOUS
 62
  250
 10
228.54008125296772
 20
158.38150530942954
 11
228.30835746756733
 21
158.38701754697834
  0
LINE
  8
_0-0_0
  6
CONTINUOUS
 62
  250
 10
228.30835746756733
 20
158.38701754697834
 11
228.05303977957894
 21
158.34890872129478
  0
LINE
  8
_0-0_0
  6
CONTINUOUS
 62
  250
 10
228.05303977957894
 20
158.34890872129478
 11
227.77733253470572
 21
158.25531512388238
  0
LINE
  8
_0-0_0
  6
CONTINUOUS
 62
  250
 10
227.77733253470572
 20
158.25531512388238
 11
227.48445915213733
 21
158.09435397275956
  0
LINE
  8
_0-0_0
  6
CONTINUOUS
 62
  250
 10
227.47644828787972
 20
153.13368350156793
 11
227.47644828787972
 21
153.55234652647036
  0
LINE
  8
_0-0_0
  6
CONTINUOUS
 62
  250
 10
177.78847145072135
 20
119.31902438291559
 11
177.46312545767935
 21
118.79702120908753
  0
LINE
  8
_0-0_0
  6
CONTINUOUS
 62
  250
 10
182.82912658682974
 20
117.27102786191955
 11
115.77979015341933
 21
78.533692656841566
  0
LINE
  8
_0-0_0
  6
CONTINUOUS
 62
  250
 10
115.77979015341933
 20
78.533692656841566
 11
115.73426174155415
 21
78.491673766460792
  0
LINE
  8
_0-0_0
  6
CONTINUOUS
 62
  250
 10
115.73426174155415
 20
78.491673766460792
 11
115.60824798575575
 21
78.372636138286765
  0
LINE
  8
_0-0_0
  6
CONTINUOUS
 62
  250
 10
115.60824798575575
 20
78.372636138286765
 11
115.41763233176374
 21
78.18705111631435
  0
LINE
  8
_0-0_0
  6
CONTINUOUS
 62
  250
 10
115.41763233176374
 20
78.18705111631435
 11
115.17829822531854
 21
77.945447264995948
  0
LINE
  8
_0-0_0
  6
CONTINUOUS
 62
  250
 10
115.17829822531854
 20
77.945447264995948
 11
114.90612434378775
 21
77.658276854839556
  0
LINE
  8
_0-0_0
  6
CONTINUOUS
 62
  250
 10
114.90612434378775
 20
77.658276854839556
 11
114.61699413291134
 21
77.33603030332597
  0
LINE
  8
_0-0_0
  6
CONTINUOUS
 62
  250
 10
114.61699413291134
 20
77.33603030332597
 11
114.32678150168576
 21
76.989236174907973
  0
LINE
  8
_0-0_0
  6
CONTINUOUS
 62
  250
 10
114.32678150168576
 20
76.989236174907973
 11
114.05136989585094
 21
76.628365813579961
  0
LINE
  8
_0-0_0
  6
CONTINUOUS
 62
  250
 10
114.05136989585094
 20
76.628365813579961
 11
113.80663322440296
 21
76.26390963682195
  0
LINE
  8
_0-0_0
  6
CONTINUOUS
 62
  250
 10
113.80663322440296
 20
76.26390963682195
 11
113.60845970145374
 21
75.906358062115174
  0
LINE
  8
_0-0_0
  6
CONTINUOUS
 62
  250
 10
113.60845970145374
 20
75.906358062115174
 11
113.60845970145374
 21
76.569009124126751
  0
LINE
  8
_0-0_0
  6
CONTINUOUS
 62
  250
 10
113.60845970145374
 20
76.569009124126751
 11
107.85978721610215
 21
79.907021819439137
  0
LINE
  8
_0-0_0
  6
CONTINUOUS
 62
  250
 10
107.85978721610215
 20
79.907021819439137
 11
108.19407390586053
 21
79.820142089214357
  0
LINE
  8
_0-0_0
  6
CONTINUOUS
 62
  250
 10
108.19407390586053
 20
79.820142089214357
 11
108.60359119406854
 21
79.791398345317958
  0
LINE
  8
_0-0_0
  6
CONTINUOUS
 62
  250
 10
108.60359119406854
 20
79.791398345317958
 11
109.06233238211814
 21
79.809251128521169
  0
LINE
  8
_0-0_0
  6
CONTINUOUS
 62
  250
 10
109.06233238211814
 20
79.809251128521169
 11
109.54429077140014
 21
79.862160979595558
  0
LINE
  8
_0-0_0
  6
CONTINUOUS
 62
  250
 10
109.54429077140014
 20
79.862160979595558
 11
110.02345966330694
 21
79.938588439312383
  0
LINE
  8
_0-0_0
  6
CONTINUOUS
 62
  250
 10
110.02345966330694
 20
79.938588439312383
 11
110.47382759085815
 21
80.027013121929571
  0
LINE
  8
_0-0_0
  6
CONTINUOUS
 62
  250
 10
110.47382759085815
 20
80.027013121929571
 11
110.86938308707414
 21
80.115876494731964
  0
LINE
  8
_0-0_0
  6
CONTINUOUS
 62
  250
 10
110.86938308707414
 20
80.115876494731964
 11
111.18412422171775
 21
80.193620025005544
  0
LINE
  8
_0-0_0
  6
CONTINUOUS
 62
  250
 10
111.18412422171775
 20
80.193620025005544
 11
111.39204429618053
 21
80.248742400493967
  0
LINE
  8
_0-0_0
  6
CONTINUOUS
 62
  250
 10
111.39204429618053
 20
80.248742400493967
 11
111.46712707511094
 21
80.269685088481964
  0
LINE
  8
_0-0_0
  6
CONTINUOUS
 62
  250
 10
111.46712707511094
 20
80.269685088481964
 11
111.46712707511094
 21
80.273022948589556
  0
LINE
  8
_0-0_0
  6
CONTINUOUS
 62
  250
 10
111.46712707511094
 20
80.273022948589556
 11
111.46712707511094
 21
80.257687865581971
  0
LINE
  8
_0-0_0
  6
CONTINUOUS
 62
  250
 10
111.46712707511094
 20
80.257687865581971
 11
180.68779396048697
 21
120.36234408506436
  0
LINE
  8
_0-0_0
  6
CONTINUOUS
 62
  250
 10
182.82912658682974
 20
117.27102786191955
 11
115.77979015341933
 21
78.533692656841566
  0
LINE
  8
_0-0_0
  6
CONTINUOUS
 62
  250
 10
115.77979015341933
 20
78.533692656841566
 11
115.73426174155415
 21
78.491673766460792
  0
LINE
  8
_0-0_0
  6
CONTINUOUS
 62
  250
 10
115.73426174155415
 20
78.491673766460792
 11
115.60824798575575
 21
78.372636138286765
  0
LINE
  8
_0-0_0
  6
CONTINUOUS
 62
  250
 10
115.60824798575575
 20
78.372636138286765
 11
115.41763233176374
 21
78.18705111631435
  0
LINE
  8
_0-0_0
  6
CONTINUOUS
 62
  250
 10
115.41763233176374
 20
78.18705111631435
 11
115.17829822531854
 21
77.945447264995948
  0
LINE
  8
_0-0_0
  6
CONTINUOUS
 62
  250
 10
115.17829822531854
 20
77.945447264995948
 11
114.90612434378775
 21
77.658276854839556
  0
LINE
  8
_0-0_0
  6
CONTINUOUS
 62
  250
 10
114.90612434378775
 20
77.658276854839556
 11
114.61699413291134
 21
77.33603030332597
  0
LINE
  8
_0-0_0
  6
CONTINUOUS
 62
  250
 10
114.61699413291134
 20
77.33603030332597
 11
114.32678150168576
 21
76.989236174907973
  0
LINE
  8
_0-0_0
  6
CONTINUOUS
 62
  250
 10
114.32678150168576
 20
76.989236174907973
 11
114.05136989585094
 21
76.628365813579961
  0
LINE
  8
_0-0_0
  6
CONTINUOUS
 62
  250
 10
114.05136989585094
 20
76.628365813579961
 11
113.80663322440296
 21
76.26390963682195
  0
LINE
  8
_0-0_0
  6
CONTINUOUS
 62
  250
 10
113.80663322440296
 20
76.26390963682195
 11
113.60845970145374
 21
75.906358062115174
  0
LINE
  8
_0-0_0
  6
CONTINUOUS
 62
  250
 10
113.60845970145374
 20
75.906358062115174
 11
113.60845970145374
 21
76.569009124126751
  0
LINE
  8
_0-0_0
  6
CONTINUOUS
 62
  250
 10
113.60845970145374
 20
76.569009124126751
 11
107.85978721610215
 21
79.907021819439137
  0
LINE
  8
_0-0_0
  6
CONTINUOUS
 62
  250
 10
107.85978721610215
 20
79.907021819439137
 11
108.19407390586053
 21
79.820142089214357
  0
LINE
  8
_0-0_0
  6
CONTINUOUS
 62
  250
 10
108.19407390586053
 20
79.820142089214357
 11
108.60359119406854
 21
79.791398345317958
  0
LINE
  8
_0-0_0
  6
CONTINUOUS
 62
  250
 10
108.60359119406854
 20
79.791398345317958
 11
109.06233238211814
 21
79.809251128521169
  0
LINE
  8
_0-0_0
  6
CONTINUOUS
 62
  250
 10
109.06233238211814
 20
79.809251128521169
 11
109.54429077140014
 21
79.862160979595558
  0
LINE
  8
_0-0_0
  6
CONTINUOUS
 62
  250
 10
109.54429077140014
 20
79.862160979595558
 11
110.02345966330694
 21
79.938588439312383
  0
LINE
  8
_0-0_0
  6
CONTINUOUS
 62
  250
 10
110.02345966330694
 20
79.938588439312383
 11
110.47382759085815
 21
80.027013121929571
  0
LINE
  8
_0-0_0
  6
CONTINUOUS
 62
  250
 10
110.47382759085815
 20
80.027013121929571
 11
110.86938308707414
 21
80.115876494731964
  0
LINE
  8
_0-0_0
  6
CONTINUOUS
 62
  250
 10
110.86938308707414
 20
80.115876494731964
 11
111.18412422171775
 21
80.193620025005544
  0
LINE
  8
_0-0_0
  6
CONTINUOUS
 62
  250
 10
111.18412422171775
 20
80.193620025005544
 11
111.39204429618053
 21
80.248742400493967
  0
LINE
  8
_0-0_0
  6
CONTINUOUS
 62
  250
 10
111.39204429618053
 20
80.248742400493967
 11
111.46712707511094
 21
80.269685088481964
  0
LINE
  8
_0-0_0
  6
CONTINUOUS
 62
  250
 10
111.46712707511094
 20
80.269685088481964
 11
111.46712707511094
 21
80.273022948589556
  0
LINE
  8
_0-0_0
  6
CONTINUOUS
 62
  250
 10
111.46712707511094
 20
80.273022948589556
 11
111.46712707511094
 21
80.257687865581971
  0
LINE
  8
_0-0_0
  6
CONTINUOUS
 62
  250
 10
111.46712707511094
 20
80.257687865581971
 11
180.68779396048697
 21
120.36234408506436
  0
LINE
  8
_0-0_0
  6
CONTINUOUS
 62
  250
 10
114.23445629111455
 20
80.093674956646339
 11
181.92113327017935
 21
119.23500567564037
  0
LINE
  8
_0-0_0
  6
CONTINUOUS
 62
  250
 10
186.42777847281613
 20
122.10167437681235
 11
185.88977264395893
 21
122.42168933042554
  0
LINE
  8
_0-0_0
  6
CONTINUOUS
 62
  250
 10
185.88977264395893
 20
122.42168933042554
 11
186.91712783805053
 21
123.96702319273038
  0
LINE
  8
_0-0_0
  6
CONTINUOUS
 62
  250
 10
186.91712783805053
 20
123.96702319273038
 11
186.24512123099493
 21
123.89103442319914
  0
LINE
  8
_0-0_0
  6
CONTINUOUS
 62
  250
 10
186.24512123099493
 20
123.89103442319914
 11
184.79512619010137
 21
123.07634860166554
  0
LINE
  8
_0-0_0
  6
CONTINUOUS
 62
  250
 10
184.79512619010137
 20
123.07634860166554
 11
184.33646606436895
 21
123.35033923276916
  0
LINE
  8
_0-0_0
  6
CONTINUOUS
 62
  250
 10
184.33646606436895
 20
123.35033923276916
 11
188.28977989188374
 21
125.55836230405836
  0
LINE
  8
_0-0_0
  6
CONTINUOUS
 62
  250
 10
188.28977989188374
 20
125.55836230405836
 11
188.74445365897333
 21
125.28368502744718
  0
LINE
  8
_0-0_0
  6
CONTINUOUS
 62
  250
 10
188.74445365897333
 20
125.28368502744718
 11
186.89244674674214
 21
124.24902468809158
  0
LINE
  8
_0-0_0
  6
CONTINUOUS
 62
  250
 10
186.89244674674214
 20
124.24902468809158
 11
186.90446304312854
 21
124.24101382383357
  0
LINE
  8
_0-0_0
  6
CONTINUOUS
 62
  250
 10
186.90446304312854
 20
124.24101382383357
 11
186.97258399954976
 21
124.25348788389238
  0
LINE
  8
_0-0_0
  6
CONTINUOUS
 62
  250
 10
186.97258399954976
 20
124.25348788389238
 11
187.04015182486694
 21
124.26573306211516
  0
LINE
  8
_0-0_0
  6
CONTINUOUS
 62
  250
 10
187.04015182486694
 20
124.26573306211516
 11
187.10718559256736
 21
124.27774935850158
  0
LINE
  8
_0-0_0
  6
CONTINUOUS
 62
  250
 10
187.10718559256736
 20
124.27774935850158
 11
187.17369483939333
 21
124.28953677305235
  0
LINE
  8
_0-0_0
  6
CONTINUOUS
 62
  250
 10
187.17369483939333
 20
124.28953677305235
 11
187.23969863883173
 21
124.30109530576713
  0
LINE
  8
_0-0_0
  6
CONTINUOUS
 62
  250
 10
187.23969863883173
 20
124.30109530576713
 11
187.30521606436895
 21
124.31244403013234
  0
LINE
  8
_0-0_0
  6
CONTINUOUS
 62
  250
 10
187.30521606436895
 20
124.31244403013234
 11
187.37021850577537
 21
124.32356387266198
  0
LINE
  8
_0-0_0
  6
CONTINUOUS
 62
  250
 10
187.37021850577537
 20
124.32356387266198
 11
187.43476318350974
 21
124.33447390684157
  0
LINE
  8
_0-0_0
  6
CONTINUOUS
 62
  250
 10
187.43476318350974
 20
124.33447390684157
 11
187.49883102408575
 21
124.34519320615794
  0
LINE
  8
_0-0_0
  6
CONTINUOUS
 62
  250
 10
187.49883102408575
 20
124.34519320615794
 11
187.56246017447612
 21
124.35568362363836
  0
LINE
  8
_0-0_0
  6
CONTINUOUS
 62
  250
 10
187.56246017447612
 20
124.35568362363836
 11
189.75911544791373
 21
124.67901736387276
  0
LINE
  8
_0-0_0
  6
CONTINUOUS
 62
  250
 10
189.75911544791373
 20
124.67901736387276
 11
190.32246994010131
 21
124.34767275938077
  0
LINE
  8
_0-0_0
  6
CONTINUOUS
 62
  250
 10
190.32246994010131
 20
124.34767275938077
 11
187.63846801749375
 21
123.99767428525958
  0
LINE
  8
_0-0_0
  6
CONTINUOUS
 62
  250
 10
187.63846801749375
 20
123.99767428525958
 11
186.42777847281613
 21
122.10167437681235
  0
LINE
  8
_0-0_0
  6
CONTINUOUS
 62
  250
 10
184.03179573050653
 20
123.52968722471275
 11
183.49312232962774
 21
123.84901553281794
  0
LINE
  8
_0-0_0
  6
CONTINUOUS
 62
  250
 10
183.49312232962774
 20
123.84901553281794
 11
184.51912330619015
 21
125.39434939512279
  0
LINE
  8
_0-0_0
  6
CONTINUOUS
 62
  250
 10
184.51912330619015
 20
125.39434939512279
 11
183.84712623587774
 21
125.32234698423395
  0
LINE
  8
_0-0_0
  6
CONTINUOUS
 62
  250
 10
183.84712623587774
 20
125.32234698423395
 11
182.39445137015494
 21
124.50768023618717
  0
LINE
  8
_0-0_0
  6
CONTINUOUS
 62
  250
 10
182.39445137015494
 20
124.50768023618717
 11
181.93977760306532
 21
124.77768450864838
  0
LINE
  8
_0-0_0
  6
CONTINUOUS
 62
  250
 10
181.93977760306532
 20
124.77768450864838
 11
185.88977264395893
 21
126.98967486509355
  0
LINE
  8
_0-0_0
  6
CONTINUOUS
 62
  250
 10
185.88977264395893
 20
126.98967486509355
 11
186.35178970328494
 21
126.71167880186114
  0
LINE
  8
_0-0_0
  6
CONTINUOUS
 62
  250
 10
186.35178970328494
 20
126.71167880186114
 11
184.49446128836814
 21
125.67633181699797
  0
LINE
  8
_0-0_0
  6
CONTINUOUS
 62
  250
 10
184.49446128836814
 20
125.67633181699797
 11
184.50712608328973
 21
125.67236453184154
  0
LINE
  8
_0-0_0
  6
CONTINUOUS
 62
  250
 10
184.50712608328973
 20
125.67236453184154
 11
184.57512306204976
 21
125.68579226621634
  0
LINE
  8
_0-0_0
  6
CONTINUOUS
 62
  250
 10
184.57512306204976
 20
125.68579226621634
 11
184.64269088736694
 21
125.69859057554275
  0
LINE
  8
_0-0_0
  6
CONTINUOUS
 62
  250
 10
184.64269088736694
 20
125.69859057554275
 11
184.70979141226937
 21
125.71074038633358
  0
LINE
  8
_0-0_0
  6
CONTINUOUS
 62
  250
 10
184.70979141226937
 20
125.71074038633358
 11
184.77642463675653
 21
125.72235613950758
  0
LINE
  8
_0-0_0
  6
CONTINUOUS
 62
  250
 10
184.77642463675653
 20
125.72235613950758
 11
184.84254287711295
 21
125.73341876157797
  0
LINE
  8
_0-0_0
  6
CONTINUOUS
 62
  250
 10
184.84254287711295
 20
125.73341876157797
 11
184.90810798636613
 21
125.74406176694879
  0
LINE
  8
_0-0_0
  6
CONTINUOUS
 62
  250
 10
184.90810798636613
 20
125.74406176694879
 11
184.97312950125854
 21
125.75428515562075
  0
LINE
  8
_0-0_0
  6
CONTINUOUS
 62
  250
 10
184.97312950125854
 20
125.75428515562075
 11
185.03754066458853
 21
125.76414614805233
  0
LINE
  8
_0-0_0
  6
CONTINUOUS
 62
  250
 10
185.03754066458853
 20
125.76414614805233
 11
185.10132240286973
 21
125.77370196470275
  0
LINE
  8
_0-0_0
  6
CONTINUOUS
 62
  250
 10
185.10132240286973
 20
125.77370196470275
 11
185.16445564261616
 21
125.78300982603113
  0
LINE
  8
_0-0_0
  6
CONTINUOUS
 62
  250
 10
185.16445564261616
 20
125.78300982603113
 11
187.36444877616094
 21
126.10968142637277
  0
LINE
  8
_0-0_0
  6
CONTINUOUS
 62
  250
 10
187.36444877616094
 20
126.10968142637277
 11
187.92378829947654
 21
125.77101260313077
  0
LINE
  8
_0-0_0
  6
CONTINUOUS
 62
  250
 10
187.92378829947654
 20
125.77101260313077
 11
185.24044441214735
 21
125.42900591978076
  0
LINE
  8
_0-0_0
  6
CONTINUOUS
 62
  250
 10
185.24044441214735
 20
125.42900591978076
 11
184.03179573050653
 21
123.52968722471275
  0
LINE
  8
_0-0_0
  6
CONTINUOUS
 62
  250
 10
179.84245704642456
 20
126.03033572324796
 11
183.79179405203973
 21
128.24234515317954
  0
LINE
  8
_0-0_0
  6
CONTINUOUS
 62
  250
 10
183.79179405203973
 20
128.24234515317954
 11
185.37779258719613
 21
127.29767352231997
  0
LINE
  8
_0-0_0
  6
CONTINUOUS
 62
  250
 10
185.37779258719613
 20
127.29767352231997
 11
184.87511085501814
 21
127.01235324033755
  0
LINE
  8
_0-0_0
  6
CONTINUOUS
 62
  250
 10
184.87511085501814
 20
127.01235324033755
 11
183.75179695120974
 21
127.68635302671476
  0
LINE
  8
_0-0_0
  6
CONTINUOUS
 62
  250
 10
183.75179695120974
 20
127.68635302671476
 11
182.53379272452534
 21
127.00502902158753
  0
LINE
  8
_0-0_0
  6
CONTINUOUS
 62
  250
 10
182.53379272452534
 20
127.00502902158753
 11
183.57712196341694
 21
126.38035327085515
  0
LINE
  8
_0-0_0
  6
CONTINUOUS
 62
  250
 10
183.57712196341694
 20
126.38035327085515
 11
183.08044837943254
 21
126.10634356626515
  0
LINE
  8
_0-0_0
  6
CONTINUOUS
 62
  250
 10
183.08044837943254
 20
126.10634356626515
 11
182.03913139334855
 21
126.72701388486874
  0
LINE
  8
_0-0_0
  6
CONTINUOUS
 62
  250
 10
182.03913139334855
 20
126.72701388486874
 11
180.30312942496454
 21
125.7596638787652
  0
LINE
  8
_0-0_0
  6
CONTINUOUS
 62
  250
 10
180.30312942496454
 20
125.7596638787652
 11
179.84245704642456
 21
126.03033572324796
  0
LINE
  8
_0-0_0
  6
CONTINUOUS
 62
  250
 10
175.22045539847534
 20
112.68368273862876
 11
186.50779174796256
 21
105.90767413267156
  0
LINE
  8
_0-0_0
  6
CONTINUOUS
 62
  250
 10
173.94778655997456
 20
126.99699908384356
 11
188.23645996085332
 21
118.89633685239836
  0
LINE
  8
_0-0_0
  6
CONTINUOUS
 62
  250
 10
174.40779136649294
 20
125.94702273496632
 11
186.81645797721055
 21
118.79702120908753
  0
LINE
  8
_0-0_0
  6
CONTINUOUS
 62
  250
 10
229.42511009207894
 20
157.93768435606034
 11
242.12179588309453
 21
150.28234988340398
  0
LINE
  8
_0-0_0
  6
CONTINUOUS
 62
  250
 10
205.97978996268452
 20
135.55035143980038
 11
205.97978996268452
 21
136.45636111387276
  0
LINE
  8
_0-0_0
  6
CONTINUOUS
 62
  250
 10
202.11046623221574
 20
135.55035143980038
 11
202.11046623221574
 21
136.45636111387276
  0
LINE
  8
_0-0_0
  6
CONTINUOUS
 62
  250
 10
205.97978996268452
 20
135.64501315244718
 11
205.95447944632693
 21
135.47726184019118
  0
LINE
  8
_0-0_0
  6
CONTINUOUS
 62
  250
 10
205.95447944632693
 20
135.47726184019118
 11
205.88116096488176
 21
135.31786471494718
  0
LINE
  8
_0-0_0
  6
CONTINUOUS
 62
  250
 10
205.88116096488176
 20
135.31786471494718
 11
205.76385902396373
 21
135.16899615415599
  0
LINE
  8
_0-0_0
  6
CONTINUOUS
 62
  250
 10
205.76385902396373
 20
135.16899615415599
 11
205.60652183524292
 21
135.03286868223196
  0
LINE
  8
_0-0_0
  6
CONTINUOUS
 62
  250
 10
205.60652183524292
 20
135.03286868223196
 11
205.41311668387576
 21
134.91169482358958
  0
LINE
  8
_0-0_0
  6
CONTINUOUS
 62
  250
 10
205.41311668387576
 20
134.91169482358958
 11
205.18764900199096
 21
134.80761080869715
  0
LINE
  8
_0-0_0
  6
CONTINUOUS
 62
  250
 10
205.18764900199096
 20
134.80761080869715
 11
204.93406700125851
 21
134.72284823545476
  0
LINE
  8
_0-0_0
  6
CONTINUOUS
 62
  250
 10
204.93406700125851
 20
134.72284823545476
 11
204.6563570403209
 21
134.65960055479079
  0
LINE
  8
_0-0_0
  6
CONTINUOUS
 62
  250
 10
204.6563570403209
 20
134.65960055479079
 11
204.3585054778209
 21
134.62004214414634
  0
LINE
  8
_0-0_0
  6
CONTINUOUS
 62
  250
 10
204.3585054778209
 20
134.62004214414634
 11
204.04446052542852
 21
134.60636645444879
  0
LINE
  8
_0-0_0
  6
CONTINUOUS
 62
  250
 10
204.04446052542852
 20
134.60636645444879
 11
203.73077796927615
 21
134.62004214414634
  0
LINE
  8
_0-0_0
  6
CONTINUOUS
 62
  250
 10
203.73077796927615
 20
134.62004214414634
 11
203.43321250907093
 21
134.65960055479079
  0
LINE
  8
_0-0_0
  6
CONTINUOUS
 62
  250
 10
203.43321250907093
 20
134.65960055479079
 11
203.15571235648338
 21
134.72284823545476
  0
LINE
  8
_0-0_0
  6
CONTINUOUS
 62
  250
 10
203.15571235648338
 20
134.72284823545476
 11
202.90230201712774
 21
134.80761080869715
  0
LINE
  8
_0-0_0
  6
CONTINUOUS
 62
  250
 10
202.90230201712774
 20
134.80761080869715
 11
202.67694877616094
 21
134.91169482358958
  0
LINE
  8
_0-0_0
  6
CONTINUOUS
 62
  250
 10
202.67694877616094
 20
134.91169482358958
 11
202.48363899222534
 21
135.03286868223196
  0
LINE
  8
_0-0_0
  6
CONTINUOUS
 62
  250
 10
202.48363899222534
 20
135.03286868223196
 11
202.32635902396376
 21
135.16899615415599
  0
LINE
  8
_0-0_0
  6
CONTINUOUS
 62
  250
 10
202.32635902396376
 20
135.16899615415599
 11
202.20905708304574
 21
135.31786471494718
  0
LINE
  8
_0-0_0
  6
CONTINUOUS
 62
  250
 10
202.20905708304574
 20
135.31786471494718
 11
202.13577674857294
 21
135.47726184019118
  0
LINE
  8
_0-0_0
  6
CONTINUOUS
 62
  250
 10
202.13577674857294
 20
135.47726184019118
 11
202.11046623221574
 21
135.64501315244718
  0
LINE
  8
_0-0_0
  6
CONTINUOUS
 62
  250
 10
205.97978996268452
 20
136.58567935117759
 11
205.95447944632693
 21
136.41785174497636
  0
LINE
  8
_0-0_0
  6
CONTINUOUS
 62
  250
 10
205.95447944632693
 20
136.41785174497636
 11
205.88116096488176
 21
136.25860720762276
  0
LINE
  8
_0-0_0
  6
CONTINUOUS
 62
  250
 10
205.88116096488176
 20
136.25860720762276
 11
205.76385902396373
 21
136.11008196958554
  0
LINE
  8
_0-0_0
  6
CONTINUOUS
 62
  250
 10
205.76385902396373
 20
136.11008196958554
 11
205.60652183524292
 21
135.97443133481997
  0
LINE
  8
_0-0_0
  6
CONTINUOUS
 62
  250
 10
205.60652183524292
 20
135.97443133481997
 11
205.41311668387576
 21
135.85377246030836
  0
LINE
  8
_0-0_0
  6
CONTINUOUS
 62
  250
 10
205.41311668387576
 20
135.85377246030836
 11
205.18764900199096
 21
135.75024157651916
  0
LINE
  8
_0-0_0
  6
CONTINUOUS
 62
  250
 10
205.18764900199096
 20
135.75024157651916
 11
204.93406700125851
 21
135.66599398740797
  0
LINE
  8
_0-0_0
  6
CONTINUOUS
 62
  250
 10
204.93406700125851
 20
135.66599398740797
 11
204.6563570403209
 21
135.60318499692954
  0
LINE
  8
_0-0_0
  6
CONTINUOUS
 62
  250
 10
204.6563570403209
 20
135.60318499692954
 11
204.3585054778209
 21
135.56391268857996
  0
LINE
  8
_0-0_0
  6
CONTINUOUS
 62
  250
 10
204.3585054778209
 20
135.56391268857996
 11
204.04446052542852
 21
135.55035143980038
  0
LINE
  8
_0-0_0
  6
CONTINUOUS
 62
  250
 10
204.04446052542852
 20
135.55035143980038
 11
203.73077796927615
 21
135.56391268857996
  0
LINE
  8
_0-0_0
  6
CONTINUOUS
 62
  250
 10
203.73077796927615
 20
135.56391268857996
 11
203.43321250907093
 21
135.60318499692954
  0
LINE
  8
_0-0_0
  6
CONTINUOUS
 62
  250
 10
203.43321250907093
 20
135.60318499692954
 11
203.15571235648338
 21
135.66599398740797
  0
LINE
  8
_0-0_0
  6
CONTINUOUS
 62
  250
 10
203.15571235648338
 20
135.66599398740797
 11
202.90230201712774
 21
135.75024157651916
  0
LINE
  8
_0-0_0
  6
CONTINUOUS
 62
  250
 10
202.90230201712774
 20
135.75024157651916
 11
202.67694877616094
 21
135.85377246030836
  0
LINE
  8
_0-0_0
  6
CONTINUOUS
 62
  250
 10
202.67694877616094
 20
135.85377246030836
 11
202.48363899222534
 21
135.97443133481997
  0
LINE
  8
_0-0_0
  6
CONTINUOUS
 62
  250
 10
202.48363899222534
 20
135.97443133481997
 11
202.32635902396376
 21
136.11008196958554
  0
LINE
  8
_0-0_0
  6
CONTINUOUS
 62
  250
 10
202.32635902396376
 20
136.11008196958554
 11
202.20905708304574
 21
136.25860720762276
  0
LINE
  8
_0-0_0
  6
CONTINUOUS
 62
  250
 10
202.20905708304574
 20
136.25860720762276
 11
202.13577674857294
 21
136.41785174497636
  0
LINE
  8
_0-0_0
  6
CONTINUOUS
 62
  250
 10
202.13577674857294
 20
136.41785174497636
 11
202.11046623221574
 21
136.58567935117759
  0
LINE
  8
_0-0_0
  6
CONTINUOUS
 62
  250
 10
202.11046623221574
 20
136.58567935117759
 11
202.13577674857294
 21
136.75447970518155
  0
LINE
  8
_0-0_0
  6
CONTINUOUS
 62
  250
 10
202.13577674857294
 20
136.75447970518155
 11
202.20905708304574
 21
136.91494494565995
  0
LINE
  8
_0-0_0
  6
CONTINUOUS
 62
  250
 10
202.20905708304574
 20
136.91494494565995
 11
202.32635902396376
 21
137.06488162168515
  0
LINE
  8
_0-0_0
  6
CONTINUOUS
 62
  250
 10
202.32635902396376
 20
137.06488162168515
 11
202.48363899222534
 21
137.20207720884355
  0
LINE
  8
_0-0_0
  6
CONTINUOUS
 62
  250
 10
202.48363899222534
 20
137.20207720884355
 11
202.67694877616094
 21
137.32428103574793
  0
LINE
  8
_0-0_0
  6
CONTINUOUS
 62
  250
 10
202.67694877616094
 20
137.32428103574793
 11
202.90230201712774
 21
137.42924243101155
  0
LINE
  8
_0-0_0
  6
CONTINUOUS
 62
  250
 10
202.90230201712774
 20
137.42924243101155
 11
203.15571235648338
 21
137.51474887022039
  0
LINE
  8
_0-0_0
  6
CONTINUOUS
 62
  250
 10
203.15571235648338
 20
137.51474887022039
 11
203.43321250907093
 21
137.57860690244718
  0
LINE
  8
_0-0_0
  6
CONTINUOUS
 62
  250
 10
203.43321250907093
 20
137.57860690244718
 11
203.73077796927615
 21
137.61854678281793
  0
LINE
  8
_0-0_0
  6
CONTINUOUS
 62
  250
 10
203.73077796927615
 20
137.61854678281793
 11
204.04446052542852
 21
137.63235598691955
  0
LINE
  8
_0-0_0
  6
CONTINUOUS
 62
  250
 10
204.04446052542852
 20
137.63235598691955
 11
204.3585054778209
 21
137.61854678281793
  0
LINE
  8
_0-0_0
  6
CONTINUOUS
 62
  250
 10
204.3585054778209
 20
137.61854678281793
 11
204.6563570403209
 21
137.57860690244718
  0
LINE
  8
_0-0_0
  6
CONTINUOUS
 62
  250
 10
204.6563570403209
 20
137.57860690244718
 11
204.93406700125851
 21
137.51474887022039
  0
LINE
  8
_0-0_0
  6
CONTINUOUS
 62
  250
 10
204.93406700125851
 20
137.51474887022039
 11
205.18764900199096
 21
137.42924243101155
  0
LINE
  8
_0-0_0
  6
CONTINUOUS
 62
  250
 10
205.18764900199096
 20
137.42924243101155
 11
205.41311668387576
 21
137.32428103574793
  0
LINE
  8
_0-0_0
  6
CONTINUOUS
 62
  250
 10
205.41311668387576
 20
137.32428103574793
 11
205.60652183524292
 21
137.20207720884355
  0
LINE
  8
_0-0_0
  6
CONTINUOUS
 62
  250
 10
205.60652183524292
 20
137.20207720884355
 11
205.76385902396373
 21
137.06488162168515
  0
LINE
  8
_0-0_0
  6
CONTINUOUS
 62
  250
 10
205.76385902396373
 20
137.06488162168515
 11
205.88116096488176
 21
136.91494494565995
  0
LINE
  8
_0-0_0
  6
CONTINUOUS
 62
  250
 10
205.88116096488176
 20
136.91494494565995
 11
205.95447944632693
 21
136.75447970518155
  0
LINE
  8
_0-0_0
  6
CONTINUOUS
 62
  250
 10
205.95447944632693
 20
136.75447970518155
 11
205.97978996268452
 21
136.58567935117759
  0
LINE
  8
_0-0_0
  6
CONTINUOUS
 62
  250
 10
316.36112617484252
 20
194.99367266782795
 11
316.36112617484252
 21
190.47901660093319
  0
LINE
  8
_0-0_0
  6
CONTINUOUS
 62
  250
 10
309.41914009085815
 20
190.98103076108956
 11
309.41914009085815
 21
186.66433840879478
  0
LINE
  8
_0-0_0
  6
CONTINUOUS
 62
  250
 10
302.46845649710815
 20
195.04366427549394
 11
302.46845649710815
 21
190.65367251523995
  0
LINE
  8
_0-0_0
  6
CONTINUOUS
 62
  250
 10
321.75510810843616
 20
202.51505404600152
 11
321.75510810843616
 21
202.00499087461517
  0
LINE
  8
_0-0_0
  6
CONTINUOUS
 62
  250
 10
325.09779380789934
 20
200.44968157896079
 11
325.09779380789934
 21
197.21834689268155
  0
LINE
  8
_0-0_0
  6
CONTINUOUS
 62
  250
 10
319.67646049491094
 20
203.60167056211515
 11
321.66777061453979
 21
202.65364199766196
  0
LINE
  8
_0-0_0
  6
CONTINUOUS
 62
  250
 10
322.47845100394414
 20
202.02967196592357
 11
325.09779380789934
 21
200.62166720518155
  0
LINE
  8
_0-0_0
  6
CONTINUOUS
 62
  250
 10
310.31778739920776
 20
199.16302233823797
 11
316.02646278372936
 21
195.27233630308194
  0
LINE
  8
_0-0_0
  6
CONTINUOUS
 62
  250
 10
302.46845649710815
 20
190.67699938901913
 11
309.41914009085815
 21
186.66433840879478
  0
LINE
  8
_0-0_0
  6
CONTINUOUS
 62
  250
 10
302.46845649710815
 20
194.99367266782795
 11
309.41914009085815
 21
190.98103076108956
  0
LINE
  8
_0-0_0
  6
CONTINUOUS
 62
  250
 10
310.63978599539934
 20
198.80766421445873
 11
319.48246406546775
 21
203.60167056211515
  0
LINE
  8
_0-0_0
  6
CONTINUOUS
 62
  250
 10
313.17045616141496
 20
197.4770024407772
 11
321.75510810843616
 21
202.55171328672435
  0
LINE
  8
_0-0_0
  6
CONTINUOUS
 62
  250
 10
313.74245094290893
 20
197.09969073423395
 11
322.47845100394414
 21
202.13634997495677
  0
LINE
  8
_0-0_0
  6
CONTINUOUS
 62
  250
 10
316.02646278372936
 20
195.41101962217357
 11
324.76311134329973
 21
200.44968157896079
  0
LINE
  8
_0-0_0
  6
CONTINUOUS
 62
  250
 10
316.36446403495012
 20
192.13099032529874
 11
325.10111259452015
 21
197.17031985410713
  0
LINE
  8
_0-0_0
  6
CONTINUOUS
 62
  250
 10
309.49711250296775
 20
186.68699771055233
 11
316.36112617484252
 21
190.47901660093319
  0
LINE
  8
_0-0_0
  6
CONTINUOUS
 62
  250
 10
309.49711250296775
 20
190.98103076108956
 11
316.36112617484252
 21
194.99367266782795
  0
LINE
  8
_0-0_0
  6
CONTINUOUS
 62
  250
 10
302.46845649710815
 20
195.27834445127516
 11
310.31778739920776
 21
199.16302233823797
  0
LINE
  8
_0-0_0
  6
CONTINUOUS
 62
  250
 10
309.45978569022333
 20
190.06834536680236
 11
311.81980537406133
 21
191.44167452939996
  0
LINE
  8
_0-0_0
  6
CONTINUOUS
 62
  250
 10
309.45978569022333
 20
190.06834536680236
 11
311.81980537406133
 21
191.44167452939996
  0
LINE
  8
_0-0_0
  6
CONTINUOUS
 62
  250
 10
310.04177497855335
 20
189.08567935117753
 11
309.86645149222534
 21
189.09369021543517
  0
LINE
  8
_0-0_0
  6
CONTINUOUS
 62
  250
 10
309.86645149222534
 20
189.09369021543517
 11
309.43977760306535
 21
189.34437304624595
  0
LINE
  8
_0-0_0
  6
CONTINUOUS
 62
  250
 10
309.43977760306535
 20
189.34437304624595
 11
309.43977760306535
 21
190.04902392515197
  0
LINE
  8
_0-0_0
  6
CONTINUOUS
 62
  250
 10
309.43977760306535
 20
190.04902392515197
 11
309.45978569022333
 21
190.06834536680236
  0
LINE
  8
_0-0_0
  6
CONTINUOUS
 62
  250
 10
310.04177497855335
 20
189.08567935117753
 11
309.86645149222534
 21
189.09369021543517
  0
LINE
  8
_0-0_0
  6
CONTINUOUS
 62
  250
 10
309.86645149222534
 20
189.09369021543517
 11
309.43977760306535
 21
189.34437304624595
  0
LINE
  8
_0-0_0
  6
CONTINUOUS
 62
  250
 10
309.43977760306535
 20
189.34437304624595
 11
309.43977760306535
 21
190.04902392515197
  0
LINE
  8
_0-0_0
  6
CONTINUOUS
 62
  250
 10
309.43977760306535
 20
190.04902392515197
 11
309.45978569022333
 21
190.06834536680236
  0
LINE
  8
_0-0_0
  6
CONTINUOUS
 62
  250
 10
312.33311103812372
 20
190.40302783140197
 11
312.21579002371936
 21
190.32299548276916
  0
LINE
  8
_0-0_0
  6
CONTINUOUS
 62
  250
 10
312.21579002371936
 20
190.32299548276916
 11
310.04177497855335
 21
189.08567935117753
  0
LINE
  8
_0-0_0
  6
CONTINUOUS
 62
  250
 10
312.33311103812372
 20
190.40302783140197
 11
312.21579002371936
 21
190.32299548276916
  0
LINE
  8
_0-0_0
  6
CONTINUOUS
 62
  250
 10
312.21579002371936
 20
190.32299548276916
 11
310.04177497855335
 21
189.08567935117753
  0
LINE
  8
_0-0_0
  6
CONTINUOUS
 62
  250
 10
311.92646430960815
 20
191.45767718442954
 11
311.92377494803577
 21
191.46835833677318
  0
LINE
  8
_0-0_0
  6
CONTINUOUS
 62
  250
 10
311.92377494803577
 20
191.46835833677318
 11
312.34512733451061
 21
191.22168093809157
  0
LINE
  8
_0-0_0
  6
CONTINUOUS
 62
  250
 10
312.34512733451061
 20
191.22168093809157
 11
312.49311851493053
 21
191.14901095518113
  0
LINE
  8
_0-0_0
  6
CONTINUOUS
 62
  250
 10
312.49311851493053
 20
191.14901095518113
 11
312.49311851493053
 21
190.47165423521076
  0
LINE
  8
_0-0_0
  6
CONTINUOUS
 62
  250
 10
309.96778892508655
 20
189.73700076231034
 11
309.96778892508655
 21
189.08968478330638
  0
LINE
  8
_0-0_0
  6
CONTINUOUS
 62
  250
 10
309.43977760306535
 20
190.0070050347712
 11
309.86645149222534
 21
189.76368456968316
  0
LINE
  8
_0-0_0
  6
CONTINUOUS
 62
  250
 10
309.86645149222534
 20
189.76368456968316
 11
310.04177497855335
 21
189.77833300718319
  0
LINE
  8
_0-0_0
  6
CONTINUOUS
 62
  250
 10
310.04177497855335
 20
189.77833300718319
 11
312.20978187552612
 21
190.98103076108956
  0
LINE
  8
_0-0_0
  6
CONTINUOUS
 62
  250
 10
311.92646430960815
 20
191.45767718442954
 11
311.92377494803577
 21
191.46835833677318
  0
LINE
  8
_0-0_0
  6
CONTINUOUS
 62
  250
 10
311.92377494803577
 20
191.46835833677318
 11
312.34512733451061
 21
191.22168093809157
  0
LINE
  8
_0-0_0
  6
CONTINUOUS
 62
  250
 10
312.34512733451061
 20
191.22168093809157
 11
312.49311851493053
 21
191.14901095518113
  0
LINE
  8
_0-0_0
  6
CONTINUOUS
 62
  250
 10
312.49311851493053
 20
191.14901095518113
 11
312.49311851493053
 21
190.47165423521076
  0
LINE
  8
_0-0_0
  6
CONTINUOUS
 62
  250
 10
306.1091081999889
 20
192.01300173887279
 11
306.1091081999889
 21
189.27235156187072
  0
LINE
  8
_0-0_0
  6
CONTINUOUS
 62
  250
 10
305.59912132254772
 20
192.42033511289634
 11
305.59912132254772
 21
189.51967745908755
  0
LINE
  8
_0-0_0
  6
CONTINUOUS
 62
  250
 10
302.93112205496936
 20
193.89036685117756
 11
302.93112205496936
 21
191.08767062314996
  0
LINE
  8
_0-0_0
  6
CONTINUOUS
 62
  250
 10
308.96444725028215
 20
190.41433840879475
 11
308.96444725028215
 21
187.67370730527918
  0
LINE
  8
_0-0_0
  6
CONTINUOUS
 62
  250
 10
302.93512748709855
 20
193.89036685117756
 11
305.56511329642456
 21
192.37432986387279
  0
LINE
  8
_0-0_0
  6
CONTINUOUS
 62
  250
 10
306.1091081999889
 20
192.05900698789634
 11
308.91910957328008
 21
190.43699771055236
  0
LINE
  8
_0-0_0
  6
CONTINUOUS
 62
  250
 10
302.93512748709855
 20
190.97769290098236
 11
305.56511329642456
 21
189.46236163267159
  0
LINE
  8
_0-0_0
  6
CONTINUOUS
 62
  250
 10
306.1091081999889
 20
189.14701968320875
 11
308.91910957328008
 21
187.52832919248596
  0
LINE
  8
_0-0_0
  6
CONTINUOUS
 62
  250
 10
302.93512748709855
 20
190.98501711973236
 11
305.41645454398338
 21
192.43170291074796
  0
LINE
  8
_0-0_0
  6
CONTINUOUS
 62
  250
 10
306.24111579886619
 20
189.08167391904837
 11
308.75511573783092
 21
190.54768115171436
  0
LINE
  8
_0-0_0
  6
CONTINUOUS
 62
  250
 10
237.76245521536976
 20
153.13368350156793
 11
300.9211199187389
 21
189.38635378965395
  0
LINE
  8
_0-0_0
  6
CONTINUOUS
 62
  250
 10
300.9211199187389
 20
189.38635378965395
 11
300.98516868582897
 21
189.43609744199796
  0
LINE
  8
_0-0_0
  6
CONTINUOUS
 62
  250
 10
300.98516868582897
 20
189.43609744199796
 11
301.16089271536976
 21
189.58097964414637
  0
LINE
  8
_0-0_0
  6
CONTINUOUS
 62
  250
 10
301.16089271536976
 20
189.58097964414637
 11
301.42361091605335
 21
189.81447726377516
  0
LINE
  8
_0-0_0
  6
CONTINUOUS
 62
  250
 10
301.42361091605335
 20
189.81447726377516
 11
301.74869941703014
 21
190.12999087461517
  0
LINE
  8
_0-0_0
  6
CONTINUOUS
 62
  250
 10
301.74869941703014
 20
190.12999087461517
 11
302.11145805350452
 21
190.52101641782795
  0
LINE
  8
_0-0_0
  6
CONTINUOUS
 62
  250
 10
302.11145805350452
 20
190.52101641782795
 11
302.48726295462774
 21
190.98099261411676
  0
LINE
  8
_0-0_0
  6
CONTINUOUS
 62
  250
 10
302.48726295462774
 20
190.98099261411676
 11
302.8514521025769
 21
191.50341540464439
  0
LINE
  8
_0-0_0
  6
CONTINUOUS
 62
  250
 10
302.8514521025769
 20
191.50341540464439
 11
303.17936347953014
 21
192.08168536314034
  0
LINE
  8
_0-0_0
  6
CONTINUOUS
 62
  250
 10
303.17936347953014
 20
192.08168536314034
 11
303.44637321463733
 21
192.70929843076718
  0
LINE
  8
_0-0_0
  6
CONTINUOUS
 62
  250
 10
303.44637321463733
 20
192.70929843076718
 11
303.62778114310413
 21
193.37967425474196
  0
LINE
  8
_0-0_0
  6
CONTINUOUS
 62
  250
 10
303.62778114310413
 20
193.37967425474196
 11
305.5077783965221
 21
192.37432986387279
  0
LINE
  8
_0-0_0
  6
CONTINUOUS
 62
  250
 10
305.5077783965221
 20
192.37432986387279
 11
305.5004541777721
 21
191.65167361387279
  0
LINE
  8
_0-0_0
  6
CONTINUOUS
 62
  250
 10
305.5004541777721
 20
191.65167361387279
 11
305.39511131278215
 21
191.38901263364838
  0
LINE
  8
_0-0_0
  6
CONTINUOUS
 62
  250
 10
305.39511131278215
 20
191.38901263364838
 11
305.24681495658092
 21
191.14599734434154
  0
LINE
  8
_0-0_0
  6
CONTINUOUS
 62
  250
 10
305.24681495658092
 20
191.14599734434154
 11
305.05514549246936
 21
190.88530093320875
  0
LINE
  8
_0-0_0
  6
CONTINUOUS
 62
  250
 10
305.05514549246936
 20
190.88530093320875
 11
304.83402656546775
 21
190.61714678892153
  0
LINE
  8
_0-0_0
  6
CONTINUOUS
 62
  250
 10
304.83402656546775
 20
190.61714678892153
 11
304.59734367362171
 21
190.35172015317957
  0
LINE
  8
_0-0_0
  6
CONTINUOUS
 62
  250
 10
304.59734367362171
 20
190.35172015317957
 11
304.35894416800653
 21
190.09920626768155
  0
LINE
  8
_0-0_0
  6
CONTINUOUS
 62
  250
 10
304.35894416800653
 20
190.09920626768155
 11
304.13275169364135
 21
189.86971408018115
  0
LINE
  8
_0-0_0
  6
CONTINUOUS
 62
  250
 10
304.13275169364135
 20
189.86971408018115
 11
303.93267082205938
 21
189.67352419981034
  0
LINE
  8
_0-0_0
  6
CONTINUOUS
 62
  250
 10
303.93267082205938
 20
189.67352419981034
 11
303.77254890433494
 21
189.52076464780833
  0
LINE
  8
_0-0_0
  6
CONTINUOUS
 62
  250
 10
303.77254890433494
 20
189.52076464780833
 11
303.66627143851451
 21
189.42163973936118
  0
LINE
  8
_0-0_0
  6
CONTINUOUS
 62
  250
 10
303.66627143851451
 20
189.42163973936118
 11
303.62778114310413
 21
189.38635378965395
  0
LINE
  8
_0-0_0
  6
CONTINUOUS
 62
  250
 10
237.76245521536976
 20
153.13368350156793
 11
300.9211199187389
 21
189.38635378965395
  0
LINE
  8
_0-0_0
  6
CONTINUOUS
 62
  250
 10
300.9211199187389
 20
189.38635378965395
 11
300.98516868582897
 21
189.43609744199796
  0
LINE
  8
_0-0_0
  6
CONTINUOUS
 62
  250
 10
300.98516868582897
 20
189.43609744199796
 11
301.16089271536976
 21
189.58097964414637
  0
LINE
  8
_0-0_0
  6
CONTINUOUS
 62
  250
 10
301.16089271536976
 20
189.58097964414637
 11
301.42361091605335
 21
189.81447726377516
  0
LINE
  8
_0-0_0
  6
CONTINUOUS
 62
  250
 10
301.42361091605335
 20
189.81447726377516
 11
301.74869941703014
 21
190.12999087461517
  0
LINE
  8
_0-0_0
  6
CONTINUOUS
 62
  250
 10
301.74869941703014
 20
190.12999087461517
 11
302.11145805350452
 21
190.52101641782795
  0
LINE
  8
_0-0_0
  6
CONTINUOUS
 62
  250
 10
302.11145805350452
 20
190.52101641782795
 11
302.48726295462774
 21
190.98099261411676
  0
LINE
  8
_0-0_0
  6
CONTINUOUS
 62
  250
 10
302.48726295462774
 20
190.98099261411676
 11
302.8514521025769
 21
191.50341540464439
  0
LINE
  8
_0-0_0
  6
CONTINUOUS
 62
  250
 10
302.8514521025769
 20
191.50341540464439
 11
303.17936347953014
 21
192.08168536314034
  0
LINE
  8
_0-0_0
  6
CONTINUOUS
 62
  250
 10
303.17936347953014
 20
192.08168536314034
 11
303.44637321463733
 21
192.70929843076718
  0
LINE
  8
_0-0_0
  6
CONTINUOUS
 62
  250
 10
303.44637321463733
 20
192.70929843076718
 11
303.62778114310413
 21
193.37967425474196
  0
LINE
  8
_0-0_0
  6
CONTINUOUS
 62
  250
 10
303.62778114310413
 20
193.37967425474196
 11
305.5077783965221
 21
192.37432986387279
  0
LINE
  8
_0-0_0
  6
CONTINUOUS
 62
  250
 10
305.5077783965221
 20
192.37432986387279
 11
305.5004541777721
 21
191.65167361387279
  0
LINE
  8
_0-0_0
  6
CONTINUOUS
 62
  250
 10
305.5004541777721
 20
191.65167361387279
 11
305.39511131278215
 21
191.38901263364838
  0
LINE
  8
_0-0_0
  6
CONTINUOUS
 62
  250
 10
305.39511131278215
 20
191.38901263364838
 11
305.24681495658092
 21
191.14599734434154
  0
LINE
  8
_0-0_0
  6
CONTINUOUS
 62
  250
 10
305.24681495658092
 20
191.14599734434154
 11
305.05514549246936
 21
190.88530093320875
  0
LINE
  8
_0-0_0
  6
CONTINUOUS
 62
  250
 10
305.05514549246936
 20
190.88530093320875
 11
304.83402656546775
 21
190.61714678892153
  0
LINE
  8
_0-0_0
  6
CONTINUOUS
 62
  250
 10
304.83402656546775
 20
190.61714678892153
 11
304.59734367362171
 21
190.35172015317957
  0
LINE
  8
_0-0_0
  6
CONTINUOUS
 62
  250
 10
304.59734367362171
 20
190.35172015317957
 11
304.35894416800653
 21
190.09920626768155
  0
LINE
  8
_0-0_0
  6
CONTINUOUS
 62
  250
 10
304.35894416800653
 20
190.09920626768155
 11
304.13275169364135
 21
189.86971408018115
  0
LINE
  8
_0-0_0
  6
CONTINUOUS
 62
  250
 10
304.13275169364135
 20
189.86971408018115
 11
303.93267082205938
 21
189.67352419981034
  0
LINE
  8
_0-0_0
  6
CONTINUOUS
 62
  250
 10
303.93267082205938
 20
189.67352419981034
 11
303.77254890433494
 21
189.52076464780833
  0
LINE
  8
_0-0_0
  6
CONTINUOUS
 62
  250
 10
303.77254890433494
 20
189.52076464780833
 11
303.66627143851451
 21
189.42163973936118
  0
LINE
  8
_0-0_0
  6
CONTINUOUS
 62
  250
 10
303.66627143851451
 20
189.42163973936118
 11
303.62778114310413
 21
189.38635378965395
  0
LINE
  8
_0-0_0
  6
CONTINUOUS
 62
  250
 10
241.29511283866094
 20
150.83767443784757
 11
304.2064325713269
 21
187.27032214292552
  0
LINE
  8
_0-0_0
  6
CONTINUOUS
 62
  250
 10
304.2064325713269
 20
187.27032214292552
 11
304.99445365897333
 21
187.72299319395074
  0
LINE
  8
_0-0_0
  6
CONTINUOUS
 62
  250
 10
304.99445365897333
 20
187.72299319395074
 11
305.03998207083851
 21
187.74744540342354
  0
LINE
  8
_0-0_0
  6
CONTINUOUS
 62
  250
 10
305.03998207083851
 20
187.74744540342354
 11
305.1724092864149
 21
187.81214266904874
  0
LINE
  8
_0-0_0
  6
CONTINUOUS
 62
  250
 10
305.1724092864149
 20
187.81214266904874
 11
305.38549827567249
 21
187.90413409360917
  0
LINE
  8
_0-0_0
  6
CONTINUOUS
 62
  250
 10
305.38549827567249
 20
187.90413409360917
 11
305.67306922904169
 21
188.01046877988833
  0
LINE
  8
_0-0_0
  6
CONTINUOUS
 62
  250
 10
305.67306922904169
 20
188.01046877988833
 11
306.02886604300653
 21
188.11827212461472
  0
LINE
  8
_0-0_0
  6
CONTINUOUS
 62
  250
 10
306.02886604300653
 20
188.11827212461472
 11
306.44668983451049
 21
188.21447878965392
  0
LINE
  8
_0-0_0
  6
CONTINUOUS
 62
  250
 10
306.44668983451049
 20
188.21447878965392
 11
306.92032264701055
 21
188.28621417173395
  0
LINE
  8
_0-0_0
  6
CONTINUOUS
 62
  250
 10
306.92032264701055
 20
188.28621417173395
 11
307.44352745047735
 21
188.32050830015197
  0
LINE
  8
_0-0_0
  6
CONTINUOUS
 62
  250
 10
307.44352745047735
 20
188.32050830015197
 11
308.01008628836769
 21
188.30442935117753
  0
LINE
  8
_0-0_0
  6
CONTINUOUS
 62
  250
 10
308.01008628836769
 20
188.30442935117753
 11
308.61378120413934
 21
188.22500735410716
  0
LINE
  8
_0-0_0
  6
CONTINUOUS
 62
  250
 10
308.61378120413934
 20
188.22500735410716
 11
308.62152503958856
 21
188.22409182676358
  0
LINE
  8
_0-0_0
  6
CONTINUOUS
 62
  250
 10
308.62152503958856
 20
188.22409182676358
 11
308.62873481742054
 21
188.22338610776913
  0
LINE
  8
_0-0_0
  6
CONTINUOUS
 62
  250
 10
308.62873481742054
 20
188.22338610776913
 11
308.63552497855335
 21
188.22281390317954
  0
LINE
  8
_0-0_0
  6
CONTINUOUS
 62
  250
 10
308.63552497855335
 20
188.22281390317954
 11
308.64193366995971
 21
188.22237521299397
  0
LINE
  8
_0-0_0
  6
CONTINUOUS
 62
  250
 10
308.64193366995971
 20
188.22237521299397
 11
308.64803718558449
 21
188.22207003721275
  0
LINE
  8
_0-0_0
  6
CONTINUOUS
 62
  250
 10
308.64803718558449
 20
188.22207003721275
 11
308.6538545989149
 21
188.22186022886316
  0
LINE
  8
_0-0_0
  6
CONTINUOUS
 62
  250
 10
308.6538545989149
 20
188.22186022886316
 11
308.65950035086814
 21
188.22176486143155
  0
LINE
  8
_0-0_0
  6
CONTINUOUS
 62
  250
 10
308.65950035086814
 20
188.22176486143155
 11
308.66497444144414
 21
188.22168856748593
  0
LINE
  8
_0-0_0
  6
CONTINUOUS
 62
  250
 10
308.66497444144414
 20
188.22168856748593
 11
308.67039131156133
 21
188.22165042051358
  0
LINE
  8
_0-0_0
  6
CONTINUOUS
 62
  250
 10
308.67039131156133
 20
188.22165042051358
 11
308.67577003470569
 21
188.22165042051358
  0
LINE
  8
_0-0_0
  6
CONTINUOUS
 62
  250
 10
308.67577003470569
 20
188.22165042051358
 11
308.91910957328008
 21
188.15702944883355
  0
LINE
  8
_0-0_0
  6
CONTINUOUS
 62
  250
 10
308.91910957328008
 20
188.15702944883355
 11
308.88111518851457
 21
190.41433840879475
  0
LINE
  8
_0-0_0
  6
CONTINUOUS
 62
  250
 10
308.88111518851457
 20
190.41433840879475
 11
308.6011164092173
 21
190.60833483823794
  0
LINE
  8
_0-0_0
  6
CONTINUOUS
 62
  250
 10
308.6011164092173
 20
190.60833483823794
 11
307.78046058646373
 21
190.70765048154837
  0
LINE
  8
_0-0_0
  6
CONTINUOUS
 62
  250
 10
307.78046058646373
 20
190.70765048154837
 11
307.48573707572132
 21
190.74308901914634
  0
LINE
  8
_0-0_0
  6
CONTINUOUS
 62
  250
 10
307.48573707572132
 20
190.74308901914634
 11
307.10413383475458
 21
190.70301562437075
  0
LINE
  8
_0-0_0
  6
CONTINUOUS
 62
  250
 10
307.10413383475458
 20
190.70301562437075
 11
306.65619300833851
 21
190.60080081113836
  0
LINE
  8
_0-0_0
  6
CONTINUOUS
 62
  250
 10
306.65619300833851
 20
190.60080081113836
 11
306.16247581473533
 21
190.44989138731034
  0
LINE
  8
_0-0_0
  6
CONTINUOUS
 62
  250
 10
306.16247581473533
 20
190.44989138731034
 11
305.64361976615135
 21
190.26352435239838
  0
LINE
  8
_0-0_0
  6
CONTINUOUS
 62
  250
 10
305.64361976615135
 20
190.26352435239838
 11
305.12012886038934
 21
190.0551274407772
  0
LINE
  8
_0-0_0
  6
CONTINUOUS
 62
  250
 10
305.12012886038934
 20
190.0551274407772
 11
304.61264060965698
 21
189.83803301939037
  0
LINE
  8
_0-0_0
  6
CONTINUOUS
 62
  250
 10
304.61264060965698
 20
189.83803301939037
 11
304.14171623221574
 21
189.62566882261316
  0
LINE
  8
_0-0_0
  6
CONTINUOUS
 62
  250
 10
304.14171623221574
 20
189.62566882261316
 11
303.72789787284051
 21
189.43130999692957
  0
LINE
  8
_0-0_0
  6
CONTINUOUS
 62
  250
 10
303.72789787284051
 20
189.43130999692957
 11
303.39176582328014
 21
189.26834612974196
  0
LINE
  8
_0-0_0
  6
CONTINUOUS
 62
  250
 10
303.39176582328014
 20
189.26834612974196
 11
303.2844011687389
 21
189.21555071958556
  0
LINE
  8
_0-0_0
  6
CONTINUOUS
 62
  250
 10
303.2844011687389
 20
189.21555071958556
 11
303.18657325736217
 21
189.16698962339439
  0
LINE
  8
_0-0_0
  6
CONTINUOUS
 62
  250
 10
303.18657325736217
 20
189.16698962339439
 11
303.09870170584855
 21
189.12298709043515
  0
LINE
  8
_0-0_0
  6
CONTINUOUS
 62
  250
 10
303.09870170584855
 20
189.12298709043515
 11
303.021187057411
 21
189.08384829648998
  0
LINE
  8
_0-0_0
  6
CONTINUOUS
 62
  250
 10
303.021187057411
 20
189.08384829648998
 11
302.95444892874895
 21
189.04984027036679
  0
LINE
  8
_0-0_0
  6
CONTINUOUS
 62
  250
 10
302.95444892874895
 20
189.04984027036679
 11
302.89892601004772
 21
189.02136355527915
  0
LINE
  8
_0-0_0
  6
CONTINUOUS
 62
  250
 10
302.89892601004772
 20
189.02136355527915
 11
302.85499977103416
 21
188.99862795957597
  0
LINE
  8
_0-0_0
  6
CONTINUOUS
 62
  250
 10
302.85499977103416
 20
188.99862795957597
 11
302.82312797537975
 21
188.98201495298397
  0
LINE
  8
_0-0_0
  6
CONTINUOUS
 62
  250
 10
302.82312797537975
 20
188.98201495298397
 11
302.80369209281139
 21
188.9718106377984
  0
LINE
  8
_0-0_0
  6
CONTINUOUS
 62
  250
 10
302.80369209281139
 20
188.9718106377984
 11
302.79713081351451
 21
188.96835833677315
  0
LINE
  8
_0-0_0
  6
CONTINUOUS
 62
  250
 10
302.79713081351451
 20
188.96835833677315
 11
239.06845497122933
 21
152.14035540708554
  0
LINE
  8
_0-0_0
  6
CONTINUOUS
 62
  250
 10
241.29511283866094
 20
150.83767443784757
 11
304.2064325713269
 21
187.27032214292552
  0
LINE
  8
_0-0_0
  6
CONTINUOUS
 62
  250
 10
304.2064325713269
 20
187.27032214292552
 11
304.99445365897333
 21
187.72299319395074
  0
LINE
  8
_0-0_0
  6
CONTINUOUS
 62
  250
 10
304.99445365897333
 20
187.72299319395074
 11
305.03998207083851
 21
187.74744540342354
  0
LINE
  8
_0-0_0
  6
CONTINUOUS
 62
  250
 10
305.03998207083851
 20
187.74744540342354
 11
305.1724092864149
 21
187.81214266904874
  0
LINE
  8
_0-0_0
  6
CONTINUOUS
 62
  250
 10
305.1724092864149
 20
187.81214266904874
 11
305.38549827567249
 21
187.90413409360917
  0
LINE
  8
_0-0_0
  6
CONTINUOUS
 62
  250
 10
305.38549827567249
 20
187.90413409360917
 11
305.67306922904169
 21
188.01046877988833
  0
LINE
  8
_0-0_0
  6
CONTINUOUS
 62
  250
 10
305.67306922904169
 20
188.01046877988833
 11
306.02886604300653
 21
188.11827212461472
  0
LINE
  8
_0-0_0
  6
CONTINUOUS
 62
  250
 10
306.02886604300653
 20
188.11827212461472
 11
306.44668983451049
 21
188.21447878965392
  0
LINE
  8
_0-0_0
  6
CONTINUOUS
 62
  250
 10
306.44668983451049
 20
188.21447878965392
 11
306.92032264701055
 21
188.28621417173395
  0
LINE
  8
_0-0_0
  6
CONTINUOUS
 62
  250
 10
306.92032264701055
 20
188.28621417173395
 11
307.44352745047735
 21
188.32050830015197
  0
LINE
  8
_0-0_0
  6
CONTINUOUS
 62
  250
 10
307.44352745047735
 20
188.32050830015197
 11
308.01008628836769
 21
188.30442935117753
  0
LINE
  8
_0-0_0
  6
CONTINUOUS
 62
  250
 10
308.01008628836769
 20
188.30442935117753
 11
308.61378120413934
 21
188.22500735410716
  0
LINE
  8
_0-0_0
  6
CONTINUOUS
 62
  250
 10
308.61378120413934
 20
188.22500735410716
 11
308.62152503958856
 21
188.22409182676358
  0
LINE
  8
_0-0_0
  6
CONTINUOUS
 62
  250
 10
308.62152503958856
 20
188.22409182676358
 11
308.62873481742054
 21
188.22338610776913
  0
LINE
  8
_0-0_0
  6
CONTINUOUS
 62
  250
 10
308.62873481742054
 20
188.22338610776913
 11
308.63552497855335
 21
188.22281390317954
  0
LINE
  8
_0-0_0
  6
CONTINUOUS
 62
  250
 10
308.63552497855335
 20
188.22281390317954
 11
308.64193366995971
 21
188.22237521299397
  0
LINE
  8
_0-0_0
  6
CONTINUOUS
 62
  250
 10
308.64193366995971
 20
188.22237521299397
 11
308.64803718558449
 21
188.22207003721275
  0
LINE
  8
_0-0_0
  6
CONTINUOUS
 62
  250
 10
308.64803718558449
 20
188.22207003721275
 11
308.6538545989149
 21
188.22186022886316
  0
LINE
  8
_0-0_0
  6
CONTINUOUS
 62
  250
 10
308.6538545989149
 20
188.22186022886316
 11
308.65950035086814
 21
188.22176486143155
  0
LINE
  8
_0-0_0
  6
CONTINUOUS
 62
  250
 10
308.65950035086814
 20
188.22176486143155
 11
308.66497444144414
 21
188.22168856748593
  0
LINE
  8
_0-0_0
  6
CONTINUOUS
 62
  250
 10
308.66497444144414
 20
188.22168856748593
 11
308.67039131156133
 21
188.22165042051358
  0
LINE
  8
_0-0_0
  6
CONTINUOUS
 62
  250
 10
308.67039131156133
 20
188.22165042051358
 11
308.67577003470569
 21
188.22165042051358
  0
LINE
  8
_0-0_0
  6
CONTINUOUS
 62
  250
 10
308.67577003470569
 20
188.22165042051358
 11
308.91910957328008
 21
188.15702944883355
  0
LINE
  8
_0-0_0
  6
CONTINUOUS
 62
  250
 10
308.91910957328008
 20
188.15702944883355
 11
308.88111518851457
 21
190.41433840879475
  0
LINE
  8
_0-0_0
  6
CONTINUOUS
 62
  250
 10
308.88111518851457
 20
190.41433840879475
 11
308.6011164092173
 21
190.60833483823794
  0
LINE
  8
_0-0_0
  6
CONTINUOUS
 62
  250
 10
308.6011164092173
 20
190.60833483823794
 11
307.78046058646373
 21
190.70765048154837
  0
LINE
  8
_0-0_0
  6
CONTINUOUS
 62
  250
 10
307.78046058646373
 20
190.70765048154837
 11
307.48573707572132
 21
190.74308901914634
  0
LINE
  8
_0-0_0
  6
CONTINUOUS
 62
  250
 10
307.48573707572132
 20
190.74308901914634
 11
307.10413383475458
 21
190.70301562437075
  0
LINE
  8
_0-0_0
  6
CONTINUOUS
 62
  250
 10
307.10413383475458
 20
190.70301562437075
 11
306.65619300833851
 21
190.60080081113836
  0
LINE
  8
_0-0_0
  6
CONTINUOUS
 62
  250
 10
306.65619300833851
 20
190.60080081113836
 11
306.16247581473533
 21
190.44989138731034
  0
LINE
  8
_0-0_0
  6
CONTINUOUS
 62
  250
 10
306.16247581473533
 20
190.44989138731034
 11
305.64361976615135
 21
190.26352435239838
  0
LINE
  8
_0-0_0
  6
CONTINUOUS
 62
  250
 10
305.64361976615135
 20
190.26352435239838
 11
305.12012886038934
 21
190.0551274407772
  0
LINE
  8
_0-0_0
  6
CONTINUOUS
 62
  250
 10
305.12012886038934
 20
190.0551274407772
 11
304.61264060965698
 21
189.83803301939037
  0
LINE
  8
_0-0_0
  6
CONTINUOUS
 62
  250
 10
304.61264060965698
 20
189.83803301939037
 11
304.14171623221574
 21
189.62566882261316
  0
LINE
  8
_0-0_0
  6
CONTINUOUS
 62
  250
 10
304.14171623221574
 20
189.62566882261316
 11
303.72789787284051
 21
189.43130999692957
  0
LINE
  8
_0-0_0
  6
CONTINUOUS
 62
  250
 10
303.72789787284051
 20
189.43130999692957
 11
303.39176582328014
 21
189.26834612974196
  0
LINE
  8
_0-0_0
  6
CONTINUOUS
 62
  250
 10
303.39176582328014
 20
189.26834612974196
 11
303.2844011687389
 21
189.21555071958556
  0
LINE
  8
_0-0_0
  6
CONTINUOUS
 62
  250
 10
303.2844011687389
 20
189.21555071958556
 11
303.18657325736217
 21
189.16698962339439
  0
LINE
  8
_0-0_0
  6
CONTINUOUS
 62
  250
 10
303.18657325736217
 20
189.16698962339439
 11
303.09870170584855
 21
189.12298709043515
  0
LINE
  8
_0-0_0
  6
CONTINUOUS
 62
  250
 10
303.09870170584855
 20
189.12298709043515
 11
303.021187057411
 21
189.08384829648998
  0
LINE
  8
_0-0_0
  6
CONTINUOUS
 62
  250
 10
303.021187057411
 20
189.08384829648998
 11
302.95444892874895
 21
189.04984027036679
  0
LINE
  8
_0-0_0
  6
CONTINUOUS
 62
  250
 10
302.95444892874895
 20
189.04984027036679
 11
302.89892601004772
 21
189.02136355527915
  0
LINE
  8
_0-0_0
  6
CONTINUOUS
 62
  250
 10
302.89892601004772
 20
189.02136355527915
 11
302.85499977103416
 21
188.99862795957597
  0
LINE
  8
_0-0_0
  6
CONTINUOUS
 62
  250
 10
302.85499977103416
 20
188.99862795957597
 11
302.82312797537975
 21
188.98201495298397
  0
LINE
  8
_0-0_0
  6
CONTINUOUS
 62
  250
 10
302.82312797537975
 20
188.98201495298397
 11
302.80369209281139
 21
188.9718106377984
  0
LINE
  8
_0-0_0
  6
CONTINUOUS
 62
  250
 10
302.80369209281139
 20
188.9718106377984
 11
302.79713081351451
 21
188.96835833677315
  0
LINE
  8
_0-0_0
  6
CONTINUOUS
 62
  250
 10
302.79713081351451
 20
188.96835833677315
 11
239.06845497122933
 21
152.14035540708554
  0
ENDSEC
  0
EOF
