  0
SECTION
  2
HEADER
  9
$ACADVER
  1
AC1009
  9
$INSBASE
 10
0
 20
0
 30
0
  9
$EXTMIN
 10
0
 20
0
  9
$EXTMAX
 10
840
 20
594
  9
$LIMMIN
 10
0
 20
0
  9
$LIMMAX
 10
840
 20
594
  9
$LTSCALE
 40
2
  0
ENDSEC
  0
SECTION
  2
TABLES
  0
TABLE
  2
LTYPE
 70
     9
  0
LTYPE
  2
CONTINUOUS
 70
    64
  3
実線
 72
    65
 73
     0
 40
0.0
  0
LTYPE
  2
DASHED1
 70
    64
  3
--  --  --  --  --  --  --  --  
 72
    65
 73
     2
 40
2.5
 49
1.25
 49
-1.25
  0
LTYPE
  2
DASHED2
 70
    64
  3
----    ----    ----    ----    
 72
    65
 73
     2
 40
5.0
 49
2.5
 49
-2.5
  0
LTYPE
  2
DASHED3
 70
    64
  3
------  ------  ------  ------  
 72
    65
 73
     2
 40
5.0
 49
3.75
 49
-1.25
  0
LTYPE
  2
CENTER1
 70
    64
  3
----- - ----- - ----- - ----- - 
 72
    65
 73
     4
 40
10.0
 49
6.25
 49
-1.25
 49
1.25
 49
-1.25
  0
LTYPE
  2
CENTER2
 70
    64
  3
----------  --  ----------  --  
 72
    65
 73
     4
 40
20.0
 49
12.5
 49
-2.5
 49
2.5
 49
-2.5
  0
LTYPE
  2
PHANTOM1
 70
    64
  3
--- - - --- - - --- - - --- - - 
 72
    65
 73
     6
 40
10.0
 49
3.25
 49
-1.25
 49
1.25
 49
-1.25
 49
1.25
 49
-1.25
  0
LTYPE
  2
PHANTOM2
 70
    64
  3
--------  -  -  --------  -  -  
 72
    65
 73
     6
 40
20.0
 49
10.0
 49
-2.5
 49
1.25
 49
-2.5
 49
1.25
 49
-2.5
  0
LTYPE
  2
DOT
 70
    64
  3
-   -   -   -   -   -   -   -   
 72
    65
 73
     2
 40
2.5
 49
0.625
 49
-1.875
  0
LTYPE
  2
DUMMY
 70
    64
  3
ダミー
 72
    65
 73
     0
 40
0.0
  0
LTYPE
  2
RAND1
 70
    64
  3
ランダム線1
 72
    65
 73
     4
 40
10.0
 49
1.0
 49
-2.0
 49
3.0
 49
-4.0
  0
LTYPE
  2
RAND2
 70
    64
  3
ランダム線2
 72
    65
 73
     4
 40
14.0
 49
2.0
 49
-3.0
 49
4.0
 49
-5.0
  0
LTYPE
  2
RAND3
 70
    64
  3
ランダム線3
 72
    65
 73
     4
 40
18.0
 49
3.0
 49
-4.0
 49
5.0
 49
-6.0
  0
LTYPE
  2
RAND4
 70
    64
  3
ランダム線4
 72
    65
 73
     4
 40
22.0
 49
4.0
 49
-5.0
 49
6.0
 49
-7.0
  0
LTYPE
  2
RAND5
 70
    64
  3
ランダム線5
 72
    65
 73
     4
 40
26.0
 49
5.0
 49
-6.0
 49
7.0
 49
-8.0
  0
LTYPE
  2
LONG1
 70
    64
  3
----------  --  ----------  --  
 72
    65
 73
     4
 40
40.0
 49
32.5
 49
-2.5
 49
2.5
 49
-2.5
  0
LTYPE
  2
LONG2
 70
    64
  3
--------  -  -  --------  -  -  
 72
    65
 73
     6
 40
40.0
 49
30.0
 49
-2.5
 49
1.25
 49
-2.5
 49
1.25
 49
-2.5
  0
LTYPE
  2
LONG3
 70
    64
  3
+++++++++++++++..+++++++++++++++
 72
    65
 73
     2
 40
40.0
 49
37.5
 49
-2.5
  0
LTYPE
  2
LONG4
 70
    64
  3
+++++++++++++++..+++++++++++++++
 72
    65
 73
     2
 40
80.0
 49
75.0
 49
-5.0
  0
LTYPE
  2
LONG5
 70
    64
  3
----------  --  ----------  --  
 72
    65
 73
     4
 40
60.0
 49
37.5
 49
-7.5
 49
7.5
 49
-7.5
  0
LTYPE
  2
dashed
 70
   64
  3
-------   -------------   ------
 72
   65
 73
    2
 40
7.5
 49
6
 49
-1.5
  0
LTYPE
  2
dashed_spaced
 70
   64
  3
----        --------        ----
 72
   65
 73
    2
 40
12
 49
6
 49
-6
  0
LTYPE
  2
long_dashed_dotted
 70
   64
  3
------------- --- --------------
 72
   65
 73
    4
 40
15.25
 49
12
 49
-1.5
 49
0.25
 49
-1.5
  0
LTYPE
  2
long_dashed_double-dotted
 70
   64
  3
----------- --- --- ------------
 72
   65
 73
    6
 40
17
 49
12
 49
-1.5
 49
0.25
 49
-1.5
 49
0.25
 49
-1.5
  0
LTYPE
  2
long_dashed_triplicate-dotted
 70
   64
  3
--------- --- --- --- ----------
 72
   65
 73
    8
 40
18.75
 49
12
 49
-1.5
 49
0.25
 49
-1.5
 49
0.25
 49
-1.5
 49
0.25
 49
-1.5
  0
LTYPE
  2
dotted
 70
   64
  3
   -       -       -       -    
 72
   65
 73
    2
 40
1.75
 49
0.25
 49
-1.5
  0
LTYPE
  2
chain
 70
   64
  3
-------------- -- --------------
 72
   65
 73
    4
 40
18.5
 49
12
 49
-1.5
 49
3.5
 49
-1.5
  0
LTYPE
  2
chain_double_dash
 70
   64
  3
------------ -- -- -------------
 72
   65
 73
    6
 40
23.5
 49
12
 49
-1.5
 49
3.5
 49
-1.5
 49
3.5
 49
-1.5
  0
LTYPE
  2
dashed_dotted
 70
   64
  3
-----------     -     ----------
 72
   65
 73
    4
 40
9.25
 49
6
 49
-1.5
 49
0.25
 49
-1.5
  0
LTYPE
  2
double-dashed_dotted
 70
   64
  3
------   -----------   -   -----
 72
   65
 73
    6
 40
16.75
 49
6
 49
-1.5
 49
6
 49
-1.5
 49
0.25
 49
-1.5
  0
LTYPE
  2
dashed_double-dotted
 70
   64
  3
---------    -    -    ---------
 72
   65
 73
    6
 40
11
 49
6
 49
-1.5
 49
0.25
 49
-1.5
 49
0.25
 49
-1.5
  0
LTYPE
  2
double-dashed_double-dotted
 70
   64
  3
-----   ---------   -   -   ----
 72
   65
 73
    8
 40
18.5
 49
6
 49
-1.5
 49
6
 49
-1.5
 49
0.25
 49
-1.5
 49
0.25
 49
-1.5
  0
LTYPE
  2
dashed_triplicate-dotted
 70
   64
  3
-------    -    -    -    ------
 72
   65
 73
    8
 40
12.75
 49
6
 49
-1.5
 49
0.25
 49
-1.5
 49
0.25
 49
-1.5
 49
0.25
 49
-1.5
  0
LTYPE
  2
double-dashed_triplicate-dotted
 70
   64
  3
-----  ---------  -  -  -  -----
 72
   65
 73
   10
 40
20.25
 49
6
 49
-1.5
 49
6
 49
-1.5
 49
0.25
 49
-1.5
 49
0.25
 49
-1.5
 49
0.25
 49
-1.5
  0
LTYPE
  2
undefined
 70
   64
  3
--------------------------------
 72
   65
 73
    0
 40
0
  0
LTYPE
  2
_
 70
   64
  3
                                
 72
   65
 73
    0
 40
0
  0
LTYPE
  2
__18
 70
   64
  3
                                
 72
   65
 73
    0
 40
0
  0
LTYPE
  2
__19
 70
   64
  3
                                
 72
   65
 73
    0
 40
0
  0
LTYPE
  2
__20
 70
   64
  3
                                
 72
   65
 73
    0
 40
0
  0
LTYPE
  2
__21
 70
   64
  3
                                
 72
   65
 73
    0
 40
0
  0
LTYPE
  2
__22
 70
   64
  3
                                
 72
   65
 73
    0
 40
0
  0
LTYPE
  2
__23
 70
   64
  3
                                
 72
   65
 73
    0
 40
0
  0
LTYPE
  2
__24
 70
   64
  3
                                
 72
   65
 73
    0
 40
0
  0
LTYPE
  2
__25
 70
   64
  3
                                
 72
   65
 73
    0
 40
0
  0
LTYPE
  2
__26
 70
   64
  3
                                
 72
   65
 73
    0
 40
0
  0
LTYPE
  2
__27
 70
   64
  3
                                
 72
   65
 73
    0
 40
0
  0
LTYPE
  2
__28
 70
   64
  3
                                
 72
   65
 73
    0
 40
0
  0
LTYPE
  2
__29
 70
   64
  3
                                
 72
   65
 73
    0
 40
0
  0
LTYPE
  2
__30
 70
   64
  3
                                
 72
   65
 73
    0
 40
0
  0
LTYPE
  2
__31
 70
   64
  3
                                
 72
   65
 73
    0
 40
0
  0
LTYPE
  2
__32
 70
   64
  3
                                
 72
   65
 73
    0
 40
0
  0
ENDTAB
  0
TABLE
  2
STYLE
  5
3
100
AcDbSymbolTable
 70
     1
  0
STYLE
  5
10
100
AcDbSymbolTableRecord
100
AcDbTextStyleTableRecord
  2
STANDARD
 70
     0
 40
0.0
 41
1.0
 50
0.0
 71
     0
 42
0.2
  3
txt
  4
bigfont.shx
  0
STYLE
  5
26
100
AcDbSymbolTableRecord
100
AcDbTextStyleTableRecord
  2
TATEGAKI
 70
    68
 40
0.0
 41
1.0
 50
0.0
 71
     0
 42
1.0
  3
txt
  4
bigfont.shx
  0
ENDTAB
  0
TABLE
  2
LAYER
 70
    2
  0
LAYER
  2
_0-0_1
 70
   64
 62
    7
  6
CONTINUOUS
  0
LAYER
  2
ADD_LINE
 70
   64
 62
    7
  6
CONTINUOUS
  0
ENDTAB
  0
ENDSEC
  0
SECTION
  2
BLOCKS
  0
ENDSEC
  0
SECTION
  2
ENTITIES
  0
LINE
  8
_0-0_1
  6
CONTINUOUS
 62
  250
 10
512.05608818320707
 20
356.58606360379372
 11
481.43608543662509
 21
374.24110243741166
  0
LINE
  8
_0-0_1
  6
CONTINUOUS
 62
  250
 10
383.86609527854409
 20
236.22440169278269
 11
381.33940670279912
 21
234.82607672635265
  0
LINE
  8
_0-0_1
  6
CONTINUOUS
 62
  250
 10
381.33940670279912
 20
234.82607672635265
 11
381.08916256217412
 21
234.72770522061569
  0
LINE
  8
_0-0_1
  6
CONTINUOUS
 62
  250
 10
381.08916256217412
 20
234.72770522061569
 11
380.81531498221807
 21
234.69437430325667
  0
LINE
  8
_0-0_1
  6
CONTINUOUS
 62
  250
 10
380.81531498221807
 20
234.69437430325667
 11
380.52387211112409
 21
234.72288916531767
  0
LINE
  8
_0-0_1
  6
CONTINUOUS
 62
  250
 10
380.52387211112409
 20
234.72288916531767
 11
380.22077057151205
 21
234.81000731412067
  0
LINE
  8
_0-0_1
  6
CONTINUOUS
 62
  250
 10
380.22077057151205
 20
234.81000731412067
 11
379.91189930228609
 21
234.95253394070767
  0
LINE
  8
_0-0_1
  6
CONTINUOUS
 62
  250
 10
379.91189930228609
 20
234.95253394070767
 11
379.60321876792307
 21
235.14717886868664
  0
LINE
  8
_0-0_1
  6
CONTINUOUS
 62
  250
 10
379.60321876792307
 20
235.14717886868664
 11
379.30071327475912
 21
235.3907949728127
  0
LINE
  8
_0-0_1
  6
CONTINUOUS
 62
  250
 10
379.30071327475912
 20
235.3907949728127
 11
379.01027176169805
 21
235.68004439297863
  0
LINE
  8
_0-0_1
  6
CONTINUOUS
 62
  250
 10
379.01027176169805
 20
235.68004439297863
 11
378.73785469321609
 21
236.01182768765662
  0
LINE
  8
_0-0_1
  6
CONTINUOUS
 62
  250
 10
378.73785469321609
 20
236.01182768765662
 11
378.48939869193509
 21
236.38275931302266
  0
LINE
  8
_0-0_1
  6
CONTINUOUS
 62
  250
 10
378.48939869193509
 20
236.38275931302266
 11
378.27868435172508
 21
236.77214453641062
  0
LINE
  8
_0-0_1
  6
CONTINUOUS
 62
  250
 10
378.27868435172508
 20
236.77214453641062
 11
378.11453316001308
 21
237.16172049466266
  0
LINE
  8
_0-0_1
  6
CONTINUOUS
 62
  250
 10
378.11453316001308
 20
237.16172049466266
 11
377.99706432609008
 21
237.54504988614269
  0
LINE
  8
_0-0_1
  6
CONTINUOUS
 62
  250
 10
377.99706432609008
 20
237.54504988614269
 11
377.92637321738607
 21
237.91540930691869
  0
LINE
  8
_0-0_1
  6
CONTINUOUS
 62
  250
 10
377.92637321738607
 20
237.91540930691869
 11
377.90253135947609
 21
238.26631377164063
  0
LINE
  8
_0-0_1
  6
CONTINUOUS
 62
  250
 10
377.90253135947609
 20
238.26631377164063
 11
377.92565796164911
 21
238.59099219266062
  0
LINE
  8
_0-0_1
  6
CONTINUOUS
 62
  250
 10
377.92565796164911
 20
238.59099219266062
 11
377.99580070762107
 21
238.88291190091266
  0
LINE
  8
_0-0_1
  6
CONTINUOUS
 62
  250
 10
377.99580070762107
 20
238.88291190091266
 11
378.11307880668107
 21
239.13549254361365
  0
LINE
  8
_0-0_1
  6
CONTINUOUS
 62
  250
 10
378.11307880668107
 20
239.13549254361365
 11
378.27761146811912
 21
239.34210608426264
  0
LINE
  8
_0-0_1
  6
CONTINUOUS
 62
  250
 10
378.27761146811912
 20
239.34210608426264
 11
378.48939869193509
 21
239.49607680264668
  0
LINE
  8
_0-0_1
  6
CONTINUOUS
 62
  250
 10
378.48939869193509
 20
239.49607680264668
 11
381.02273914603609
 21
240.90107748929165
  0
LINE
  8
_0-0_1
  6
CONTINUOUS
 62
  250
 10
460.85278961448108
 20
120.45272658291967
 11
322.7877375820101
 21
200.0310785574066
  0
LINE
  8
_0-0_1
  6
CONTINUOUS
 62
  250
 10
352.14941475181013
 20
233.95770857754866
 11
351.96442577628505
 21
407.55270789090366
  0
LINE
  8
_0-0_1
  6
CONTINUOUS
 62
  250
 10
322.8627679088541
 20
199.65103934231962
 11
322.68943760184709
 21
481.51110480252464
  0
LINE
  8
_0-0_1
  6
CONTINUOUS
 62
  250
 10
340.40441486625105
 20
489.37605688992664
 11
479.4710871913851
 21
409.28772757474167
  0
LINE
  8
_0-0_1
  6
CONTINUOUS
 62
  250
 10
512.02938530234712
 20
356.17445776883267
 11
512.0844123104041
 21
201.57274077359369
  0
LINE
  8
_0-0_1
  6
CONTINUOUS
 62
  250
 10
479.4010874965611
 20
409.28772757474167
 11
479.4710871913851
 21
127.92776892605966
  0
LINE
  8
_0-0_1
  6
CONTINUOUS
 62
  250
 10
331.70607063559908
 20
485.48106024686058
 11
470.66609833030105
 21
405.20271132413069
  0
LINE
  8
_0-0_1
  6
CONTINUOUS
 62
  250
 10
470.66609833030105
 20
405.20271132413069
 11
470.71940872458805
 21
124.02771780911567
  0
LINE
  8
_0-0_1
  6
CONTINUOUS
 62
  250
 10
481.44609901694707
 20
189.55944846097168
 11
512.82608482627313
 21
202.65106032315467
  0
LINE
  8
_0-0_1
  6
CONTINUOUS
 62
  250
 10
322.8627679088541
 20
481.59111807767067
 11
341.54777500419004
 21
489.37605688992664
  0
LINE
  8
_0-0_1
  6
CONTINUOUS
 62
  250
 10
460.80944511680008
 20
401.49768660489269
 11
479.4710871913851
 21
409.28772757474167
  0
LINE
  8
_0-0_1
  6
CONTINUOUS
 62
  250
 10
481.43608543662509
 20
343.08775732937966
 11
512.82608482627313
 21
356.17445776883267
  0
LINE
  8
_0-0_1
  6
CONTINUOUS
 62
  250
 10
352.14941475181013
 20
234.7010977071877
 11
425.0544306972451
 21
192.22945044461463
  0
LINE
  8
_0-0_1
  6
CONTINUOUS
 62
  250
 10
352.14941475181013
 20
407.55270789090366
 11
424.06275245933006
 21
365.40106604520065
  0
LINE
  8
_0-0_1
  6
CONTINUOUS
 62
  250
 10
322.68943760184709
 20
482.04277823392067
 11
460.80944511680008
 21
401.57278845730968
  0
LINE
  8
_0-0_1
  6
CONTINUOUS
 62
  250
 10
424.06275245933006
 20
365.40106604520065
 11
424.1177556255281
 21
192.65273878995066
  0
LINE
  8
_0-0_1
  6
CONTINUOUS
 62
  250
 10
460.80944511680008
 20
402.58277724209961
 11
460.85278961448108
 21
119.65941260281764
  0
LINE
  8
_0-0_1
  6
CONTINUOUS
 62
  250
 10
383.86609527854409
 20
236.22440169278269
 11
381.33940670279912
 21
234.82607672635265
  0
LINE
  8
_0-0_1
  6
CONTINUOUS
 62
  250
 10
381.33940670279912
 20
234.82607672635265
 11
381.08916256217412
 21
234.72770522061569
  0
LINE
  8
_0-0_1
  6
CONTINUOUS
 62
  250
 10
381.08916256217412
 20
234.72770522061569
 11
380.81531498221807
 21
234.69437430325667
  0
LINE
  8
_0-0_1
  6
CONTINUOUS
 62
  250
 10
380.81531498221807
 20
234.69437430325667
 11
380.52387211112409
 21
234.72288916531767
  0
LINE
  8
_0-0_1
  6
CONTINUOUS
 62
  250
 10
380.52387211112409
 20
234.72288916531767
 11
380.22077057151205
 21
234.81000731412067
  0
LINE
  8
_0-0_1
  6
CONTINUOUS
 62
  250
 10
380.22077057151205
 20
234.81000731412067
 11
379.91189930228609
 21
234.95253394070767
  0
LINE
  8
_0-0_1
  6
CONTINUOUS
 62
  250
 10
379.91189930228609
 20
234.95253394070767
 11
379.60321876792307
 21
235.14717886868664
  0
LINE
  8
_0-0_1
  6
CONTINUOUS
 62
  250
 10
379.60321876792307
 20
235.14717886868664
 11
379.30071327475912
 21
235.3907949728127
  0
LINE
  8
_0-0_1
  6
CONTINUOUS
 62
  250
 10
379.30071327475912
 20
235.3907949728127
 11
379.01027176169805
 21
235.68004439297863
  0
LINE
  8
_0-0_1
  6
CONTINUOUS
 62
  250
 10
379.01027176169805
 20
235.68004439297863
 11
378.73785469321609
 21
236.01182768765662
  0
LINE
  8
_0-0_1
  6
CONTINUOUS
 62
  250
 10
378.73785469321609
 20
236.01182768765662
 11
378.48939869193509
 21
236.38275931302266
  0
LINE
  8
_0-0_1
  6
CONTINUOUS
 62
  250
 10
378.48939869193509
 20
236.38275931302266
 11
378.27868435172508
 21
236.77214453641062
  0
LINE
  8
_0-0_1
  6
CONTINUOUS
 62
  250
 10
378.27868435172508
 20
236.77214453641062
 11
378.11453316001308
 21
237.16172049466266
  0
LINE
  8
_0-0_1
  6
CONTINUOUS
 62
  250
 10
378.11453316001308
 20
237.16172049466266
 11
377.99706432609008
 21
237.54504988614269
  0
LINE
  8
_0-0_1
  6
CONTINUOUS
 62
  250
 10
377.99706432609008
 20
237.54504988614269
 11
377.92637321738607
 21
237.91540930691869
  0
LINE
  8
_0-0_1
  6
CONTINUOUS
 62
  250
 10
377.92637321738607
 20
237.91540930691869
 11
377.90253135947609
 21
238.26631377164063
  0
LINE
  8
_0-0_1
  6
CONTINUOUS
 62
  250
 10
377.90253135947609
 20
238.26631377164063
 11
377.92565796164911
 21
238.59099219266062
  0
LINE
  8
_0-0_1
  6
CONTINUOUS
 62
  250
 10
377.92565796164911
 20
238.59099219266062
 11
377.99580070762107
 21
238.88291190091266
  0
LINE
  8
_0-0_1
  6
CONTINUOUS
 62
  250
 10
377.99580070762107
 20
238.88291190091266
 11
378.11307880668107
 21
239.13549254361365
  0
LINE
  8
_0-0_1
  6
CONTINUOUS
 62
  250
 10
378.11307880668107
 20
239.13549254361365
 11
378.27761146811912
 21
239.34210608426264
  0
LINE
  8
_0-0_1
  6
CONTINUOUS
 62
  250
 10
378.27761146811912
 20
239.34210608426264
 11
378.48939869193509
 21
239.49607680264668
  0
LINE
  8
_0-0_1
  6
CONTINUOUS
 62
  250
 10
378.48939869193509
 20
239.49607680264668
 11
381.02273914603609
 21
240.90107748929165
  0
LINE
  8
_0-0_1
  6
CONTINUOUS
 62
  250
 10
380.96942875174909
 20
235.03607581082468
 11
380.75075123099708
 21
234.94848082486266
  0
LINE
  8
_0-0_1
  6
CONTINUOUS
 62
  250
 10
380.75075123099708
 20
234.94848082486266
 11
380.5121180751741
 21
234.91786787930664
  0
LINE
  8
_0-0_1
  6
CONTINUOUS
 62
  250
 10
380.5121180751741
 20
234.91786787930664
 11
380.25858375815807
 21
234.94142363492162
  0
LINE
  8
_0-0_1
  6
CONTINUOUS
 62
  250
 10
380.25858375815807
 20
234.94142363492162
 11
379.99517891196609
 21
235.0161917013277
  0
LINE
  8
_0-0_1
  6
CONTINUOUS
 62
  250
 10
379.99517891196609
 20
235.0161917013277
 11
379.72691032676107
 21
235.13945410672363
  0
LINE
  8
_0-0_1
  6
CONTINUOUS
 62
  250
 10
379.72691032676107
 20
235.13945410672363
 11
379.45885631827707
 21
235.30825446072765
  0
LINE
  8
_0-0_1
  6
CONTINUOUS
 62
  250
 10
379.45885631827707
 20
235.30825446072765
 11
379.19602367667608
 21
235.51982710782264
  0
LINE
  8
_0-0_1
  6
CONTINUOUS
 62
  250
 10
379.19602367667608
 20
235.51982710782264
 11
378.94349071769108
 21
235.7713587087747
  0
LINE
  8
_0-0_1
  6
CONTINUOUS
 62
  250
 10
378.94349071769108
 20
235.7713587087747
 11
378.70626423148508
 21
236.05994055691869
  0
LINE
  8
_0-0_1
  6
CONTINUOUS
 62
  250
 10
378.70626423148508
 20
236.05994055691869
 11
378.48939869193509
 21
236.38275931302266
  0
LINE
  8
_0-0_1
  6
CONTINUOUS
 62
  250
 10
378.48939869193509
 20
236.38275931302266
 11
378.30653164176408
 21
236.72560522977062
  0
LINE
  8
_0-0_1
  6
CONTINUOUS
 62
  250
 10
378.30653164176408
 20
236.72560522977062
 11
378.16395733146106
 21
237.06764052334961
  0
LINE
  8
_0-0_1
  6
CONTINUOUS
 62
  250
 10
378.16395733146106
 20
237.06764052334961
 11
378.06186649589011
 21
237.40319083157664
  0
LINE
  8
_0-0_1
  6
CONTINUOUS
 62
  250
 10
378.06186649589011
 20
237.40319083157664
 11
378.00028297690807
 21
237.72686789456563
  0
LINE
  8
_0-0_1
  6
CONTINUOUS
 62
  250
 10
378.00028297690807
 20
237.72686789456563
 11
377.97942135123606
 21
238.03314040127967
  0
LINE
  8
_0-0_1
  6
CONTINUOUS
 62
  250
 10
377.97942135123606
 20
238.03314040127967
 11
377.99932930259109
 21
238.3165247243997
  0
LINE
  8
_0-0_1
  6
CONTINUOUS
 62
  250
 10
377.99932930259109
 20
238.3165247243997
 11
378.0601737239781
 21
238.57153723660664
  0
LINE
  8
_0-0_1
  6
CONTINUOUS
 62
  250
 10
378.0601737239781
 20
238.57153723660664
 11
378.16204998282808
 21
238.7925989431497
  0
LINE
  8
_0-0_1
  6
CONTINUOUS
 62
  250
 10
378.16204998282808
 20
238.7925989431497
 11
378.30507728843105
 21
238.97427390042463
  0
LINE
  8
_0-0_1
  6
CONTINUOUS
 62
  250
 10
378.30507728843105
 20
238.97427390042463
 11
378.48939869193509
 21
239.11103079739766
  0
LINE
  8
_0-0_1
  6
CONTINUOUS
 62
  250
 10
378.48939869193509
 20
239.11103079739766
 11
378.70626423148508
 21
239.19180701199664
  0
LINE
  8
_0-0_1
  6
CONTINUOUS
 62
  250
 10
378.70626423148508
 20
239.19180701199664
 11
378.94346687583408
 21
239.21774695340369
  0
LINE
  8
_0-0_1
  6
CONTINUOUS
 62
  250
 10
378.94346687583408
 20
239.21774695340369
 11
379.19590446738607
 21
239.19133017483861
  0
LINE
  8
_0-0_1
  6
CONTINUOUS
 62
  250
 10
379.19590446738607
 20
239.19133017483861
 11
379.45852253226707
 21
239.11503622952665
  0
LINE
  8
_0-0_1
  6
CONTINUOUS
 62
  250
 10
379.45852253226707
 20
239.11503622952665
 11
379.72629043845609
 21
238.99129698697266
  0
LINE
  8
_0-0_1
  6
CONTINUOUS
 62
  250
 10
379.72629043845609
 20
238.99129698697266
 11
379.99408218650206
 21
238.82259200040068
  0
LINE
  8
_0-0_1
  6
CONTINUOUS
 62
  250
 10
379.99408218650206
 20
238.82259200040068
 11
380.25686714438808
 21
238.61144850674762
  0
LINE
  8
_0-0_1
  6
CONTINUOUS
 62
  250
 10
380.25686714438808
 20
238.61144850674762
 11
380.50959083823608
 21
238.36025069180664
  0
LINE
  8
_0-0_1
  6
CONTINUOUS
 62
  250
 10
380.50959083823608
 20
238.36025069180664
 11
380.74710342673711
 21
238.07152579251465
  0
LINE
  8
_0-0_1
  6
CONTINUOUS
 62
  250
 10
380.74710342673711
 20
238.07152579251465
 11
380.96442196158807
 21
237.74775336209467
  0
LINE
  8
_0-0_1
  6
CONTINUOUS
 62
  250
 10
380.96442196158807
 20
237.74775336209467
 11
381.15026924399808
 21
237.40814993802266
  0
LINE
  8
_0-0_1
  6
CONTINUOUS
 62
  250
 10
381.15026924399808
 20
237.40814993802266
 11
381.2948462703651
 21
237.06907103482359
  0
LINE
  8
_0-0_1
  6
CONTINUOUS
 62
  250
 10
381.2948462703651
 20
237.06907103482359
 11
381.39820072440511
 21
236.73604796353465
  0
LINE
  8
_0-0_1
  6
CONTINUOUS
 62
  250
 10
381.39820072440511
 20
236.73604796353465
 11
381.4603326061191
 21
236.41451666775862
  0
LINE
  8
_0-0_1
  6
CONTINUOUS
 62
  250
 10
381.4603326061191
 20
236.41451666775862
 11
381.4812657573641
 21
236.11000845853064
  0
LINE
  8
_0-0_1
  6
CONTINUOUS
 62
  250
 10
381.4812657573641
 20
236.11000845853064
 11
381.46109554557211
 21
235.8281023306007
  0
LINE
  8
_0-0_1
  6
CONTINUOUS
 62
  250
 10
381.46109554557211
 20
235.8281023306007
 11
381.39975044516905
 21
235.57423422757361
  0
LINE
  8
_0-0_1
  6
CONTINUOUS
 62
  250
 10
381.39975044516905
 20
235.57423422757361
 11
381.2973496654451
 21
235.35388777676769
  0
LINE
  8
_0-0_1
  6
CONTINUOUS
 62
  250
 10
381.2973496654451
 20
235.35388777676769
 11
381.15391704825811
 21
235.17268965665068
  0
LINE
  8
_0-0_1
  6
CONTINUOUS
 62
  250
 10
381.15391704825811
 20
235.17268965665068
 11
380.96942875174909
 21
235.03607581082468
  0
LINE
  8
_0-0_1
  6
CONTINUOUS
 62
  250
 10
381.02273914603609
 20
240.90107748929165
 11
381.27090904502307
 21
240.99611113492162
  0
LINE
  8
_0-0_1
  6
CONTINUOUS
 62
  250
 10
381.27090904502307
 20
240.99611113492162
 11
381.54256317405111
 21
241.0263902944676
  0
LINE
  8
_0-0_1
  6
CONTINUOUS
 62
  250
 10
381.54256317405111
 20
241.0263902944676
 11
381.83188411979108
 21
240.99544356290068
  0
LINE
  8
_0-0_1
  6
CONTINUOUS
 62
  250
 10
381.83188411979108
 20
240.99544356290068
 11
382.13293525962308
 21
240.90665648404263
  0
LINE
  8
_0-0_1
  6
CONTINUOUS
 62
  250
 10
382.13293525962308
 20
240.90665648404263
 11
382.4400183895051
 21
240.76336691800267
  0
LINE
  8
_0-0_1
  6
CONTINUOUS
 62
  250
 10
382.4400183895051
 20
240.76336691800267
 11
382.7472922542521
 21
240.56900809231962
  0
LINE
  8
_0-0_1
  6
CONTINUOUS
 62
  250
 10
382.7472922542521
 20
240.56900809231962
 11
383.04882023124105
 21
240.32706091824664
  0
LINE
  8
_0-0_1
  6
CONTINUOUS
 62
  250
 10
383.04882023124105
 20
240.32706091824664
 11
383.3388564327181
 21
240.04086325589367
  0
LINE
  8
_0-0_1
  6
CONTINUOUS
 62
  250
 10
383.3388564327181
 20
240.04086325589367
 11
383.6115596034951
 21
239.71384833279768
  0
LINE
  8
_0-0_1
  6
CONTINUOUS
 62
  250
 10
383.6115596034951
 20
239.71384833279768
 11
383.86108848838211
 21
239.34940169278269
  0
LINE
  8
_0-0_1
  6
CONTINUOUS
 62
  250
 10
383.86108848838211
 20
239.34940169278269
 11
384.07366249350912
 21
238.95720313016062
  0
LINE
  8
_0-0_1
  6
CONTINUOUS
 62
  250
 10
384.07366249350912
 20
238.95720313016062
 11
384.23933956412708
 21
238.56571982327665
  0
LINE
  8
_0-0_1
  6
CONTINUOUS
 62
  250
 10
384.23933956412708
 20
238.56571982327665
 11
384.35804817466209
 21
238.18129370633267
  0
LINE
  8
_0-0_1
  6
CONTINUOUS
 62
  250
 10
384.35804817466209
 20
238.18129370633267
 11
384.4297406413981
 21
237.81045744839864
  0
LINE
  8
_0-0_1
  6
CONTINUOUS
 62
  250
 10
384.4297406413981
 20
237.81045744839864
 11
384.4541785457551
 21
237.45940993252967
  0
LINE
  8
_0-0_1
  6
CONTINUOUS
 62
  250
 10
384.4541785457551
 20
237.45940993252967
 11
384.43143341330909
 21
237.13454077664562
  0
LINE
  8
_0-0_1
  6
CONTINUOUS
 62
  250
 10
384.43143341330909
 20
237.13454077664562
 11
384.3613145091951
 21
236.84228728238264
  0
LINE
  8
_0-0_1
  6
CONTINUOUS
 62
  250
 10
384.3613145091951
 20
236.84228728238264
 11
384.24379799155605
 21
236.58894370022969
  0
LINE
  8
_0-0_1
  6
CONTINUOUS
 62
  250
 10
384.24379799155605
 20
236.58894370022969
 11
384.0787408092441
 21
236.38085196438965
  0
LINE
  8
_0-0_1
  6
CONTINUOUS
 62
  250
 10
384.0787408092441
 20
236.38085196438965
 11
383.86609527854409
 21
236.22440169278269
  0
LINE
  8
_0-0_1
  6
CONTINUOUS
 62
  250
 10
460.80944511680008
 20
120.13777563992667
 11
480.15940162925205
 21
128.41776678982865
  0
LINE
  8
_0-0_1
  6
CONTINUOUS
 62
  250
 10
384.67943641929105
 20
316.14445517483864
 11
385.23552391318708
 21
316.08518431607467
  0
LINE
  8
_0-0_1
  6
CONTINUOUS
 62
  250
 10
385.23552391318708
 20
316.08518431607467
 11
385.76319191245506
 21
315.91366599026867
  0
LINE
  8
_0-0_1
  6
CONTINUOUS
 62
  250
 10
385.76319191245506
 20
315.91366599026867
 11
386.25524017600407
 21
315.63910315457468
  0
LINE
  8
_0-0_1
  6
CONTINUOUS
 62
  250
 10
386.25524017600407
 20
315.63910315457468
 11
386.70468303946905
 21
315.27093718472668
  0
LINE
  8
_0-0_1
  6
CONTINUOUS
 62
  250
 10
386.70468303946905
 20
315.27093718472668
 11
387.1043917873331
 21
314.81837103787564
  0
LINE
  8
_0-0_1
  6
CONTINUOUS
 62
  250
 10
387.1043917873331
 20
314.81837103787564
 11
387.44733307151205
 21
314.29075072232359
  0
LINE
  8
_0-0_1
  6
CONTINUOUS
 62
  250
 10
387.44733307151205
 20
314.29075072232359
 11
387.72635433463506
 21
313.69742224637162
  0
LINE
  8
_0-0_1
  6
CONTINUOUS
 62
  250
 10
387.72635433463506
 20
313.69742224637162
 11
387.93442222861711
 21
313.04768393460466
  0
LINE
  8
_0-0_1
  6
CONTINUOUS
 62
  250
 10
387.93442222861711
 20
313.04768393460466
 11
388.0644557216591
 21
312.35078642789063
  0
LINE
  8
_0-0_1
  6
CONTINUOUS
 62
  250
 10
388.0644557216591
 20
312.35078642789063
 11
388.10939762381906
 21
311.61607573453063
  0
LINE
  8
_0-0_1
  6
CONTINUOUS
 62
  250
 10
388.10939762381906
 20
311.61607573453063
 11
388.10939762381906
 21
300.35775969449168
  0
LINE
  8
_0-0_1
  6
CONTINUOUS
 62
  250
 10
388.10939762381906
 20
300.35775969449168
 11
388.0644557216591
 21
299.62133238736362
  0
LINE
  8
_0-0_1
  6
CONTINUOUS
 62
  250
 10
388.0644557216591
 20
299.62133238736362
 11
387.93442222861711
 21
298.92233679715366
  0
LINE
  8
_0-0_1
  6
CONTINUOUS
 62
  250
 10
387.93442222861711
 20
298.92233679715366
 11
387.72635433463506
 21
298.27026198331066
  0
LINE
  8
_0-0_1
  6
CONTINUOUS
 62
  250
 10
387.72635433463506
 20
298.27026198331066
 11
387.44733307151205
 21
297.67445395413569
  0
LINE
  8
_0-0_1
  6
CONTINUOUS
 62
  250
 10
387.44733307151205
 20
297.67445395413569
 11
387.1043917873331
 21
297.14440176907664
  0
LINE
  8
_0-0_1
  6
CONTINUOUS
 62
  250
 10
387.1043917873331
 20
297.14440176907664
 11
386.70468303946905
 21
296.68959448758267
  0
LINE
  8
_0-0_1
  6
CONTINUOUS
 62
  250
 10
386.70468303946905
 20
296.68959448758267
 11
386.25524017600407
 21
296.31942580166969
  0
LINE
  8
_0-0_1
  6
CONTINUOUS
 62
  250
 10
386.25524017600407
 20
296.31942580166969
 11
385.76319191245506
 21
296.04333708707065
  0
LINE
  8
_0-0_1
  6
CONTINUOUS
 62
  250
 10
385.76319191245506
 20
296.04333708707065
 11
385.23552391318708
 21
295.87072203580061
  0
LINE
  8
_0-0_1
  6
CONTINUOUS
 62
  250
 10
385.23552391318708
 20
295.87072203580061
 11
384.67943641929105
 21
295.81106970730968
  0
LINE
  8
_0-0_1
  6
CONTINUOUS
 62
  250
 10
377.86607715873106
 20
296.13608191434065
 11
377.82103988913906
 21
295.39917777005365
  0
LINE
  8
_0-0_1
  6
CONTINUOUS
 62
  250
 10
377.82103988913906
 20
295.39917777005365
 11
377.69072029380209
 21
294.70061133328562
  0
LINE
  8
_0-0_1
  6
CONTINUOUS
 62
  250
 10
377.69072029380209
 20
294.70061133328562
 11
377.48241398124105
 21
294.04963324490768
  0
LINE
  8
_0-0_1
  6
CONTINUOUS
 62
  250
 10
377.48241398124105
 20
294.04963324490768
 11
377.20329735068708
 21
293.45549414578562
  0
LINE
  8
_0-0_1
  6
CONTINUOUS
 62
  250
 10
377.20329735068708
 20
293.45549414578562
 11
376.86064216880209
 21
292.92734930936064
  0
LINE
  8
_0-0_1
  6
CONTINUOUS
 62
  250
 10
376.86064216880209
 20
292.92734930936064
 11
376.46172020225009
 21
292.47454474393066
  0
LINE
  8
_0-0_1
  6
CONTINUOUS
 62
  250
 10
376.46172020225009
 20
292.47454474393066
 11
376.01373169211809
 21
292.10623572293468
  0
LINE
  8
_0-0_1
  6
CONTINUOUS
 62
  250
 10
376.01373169211809
 20
292.10623572293468
 11
375.5239007213541
 21
291.83176825467268
  0
LINE
  8
_0-0_1
  6
CONTINUOUS
 62
  250
 10
375.5239007213541
 20
291.83176825467268
 11
374.99947521476207
 21
291.66029761258267
  0
LINE
  8
_0-0_1
  6
CONTINUOUS
 62
  250
 10
374.99947521476207
 20
291.66029761258267
 11
374.44775078086309
 21
291.60112212124966
  0
LINE
  8
_0-0_1
  6
CONTINUOUS
 62
  250
 10
374.44775078086309
 20
291.60112212124966
 11
373.89166328696609
 21
291.66029761258267
  0
LINE
  8
_0-0_1
  6
CONTINUOUS
 62
  250
 10
373.89166328696609
 20
291.66029761258267
 11
373.36416218070411
 21
291.83176825467268
  0
LINE
  8
_0-0_1
  6
CONTINUOUS
 62
  250
 10
373.36416218070411
 20
291.83176825467268
 11
372.87228081016008
 21
292.10623572293468
  0
LINE
  8
_0-0_1
  6
CONTINUOUS
 62
  250
 10
372.87228081016008
 20
292.10623572293468
 11
372.42307636527408
 21
292.47454474393066
  0
LINE
  8
_0-0_1
  6
CONTINUOUS
 62
  250
 10
372.42307636527408
 20
292.47454474393066
 11
372.0236060359901
 21
292.92734930936064
  0
LINE
  8
_0-0_1
  6
CONTINUOUS
 62
  250
 10
372.0236060359901
 20
292.92734930936064
 11
371.68092701224708
 21
293.45549414578562
  0
LINE
  8
_0-0_1
  6
CONTINUOUS
 62
  250
 10
371.68092701224708
 20
293.45549414578562
 11
371.40212032584611
 21
294.04963324490768
  0
LINE
  8
_0-0_1
  6
CONTINUOUS
 62
  250
 10
371.40212032584611
 20
294.04963324490768
 11
371.1942193248691
 21
294.70061133328562
  0
LINE
  8
_0-0_1
  6
CONTINUOUS
 62
  250
 10
371.1942193248691
 20
294.70061133328562
 11
371.06430504111711
 21
295.39917777005365
  0
LINE
  8
_0-0_1
  6
CONTINUOUS
 62
  250
 10
371.06430504111711
 20
295.39917777005365
 11
371.01943466453008
 21
296.13608191434065
  0
LINE
  8
_0-0_1
  6
CONTINUOUS
 62
  250
 10
371.01943466453008
 20
296.13608191434065
 11
371.01943466453008
 21
307.40107367459467
  0
LINE
  8
_0-0_1
  6
CONTINUOUS
 62
  250
 10
371.01943466453008
 20
307.40107367459467
 11
371.06430504111711
 21
308.13640425625971
  0
LINE
  8
_0-0_1
  6
CONTINUOUS
 62
  250
 10
371.06430504111711
 20
308.13640425625971
 11
371.1942193248691
 21
308.83339713040561
  0
LINE
  8
_0-0_1
  6
CONTINUOUS
 62
  250
 10
371.1942193248691
 20
308.83339713040561
 11
371.40212032584611
 21
309.48280165616166
  0
LINE
  8
_0-0_1
  6
CONTINUOUS
 62
  250
 10
371.40212032584611
 20
309.48280165616166
 11
371.68092701224708
 21
310.07541487637661
  0
LINE
  8
_0-0_1
  6
CONTINUOUS
 62
  250
 10
371.68092701224708
 20
310.07541487637661
 11
372.0236060359901
 21
310.60212920132767
  0
LINE
  8
_0-0_1
  6
CONTINUOUS
 62
  250
 10
372.0236060359901
 20
310.60212920132767
 11
372.42307636527408
 21
311.05364630643066
  0
LINE
  8
_0-0_1
  6
CONTINUOUS
 62
  250
 10
372.42307636527408
 20
311.05364630643066
 11
372.87228081016008
 21
311.42081091824662
  0
LINE
  8
_0-0_1
  6
CONTINUOUS
 62
  250
 10
372.87228081016008
 20
311.42081091824662
 11
373.36416218070411
 21
311.69446776333967
  0
LINE
  8
_0-0_1
  6
CONTINUOUS
 62
  250
 10
373.36416218070411
 20
311.69446776333967
 11
373.89166328696609
 21
311.86541388455566
  0
LINE
  8
_0-0_1
  6
CONTINUOUS
 62
  250
 10
373.89166328696609
 20
311.86541388455566
 11
374.44775078086309
 21
311.92439864102568
  0
LINE
  8
_0-0_1
  6
CONTINUOUS
 62
  250
 10
374.44775078086309
 20
311.92439864102568
 11
374.99947521476207
 21
311.86541388455566
  0
LINE
  8
_0-0_1
  6
CONTINUOUS
 62
  250
 10
374.99947521476207
 20
311.86541388455566
 11
375.5239007213541
 21
311.69446776333967
  0
LINE
  8
_0-0_1
  6
CONTINUOUS
 62
  250
 10
375.5239007213541
 20
311.69446776333967
 11
376.01373169211809
 21
311.42081091824662
  0
LINE
  8
_0-0_1
  6
CONTINUOUS
 62
  250
 10
376.01373169211809
 20
311.42081091824662
 11
376.46172020225009
 21
311.05364630643066
  0
LINE
  8
_0-0_1
  6
CONTINUOUS
 62
  250
 10
376.46172020225009
 20
311.05364630643066
 11
376.86064216880209
 21
310.60212920132767
  0
LINE
  8
_0-0_1
  6
CONTINUOUS
 62
  250
 10
376.86064216880209
 20
310.60212920132767
 11
377.20329735068708
 21
310.07541487637661
  0
LINE
  8
_0-0_1
  6
CONTINUOUS
 62
  250
 10
377.20329735068708
 20
310.07541487637661
 11
377.48241398124105
 21
309.48280165616166
  0
LINE
  8
_0-0_1
  6
CONTINUOUS
 62
  250
 10
377.48241398124105
 20
309.48280165616166
 11
377.69072029380209
 21
308.83339713040561
  0
LINE
  8
_0-0_1
  6
CONTINUOUS
 62
  250
 10
377.69072029380209
 20
308.83339713040561
 11
377.82103988913906
 21
308.13640425625971
  0
LINE
  8
_0-0_1
  6
CONTINUOUS
 62
  250
 10
377.82103988913906
 20
308.13640425625971
 11
377.86607715873106
 21
307.40107367459467
  0
LINE
  8
_0-0_1
  6
CONTINUOUS
 62
  250
 10
377.86607715873106
 20
307.40107367459467
 11
377.86607715873106
 21
296.13608191434065
  0
LINE
  8
_0-0_1
  6
CONTINUOUS
 62
  250
 10
374.44775078086309
 20
291.60112212124966
 11
386.71944114951509
 21
296.72278235379372
  0
LINE
  8
_0-0_1
  6
CONTINUOUS
 62
  250
 10
373.55275127677305
 20
311.48442099515165
 11
384.69607803611211
 21
316.12438033047863
  0
LINE
  8
_0-0_1
  6
CONTINUOUS
 62
  250
 10
381.1760899761141
 20
315.01611540738264
 11
381.1760899761141
 21
348.11109373990263
  0
LINE
  8
_0-0_1
  6
CONTINUOUS
 62
  250
 10
381.1760899761141
 20
348.11109373990263
 11
381.2047955730381
 21
348.35542509976563
  0
LINE
  8
_0-0_1
  6
CONTINUOUS
 62
  250
 10
381.2047955730381
 20
348.35542509976563
 11
381.28790828971307
 21
348.58731100979963
  0
LINE
  8
_0-0_1
  6
CONTINUOUS
 62
  250
 10
381.28790828971307
 20
348.58731100979963
 11
381.42094585685209
 21
348.80365202847668
  0
LINE
  8
_0-0_1
  6
CONTINUOUS
 62
  250
 10
381.42094585685209
 20
348.80365202847668
 11
381.59940216330909
 21
349.0013010305517
  0
LINE
  8
_0-0_1
  6
CONTINUOUS
 62
  250
 10
381.59940216330909
 20
349.0013010305517
 11
381.81879493979807
 21
349.17711089078159
  0
LINE
  8
_0-0_1
  6
CONTINUOUS
 62
  250
 10
381.81879493979807
 20
349.17711089078159
 11
382.07466575889009
 21
349.32798216763666
  0
LINE
  8
_0-0_1
  6
CONTINUOUS
 62
  250
 10
382.07466575889009
 20
349.32798216763666
 11
382.3624608257241
 21
349.45076773587368
  0
LINE
  8
_0-0_1
  6
CONTINUOUS
 62
  250
 10
382.3624608257241
 20
349.45076773587368
 11
382.6777217128701
 21
349.54236815396467
  0
LINE
  8
_0-0_1
  6
CONTINUOUS
 62
  250
 10
382.6777217128701
 20
349.54236815396467
 11
383.01601383475713
 21
349.59958861294967
  0
LINE
  8
_0-0_1
  6
CONTINUOUS
 62
  250
 10
383.01601383475713
 20
349.59958861294967
 11
383.37275955466708
 21
349.61937735501465
  0
LINE
  8
_0-0_1
  6
CONTINUOUS
 62
  250
 10
383.37275955466708
 20
349.61937735501465
 11
383.72817013053304
 21
349.59958861294967
  0
LINE
  8
_0-0_1
  6
CONTINUOUS
 62
  250
 10
383.72817013053304
 20
349.59958861294967
 11
384.0653416850991
 21
349.54236815396467
  0
LINE
  8
_0-0_1
  6
CONTINUOUS
 62
  250
 10
384.0653416850991
 20
349.54236815396467
 11
384.37976810721807
 21
349.45076773587368
  0
LINE
  8
_0-0_1
  6
CONTINUOUS
 62
  250
 10
384.37976810721807
 20
349.45076773587368
 11
384.6669194438881
 21
349.32798216763666
  0
LINE
  8
_0-0_1
  6
CONTINUOUS
 62
  250
 10
384.6669194438881
 20
349.32798216763666
 11
384.92233726767904
 21
349.17711089078159
  0
LINE
  8
_0-0_1
  6
CONTINUOUS
 62
  250
 10
384.92233726767904
 20
349.17711089078159
 11
385.14142010001609
 21
349.0013010305517
  0
LINE
  8
_0-0_1
  6
CONTINUOUS
 62
  250
 10
385.14142010001609
 20
349.0013010305517
 11
385.31970951346807
 21
348.80365202847668
  0
LINE
  8
_0-0_1
  6
CONTINUOUS
 62
  250
 10
385.31970951346807
 20
348.80365202847668
 11
385.45262787131708
 21
348.58731100979963
  0
LINE
  8
_0-0_1
  6
CONTINUOUS
 62
  250
 10
385.45262787131708
 20
348.58731100979963
 11
385.53569290427612
 21
348.35542509976563
  0
LINE
  8
_0-0_1
  6
CONTINUOUS
 62
  250
 10
385.53569290427612
 20
348.35542509976563
 11
385.56439850120006
 21
348.11109373990263
  0
LINE
  8
_0-0_1
  6
CONTINUOUS
 62
  250
 10
385.56439850120006
 20
348.11109373990263
 11
385.56439850120006
 21
316.36771033230968
  0
LINE
  8
_0-0_1
  6
CONTINUOUS
 62
  250
 10
385.56439850120006
 20
295.03439734402866
 11
385.56439850120006
 21
252.42441962186064
  0
LINE
  8
_0-0_1
  6
CONTINUOUS
 62
  250
 10
385.56439850120006
 20
252.42441962186064
 11
385.53569290427612
 21
252.17732260647969
  0
LINE
  8
_0-0_1
  6
CONTINUOUS
 62
  250
 10
385.53569290427612
 20
252.17732260647969
 11
385.45262787131708
 21
251.94224188748564
  0
LINE
  8
_0-0_1
  6
CONTINUOUS
 62
  250
 10
385.45262787131708
 20
251.94224188748564
 11
385.31970951346807
 21
251.72241995755365
  0
LINE
  8
_0-0_1
  6
CONTINUOUS
 62
  250
 10
385.31970951346807
 20
251.72241995755365
 11
385.14142010001609
 21
251.52124236050764
  0
LINE
  8
_0-0_1
  6
CONTINUOUS
 62
  250
 10
385.14142010001609
 20
251.52124236050764
 11
384.92233726767904
 21
251.34195158902364
  0
LINE
  8
_0-0_1
  6
CONTINUOUS
 62
  250
 10
384.92233726767904
 20
251.34195158902364
 11
384.6669194438881
 21
251.18783781949168
  0
LINE
  8
_0-0_1
  6
CONTINUOUS
 62
  250
 10
384.6669194438881
 20
251.18783781949168
 11
384.37976810721807
 21
251.06223891202168
  0
LINE
  8
_0-0_1
  6
CONTINUOUS
 62
  250
 10
384.37976810721807
 20
251.06223891202168
 11
384.0653416850991
 21
250.96844504300267
  0
LINE
  8
_0-0_1
  6
CONTINUOUS
 62
  250
 10
384.0653416850991
 20
250.96844504300267
 11
383.72817013053304
 21
250.9097463888277
  0
LINE
  8
_0-0_1
  6
CONTINUOUS
 62
  250
 10
383.72817013053304
 20
250.9097463888277
 11
383.37275955466708
 21
250.88943312588867
  0
LINE
  8
_0-0_1
  6
CONTINUOUS
 62
  250
 10
383.37275955466708
 20
250.88943312588867
 11
383.01601383475713
 21
250.9097463888277
  0
LINE
  8
_0-0_1
  6
CONTINUOUS
 62
  250
 10
383.01601383475713
 20
250.9097463888277
 11
382.6777217128701
 21
250.96844504300267
  0
LINE
  8
_0-0_1
  6
CONTINUOUS
 62
  250
 10
382.6777217128701
 20
250.96844504300267
 11
382.3624608257241
 21
251.06223891202168
  0
LINE
  8
_0-0_1
  6
CONTINUOUS
 62
  250
 10
382.3624608257241
 20
251.06223891202168
 11
382.07466575889009
 21
251.18783781949168
  0
LINE
  8
_0-0_1
  6
CONTINUOUS
 62
  250
 10
382.07466575889009
 20
251.18783781949168
 11
381.81879493979807
 21
251.34195158902364
  0
LINE
  8
_0-0_1
  6
CONTINUOUS
 62
  250
 10
381.81879493979807
 20
251.34195158902364
 11
381.59940216330909
 21
251.52124236050764
  0
LINE
  8
_0-0_1
  6
CONTINUOUS
 62
  250
 10
381.59940216330909
 20
251.52124236050764
 11
381.42094585685209
 21
251.72241995755365
  0
LINE
  8
_0-0_1
  6
CONTINUOUS
 62
  250
 10
381.42094585685209
 20
251.72241995755365
 11
381.28790828971307
 21
251.94224188748564
  0
LINE
  8
_0-0_1
  6
CONTINUOUS
 62
  250
 10
381.28790828971307
 20
251.94224188748564
 11
381.2047955730381
 21
252.17732260647969
  0
LINE
  8
_0-0_1
  6
CONTINUOUS
 62
  250
 10
381.2047955730381
 20
252.17732260647969
 11
381.1760899761141
 21
252.42441962186064
  0
LINE
  8
_0-0_1
  6
CONTINUOUS
 62
  250
 10
381.1760899761141
 20
252.42441962186064
 11
381.1760899761141
 21
293.78274748746071
  0
LINE
  8
_0-0_1
  6
CONTINUOUS
 62
  250
 10
386.38942215232305
 20
361.77781889859369
 11
386.35518524436407
 21
361.18854353848661
  0
LINE
  8
_0-0_1
  6
CONTINUOUS
 62
  250
 10
386.35518524436407
 20
361.18854353848661
 11
386.25612232474708
 21
360.62992880765165
  0
LINE
  8
_0-0_1
  6
CONTINUOUS
 62
  250
 10
386.25612232474708
 20
360.62992880765165
 11
386.0976454952181
 21
360.10907957974564
  0
LINE
  8
_0-0_1
  6
CONTINUOUS
 62
  250
 10
386.0976454952181
 20
360.10907957974564
 11
385.88526222495506
 21
359.63367293301769
  0
LINE
  8
_0-0_1
  6
CONTINUOUS
 62
  250
 10
385.88526222495506
 20
359.63367293301769
 11
385.62440845756009
 21
359.21109984341763
  0
LINE
  8
_0-0_1
  6
CONTINUOUS
 62
  250
 10
385.62440845756009
 20
359.21109984341763
 11
385.32059166221109
 21
358.84870360318359
  0
LINE
  8
_0-0_1
  6
CONTINUOUS
 62
  250
 10
385.32059166221109
 20
358.84870360318359
 11
384.97922394065313
 21
358.5538751882666
  0
LINE
  8
_0-0_1
  6
CONTINUOUS
 62
  250
 10
384.97922394065313
 20
358.5538751882666
 11
384.6057650783481
 21
358.3341486257666
  0
LINE
  8
_0-0_1
  6
CONTINUOUS
 62
  250
 10
384.6057650783481
 20
358.3341486257666
 11
384.20565101890008
 21
358.19681952420365
  0
LINE
  8
_0-0_1
  6
CONTINUOUS
 62
  250
 10
384.20565101890008
 20
358.19681952420365
 11
383.7844130733431
 21
358.14942191067865
  0
LINE
  8
_0-0_1
  6
CONTINUOUS
 62
  250
 10
383.7844130733431
 20
358.14942191067865
 11
383.36186382560209
 21
358.19681952420365
  0
LINE
  8
_0-0_1
  6
CONTINUOUS
 62
  250
 10
383.36186382560209
 20
358.19681952420365
 11
382.96081993369512
 21
358.3341486257666
  0
LINE
  8
_0-0_1
  6
CONTINUOUS
 62
  250
 10
382.96081993369512
 20
358.3341486257666
 11
382.58671734122709
 21
358.5538751882666
  0
LINE
  8
_0-0_1
  6
CONTINUOUS
 62
  250
 10
382.58671734122709
 20
358.5538751882666
 11
382.24492046622709
 21
358.84870360318359
  0
LINE
  8
_0-0_1
  6
CONTINUOUS
 62
  250
 10
382.24492046622709
 20
358.84870360318359
 11
381.94088909415609
 21
359.21109984341763
  0
LINE
  8
_0-0_1
  6
CONTINUOUS
 62
  250
 10
381.94088909415609
 20
359.21109984341763
 11
381.67996380118808
 21
359.63367293301769
  0
LINE
  8
_0-0_1
  6
CONTINUOUS
 62
  250
 10
381.67996380118808
 20
359.63367293301769
 11
381.46765205649808
 21
360.10907957974564
  0
LINE
  8
_0-0_1
  6
CONTINUOUS
 62
  250
 10
381.46765205649808
 20
360.10907957974564
 11
381.30927059440006
 21
360.62992880765165
  0
LINE
  8
_0-0_1
  6
CONTINUOUS
 62
  250
 10
381.30927059440006
 20
360.62992880765165
 11
381.21030304221506
 21
361.18854353848661
  0
LINE
  8
_0-0_1
  6
CONTINUOUS
 62
  250
 10
381.21030304221506
 20
361.18854353848661
 11
381.1760899761141
 21
361.77781889859369
  0
LINE
  8
_0-0_1
  6
CONTINUOUS
 62
  250
 10
381.1760899761141
 20
361.77781889859369
 11
381.21030304221506
 21
362.36704657498564
  0
LINE
  8
_0-0_1
  6
CONTINUOUS
 62
  250
 10
381.21030304221506
 20
362.36704657498564
 11
381.30927059440006
 21
362.92585204068359
  0
LINE
  8
_0-0_1
  6
CONTINUOUS
 62
  250
 10
381.30927059440006
 20
362.92585204068359
 11
381.46765205649808
 21
363.44679663602062
  0
LINE
  8
_0-0_1
  6
CONTINUOUS
 62
  250
 10
381.46765205649808
 20
363.44679663602062
 11
381.67996380118808
 21
363.92244170132767
  0
LINE
  8
_0-0_1
  6
CONTINUOUS
 62
  250
 10
381.67996380118808
 20
363.92244170132767
 11
381.94088909415609
 21
364.34525320950667
  0
LINE
  8
_0-0_1
  6
CONTINUOUS
 62
  250
 10
381.94088909415609
 20
364.34525320950667
 11
382.24492046622709
 21
364.70793555203562
  0
LINE
  8
_0-0_1
  6
CONTINUOUS
 62
  250
 10
382.24492046622709
 20
364.70793555203562
 11
382.58671734122709
 21
365.0029070181007
  0
LINE
  8
_0-0_1
  6
CONTINUOUS
 62
  250
 10
382.58671734122709
 20
365.0029070181007
 11
382.96081993369512
 21
365.22282431546364
  0
LINE
  8
_0-0_1
  6
CONTINUOUS
 62
  250
 10
382.96081993369512
 20
365.22282431546364
 11
383.36186382560209
 21
365.36024878445767
  0
LINE
  8
_0-0_1
  6
CONTINUOUS
 62
  250
 10
383.36186382560209
 20
365.36024878445767
 11
383.7844130733431
 21
365.40769408169859
  0
LINE
  8
_0-0_1
  6
CONTINUOUS
 62
  250
 10
383.7844130733431
 20
365.40769408169859
 11
384.20565101890008
 21
365.36024878445767
  0
LINE
  8
_0-0_1
  6
CONTINUOUS
 62
  250
 10
384.20565101890008
 20
365.36024878445767
 11
384.6057650783481
 21
365.22282431546364
  0
LINE
  8
_0-0_1
  6
CONTINUOUS
 62
  250
 10
384.6057650783481
 20
365.22282431546364
 11
384.97922394065313
 21
365.0029070181007
  0
LINE
  8
_0-0_1
  6
CONTINUOUS
 62
  250
 10
384.97922394065313
 20
365.0029070181007
 11
385.32059166221109
 21
364.70793555203562
  0
LINE
  8
_0-0_1
  6
CONTINUOUS
 62
  250
 10
385.32059166221109
 20
364.70793555203562
 11
385.62440845756009
 21
364.34525320950667
  0
LINE
  8
_0-0_1
  6
CONTINUOUS
 62
  250
 10
385.62440845756009
 20
364.34525320950667
 11
385.88526222495506
 21
363.92244170132767
  0
LINE
  8
_0-0_1
  6
CONTINUOUS
 62
  250
 10
385.88526222495506
 20
363.92244170132767
 11
386.0976454952181
 21
363.44679663602062
  0
LINE
  8
_0-0_1
  6
CONTINUOUS
 62
  250
 10
386.0976454952181
 20
363.44679663602062
 11
386.25612232474708
 21
362.92585204068359
  0
LINE
  8
_0-0_1
  6
CONTINUOUS
 62
  250
 10
386.25612232474708
 20
362.92585204068359
 11
386.35518524436407
 21
362.36704657498564
  0
LINE
  8
_0-0_1
  6
CONTINUOUS
 62
  250
 10
386.35518524436407
 20
362.36704657498564
 11
386.38942215232305
 21
361.77781889859369
  0
ENDSEC
  0
EOF
