  0
SECTION
  2
HEADER
  9
$ACADVER
  1
AC1009
  9
$INSBASE
 10
0
 20
0
 30
0
  9
$EXTMIN
 10
0
 20
0
  9
$EXTMAX
 10
840
 20
594
  9
$LIMMIN
 10
0
 20
0
  9
$LIMMAX
 10
840
 20
594
  9
$LTSCALE
 40
2
  0
ENDSEC
  0
SECTION
  2
TABLES
  0
TABLE
  2
LTYPE
 70
     9
  0
LTYPE
  2
CONTINUOUS
 70
    64
  3
実線
 72
    65
 73
     0
 40
0.0
  0
LTYPE
  2
DASHED1
 70
    64
  3
--  --  --  --  --  --  --  --  
 72
    65
 73
     2
 40
2.5
 49
1.25
 49
-1.25
  0
LTYPE
  2
DASHED2
 70
    64
  3
----    ----    ----    ----    
 72
    65
 73
     2
 40
5.0
 49
2.5
 49
-2.5
  0
LTYPE
  2
DASHED3
 70
    64
  3
------  ------  ------  ------  
 72
    65
 73
     2
 40
5.0
 49
3.75
 49
-1.25
  0
LTYPE
  2
CENTER1
 70
    64
  3
----- - ----- - ----- - ----- - 
 72
    65
 73
     4
 40
10.0
 49
6.25
 49
-1.25
 49
1.25
 49
-1.25
  0
LTYPE
  2
CENTER2
 70
    64
  3
----------  --  ----------  --  
 72
    65
 73
     4
 40
20.0
 49
12.5
 49
-2.5
 49
2.5
 49
-2.5
  0
LTYPE
  2
PHANTOM1
 70
    64
  3
--- - - --- - - --- - - --- - - 
 72
    65
 73
     6
 40
10.0
 49
3.25
 49
-1.25
 49
1.25
 49
-1.25
 49
1.25
 49
-1.25
  0
LTYPE
  2
PHANTOM2
 70
    64
  3
--------  -  -  --------  -  -  
 72
    65
 73
     6
 40
20.0
 49
10.0
 49
-2.5
 49
1.25
 49
-2.5
 49
1.25
 49
-2.5
  0
LTYPE
  2
DOT
 70
    64
  3
-   -   -   -   -   -   -   -   
 72
    65
 73
     2
 40
2.5
 49
0.625
 49
-1.875
  0
LTYPE
  2
DUMMY
 70
    64
  3
ダミー
 72
    65
 73
     0
 40
0.0
  0
LTYPE
  2
RAND1
 70
    64
  3
ランダム線1
 72
    65
 73
     4
 40
10.0
 49
1.0
 49
-2.0
 49
3.0
 49
-4.0
  0
LTYPE
  2
RAND2
 70
    64
  3
ランダム線2
 72
    65
 73
     4
 40
14.0
 49
2.0
 49
-3.0
 49
4.0
 49
-5.0
  0
LTYPE
  2
RAND3
 70
    64
  3
ランダム線3
 72
    65
 73
     4
 40
18.0
 49
3.0
 49
-4.0
 49
5.0
 49
-6.0
  0
LTYPE
  2
RAND4
 70
    64
  3
ランダム線4
 72
    65
 73
     4
 40
22.0
 49
4.0
 49
-5.0
 49
6.0
 49
-7.0
  0
LTYPE
  2
RAND5
 70
    64
  3
ランダム線5
 72
    65
 73
     4
 40
26.0
 49
5.0
 49
-6.0
 49
7.0
 49
-8.0
  0
LTYPE
  2
LONG1
 70
    64
  3
----------  --  ----------  --  
 72
    65
 73
     4
 40
40.0
 49
32.5
 49
-2.5
 49
2.5
 49
-2.5
  0
LTYPE
  2
LONG2
 70
    64
  3
--------  -  -  --------  -  -  
 72
    65
 73
     6
 40
40.0
 49
30.0
 49
-2.5
 49
1.25
 49
-2.5
 49
1.25
 49
-2.5
  0
LTYPE
  2
LONG3
 70
    64
  3
+++++++++++++++..+++++++++++++++
 72
    65
 73
     2
 40
40.0
 49
37.5
 49
-2.5
  0
LTYPE
  2
LONG4
 70
    64
  3
+++++++++++++++..+++++++++++++++
 72
    65
 73
     2
 40
80.0
 49
75.0
 49
-5.0
  0
LTYPE
  2
LONG5
 70
    64
  3
----------  --  ----------  --  
 72
    65
 73
     4
 40
60.0
 49
37.5
 49
-7.5
 49
7.5
 49
-7.5
  0
LTYPE
  2
dashed
 70
   64
  3
-------   -------------   ------
 72
   65
 73
    2
 40
7.5
 49
6
 49
-1.5
  0
LTYPE
  2
dashed_spaced
 70
   64
  3
----        --------        ----
 72
   65
 73
    2
 40
12
 49
6
 49
-6
  0
LTYPE
  2
long_dashed_dotted
 70
   64
  3
------------- --- --------------
 72
   65
 73
    4
 40
15.25
 49
12
 49
-1.5
 49
0.25
 49
-1.5
  0
LTYPE
  2
long_dashed_double-dotted
 70
   64
  3
----------- --- --- ------------
 72
   65
 73
    6
 40
17
 49
12
 49
-1.5
 49
0.25
 49
-1.5
 49
0.25
 49
-1.5
  0
LTYPE
  2
long_dashed_triplicate-dotted
 70
   64
  3
--------- --- --- --- ----------
 72
   65
 73
    8
 40
18.75
 49
12
 49
-1.5
 49
0.25
 49
-1.5
 49
0.25
 49
-1.5
 49
0.25
 49
-1.5
  0
LTYPE
  2
dotted
 70
   64
  3
   -       -       -       -    
 72
   65
 73
    2
 40
1.75
 49
0.25
 49
-1.5
  0
LTYPE
  2
chain
 70
   64
  3
-------------- -- --------------
 72
   65
 73
    4
 40
18.5
 49
12
 49
-1.5
 49
3.5
 49
-1.5
  0
LTYPE
  2
chain_double_dash
 70
   64
  3
------------ -- -- -------------
 72
   65
 73
    6
 40
23.5
 49
12
 49
-1.5
 49
3.5
 49
-1.5
 49
3.5
 49
-1.5
  0
LTYPE
  2
dashed_dotted
 70
   64
  3
-----------     -     ----------
 72
   65
 73
    4
 40
9.25
 49
6
 49
-1.5
 49
0.25
 49
-1.5
  0
LTYPE
  2
double-dashed_dotted
 70
   64
  3
------   -----------   -   -----
 72
   65
 73
    6
 40
16.75
 49
6
 49
-1.5
 49
6
 49
-1.5
 49
0.25
 49
-1.5
  0
LTYPE
  2
dashed_double-dotted
 70
   64
  3
---------    -    -    ---------
 72
   65
 73
    6
 40
11
 49
6
 49
-1.5
 49
0.25
 49
-1.5
 49
0.25
 49
-1.5
  0
LTYPE
  2
double-dashed_double-dotted
 70
   64
  3
-----   ---------   -   -   ----
 72
   65
 73
    8
 40
18.5
 49
6
 49
-1.5
 49
6
 49
-1.5
 49
0.25
 49
-1.5
 49
0.25
 49
-1.5
  0
LTYPE
  2
dashed_triplicate-dotted
 70
   64
  3
-------    -    -    -    ------
 72
   65
 73
    8
 40
12.75
 49
6
 49
-1.5
 49
0.25
 49
-1.5
 49
0.25
 49
-1.5
 49
0.25
 49
-1.5
  0
LTYPE
  2
double-dashed_triplicate-dotted
 70
   64
  3
-----  ---------  -  -  -  -----
 72
   65
 73
   10
 40
20.25
 49
6
 49
-1.5
 49
6
 49
-1.5
 49
0.25
 49
-1.5
 49
0.25
 49
-1.5
 49
0.25
 49
-1.5
  0
LTYPE
  2
undefined
 70
   64
  3
--------------------------------
 72
   65
 73
    0
 40
0
  0
LTYPE
  2
_
 70
   64
  3
                                
 72
   65
 73
    0
 40
0
  0
LTYPE
  2
__18
 70
   64
  3
                                
 72
   65
 73
    0
 40
0
  0
LTYPE
  2
__19
 70
   64
  3
                                
 72
   65
 73
    0
 40
0
  0
LTYPE
  2
__20
 70
   64
  3
                                
 72
   65
 73
    0
 40
0
  0
LTYPE
  2
__21
 70
   64
  3
                                
 72
   65
 73
    0
 40
0
  0
LTYPE
  2
__22
 70
   64
  3
                                
 72
   65
 73
    0
 40
0
  0
LTYPE
  2
__23
 70
   64
  3
                                
 72
   65
 73
    0
 40
0
  0
LTYPE
  2
__24
 70
   64
  3
                                
 72
   65
 73
    0
 40
0
  0
LTYPE
  2
__25
 70
   64
  3
                                
 72
   65
 73
    0
 40
0
  0
LTYPE
  2
__26
 70
   64
  3
                                
 72
   65
 73
    0
 40
0
  0
LTYPE
  2
__27
 70
   64
  3
                                
 72
   65
 73
    0
 40
0
  0
LTYPE
  2
__28
 70
   64
  3
                                
 72
   65
 73
    0
 40
0
  0
LTYPE
  2
__29
 70
   64
  3
                                
 72
   65
 73
    0
 40
0
  0
LTYPE
  2
__30
 70
   64
  3
                                
 72
   65
 73
    0
 40
0
  0
LTYPE
  2
__31
 70
   64
  3
                                
 72
   65
 73
    0
 40
0
  0
LTYPE
  2
__32
 70
   64
  3
                                
 72
   65
 73
    0
 40
0
  0
ENDTAB
  0
TABLE
  2
STYLE
  5
3
100
AcDbSymbolTable
 70
     1
  0
STYLE
  5
10
100
AcDbSymbolTableRecord
100
AcDbTextStyleTableRecord
  2
STANDARD
 70
     0
 40
0.0
 41
1.0
 50
0.0
 71
     0
 42
0.2
  3
txt
  4
bigfont.shx
  0
STYLE
  5
26
100
AcDbSymbolTableRecord
100
AcDbTextStyleTableRecord
  2
TATEGAKI
 70
    68
 40
0.0
 41
1.0
 50
0.0
 71
     0
 42
1.0
  3
txt
  4
bigfont.shx
  0
ENDTAB
  0
TABLE
  2
LAYER
 70
    2
  0
LAYER
  2
_0-0_1
 70
   64
 62
    7
  6
CONTINUOUS
  0
LAYER
  2
ADD_LINE
 70
   64
 62
    7
  6
CONTINUOUS
  0
ENDTAB
  0
ENDSEC
  0
SECTION
  2
BLOCKS
  0
ENDSEC
  0
SECTION
  2
ENTITIES
  0
LINE
  8
_0-0_1
  6
CONTINUOUS
 62
  250
 10
528.7576410535645
 20
350.62679618987141
 11
498.13592169321248
 21
368.28178733977342
  0
LINE
  8
_0-0_1
  6
CONTINUOUS
 62
  250
 10
400.5726072553465
 20
230.26513427886042
 11
398.03926680124448
 21
228.86509269866039
  0
LINE
  8
_0-0_1
  6
CONTINUOUS
 62
  250
 10
398.03926680124448
 20
228.86509269866039
 11
397.78907034433553
 21
228.76719803008149
  0
LINE
  8
_0-0_1
  6
CONTINUOUS
 62
  250
 10
397.78907034433553
 20
228.76719803008149
 11
397.51538965738547
 21
228.73439163359649
  0
LINE
  8
_0-0_1
  6
CONTINUOUS
 62
  250
 10
397.51538965738547
 20
228.73439163359649
 11
397.22411367929647
 21
228.76328796538343
  0
LINE
  8
_0-0_1
  6
CONTINUOUS
 62
  250
 10
397.22411367929647
 20
228.76328796538343
 11
396.92122671640647
 21
228.85073990019839
  0
LINE
  8
_0-0_1
  6
CONTINUOUS
 62
  250
 10
396.92122671640647
 20
228.85073990019839
 11
396.61261770761752
 21
228.99340957793243
  0
LINE
  8
_0-0_1
  6
CONTINUOUS
 62
  250
 10
396.61261770761752
 20
228.99340957793243
 11
396.30417559183354
 21
229.18814987334241
  0
LINE
  8
_0-0_1
  6
CONTINUOUS
 62
  250
 10
396.30417559183354
 20
229.18814987334241
 11
396.0018846753905
 21
229.43162292632144
  0
LINE
  8
_0-0_1
  6
CONTINUOUS
 62
  250
 10
396.0018846753905
 20
229.43162292632144
 11
395.71163389719248
 21
229.72049087676044
  0
LINE
  8
_0-0_1
  6
CONTINUOUS
 62
  250
 10
395.71163389719248
 20
229.72049087676044
 11
395.43933603800053
 21
230.05165428313245
  0
LINE
  8
_0-0_1
  6
CONTINUOUS
 62
  250
 10
395.43933603800053
 20
230.05165428313245
 11
395.1909277204345
 21
230.4217752853304
  0
LINE
  8
_0-0_1
  6
CONTINUOUS
 62
  250
 10
395.1909277204345
 20
230.4217752853304
 11
394.97971270120854
 21
230.81163734587639
  0
LINE
  8
_0-0_1
  6
CONTINUOUS
 62
  250
 10
394.97971270120854
 20
230.81163734587639
 11
394.81525156534451
 21
231.20173782500342
  0
LINE
  8
_0-0_1
  6
CONTINUOUS
 62
  250
 10
394.81525156534451
 20
231.20173782500342
 11
394.69752047098348
 21
231.58549636992444
  0
LINE
  8
_0-0_1
  6
CONTINUOUS
 62
  250
 10
394.69752047098348
 20
231.58549636992444
 11
394.62668631113252
 21
231.95628494414345
  0
LINE
  8
_0-0_1
  6
CONTINUOUS
 62
  250
 10
394.62668631113252
 20
231.95628494414345
 11
394.60277292764852
 21
232.3074278274444
  0
LINE
  8
_0-0_1
  6
CONTINUOUS
 62
  250
 10
394.60277292764852
 20
232.3074278274444
 11
394.62597105539555
 21
232.63229698332844
  0
LINE
  8
_0-0_1
  6
CONTINUOUS
 62
  250
 10
394.62597105539555
 20
232.63229698332844
 11
394.69628069437249
 21
232.92431205901141
  0
LINE
  8
_0-0_1
  6
CONTINUOUS
 62
  250
 10
394.69628069437249
 20
232.92431205901141
 11
394.8138210538695
 21
233.17684501799641
  0
LINE
  8
_0-0_1
  6
CONTINUOUS
 62
  250
 10
394.8138210538695
 20
233.17684501799641
 11
394.97866365946049
 21
233.38317245635048
  0
LINE
  8
_0-0_1
  6
CONTINUOUS
 62
  250
 10
394.97866365946049
 20
233.38317245635048
 11
395.1909277204345
 21
233.53676170500745
  0
LINE
  8
_0-0_1
  6
CONTINUOUS
 62
  250
 10
395.1909277204345
 20
233.53676170500745
 11
397.72927496469748
 21
234.94176239165347
  0
LINE
  8
_0-0_1
  6
CONTINUOUS
 62
  250
 10
477.55925390756852
 20
114.4934114852814
 11
339.48926661051053
 21
194.07343238982241
  0
LINE
  8
_0-0_1
  6
CONTINUOUS
 62
  250
 10
368.85091993845253
 20
227.99844116362542
 11
368.67093775308854
 21
401.59181923064244
  0
LINE
  8
_0-0_1
  6
CONTINUOUS
 62
  250
 10
339.56925604379848
 20
193.69344085845046
 11
339.39091894663051
 21
475.55016845854749
  0
LINE
  8
_0-0_1
  6
CONTINUOUS
 62
  250
 10
357.10425112283951
 20
483.41683715971953
 11
496.1725923780275
 21
403.32846016081839
  0
LINE
  8
_0-0_1
  6
CONTINUOUS
 62
  250
 10
528.73093817270455
 20
350.21342605742444
 11
528.78424856699257
 21
195.61509460600843
  0
LINE
  8
_0-0_1
  6
CONTINUOUS
 62
  250
 10
496.10259268320351
 20
403.32846016081839
 11
496.1725923780275
 21
121.97012275847442
  0
LINE
  8
_0-0_1
  6
CONTINUOUS
 62
  250
 10
348.41260645426053
 20
479.52346176299136
 11
487.36760351694352
 21
399.24349159392347
  0
LINE
  8
_0-0_1
  6
CONTINUOUS
 62
  250
 10
487.36760351694352
 20
399.24349159392347
 11
487.42091391123051
 21
118.0700716415314
  0
LINE
  8
_0-0_1
  6
CONTINUOUS
 62
  250
 10
498.15261099374953
 20
183.60180229338641
 11
529.53426573312947
 21
196.6934141555694
  0
LINE
  8
_0-0_1
  6
CONTINUOUS
 62
  250
 10
339.56925604379848
 20
475.6335195938014
 11
358.25423929727748
 21
483.41683715971953
  0
LINE
  8
_0-0_1
  6
CONTINUOUS
 62
  250
 10
477.51090261972655
 20
395.53679794463147
 11
496.1725923780275
 21
403.32846016081839
  0
LINE
  8
_0-0_1
  6
CONTINUOUS
 62
  250
 10
498.13592169321248
 20
337.12839454802543
 11
529.53426573312947
 21
350.21342605742444
  0
LINE
  8
_0-0_1
  6
CONTINUOUS
 62
  250
 10
368.85091993845253
 20
228.74011367949544
 11
441.75593588388654
 21
186.27180427702945
  0
LINE
  8
_0-0_1
  6
CONTINUOUS
 62
  250
 10
368.85091993845253
 20
401.59181923064244
 11
440.7642576459715
 21
359.4434198776155
  0
LINE
  8
_0-0_1
  6
CONTINUOUS
 62
  250
 10
339.39091894663051
 20
476.0817465225125
 11
477.51090261972655
 21
395.61514228972442
  0
LINE
  8
_0-0_1
  6
CONTINUOUS
 62
  250
 10
440.7642576459715
 20
359.4434198776155
 11
440.81923697031249
 21
186.69509262236647
  0
LINE
  8
_0-0_1
  6
CONTINUOUS
 62
  250
 10
477.51090261972655
 20
396.62346214446046
 11
477.55925390756852
 21
113.70181411894839
  0
LINE
  8
_0-0_1
  6
CONTINUOUS
 62
  250
 10
400.5726072553465
 20
230.26513427886042
 11
398.03926680124448
 21
228.86509269866039
  0
LINE
  8
_0-0_1
  6
CONTINUOUS
 62
  250
 10
398.03926680124448
 20
228.86509269866039
 11
397.78907034433553
 21
228.76719803008149
  0
LINE
  8
_0-0_1
  6
CONTINUOUS
 62
  250
 10
397.78907034433553
 20
228.76719803008149
 11
397.51538965738547
 21
228.73439163359649
  0
LINE
  8
_0-0_1
  6
CONTINUOUS
 62
  250
 10
397.51538965738547
 20
228.73439163359649
 11
397.22411367929647
 21
228.76328796538343
  0
LINE
  8
_0-0_1
  6
CONTINUOUS
 62
  250
 10
397.22411367929647
 20
228.76328796538343
 11
396.92122671640647
 21
228.85073990019839
  0
LINE
  8
_0-0_1
  6
CONTINUOUS
 62
  250
 10
396.92122671640647
 20
228.85073990019839
 11
396.61261770761752
 21
228.99340957793243
  0
LINE
  8
_0-0_1
  6
CONTINUOUS
 62
  250
 10
396.61261770761752
 20
228.99340957793243
 11
396.30417559183354
 21
229.18814987334241
  0
LINE
  8
_0-0_1
  6
CONTINUOUS
 62
  250
 10
396.30417559183354
 20
229.18814987334241
 11
396.0018846753905
 21
229.43162292632144
  0
LINE
  8
_0-0_1
  6
CONTINUOUS
 62
  250
 10
396.0018846753905
 20
229.43162292632144
 11
395.71163389719248
 21
229.72049087676044
  0
LINE
  8
_0-0_1
  6
CONTINUOUS
 62
  250
 10
395.71163389719248
 20
229.72049087676044
 11
395.43933603800053
 21
230.05165428313245
  0
LINE
  8
_0-0_1
  6
CONTINUOUS
 62
  250
 10
395.43933603800053
 20
230.05165428313245
 11
395.1909277204345
 21
230.4217752853304
  0
LINE
  8
_0-0_1
  6
CONTINUOUS
 62
  250
 10
395.1909277204345
 20
230.4217752853304
 11
394.97971270120854
 21
230.81163734587639
  0
LINE
  8
_0-0_1
  6
CONTINUOUS
 62
  250
 10
394.97971270120854
 20
230.81163734587639
 11
394.81525156534451
 21
231.20173782500342
  0
LINE
  8
_0-0_1
  6
CONTINUOUS
 62
  250
 10
394.81525156534451
 20
231.20173782500342
 11
394.69752047098348
 21
231.58549636992444
  0
LINE
  8
_0-0_1
  6
CONTINUOUS
 62
  250
 10
394.69752047098348
 20
231.58549636992444
 11
394.62668631113252
 21
231.95628494414345
  0
LINE
  8
_0-0_1
  6
CONTINUOUS
 62
  250
 10
394.62668631113252
 20
231.95628494414345
 11
394.60277292764852
 21
232.3074278274444
  0
LINE
  8
_0-0_1
  6
CONTINUOUS
 62
  250
 10
394.60277292764852
 20
232.3074278274444
 11
394.62597105539555
 21
232.63229698332844
  0
LINE
  8
_0-0_1
  6
CONTINUOUS
 62
  250
 10
394.62597105539555
 20
232.63229698332844
 11
394.69628069437249
 21
232.92431205901141
  0
LINE
  8
_0-0_1
  6
CONTINUOUS
 62
  250
 10
394.69628069437249
 20
232.92431205901141
 11
394.8138210538695
 21
233.17684501799641
  0
LINE
  8
_0-0_1
  6
CONTINUOUS
 62
  250
 10
394.8138210538695
 20
233.17684501799641
 11
394.97866365946049
 21
233.38317245635048
  0
LINE
  8
_0-0_1
  6
CONTINUOUS
 62
  250
 10
394.97866365946049
 20
233.38317245635048
 11
395.1909277204345
 21
233.53676170500745
  0
LINE
  8
_0-0_1
  6
CONTINUOUS
 62
  250
 10
395.1909277204345
 20
233.53676170500745
 11
397.72927496469748
 21
234.94176239165347
  0
LINE
  8
_0-0_1
  6
CONTINUOUS
 62
  250
 10
397.67594072855252
 20
229.07676071318642
 11
397.45592806375754
 21
228.98921341094041
  0
LINE
  8
_0-0_1
  6
CONTINUOUS
 62
  250
 10
397.45592806375754
 20
228.98921341094041
 11
397.21619818247052
 21
228.9587435165314
  0
LINE
  8
_0-0_1
  6
CONTINUOUS
 62
  250
 10
397.21619818247052
 20
228.9587435165314
 11
396.96182940042752
 21
228.98234695586245
  0
LINE
  8
_0-0_1
  6
CONTINUOUS
 62
  250
 10
396.96182940042752
 20
228.98234695586245
 11
396.69778082407248
 21
229.05725807341645
  0
LINE
  8
_0-0_1
  6
CONTINUOUS
 62
  250
 10
396.69778082407248
 20
229.05725807341645
 11
396.42903540170852
 21
229.18056816252741
  0
LINE
  8
_0-0_1
  6
CONTINUOUS
 62
  250
 10
396.42903540170852
 20
229.18056816252741
 11
396.16067144907248
 21
229.34932083281541
  0
LINE
  8
_0-0_1
  6
CONTINUOUS
 62
  250
 10
396.16067144907248
 20
229.34932083281541
 11
395.89764807260752
 21
229.5607027450464
  0
LINE
  8
_0-0_1
  6
CONTINUOUS
 62
  250
 10
395.89764807260752
 20
229.5607027450464
 11
395.64504358804953
 21
229.81180519255645
  0
LINE
  8
_0-0_1
  6
CONTINUOUS
 62
  250
 10
395.64504358804953
 20
229.81180519255645
 11
395.40781710184348
 21
230.09981483611139
  0
LINE
  8
_0-0_1
  6
CONTINUOUS
 62
  250
 10
395.40781710184348
 20
230.09981483611139
 11
395.1909277204345
 21
230.4217752853304
  0
LINE
  8
_0-0_1
  6
CONTINUOUS
 62
  250
 10
395.1909277204345
 20
230.4217752853304
 11
395.00765535867953
 21
230.76509803923639
  0
LINE
  8
_0-0_1
  6
CONTINUOUS
 62
  250
 10
395.00765535867953
 20
230.76509803923639
 11
394.86484262979752
 21
231.10746711882641
  0
LINE
  8
_0-0_1
  6
CONTINUOUS
 62
  250
 10
394.86484262979752
 20
231.10746711882641
 11
394.76260874307849
 21
231.44330352934844
  0
LINE
  8
_0-0_1
  6
CONTINUOUS
 62
  250
 10
394.76260874307849
 20
231.44330352934844
 11
394.70107290781255
 21
231.76721901091645
  0
LINE
  8
_0-0_1
  6
CONTINUOUS
 62
  250
 10
394.70107290781255
 20
231.76721901091645
 11
394.68030664957251
 21
232.07363456877741
  0
LINE
  8
_0-0_1
  6
CONTINUOUS
 62
  250
 10
394.68030664957251
 20
232.07363456877741
 11
394.70040533579049
 21
232.35716194304445
  0
LINE
  8
_0-0_1
  6
CONTINUOUS
 62
  250
 10
394.70040533579049
 20
232.35716194304445
 11
394.76139280832552
 21
232.61217445525139
  0
LINE
  8
_0-0_1
  6
CONTINUOUS
 62
  250
 10
394.76139280832552
 20
232.61217445525139
 11
394.86341211832251
 21
232.83328384551044
  0
LINE
  8
_0-0_1
  6
CONTINUOUS
 62
  250
 10
394.86341211832251
 20
232.83328384551044
 11
395.00653479135752
 21
233.01495880278645
  0
LINE
  8
_0-0_1
  6
CONTINUOUS
 62
  250
 10
395.00653479135752
 20
233.01495880278645
 11
395.1909277204345
 21
233.15176338347442
  0
LINE
  8
_0-0_1
  6
CONTINUOUS
 62
  250
 10
395.1909277204345
 20
233.15176338347442
 11
395.40776941812749
 21
233.23258728179047
  0
LINE
  8
_0-0_1
  6
CONTINUOUS
 62
  250
 10
395.40776941812749
 20
233.23258728179047
 11
395.64494822061749
 21
233.25862259062745
  0
LINE
  8
_0-0_1
  6
CONTINUOUS
 62
  250
 10
395.64494822061749
 20
233.25862259062745
 11
395.89736197031255
 21
233.23239654692645
  0
LINE
  8
_0-0_1
  6
CONTINUOUS
 62
  250
 10
395.89736197031255
 20
233.23239654692645
 11
396.15993235147647
 21
233.15634102019342
  0
LINE
  8
_0-0_1
  6
CONTINUOUS
 62
  250
 10
396.15993235147647
 20
233.15634102019342
 11
396.42760489023453
 21
233.03279251250245
  0
LINE
  8
_0-0_1
  6
CONTINUOUS
 62
  250
 10
396.42760489023453
 20
233.03279251250245
 11
396.69522974527547
 21
232.86437362822548
  0
LINE
  8
_0-0_1
  6
CONTINUOUS
 62
  250
 10
396.69522974527547
 20
232.86437362822548
 11
396.95780012644047
 21
232.65342086943642
  0
LINE
  8
_0-0_1
  6
CONTINUOUS
 62
  250
 10
396.95780012644047
 20
232.65342086943642
 11
397.21026155985049
 21
232.40246147307445
  0
LINE
  8
_0-0_1
  6
CONTINUOUS
 62
  250
 10
397.21026155985049
 20
232.40246147307445
 11
397.44739267862553
 21
232.11383194121339
  0
LINE
  8
_0-0_1
  6
CONTINUOUS
 62
  250
 10
397.44739267862553
 20
232.11383194121339
 11
397.66428206003451
 21
231.79010719450946
  0
LINE
  8
_0-0_1
  6
CONTINUOUS
 62
  250
 10
397.66428206003451
 20
231.79010719450946
 11
397.85015318430152
 21
231.45007461699544
  0
LINE
  8
_0-0_1
  6
CONTINUOUS
 62
  250
 10
397.85015318430152
 20
231.45007461699544
 11
397.99477789438453
 21
231.11061424407046
  0
LINE
  8
_0-0_1
  6
CONTINUOUS
 62
  250
 10
397.99477789438453
 20
231.11061424407046
 11
398.09822771585652
 21
230.77730507048639
  0
LINE
  8
_0-0_1
  6
CONTINUOUS
 62
  250
 10
398.09822771585652
 20
230.77730507048639
 11
398.16062185800752
 21
230.45558303984649
  0
LINE
  8
_0-0_1
  6
CONTINUOUS
 62
  250
 10
398.16062185800752
 20
230.45558303984649
 11
398.18198416269553
 21
230.1509317794704
  0
LINE
  8
_0-0_1
  6
CONTINUOUS
 62
  250
 10
398.18198416269553
 20
230.1509317794704
 11
398.16236231363547
 21
229.86888260039345
  0
LINE
  8
_0-0_1
  6
CONTINUOUS
 62
  250
 10
398.16236231363547
 20
229.86888260039345
 11
398.10192320383248
 21
229.61496681365045
  0
LINE
  8
_0-0_1
  6
CONTINUOUS
 62
  250
 10
398.10192320383248
 20
229.61496681365045
 11
398.00066683328851
 21
229.39466804656044
  0
LINE
  8
_0-0_1
  6
CONTINUOUS
 62
  250
 10
398.00066683328851
 20
229.39466804656044
 11
397.85861704385951
 21
229.21342224272743
  0
LINE
  8
_0-0_1
  6
CONTINUOUS
 62
  250
 10
397.85861704385951
 20
229.21342224272743
 11
397.67594072855252
 21
229.07676071318642
  0
LINE
  8
_0-0_1
  6
CONTINUOUS
 62
  250
 10
397.72927496469748
 20
234.94176239165347
 11
397.9772541288205
 21
235.03684372099946
  0
LINE
  8
_0-0_1
  6
CONTINUOUS
 62
  250
 10
397.9772541288205
 20
235.03684372099946
 11
398.24840757883248
 21
235.06726593169245
  0
LINE
  8
_0-0_1
  6
CONTINUOUS
 62
  250
 10
398.24840757883248
 20
235.06726593169245
 11
398.53691790140351
 21
235.03650993498843
  0
LINE
  8
_0-0_1
  6
CONTINUOUS
 62
  250
 10
398.53691790140351
 20
235.03650993498843
 11
398.83708689249249
 21
234.94781822356248
  0
LINE
  8
_0-0_1
  6
CONTINUOUS
 62
  250
 10
398.83708689249249
 20
234.94781822356248
 11
399.1431925062015
 21
234.80471939238544
  0
LINE
  8
_0-0_1
  6
CONTINUOUS
 62
  250
 10
399.1431925062015
 20
234.80471939238544
 11
399.44944117105752
 21
234.61050361784942
  0
LINE
  8
_0-0_1
  6
CONTINUOUS
 62
  250
 10
399.44944117105752
 20
234.61050361784942
 11
399.75008699930453
 21
234.36850876006142
  0
LINE
  8
_0-0_1
  6
CONTINUOUS
 62
  250
 10
399.75008699930453
 20
234.36850876006142
 11
400.03936026132749
 21
234.08221573027643
  0
LINE
  8
_0-0_1
  6
CONTINUOUS
 62
  250
 10
400.03936026132749
 20
234.08221573027643
 11
400.31156275308854
 21
233.75496238860146
  0
LINE
  8
_0-0_1
  6
CONTINUOUS
 62
  250
 10
400.31156275308854
 20
233.75496238860146
 11
400.56092474497052
 21
233.39013427886042
  0
LINE
  8
_0-0_1
  6
CONTINUOUS
 62
  250
 10
400.56092474497052
 20
233.39013427886042
 11
400.77390406168149
 21
232.99788803252244
  0
LINE
  8
_0-0_1
  6
CONTINUOUS
 62
  250
 10
400.77390406168149
 20
232.99788803252244
 11
400.93989107645251
 21
232.60640472563739
  0
LINE
  8
_0-0_1
  6
CONTINUOUS
 62
  250
 10
400.93989107645251
 20
232.60640472563739
 11
401.05881426370854
 21
232.22202629241039
  0
LINE
  8
_0-0_1
  6
CONTINUOUS
 62
  250
 10
401.05881426370854
 20
232.22202629241039
 11
401.13069746530749
 21
231.85114235075946
  0
LINE
  8
_0-0_1
  6
CONTINUOUS
 62
  250
 10
401.13069746530749
 20
231.85114235075946
 11
401.15549299753451
 21
231.50009483489043
  0
LINE
  8
_0-0_1
  6
CONTINUOUS
 62
  250
 10
401.15549299753451
 20
231.50009483489043
 11
401.13320086038851
 21
231.17527336272246
  0
LINE
  8
_0-0_1
  6
CONTINUOUS
 62
  250
 10
401.13320086038851
 20
231.17527336272246
 11
401.06377337015351
 21
230.88297218474446
  0
LINE
  8
_0-0_1
  6
CONTINUOUS
 62
  250
 10
401.06377337015351
 20
230.88297218474446
 11
400.94721052683047
 21
230.62962860259046
  0
LINE
  8
_0-0_1
  6
CONTINUOUS
 62
  250
 10
400.94721052683047
 20
230.62962860259046
 11
400.78351233041951
 21
230.42158455046643
  0
LINE
  8
_0-0_1
  6
CONTINUOUS
 62
  250
 10
400.78351233041951
 20
230.42158455046643
 11
400.5726072553465
 21
230.26513427886042
  0
LINE
  8
_0-0_1
  6
CONTINUOUS
 62
  250
 10
477.51090261972655
 20
114.18012947234143
 11
496.86090681589349
 21
122.45845169219041
  0
LINE
  8
_0-0_1
  6
CONTINUOUS
 62
  250
 10
403.09095118082251
 20
355.81840843352342
 11
403.05666658914754
 21
355.22918075713147
  0
LINE
  8
_0-0_1
  6
CONTINUOUS
 62
  250
 10
403.05666658914754
 20
355.22918075713147
 11
402.95748446024152
 21
354.67051834258149
  0
LINE
  8
_0-0_1
  6
CONTINUOUS
 62
  250
 10
402.95748446024152
 20
354.67051834258149
 11
402.79881689584948
 21
354.1497644821074
  0
LINE
  8
_0-0_1
  6
CONTINUOUS
 62
  250
 10
402.79881689584948
 20
354.1497644821074
 11
402.58631441629649
 21
353.67440551909442
  0
LINE
  8
_0-0_1
  6
CONTINUOUS
 62
  250
 10
402.58631441629649
 20
353.67440551909442
 11
402.32529375589553
 21
353.25178474577945
  0
LINE
  8
_0-0_1
  6
CONTINUOUS
 62
  250
 10
402.32529375589553
 20
353.25178474577945
 11
402.02138159311551
 21
352.88934082182942
  0
LINE
  8
_0-0_1
  6
CONTINUOUS
 62
  250
 10
402.02138159311551
 20
352.88934082182942
 11
401.6799661878415
 21
352.59456009062745
  0
LINE
  8
_0-0_1
  6
CONTINUOUS
 62
  250
 10
401.6799661878415
 20
352.59456009062745
 11
401.30660269296851
 21
352.37483352812842
  0
LINE
  8
_0-0_1
  6
CONTINUOUS
 62
  250
 10
401.30660269296851
 20
352.37483352812842
 11
400.90677473581547
 21
352.23750442656541
  0
LINE
  8
_0-0_1
  6
CONTINUOUS
 62
  250
 10
400.90677473581547
 20
352.23750442656541
 11
400.48594210184348
 21
352.19010681304047
  0
LINE
  8
_0-0_1
  6
CONTINUOUS
 62
  250
 10
400.48594210184348
 20
352.19010681304047
 11
400.06453726328147
 21
352.23750442656541
  0
LINE
  8
_0-0_1
  6
CONTINUOUS
 62
  250
 10
400.06453726328147
 20
352.23750442656541
 11
399.66408941782248
 21
352.37483352812842
  0
LINE
  8
_0-0_1
  6
CONTINUOUS
 62
  250
 10
399.66408941782248
 20
352.37483352812842
 11
399.29005835092755
 21
352.59456009062745
  0
LINE
  8
_0-0_1
  6
CONTINUOUS
 62
  250
 10
399.29005835092755
 20
352.59456009062745
 11
398.94802305734851
 21
352.88934082182942
  0
LINE
  8
_0-0_1
  6
CONTINUOUS
 62
  250
 10
398.94802305734851
 20
352.88934082182942
 11
398.64344332254649
 21
353.25178474577945
  0
LINE
  8
_0-0_1
  6
CONTINUOUS
 62
  250
 10
398.64344332254649
 20
353.25178474577945
 11
398.38187429941348
 21
353.67440551909442
  0
LINE
  8
_0-0_1
  6
CONTINUOUS
 62
  250
 10
398.38187429941348
 20
353.67440551909442
 11
398.16879961527053
 21
354.1497644821074
  0
LINE
  8
_0-0_1
  6
CONTINUOUS
 62
  250
 10
398.16879961527053
 20
354.1497644821074
 11
398.00982210672549
 21
354.67051834258149
  0
LINE
  8
_0-0_1
  6
CONTINUOUS
 62
  250
 10
398.00982210672549
 20
354.67051834258149
 11
397.91033003366653
 21
355.22918075713147
  0
LINE
  8
_0-0_1
  6
CONTINUOUS
 62
  250
 10
397.91033003366653
 20
355.22918075713147
 11
397.87595007456054
 21
355.81840843352342
  0
LINE
  8
_0-0_1
  6
CONTINUOUS
 62
  250
 10
397.87595007456054
 20
355.81840843352342
 11
397.91033003366653
 21
356.40811294707339
  0
LINE
  8
_0-0_1
  6
CONTINUOUS
 62
  250
 10
397.91033003366653
 20
356.40811294707339
 11
398.00982210672549
 21
356.96715683135045
  0
LINE
  8
_0-0_1
  6
CONTINUOUS
 62
  250
 10
398.00982210672549
 20
356.96715683135045
 11
398.16879961527053
 21
357.48824447783545
  0
LINE
  8
_0-0_1
  6
CONTINUOUS
 62
  250
 10
398.16879961527053
 20
357.48824447783545
 11
398.38187429941348
 21
357.96379417571046
  0
LINE
  8
_0-0_1
  6
CONTINUOUS
 62
  250
 10
398.38187429941348
 20
357.96379417571046
 11
398.64344332254649
 21
358.38665336760545
  0
LINE
  8
_0-0_1
  6
CONTINUOUS
 62
  250
 10
398.64344332254649
 20
358.38665336760545
 11
398.94802305734851
 21
358.74914497527146
  0
LINE
  8
_0-0_1
  6
CONTINUOUS
 62
  250
 10
398.94802305734851
 20
358.74914497527146
 11
399.29005835092755
 21
359.04397339018846
  0
LINE
  8
_0-0_1
  6
CONTINUOUS
 62
  250
 10
399.29005835092755
 20
359.04397339018846
 11
399.66408941782248
 21
359.26379532012044
  0
LINE
  8
_0-0_1
  6
CONTINUOUS
 62
  250
 10
399.66408941782248
 20
359.26379532012044
 11
400.06453726328147
 21
359.40112442168243
  0
LINE
  8
_0-0_1
  6
CONTINUOUS
 62
  250
 10
400.06453726328147
 20
359.40112442168243
 11
400.48594210184348
 21
359.44847435149245
  0
LINE
  8
_0-0_1
  6
CONTINUOUS
 62
  250
 10
400.48594210184348
 20
359.44847435149245
 11
400.90677473581547
 21
359.40112442168243
  0
LINE
  8
_0-0_1
  6
CONTINUOUS
 62
  250
 10
400.90677473581547
 20
359.40112442168243
 11
401.30660269296851
 21
359.26379532012044
  0
LINE
  8
_0-0_1
  6
CONTINUOUS
 62
  250
 10
401.30660269296851
 20
359.26379532012044
 11
401.6799661878415
 21
359.04397339018846
  0
LINE
  8
_0-0_1
  6
CONTINUOUS
 62
  250
 10
401.6799661878415
 20
359.04397339018846
 11
402.02138159311551
 21
358.74914497527146
  0
LINE
  8
_0-0_1
  6
CONTINUOUS
 62
  250
 10
402.02138159311551
 20
358.74914497527146
 11
402.32529375589553
 21
358.38665336760545
  0
LINE
  8
_0-0_1
  6
CONTINUOUS
 62
  250
 10
402.32529375589553
 20
358.38665336760545
 11
402.58631441629649
 21
357.96379417571046
  0
LINE
  8
_0-0_1
  6
CONTINUOUS
 62
  250
 10
402.58631441629649
 20
357.96379417571046
 11
402.79881689584948
 21
357.48824447783545
  0
LINE
  8
_0-0_1
  6
CONTINUOUS
 62
  250
 10
402.79881689584948
 20
357.48824447783545
 11
402.95748446024152
 21
356.96715683135045
  0
LINE
  8
_0-0_1
  6
CONTINUOUS
 62
  250
 10
402.95748446024152
 20
356.96715683135045
 11
403.05666658914754
 21
356.40811294707339
  0
LINE
  8
_0-0_1
  6
CONTINUOUS
 62
  250
 10
403.05666658914754
 20
356.40811294707339
 11
403.09095118082251
 21
355.81840843352342
  0
LINE
  8
_0-0_1
  6
CONTINUOUS
 62
  250
 10
390.48092100656748
 20
308.41178268584241
 11
390.68729612863751
 21
308.87870163115542
  0
LINE
  8
_0-0_1
  6
CONTINUOUS
 62
  250
 10
390.68729612863751
 20
308.87870163115542
 11
390.91536734140647
 21
309.32492584380145
  0
LINE
  8
_0-0_1
  6
CONTINUOUS
 62
  250
 10
390.91536734140647
 20
309.32492584380145
 11
391.16506311929953
 21
309.74964470061343
  0
LINE
  8
_0-0_1
  6
CONTINUOUS
 62
  250
 10
391.16506311929953
 20
309.74964470061343
 11
391.43624041116948
 21
310.15204757842042
  0
LINE
  8
_0-0_1
  6
CONTINUOUS
 62
  250
 10
391.43624041116948
 20
310.15204757842042
 11
391.72882769144246
 21
310.53137153777146
  0
LINE
  8
_0-0_1
  6
CONTINUOUS
 62
  250
 10
391.72882769144246
 20
310.53137153777146
 11
392.04272959268752
 21
310.88680595549641
  0
LINE
  8
_0-0_1
  6
CONTINUOUS
 62
  250
 10
392.04272959268752
 20
310.88680595549641
 11
392.37782690561551
 21
311.21749252471045
  0
LINE
  8
_0-0_1
  6
CONTINUOUS
 62
  250
 10
392.37782690561551
 20
311.21749252471045
 11
392.73400042093448
 21
311.52271598967542
  0
LINE
  8
_0-0_1
  6
CONTINUOUS
 62
  250
 10
392.73400042093448
 20
311.52271598967542
 11
393.11120245493152
 21
311.80166572722442
  0
LINE
  8
_0-0_1
  6
CONTINUOUS
 62
  250
 10
393.11120245493152
 20
311.80166572722442
 11
393.50926611459948
 21
312.05348343047149
  0
LINE
  8
_0-0_1
  6
CONTINUOUS
 62
  250
 10
393.50926611459948
 20
312.05348343047149
 11
395.17345163858647
 21
312.72682518157046
  0
LINE
  8
_0-0_1
  6
CONTINUOUS
 62
  250
 10
395.17345163858647
 20
312.72682518157046
 11
396.99489805734851
 21
312.94698089751239
  0
LINE
  8
_0-0_1
  6
CONTINUOUS
 62
  250
 10
396.99489805734851
 20
312.94698089751239
 11
398.93429014719248
 21
312.73640960845046
  0
LINE
  8
_0-0_1
  6
CONTINUOUS
 62
  250
 10
398.93429014719248
 20
312.73640960845046
 11
400.95238420999749
 21
312.11752266081839
  0
LINE
  8
_0-0_1
  6
CONTINUOUS
 62
  250
 10
400.95238420999749
 20
312.11752266081839
 11
403.00986502207053
 21
311.11277908476842
  0
LINE
  8
_0-0_1
  6
CONTINUOUS
 62
  250
 10
403.00986502207053
 20
311.11277908476842
 11
405.06751272714848
 21
309.74478096159942
  0
LINE
  8
_0-0_1
  6
CONTINUOUS
 62
  250
 10
405.06751272714848
 20
309.74478096159942
 11
407.08603594339553
 21
308.03584427031541
  0
LINE
  8
_0-0_1
  6
CONTINUOUS
 62
  250
 10
407.08603594339553
 20
308.03584427031541
 11
409.02619097269246
 21
306.00847572478347
  0
LINE
  8
_0-0_1
  6
CONTINUOUS
 62
  250
 10
409.02619097269246
 20
306.00847572478347
 11
410.84868643320351
 21
303.68518203887044
  0
LINE
  8
_0-0_1
  6
CONTINUOUS
 62
  250
 10
410.84868643320351
 20
303.68518203887044
 11
412.51423094309052
 21
301.08846992644339
  0
LINE
  8
_0-0_1
  6
CONTINUOUS
 62
  250
 10
412.51423094309052
 20
301.08846992644339
 11
413.93384668863547
 21
298.35056633147246
  0
LINE
  8
_0-0_1
  6
CONTINUOUS
 62
  250
 10
413.93384668863547
 20
298.35056633147246
 11
415.03863070047549
 21
295.61290115508149
  0
LINE
  8
_0-0_1
  6
CONTINUOUS
 62
  250
 10
415.03863070047549
 20
295.61290115508149
 11
415.82843992746552
 21
292.92086929472947
  0
LINE
  8
_0-0_1
  6
CONTINUOUS
 62
  250
 10
415.82843992746552
 20
292.92086929472947
 11
416.30303595102549
 21
290.31953186186843
  0
LINE
  8
_0-0_1
  6
CONTINUOUS
 62
  250
 10
416.30303595102549
 20
290.31953186186843
 11
416.46239492929647
 21
287.85409301909442
  0
LINE
  8
_0-0_1
  6
CONTINUOUS
 62
  250
 10
416.46239492929647
 20
287.85409301909442
 11
416.30625460184348
 21
285.56980461272246
  0
LINE
  8
_0-0_1
  6
CONTINUOUS
 62
  250
 10
416.30625460184348
 20
285.56980461272246
 11
415.83454344309052
 21
283.51191848906541
  0
LINE
  8
_0-0_1
  6
CONTINUOUS
 62
  250
 10
415.83454344309052
 20
283.51191848906541
 11
415.04704687631852
 21
281.72554344328938
  0
LINE
  8
_0-0_1
  6
CONTINUOUS
 62
  250
 10
415.04704687631852
 20
281.72554344328938
 11
413.94366953409451
 21
280.25602668913848
  0
LINE
  8
_0-0_1
  6
CONTINUOUS
 62
  250
 10
413.94366953409451
 20
280.25602668913848
 11
412.52426836527053
 21
279.14842933806443
  0
LINE
  8
_0-0_1
  6
CONTINUOUS
 62
  250
 10
412.52426836527053
 20
279.14842933806443
 11
412.1261808637455
 21
278.93795341643346
  0
LINE
  8
_0-0_1
  6
CONTINUOUS
 62
  250
 10
412.1261808637455
 20
278.93795341643346
 11
411.71624395883748
 21
278.75632614287446
  0
LINE
  8
_0-0_1
  6
CONTINUOUS
 62
  250
 10
411.71624395883748
 20
278.75632614287446
 11
411.29510138071248
 21
278.60330909880645
  0
LINE
  8
_0-0_1
  6
CONTINUOUS
 62
  250
 10
411.29510138071248
 20
278.60330909880645
 11
410.86327765024453
 21
278.47871154936843
  0
LINE
  8
_0-0_1
  6
CONTINUOUS
 62
  250
 10
410.86327765024453
 20
278.47871154936843
 11
410.42134497202147
 21
278.38219970854749
  0
LINE
  8
_0-0_1
  6
CONTINUOUS
 62
  250
 10
410.42134497202147
 20
278.38219970854749
 11
409.96994707620848
 21
278.31363052519839
  0
LINE
  8
_0-0_1
  6
CONTINUOUS
 62
  250
 10
409.96994707620848
 20
278.31363052519839
 11
409.50963232553653
 21
278.27271789702445
  0
LINE
  8
_0-0_1
  6
CONTINUOUS
 62
  250
 10
409.50963232553653
 20
278.27271789702445
 11
409.0409967664545
 21
278.25917572173142
  0
LINE
  8
_0-0_1
  6
CONTINUOUS
 62
  250
 10
409.0409967664545
 20
278.25917572173142
 11
408.56456491983647
 21
278.2728609481714
  0
LINE
  8
_0-0_1
  6
CONTINUOUS
 62
  250
 10
408.56456491983647
 20
278.2728609481714
 11
408.08095667398652
 21
278.31348747405042
  0
LINE
  8
_0-0_1
  6
CONTINUOUS
 62
  250
 10
409.1876003507445
 20
279.10513252409942
 11
393.73590681589354
 21
270.16848892363544
  0
LINE
  8
_0-0_1
  6
CONTINUOUS
 62
  250
 10
393.73590681589354
 20
270.16848892363544
 11
392.21067163980649
 21
269.54950660857241
  0
LINE
  8
_0-0_1
  6
CONTINUOUS
 62
  250
 10
392.21067163980649
 20
269.54950660857241
 11
390.54271910227055
 21
269.34584945830341
  0
LINE
  8
_0-0_1
  6
CONTINUOUS
 62
  250
 10
390.54271910227055
 20
269.34584945830341
 11
388.76769278085953
 21
269.53667968901641
  0
LINE
  8
_0-0_1
  6
CONTINUOUS
 62
  250
 10
388.76769278085953
 20
269.53667968901641
 11
386.92142698801251
 21
270.10135025176044
  0
LINE
  8
_0-0_1
  6
CONTINUOUS
 62
  250
 10
386.92142698801251
 20
270.10135025176044
 11
385.03946993387456
 21
271.01911873015445
  0
LINE
  8
_0-0_1
  6
CONTINUOUS
 62
  250
 10
385.03946993387456
 20
271.01911873015445
 11
383.15753672159451
 21
272.26919502409942
  0
LINE
  8
_0-0_1
  6
CONTINUOUS
 62
  250
 10
383.15753672159451
 20
272.26919502409942
 11
381.31139013803647
 21
273.83093208464646
  0
LINE
  8
_0-0_1
  6
CONTINUOUS
 62
  250
 10
381.31139013803647
 20
273.83093208464646
 11
379.53667376077851
 21
275.68349212798142
  0
LINE
  8
_0-0_1
  6
CONTINUOUS
 62
  250
 10
379.53667376077851
 20
275.68349212798142
 11
377.86905500925252
 21
277.80627578887044
  0
LINE
  8
_0-0_1
  6
CONTINUOUS
 62
  250
 10
377.86905500925252
 20
277.80627578887044
 11
376.34424898660848
 21
280.17844528349946
  0
LINE
  8
_0-0_1
  6
CONTINUOUS
 62
  250
 10
376.34424898660848
 20
280.17844528349946
 11
375.05304548776854
 21
282.68493980559344
  0
LINE
  8
_0-0_1
  6
CONTINUOUS
 62
  250
 10
375.05304548776854
 20
282.68493980559344
 11
374.04856417215552
 21
285.18995613249848
  0
LINE
  8
_0-0_1
  6
CONTINUOUS
 62
  250
 10
374.04856417215552
 20
285.18995613249848
 11
373.33085272348654
 21
287.65234321745942
  0
LINE
  8
_0-0_1
  6
CONTINUOUS
 62
  250
 10
373.33085272348654
 20
287.65234321745942
 11
372.90000650919148
 21
290.03085464629146
  0
LINE
  8
_0-0_1
  6
CONTINUOUS
 62
  250
 10
372.90000650919148
 20
290.03085464629146
 11
372.75612089670346
 21
292.28448242339141
  0
LINE
  8
_0-0_1
  6
CONTINUOUS
 62
  250
 10
372.75612089670346
 20
292.28448242339141
 11
372.89929125345452
 21
294.3719324508574
  0
LINE
  8
_0-0_1
  6
CONTINUOUS
 62
  250
 10
372.89929125345452
 20
294.3719324508574
 11
373.32958910501651
 21
296.2520059982204
  0
LINE
  8
_0-0_1
  6
CONTINUOUS
 62
  250
 10
373.32958910501651
 20
296.2520059982204
 11
374.04710981882351
 21
297.88364738616042
  0
LINE
  8
_0-0_1
  6
CONTINUOUS
 62
  250
 10
374.04710981882351
 20
297.88364738616042
 11
375.05197260416253
 21
299.22561020049147
  0
LINE
  8
_0-0_1
  6
CONTINUOUS
 62
  250
 10
375.05197260416253
 20
299.22561020049147
 11
376.34424898660848
 21
300.23674339446046
  0
LINE
  8
_0-0_1
  6
CONTINUOUS
 62
  250
 10
376.34424898660848
 20
300.23674339446046
 11
391.80092546976351
 21
309.17181343230243
  0
LINE
  8
_0-0_1
  6
CONTINUOUS
 62
  250
 10
391.80092546976351
 20
309.17181343230243
 11
393.32287046945748
 21
309.78884071501744
  0
LINE
  8
_0-0_1
  6
CONTINUOUS
 62
  250
 10
393.32287046945748
 20
309.78884071501744
 11
394.98784277475551
 21
309.99087661894839
  0
LINE
  8
_0-0_1
  6
CONTINUOUS
 62
  250
 10
394.98784277475551
 20
309.99087661894839
 11
396.76015112436551
 21
309.79871124419242
  0
LINE
  8
_0-0_1
  6
CONTINUOUS
 62
  250
 10
396.76015112436551
 20
309.79871124419242
 11
398.60400888956252
 21
309.23313469084746
  0
LINE
  8
_0-0_1
  6
CONTINUOUS
 62
  250
 10
398.60400888956252
 20
309.23313469084746
 11
400.48365328348348
 21
308.31488937529542
  0
LINE
  8
_0-0_1
  6
CONTINUOUS
 62
  250
 10
400.48365328348348
 20
308.31488937529542
 11
402.36332151926251
 21
307.06481308135045
  0
LINE
  8
_0-0_1
  6
CONTINUOUS
 62
  250
 10
402.36332151926251
 20
307.06481308135045
 11
404.20734617746552
 21
305.50364822539342
  0
LINE
  8
_0-0_1
  6
CONTINUOUS
 62
  250
 10
404.20734617746552
 20
305.50364822539342
 11
405.97986910379649
 21
303.65223259123843
  0
LINE
  8
_0-0_1
  6
CONTINUOUS
 62
  250
 10
405.97986910379649
 20
303.65223259123843
 11
407.64519903696248
 21
301.5313562789824
  0
LINE
  8
_0-0_1
  6
CONTINUOUS
 62
  250
 10
407.64519903696248
 20
301.5313562789824
 11
409.16759703195748
 21
299.16176170500745
  0
LINE
  8
_0-0_1
  6
CONTINUOUS
 62
  250
 10
409.16759703195748
 20
299.16176170500745
 11
410.46259138620547
 21
296.65669769438739
  0
LINE
  8
_0-0_1
  6
CONTINUOUS
 62
  250
 10
410.46259138620547
 20
296.65669769438739
 11
411.47048208749953
 21
294.1522058883574
  0
LINE
  8
_0-0_1
  6
CONTINUOUS
 62
  250
 10
411.47048208749953
 20
294.1522058883574
 11
412.19119761026553
 21
291.68958038481742
  0
LINE
  8
_0-0_1
  6
CONTINUOUS
 62
  250
 10
412.19119761026553
 20
291.68958038481742
 11
412.62464258707251
 21
289.31035370024739
  0
LINE
  8
_0-0_1
  6
CONTINUOUS
 62
  250
 10
412.62464258707251
 20
289.31035370024739
 11
412.77069780863053
 21
287.05591529997838
  0
LINE
  8
_0-0_1
  6
CONTINUOUS
 62
  250
 10
412.77069780863053
 20
287.05591529997838
 11
412.62933943308047
 21
284.96765464934344
  0
LINE
  8
_0-0_1
  6
CONTINUOUS
 62
  250
 10
412.62933943308047
 20
284.96765464934344
 11
412.20044825113547
 21
283.08705658110642
  0
LINE
  8
_0-0_1
  6
CONTINUOUS
 62
  250
 10
412.20044825113547
 20
283.08705658110642
 11
411.48392889536154
 21
281.45546287688245
  0
LINE
  8
_0-0_1
  6
CONTINUOUS
 62
  250
 10
411.48392889536154
 20
281.45546287688245
 11
410.47968599832751
 21
280.11435836943639
  0
LINE
  8
_0-0_1
  6
CONTINUOUS
 62
  250
 10
410.47968599832751
 20
280.11435836943639
 11
409.1876003507445
 21
279.10513252409942
  0
LINE
  8
_0-0_1
  6
CONTINUOUS
 62
  250
 10
376.34424898660848
 20
300.23674339446046
 11
377.86628935373551
 21
300.85515350493444
  0
LINE
  8
_0-0_1
  6
CONTINUOUS
 62
  250
 10
377.86628935373551
 20
300.85515350493444
 11
379.53154776132749
 21
301.05823845061343
  0
LINE
  8
_0-0_1
  6
CONTINUOUS
 62
  250
 10
379.53154776132749
 20
301.05823845061343
 11
381.30423758066348
 21
300.86659759673142
  0
LINE
  8
_0-0_1
  6
CONTINUOUS
 62
  250
 10
381.30423758066348
 20
300.86659759673142
 11
383.14859602487752
 21
300.30111641081839
  0
LINE
  8
_0-0_1
  6
CONTINUOUS
 62
  250
 10
383.14859602487752
 20
300.30111641081839
 11
385.02881262338849
 21
299.38244194182448
  0
LINE
  8
_0-0_1
  6
CONTINUOUS
 62
  250
 10
385.02881262338849
 20
299.38244194182448
 11
386.90917227304647
 21
298.13126892241547
  0
LINE
  8
_0-0_1
  6
CONTINUOUS
 62
  250
 10
386.90917227304647
 20
298.13126892241547
 11
388.75384066141351
 21
296.56843513640445
  0
LINE
  8
_0-0_1
  6
CONTINUOUS
 62
  250
 10
388.75384066141351
 20
296.56843513640445
 11
390.5270311597655
 21
294.7145399490264
  0
LINE
  8
_0-0_1
  6
CONTINUOUS
 62
  250
 10
390.5270311597655
 20
294.7145399490264
 11
392.19300482309552
 21
292.59042114409442
  0
LINE
  8
_0-0_1
  6
CONTINUOUS
 62
  250
 10
392.19300482309552
 20
292.59042114409442
 11
393.71595118082251
 21
290.21677345427543
  0
LINE
  8
_0-0_1
  6
CONTINUOUS
 62
  250
 10
393.71595118082251
 20
290.21677345427543
 11
395.01387808359351
 21
287.71557182463641
  0
LINE
  8
_0-0_1
  6
CONTINUOUS
 62
  250
 10
395.01387808359351
 20
287.71557182463641
 11
396.02379534280948
 21
285.21446556242938
  0
LINE
  8
_0-0_1
  6
CONTINUOUS
 62
  250
 10
396.02379534280948
 20
285.21446556242938
 11
396.74563143289754
 21
282.75479644927037
  0
LINE
  8
_0-0_1
  6
CONTINUOUS
 62
  250
 10
396.74563143289754
 20
282.75479644927037
 11
397.17943403757351
 21
280.37790626677543
  0
LINE
  8
_0-0_1
  6
CONTINUOUS
 62
  250
 10
397.17943403757351
 20
280.37790626677543
 11
397.32529852426751
 21
278.12513679656041
  0
LINE
  8
_0-0_1
  6
CONTINUOUS
 62
  250
 10
397.32529852426751
 20
278.12513679656041
 11
397.18320105112252
 21
276.03768676909442
  0
LINE
  8
_0-0_1
  6
CONTINUOUS
 62
  250
 10
397.18320105112252
 20
276.03768676909442
 11
396.75316545999749
 21
274.15699333342542
  0
LINE
  8
_0-0_1
  6
CONTINUOUS
 62
  250
 10
396.75316545999749
 20
274.15699333342542
 11
396.03528711832251
 21
272.52435058745442
  0
LINE
  8
_0-0_1
  6
CONTINUOUS
 62
  250
 10
396.03528711832251
 20
272.52435058745442
 11
395.02951834238252
 21
271.1810526290804
  0
LINE
  8
_0-0_1
  6
CONTINUOUS
 62
  250
 10
395.02951834238252
 20
271.1810526290804
 11
393.73590681589354
 21
270.16848892363544
  0
LINE
  8
_0-0_1
  6
CONTINUOUS
 62
  250
 10
391.49591658151854
 20
271.4601454177764
 11
390.17345640695748
 21
270.91845840605743
  0
LINE
  8
_0-0_1
  6
CONTINUOUS
 62
  250
 10
390.17345640695748
 20
270.91845840605743
 11
388.72399065530948
 21
270.73950142058442
  0
LINE
  8
_0-0_1
  6
CONTINUOUS
 62
  250
 10
388.72399065530948
 20
270.73950142058442
 11
387.17913363016351
 21
270.90486854704847
  0
LINE
  8
_0-0_1
  6
CONTINUOUS
 62
  250
 10
387.17913363016351
 20
270.90486854704847
 11
385.57047579324956
 21
271.3964876571564
  0
LINE
  8
_0-0_1
  6
CONTINUOUS
 62
  250
 10
385.57047579324956
 20
271.3964876571564
 11
383.92946455515153
 21
272.19614357146241
  0
LINE
  8
_0-0_1
  6
CONTINUOUS
 62
  250
 10
383.92946455515153
 20
272.19614357146241
 11
382.28771421945748
 21
273.28566879424147
  0
LINE
  8
_0-0_1
  6
CONTINUOUS
 62
  250
 10
382.28771421945748
 20
273.28566879424147
 11
380.6767675641845
 21
274.64684814604749
  0
LINE
  8
_0-0_1
  6
CONTINUOUS
 62
  250
 10
380.6767675641845
 20
274.64684814604749
 11
379.12816736734652
 21
276.26146644743943
  0
LINE
  8
_0-0_1
  6
CONTINUOUS
 62
  250
 10
379.12816736734652
 20
276.26146644743943
 11
377.67350409067348
 21
278.11145157012044
  0
LINE
  8
_0-0_1
  6
CONTINUOUS
 62
  250
 10
377.67350409067348
 20
278.11145157012044
 11
376.34424898660848
 21
280.17844528349946
  0
LINE
  8
_0-0_1
  6
CONTINUOUS
 62
  250
 10
376.34424898660848
 20
280.17844528349946
 11
375.21893713510752
 21
282.36312240752244
  0
LINE
  8
_0-0_1
  6
CONTINUOUS
 62
  250
 10
375.21893713510752
 20
282.36312240752244
 11
374.34310648477748
 21
284.5471796432405
  0
LINE
  8
_0-0_1
  6
CONTINUOUS
 62
  250
 10
374.34310648477748
 20
284.5471796432405
 11
373.71704313791452
 21
286.69437736662843
  0
LINE
  8
_0-0_1
  6
CONTINUOUS
 62
  250
 10
373.71704313791452
 20
286.69437736662843
 11
373.34089014566655
 21
288.76880973967542
  0
LINE
  8
_0-0_1
  6
CONTINUOUS
 62
  250
 10
373.34089014566655
 20
288.76880973967542
 11
373.21488592661154
 21
290.73428482207339
  0
LINE
  8
_0-0_1
  6
CONTINUOUS
 62
  250
 10
373.21488592661154
 20
290.73428482207339
 11
373.3392212156125
 21
292.55475372466145
  0
LINE
  8
_0-0_1
  6
CONTINUOUS
 62
  250
 10
373.3392212156125
 20
292.55475372466145
 11
373.71411058939151
 21
294.19416755827945
  0
LINE
  8
_0-0_1
  6
CONTINUOUS
 62
  250
 10
373.71411058939151
 20
294.19416755827945
 11
374.33976862467051
 21
295.61638206633643
  0
LINE
  8
_0-0_1
  6
CONTINUOUS
 62
  250
 10
374.33976862467051
 20
295.61638206633643
 11
375.21640989816854
 21
296.7854437271024
  0
LINE
  8
_0-0_1
  6
CONTINUOUS
 62
  250
 10
375.21640989816854
 20
296.7854437271024
 11
376.34424898660848
 21
297.66511291655547
  0
LINE
  8
_0-0_1
  6
CONTINUOUS
 62
  250
 10
376.34424898660848
 20
297.66511291655547
 11
377.67262194193154
 21
298.20370048674641
  0
LINE
  8
_0-0_1
  6
CONTINUOUS
 62
  250
 10
377.67262194193154
 20
298.20370048674641
 11
379.12511560953351
 21
298.38051170500745
  0
LINE
  8
_0-0_1
  6
CONTINUOUS
 62
  250
 10
379.12511560953351
 20
298.38051170500745
 11
380.6706640485595
 21
298.2135233322054
  0
LINE
  8
_0-0_1
  6
CONTINUOUS
 62
  250
 10
380.6706640485595
 20
298.2135233322054
 11
382.27824900186749
 21
297.72071212920247
  0
LINE
  8
_0-0_1
  6
CONTINUOUS
 62
  250
 10
382.27824900186749
 20
297.72071212920247
 11
383.91697142160649
 21
296.92010254057942
  0
LINE
  8
_0-0_1
  6
CONTINUOUS
 62
  250
 10
383.91697142160649
 20
296.92010254057942
 11
385.55566999948752
 21
295.82971901091645
  0
LINE
  8
_0-0_1
  6
CONTINUOUS
 62
  250
 10
385.55566999948752
 20
295.82971901091645
 11
387.16349337137456
 21
294.46749061736136
  0
LINE
  8
_0-0_1
  6
CONTINUOUS
 62
  250
 10
387.16349337137456
 20
294.46749061736136
 11
388.70928022897954
 21
292.85148948821046
  0
LINE
  8
_0-0_1
  6
CONTINUOUS
 62
  250
 10
388.70928022897954
 20
292.85148948821046
 11
390.16208384073451
 21
290.99974006804445
  0
LINE
  8
_0-0_1
  6
CONTINUOUS
 62
  250
 10
390.16208384073451
 20
290.99974006804445
 11
391.49090979135752
 21
288.93012375029542
  0
LINE
  8
_0-0_1
  6
CONTINUOUS
 62
  250
 10
391.49090979135752
 20
288.93012375029542
 11
392.62082312143554
 21
286.74868911894839
  0
LINE
  8
_0-0_1
  6
CONTINUOUS
 62
  250
 10
392.62082312143554
 20
286.74868911894839
 11
393.50042078531453
 21
284.56744522246339
  0
LINE
  8
_0-0_1
  6
CONTINUOUS
 62
  250
 10
393.50042078531453
 20
284.56744522246339
 11
394.1294166807005
 21
282.42258400115043
  0
LINE
  8
_0-0_1
  6
CONTINUOUS
 62
  250
 10
394.1294166807005
 20
282.42258400115043
 11
394.50757238901349
 21
280.35020202788343
  0
LINE
  8
_0-0_1
  6
CONTINUOUS
 62
  250
 10
394.50757238901349
 20
280.35020202788343
 11
394.6346971753905
 21
278.38634819182448
  0
LINE
  8
_0-0_1
  6
CONTINUOUS
 62
  250
 10
394.6346971753905
 20
278.38634819182448
 11
394.5105049375365
 21
276.56726211699544
  0
LINE
  8
_0-0_1
  6
CONTINUOUS
 62
  250
 10
394.5105049375365
 20
276.56726211699544
 11
394.13475725687249
 21
274.92889732512447
  0
LINE
  8
_0-0_1
  6
CONTINUOUS
 62
  250
 10
394.13475725687249
 20
274.92889732512447
 11
393.50723955667752
 21
273.50754112395344
  0
LINE
  8
_0-0_1
  6
CONTINUOUS
 62
  250
 10
393.50723955667752
 20
273.50754112395344
 11
392.62768957651349
 21
272.33924240263946
  0
LINE
  8
_0-0_1
  6
CONTINUOUS
 62
  250
 10
392.62768957651349
 20
272.33924240263946
 11
391.49591658151854
 21
271.4601454177764
  0
LINE
  8
_0-0_1
  6
CONTINUOUS
 62
  250
 10
409.1876003507445
 20
279.10513252409942
 11
393.73590681589354
 21
270.16848892363544
  0
LINE
  8
_0-0_1
  6
CONTINUOUS
 62
  250
 10
393.73590681589354
 20
270.16848892363544
 11
392.21067163980649
 21
269.54950660857241
  0
LINE
  8
_0-0_1
  6
CONTINUOUS
 62
  250
 10
392.21067163980649
 20
269.54950660857241
 11
390.54271910227055
 21
269.34584945830341
  0
LINE
  8
_0-0_1
  6
CONTINUOUS
 62
  250
 10
390.54271910227055
 20
269.34584945830341
 11
388.76769278085953
 21
269.53667968901641
  0
LINE
  8
_0-0_1
  6
CONTINUOUS
 62
  250
 10
388.76769278085953
 20
269.53667968901641
 11
386.92142698801251
 21
270.10135025176044
  0
LINE
  8
_0-0_1
  6
CONTINUOUS
 62
  250
 10
386.92142698801251
 20
270.10135025176044
 11
385.03946993387456
 21
271.01911873015445
  0
LINE
  8
_0-0_1
  6
CONTINUOUS
 62
  250
 10
385.03946993387456
 20
271.01911873015445
 11
383.15753672159451
 21
272.26919502409942
  0
LINE
  8
_0-0_1
  6
CONTINUOUS
 62
  250
 10
383.15753672159451
 20
272.26919502409942
 11
381.31139013803647
 21
273.83093208464646
  0
LINE
  8
_0-0_1
  6
CONTINUOUS
 62
  250
 10
381.31139013803647
 20
273.83093208464646
 11
379.53667376077851
 21
275.68349212798142
  0
LINE
  8
_0-0_1
  6
CONTINUOUS
 62
  250
 10
379.53667376077851
 20
275.68349212798142
 11
377.86905500925252
 21
277.80627578887044
  0
LINE
  8
_0-0_1
  6
CONTINUOUS
 62
  250
 10
377.86905500925252
 20
277.80627578887044
 11
376.34424898660848
 21
280.17844528349946
  0
LINE
  8
_0-0_1
  6
CONTINUOUS
 62
  250
 10
376.34424898660848
 20
280.17844528349946
 11
375.05304548776854
 21
282.68493980559344
  0
LINE
  8
_0-0_1
  6
CONTINUOUS
 62
  250
 10
375.05304548776854
 20
282.68493980559344
 11
374.04856417215552
 21
285.18995613249848
  0
LINE
  8
_0-0_1
  6
CONTINUOUS
 62
  250
 10
374.04856417215552
 20
285.18995613249848
 11
373.33085272348654
 21
287.65234321745942
  0
LINE
  8
_0-0_1
  6
CONTINUOUS
 62
  250
 10
373.33085272348654
 20
287.65234321745942
 11
372.90000650919148
 21
290.03085464629146
  0
LINE
  8
_0-0_1
  6
CONTINUOUS
 62
  250
 10
372.90000650919148
 20
290.03085464629146
 11
372.75612089670346
 21
292.28448242339141
  0
LINE
  8
_0-0_1
  6
CONTINUOUS
 62
  250
 10
372.75612089670346
 20
292.28448242339141
 11
372.89929125345452
 21
294.3719324508574
  0
LINE
  8
_0-0_1
  6
CONTINUOUS
 62
  250
 10
372.89929125345452
 20
294.3719324508574
 11
373.32958910501651
 21
296.2520059982204
  0
LINE
  8
_0-0_1
  6
CONTINUOUS
 62
  250
 10
373.32958910501651
 20
296.2520059982204
 11
374.04710981882351
 21
297.88364738616042
  0
LINE
  8
_0-0_1
  6
CONTINUOUS
 62
  250
 10
374.04710981882351
 20
297.88364738616042
 11
375.05197260416253
 21
299.22561020049147
  0
LINE
  8
_0-0_1
  6
CONTINUOUS
 62
  250
 10
375.05197260416253
 20
299.22561020049147
 11
376.34424898660848
 21
300.23674339446046
  0
LINE
  8
_0-0_1
  6
CONTINUOUS
 62
  250
 10
376.34424898660848
 20
300.23674339446046
 11
391.80092546976351
 21
309.17181343230243
  0
ENDSEC
  0
EOF
