  0
SECTION
  2
HEADER
  9
$ACADVER
  1
AC1009
  9
$INSBASE
 10
0
 20
0
 30
0
  9
$EXTMIN
 10
0
 20
0
  9
$EXTMAX
 10
420
 20
297
  9
$LIMMIN
 10
0
 20
0
  9
$LIMMAX
 10
420
 20
297
  9
$LTSCALE
 40
1
  0
ENDSEC
  0
SECTION
  2
TABLES
  0
TABLE
  2
LTYPE
 70
     9
  0
LTYPE
  2
CONTINUOUS
 70
    64
  3
実線
 72
    65
 73
     0
 40
0.0
  0
LTYPE
  2
DASHED1
 70
    64
  3
--  --  --  --  --  --  --  --  
 72
    65
 73
     2
 40
2.5
 49
1.25
 49
-1.25
  0
LTYPE
  2
DASHED2
 70
    64
  3
----    ----    ----    ----    
 72
    65
 73
     2
 40
5.0
 49
2.5
 49
-2.5
  0
LTYPE
  2
DASHED3
 70
    64
  3
------  ------  ------  ------  
 72
    65
 73
     2
 40
5.0
 49
3.75
 49
-1.25
  0
LTYPE
  2
CENTER1
 70
    64
  3
----- - ----- - ----- - ----- - 
 72
    65
 73
     4
 40
10.0
 49
6.25
 49
-1.25
 49
1.25
 49
-1.25
  0
LTYPE
  2
CENTER2
 70
    64
  3
----------  --  ----------  --  
 72
    65
 73
     4
 40
20.0
 49
12.5
 49
-2.5
 49
2.5
 49
-2.5
  0
LTYPE
  2
PHANTOM1
 70
    64
  3
--- - - --- - - --- - - --- - - 
 72
    65
 73
     6
 40
10.0
 49
3.25
 49
-1.25
 49
1.25
 49
-1.25
 49
1.25
 49
-1.25
  0
LTYPE
  2
PHANTOM2
 70
    64
  3
--------  -  -  --------  -  -  
 72
    65
 73
     6
 40
20.0
 49
10.0
 49
-2.5
 49
1.25
 49
-2.5
 49
1.25
 49
-2.5
  0
LTYPE
  2
DOT
 70
    64
  3
-   -   -   -   -   -   -   -   
 72
    65
 73
     2
 40
2.5
 49
0.625
 49
-1.875
  0
LTYPE
  2
DUMMY
 70
    64
  3
ダミー
 72
    65
 73
     0
 40
0.0
  0
LTYPE
  2
RAND1
 70
    64
  3
ランダム線1
 72
    65
 73
     4
 40
10.0
 49
1.0
 49
-2.0
 49
3.0
 49
-4.0
  0
LTYPE
  2
RAND2
 70
    64
  3
ランダム線2
 72
    65
 73
     4
 40
14.0
 49
2.0
 49
-3.0
 49
4.0
 49
-5.0
  0
LTYPE
  2
RAND3
 70
    64
  3
ランダム線3
 72
    65
 73
     4
 40
18.0
 49
3.0
 49
-4.0
 49
5.0
 49
-6.0
  0
LTYPE
  2
RAND4
 70
    64
  3
ランダム線4
 72
    65
 73
     4
 40
22.0
 49
4.0
 49
-5.0
 49
6.0
 49
-7.0
  0
LTYPE
  2
RAND5
 70
    64
  3
ランダム線5
 72
    65
 73
     4
 40
26.0
 49
5.0
 49
-6.0
 49
7.0
 49
-8.0
  0
LTYPE
  2
LONG1
 70
    64
  3
----------  --  ----------  --  
 72
    65
 73
     4
 40
40.0
 49
32.5
 49
-2.5
 49
2.5
 49
-2.5
  0
LTYPE
  2
LONG2
 70
    64
  3
--------  -  -  --------  -  -  
 72
    65
 73
     6
 40
40.0
 49
30.0
 49
-2.5
 49
1.25
 49
-2.5
 49
1.25
 49
-2.5
  0
LTYPE
  2
LONG3
 70
    64
  3
+++++++++++++++..+++++++++++++++
 72
    65
 73
     2
 40
40.0
 49
37.5
 49
-2.5
  0
LTYPE
  2
LONG4
 70
    64
  3
+++++++++++++++..+++++++++++++++
 72
    65
 73
     2
 40
80.0
 49
75.0
 49
-5.0
  0
LTYPE
  2
LONG5
 70
    64
  3
----------  --  ----------  --  
 72
    65
 73
     4
 40
60.0
 49
37.5
 49
-7.5
 49
7.5
 49
-7.5
  0
LTYPE
  2
dashed
 70
   64
  3
-------   -------------   ------
 72
   65
 73
    2
 40
7.5
 49
6
 49
-1.5
  0
LTYPE
  2
dashed_spaced
 70
   64
  3
----        --------        ----
 72
   65
 73
    2
 40
12
 49
6
 49
-6
  0
LTYPE
  2
long_dashed_dotted
 70
   64
  3
------------- --- --------------
 72
   65
 73
    4
 40
15.25
 49
12
 49
-1.5
 49
0.25
 49
-1.5
  0
LTYPE
  2
long_dashed_double-dotted
 70
   64
  3
----------- --- --- ------------
 72
   65
 73
    6
 40
17
 49
12
 49
-1.5
 49
0.25
 49
-1.5
 49
0.25
 49
-1.5
  0
LTYPE
  2
long_dashed_triplicate-dotted
 70
   64
  3
--------- --- --- --- ----------
 72
   65
 73
    8
 40
18.75
 49
12
 49
-1.5
 49
0.25
 49
-1.5
 49
0.25
 49
-1.5
 49
0.25
 49
-1.5
  0
LTYPE
  2
dotted
 70
   64
  3
   -       -       -       -    
 72
   65
 73
    2
 40
1.75
 49
0.25
 49
-1.5
  0
LTYPE
  2
chain
 70
   64
  3
-------------- -- --------------
 72
   65
 73
    4
 40
18.5
 49
12
 49
-1.5
 49
3.5
 49
-1.5
  0
LTYPE
  2
chain_double_dash
 70
   64
  3
------------ -- -- -------------
 72
   65
 73
    6
 40
23.5
 49
12
 49
-1.5
 49
3.5
 49
-1.5
 49
3.5
 49
-1.5
  0
LTYPE
  2
dashed_dotted
 70
   64
  3
-----------     -     ----------
 72
   65
 73
    4
 40
9.25
 49
6
 49
-1.5
 49
0.25
 49
-1.5
  0
LTYPE
  2
double-dashed_dotted
 70
   64
  3
------   -----------   -   -----
 72
   65
 73
    6
 40
16.75
 49
6
 49
-1.5
 49
6
 49
-1.5
 49
0.25
 49
-1.5
  0
LTYPE
  2
dashed_double-dotted
 70
   64
  3
---------    -    -    ---------
 72
   65
 73
    6
 40
11
 49
6
 49
-1.5
 49
0.25
 49
-1.5
 49
0.25
 49
-1.5
  0
LTYPE
  2
double-dashed_double-dotted
 70
   64
  3
-----   ---------   -   -   ----
 72
   65
 73
    8
 40
18.5
 49
6
 49
-1.5
 49
6
 49
-1.5
 49
0.25
 49
-1.5
 49
0.25
 49
-1.5
  0
LTYPE
  2
dashed_triplicate-dotted
 70
   64
  3
-------    -    -    -    ------
 72
   65
 73
    8
 40
12.75
 49
6
 49
-1.5
 49
0.25
 49
-1.5
 49
0.25
 49
-1.5
 49
0.25
 49
-1.5
  0
LTYPE
  2
double-dashed_triplicate-dotted
 70
   64
  3
-----  ---------  -  -  -  -----
 72
   65
 73
   10
 40
20.25
 49
6
 49
-1.5
 49
6
 49
-1.5
 49
0.25
 49
-1.5
 49
0.25
 49
-1.5
 49
0.25
 49
-1.5
  0
LTYPE
  2
undefined
 70
   64
  3
--------------------------------
 72
   65
 73
    0
 40
0
  0
LTYPE
  2
_
 70
   64
  3
                                
 72
   65
 73
    0
 40
0
  0
LTYPE
  2
__18
 70
   64
  3
                                
 72
   65
 73
    0
 40
0
  0
LTYPE
  2
__19
 70
   64
  3
                                
 72
   65
 73
    0
 40
0
  0
LTYPE
  2
__20
 70
   64
  3
                                
 72
   65
 73
    0
 40
0
  0
LTYPE
  2
__21
 70
   64
  3
                                
 72
   65
 73
    0
 40
0
  0
LTYPE
  2
__22
 70
   64
  3
                                
 72
   65
 73
    0
 40
0
  0
LTYPE
  2
__23
 70
   64
  3
                                
 72
   65
 73
    0
 40
0
  0
LTYPE
  2
__24
 70
   64
  3
                                
 72
   65
 73
    0
 40
0
  0
LTYPE
  2
__25
 70
   64
  3
                                
 72
   65
 73
    0
 40
0
  0
LTYPE
  2
__26
 70
   64
  3
                                
 72
   65
 73
    0
 40
0
  0
LTYPE
  2
__27
 70
   64
  3
                                
 72
   65
 73
    0
 40
0
  0
LTYPE
  2
__28
 70
   64
  3
                                
 72
   65
 73
    0
 40
0
  0
LTYPE
  2
__29
 70
   64
  3
                                
 72
   65
 73
    0
 40
0
  0
LTYPE
  2
__30
 70
   64
  3
                                
 72
   65
 73
    0
 40
0
  0
LTYPE
  2
__31
 70
   64
  3
                                
 72
   65
 73
    0
 40
0
  0
LTYPE
  2
__32
 70
   64
  3
                                
 72
   65
 73
    0
 40
0
  0
ENDTAB
  0
TABLE
  2
STYLE
  5
3
100
AcDbSymbolTable
 70
     1
  0
STYLE
  5
10
100
AcDbSymbolTableRecord
100
AcDbTextStyleTableRecord
  2
STANDARD
 70
     0
 40
0.0
 41
1.0
 50
0.0
 71
     0
 42
0.2
  3
txt
  4
bigfont.shx
  0
STYLE
  5
26
100
AcDbSymbolTableRecord
100
AcDbTextStyleTableRecord
  2
TATEGAKI
 70
    68
 40
0.0
 41
1.0
 50
0.0
 71
     0
 42
1.0
  3
txt
  4
bigfont.shx
  0
ENDTAB
  0
TABLE
  2
LAYER
 70
    5
  0
LAYER
  2
_0-0_
 70
   64
 62
    7
  6
CONTINUOUS
  0
LAYER
  2
_2-2_
 70
   64
 62
    7
  6
CONTINUOUS
  0
LAYER
  2
_2-3_
 70
   64
 62
    7
  6
CONTINUOUS
  0
LAYER
  2
_2-f_
 70
   64
 62
    7
  6
CONTINUOUS
  0
LAYER
  2
ADD_LINE
 70
   64
 62
    7
  6
CONTINUOUS
  0
ENDTAB
  0
ENDSEC
  0
SECTION
  2
BLOCKS
  0
ENDSEC
  0
SECTION
  2
ENTITIES
  0
LINE
  8
_2-3_
  6
CONTINUOUS
 62
    7
 10
237.97948121718142
 20
199.72664741327742
 11
237.97948121718142
 21
187.03493141327738
  0
LINE
  8
_2-2_
  6
CONTINUOUS
 62
    7
 10
108.64288859678538
 20
123.24630591327741
 11
197.62322183757746
 21
123.24630591327741
  0
LINE
  8
_0-0_
  6
CONTINUOUS
 62
    7
 10
394.99996700802365
 20
65.000006185995588
 11
299.99997500802363
 21
65.000006185995588
  0
LINE
  8
_0-0_
  6
CONTINUOUS
 62
    7
 10
394.99996700802365
 20
35.000004123997044
 11
299.99997525601776
 21
35.000004123997044
  0
LINE
  8
_0-0_
  6
CONTINUOUS
 62
    7
 10
15
 20
272.00000659839526
 11
394.99996700802365
 21
272.00000659839526
  0
LINE
  8
_0-0_
  6
CONTINUOUS
 62
    7
 10
394.99996700802365
 20
272.00000659839526
 11
394.99996700802365
 21
15
  0
LINE
  8
_0-0_
  6
CONTINUOUS
 62
    2
 10
349.99996700802365
 20
35.000004123997044
 11
349.99996700802365
 21
15
  0
LINE
  8
_0-0_
  6
CONTINUOUS
 62
    2
 10
349.99996700802365
 20
45.000006185995574
 11
349.99996700802365
 21
35.000004123997044
  0
LINE
  8
_0-0_
  6
CONTINUOUS
 62
    7
 10
344.99997525601776
 20
35.000004123997044
 11
344.99997525601776
 21
15
  0
LINE
  8
_0-0_
  6
CONTINUOUS
 62
    7
 10
310.0229459195524
 20
31.279208209063555
 11
310.0229459195524
 21
28.279210683461784
  0
LINE
  8
_0-0_
  6
CONTINUOUS
 62
    7
 10
310.0229459195524
 20
31.279208209063555
 11
317.02294426995354
 21
32.779206971864454
  0
LINE
  8
_0-0_
  6
CONTINUOUS
 62
    7
 10
317.02294426995354
 20
32.779206971864454
 11
317.02294426995354
 21
26.779205734665339
  0
LINE
  8
_0-0_
  6
CONTINUOUS
 62
    7
 10
310.0229459195524
 20
28.279210683461784
 11
317.02294426995354
 21
26.779205734665339
  0
LINE
  8
_0-0_
  6
CENTER2
 62
    2
 10
319.02292612436656
 20
29.779209446262669
 11
301.02294097075594
 21
29.779209446262669
  0
LINE
  8
_0-0_
  6
CENTER2
 62
    2
 10
305.02292942356422
 20
33.779210271062084
 11
305.02292942356422
 21
25.779207074964376
  0
LINE
  8
_0-0_
  6
CONTINUOUS
 62
    7
 10
344.99997525601776
 20
45.000006185995574
 11
344.99997525601776
 21
15
  0
LINE
  8
_0-0_
  6
CONTINUOUS
 62
    7
 10
374.99997525601776
 20
45.000006185995574
 11
374.99997525601776
 21
35.000004123997044
  0
LINE
  8
_0-0_
  6
CONTINUOUS
 62
    2
 10
380.00001649598818
 20
45.000006185995574
 11
380.00001649598818
 21
35.000004123997044
  0
LINE
  8
_0-0_
  6
CONTINUOUS
 62
    7
 10
319.99999175200594
 20
35.000004123997044
 11
319.99999175200594
 21
25.000000515499636
  0
LINE
  8
_0-0_
  6
CONTINUOUS
 62
    2
 10
324.99998350401182
 20
35.000004123997044
 11
324.99998350401182
 21
25.000000515499636
  0
LINE
  8
_0-0_
  6
CONTINUOUS
 62
    2
 10
335.00001649598818
 20
45.000006185995574
 11
335.00001649598818
 21
35.000004123997044
  0
LINE
  8
_0-0_
  6
CONTINUOUS
 62
    7
 10
329.99997525601776
 20
45.000006185995574
 11
329.99997525601776
 21
35.000004123997044
  0
LINE
  8
_0-0_
  6
CONTINUOUS
 62
    2
 10
319.99999175200594
 20
45.000006185995574
 11
319.99999175200594
 21
35.000004123997044
  0
LINE
  8
_0-0_
  6
CONTINUOUS
 62
    7
 10
314.99997525601776
 20
45.000006185995574
 11
314.99997525601776
 21
35.000004123997044
  0
LINE
  8
_0-0_
  6
CONTINUOUS
 62
    2
 10
304.99996700802365
 20
45.000006185995574
 11
304.99996700802365
 21
35.000004123997044
  0
LINE
  8
_0-0_
  6
CONTINUOUS
 62
    7
 10
394.99996700802365
 20
45.000006185995574
 11
299.99997525601776
 21
45.000006185995574
  0
LINE
  8
_0-0_
  6
CONTINUOUS
 62
    7
 10
394.99996700802365
 20
25.000000515499636
 11
299.99997525601776
 21
25.000000515499636
  0
CIRCLE
  8
_0-0_
  6
CONTINUOUS
 62
    7
 10
305.02292942356422
 20
29.779209446262669
 40
3.0000000386624723
  0
CIRCLE
  8
_0-0_
  6
CONTINUOUS
 62
    7
 10
305.02292942356422
 20
29.779209446262669
 40
1.5000000193312362
  0
TEXT
  8
_0-0_
 62
    7
 10
347.6258264490076
 20
23.126073888830234
 40
3
 41
1
 50
0
  1
図番
  7
TATEGAKI
  0
TEXT
  8
_0-0_
 62
    7
 10
347.50309629698057
 20
33.277761201600782
 40
3
 41
1
 50
0
  1
品名
  7
TATEGAKI
  0
TEXT
  8
_0-0_
 62
    7
 10
347.57888711465375
 20
43.076007018218178
 40
3
 41
1
 50
0
  1
作図
  7
TATEGAKI
  0
TEXT
  8
_0-0_
 62
    7
 10
377.2779260583826
 20
43.013794460812136
 40
3
 41
1
 50
0
  1
尺度
  7
TATEGAKI
  0
TEXT
  8
_0-0_
 62
    7
 10
385.93899783572635
 20
37.594552942224453
 40
3
 41
1
 50
0
  1
：
  0
TEXT
  8
_0-0_
 62
    7
 10
322.56749663481844
 20
33.277761201600782
 40
3
 41
1
 50
0
  1
材質
  7
TATEGAKI
  0
TEXT
  8
_0-0_
 62
    7
 10
302.50104254645271
 20
42.994976662300729
 40
3
 41
1
 50
0
  1
設計
  7
TATEGAKI
  0
TEXT
  8
_0-0_
 62
    7
 10
317.48364752692146
 20
42.994976662300729
 40
3
 41
1
 50
0
  1
製図
  7
TATEGAKI
  0
TEXT
  8
_0-0_
 62
    7
 10
332.46625250739021
 20
42.994976662300729
 40
3
 41
1
 50
0
  1
検図
  7
TATEGAKI
  0
TEXT
  8
_0-0_
 62
    7
 10
356.13318695893156
 20
38.271956572661537
 40
3
 41
1
 50
0
  1
年　月　日
  0
LINE
  8
_0-0_
  6
CONTINUOUS
 62
    7
 10
394.99996700802365
 20
50.000006185995574
 11
299.99997525601776
 21
50.000006185995574
  0
TEXT
  8
_0-0_
 62
    7
 10
305.73940582397756
 20
45.395881365276665
 40
4
 41
1
 50
0
  1
出図
  0
TEXT
  8
_0-0_
 62
    7
 10
331.66244169064771
 20
45.896091496297259
 40
3
 41
1
 50
0
  1
.   .
  0
LINE
  8
_0-0_
  6
CONTINUOUS
 62
    7
 10
394.99996700802365
 20
15
 11
15.003167229729712
 21
15
  0
LINE
  8
_0-0_
  6
CONTINUOUS
 62
    7
 10
15.003167229729712
 20
15
 11
15
 21
272.00000659839526
  0
TEXT
  8
_0-0_
 62
    7
 10
305.94202991751172
 20
18.241602781720246
 40
4
 41
1
 50
0
  1
ＦＫＫ株式会社
  0
TEXT
  8
_0-0_
 62
    7
 10
323.01603849238171
 20
38.018444266238987
 40
4
 41
1
 50
0
  1
長
  0
TEXT
  8
_0-0_
 62
    7
 10
351.20453322135108
 20
37.866698199174422
 40
4
 41
1
 50
0
  1
18
  0
TEXT
  8
_0-0_
 62
    7
 10
305.73462499999999
 20
37.721500000000006
 40
4
 41
1
 50
0
  1
百々
  0
TEXT
  8
_0-0_
 62
    7
 10
359.04750000000001
 20
37.818333333333328
 40
4
 41
1
 50
0
  1
12
  0
TEXT
  8
_0-0_
 62
    7
 10
367.31760244109262
 20
37.729413296476579
 40
4
 41
1
 50
0
  1
6
  0
LINE
  8
_0-0_
  6
CONTINUOUS
 62
    7
 10
319.99999175200594
 20
45.000006185995574
 11
319.99999175200594
 21
50.000006185995574
  0
LINE
  8
_0-0_
  6
CONTINUOUS
 62
    7
 10
349.99997525601776
 20
45.000006185995574
 11
349.99997525601776
 21
50.000006185995574
  0
LINE
  8
_0-0_
  6
CONTINUOUS
 62
    7
 10
384.99996700802365
 20
50.000006185995574
 11
384.99996700802365
 21
45.000006185995574
  0
LINE
  8
_0-0_
  6
CONTINUOUS
 62
    7
 10
394.99996700802365
 20
50.000006185995574
 11
299.99997500802363
 21
50.000006185995574
  0
LINE
  8
_0-0_
  6
CONTINUOUS
 62
    7
 10
394.99996700802365
 20
55.000006185995602
 11
299.99997500802363
 21
55.000006185995602
  0
LINE
  8
_0-0_
  6
CONTINUOUS
 62
    7
 10
394.99996700802365
 20
60.000006185995574
 11
299.99997500802363
 21
60.000006185995574
  0
LINE
  8
_0-0_
  6
CONTINUOUS
 62
    7
 10
394.99996700802365
 20
70.000006185995602
 11
299.99997500802363
 21
70.000006185995602
  0
LINE
  8
_0-0_
  6
CONTINUOUS
 62
    7
 10
394.99996700802365
 20
75.000006185995574
 11
299.99997500802363
 21
75.000006185995574
  0
TEXT
  8
_0-0_
 62
    7
 10
302.76283767315158
 20
75.501913306405754
 40
3.9999999999999858
 41
0.9999999999999973
 50
0
  1
⑥
  0
TEXT
  8
_0-0_
 62
    7
 10
302.76283767315158
 20
70.545846958115675
 40
3.9999999999999858
 41
0.9999999999999973
 50
0
  1
⑤
  0
TEXT
  8
_0-0_
 62
    7
 10
302.76283767315158
 20
65.589780609825624
 40
3.9999999999999858
 41
0.9999999999999973
 50
0
  1
④
  0
TEXT
  8
_0-0_
 62
    7
 10
302.76283767315158
 20
60.563910510151175
 40
3.9999999999999858
 41
0.9999999999999973
 50
0
  1
③
  0
TEXT
  8
_0-0_
 62
    7
 10
302.81519048668986
 20
55.590393224015074
 40
3.9999999999999716
 41
1.0000000000000009
 50
0
  1
②
  0
TEXT
  8
_0-0_
 62
    7
 10
302.81519048668986
 20
50.56452312434061
 40
4
 41
0.9999999999999935
 50
0
  1
①
  0
LINE
  8
_0-0_
  6
CONTINUOUS
 62
    7
 10
394.99996700802365
 20
80.000006185995588
 11
299.99997525601776
 21
80.000006185995588
  0
LINE
  8
_2-3_
  6
CONTINUOUS
 62
    4
 10
380.00001649598818
 20
35.000004123997059
 11
394.99996700802365
 21
45.000006185995574
  0
TEXT
  8
_2-3_
 62
    7
 10
351.90319759095678
 20
30.20355681082205
 40
4
 41
1
 50
0
  1
SimpleDimmer
  0
TEXT
  8
_2-3_
 62
    7
 10
351.90319759095678
 20
25.035197537541137
 40
4
 41
1
 50
0
  1
FSD-24 仕様図
  0
TEXT
  8
_2-3_
 62
    7
 10
311.92856999779656
 20
75.277993665800921
 40
3
 41
1
 50
0
  1
出力側コネクタ
  0
TEXT
  8
_2-3_
 62
    7
 10
311.63642933988018
 20
50.983236930575572
 40
3
 41
1
 50
0
  1
樹脂ケース
  0
TEXT
  8
_2-3_
 62
    7
 10
311.63642933988018
 20
55.947396214094567
 40
3
 41
1
 50
0
  1
調光ﾚﾍﾞﾙ表示LED
  0
TEXT
  8
_2-3_
 62
    7
 10
311.71916532793887
 20
60.911555497613563
 40
3
 41
1
 50
0
  1
照度UPﾎﾞﾀﾝ
  0
TEXT
  8
_2-3_
 62
    7
 10
311.71916532793887
 20
65.379298852780693
 40
3
 41
1
 50
0
  1
照度DOWNﾎﾞﾀﾝ
  0
TEXT
  8
_2-3_
 62
    7
 10
311.88463730405613
 20
70.591666100475663
 40
3
 41
1
 50
0
  1
入力側コネクタ
  0
TEXT
  8
_2-3_
 62
    7
 10
357.7203746885483
 20
75.473089395935972
 40
3
 41
1
 50
0
  1
SLP-02V
  0
TEXT
  8
_2-3_
 62
    7
 10
357.38943073631367
 20
70.508930112416976
 40
3
 41
1
 50
0
  1
SLR-02VF
  0
TEXT
  8
_2-3_
 62
    7
 10
357.22395876019641
 20
55.368244297684043
 40
3
 41
1
 50
0
  1
7セグ表示LED
  0
TEXT
  8
_2-3_
 62
    7
 10
357.55490271243104
 20
50.321349026106361
 40
3
 41
1
 50
0
  1
ABS黒色
  0
LINE
  8
_2-3_
  6
CONTINUOUS
 62
    7
 10
179.38305521718144
 20
196.26308256197206
 11
178.61456669216653
 21
197.17893152252594
  0
LINE
  8
_2-3_
  6
CONTINUOUS
 62
    7
 10
177.88305521718144
 20
196.56512051366397
 11
178.61456669216653
 21
197.17893152252594
  0
LINE
  8
_2-3_
  6
CONTINUOUS
 62
    7
 10
177.69021893427549
 20
196.79493384659966
 11
178.53663707572844
 21
197.50516299691463
  0
LINE
  8
_2-3_
  6
CONTINUOUS
 62
    7
 10
178.53663707572844
 20
197.50516299691463
 11
177.88305521718144
 21
198.28407152489243
  0
LINE
  8
_2-3_
  6
CONTINUOUS
 62
    7
 10
179.61286855011713
 20
196.455918844878
 11
178.74796188364928
 21
197.48667447189973
  0
LINE
  8
_2-3_
  6
CONTINUOUS
 62
    7
 10
178.74796188364928
 20
197.48667447189973
 11
179.38305521718144
 21
198.01958105382974
  0
LINE
  8
_2-3_
  6
CONTINUOUS
 62
    7
 10
186.69021893427549
 20
196.7311309380521
 11
179.38305521718144
 21
198.01958105382974
  0
LINE
  8
_2-3_
  6
CONTINUOUS
 62
    7
 10
186.69021893427549
 20
196.7311309380521
 11
185.19021893427549
 21
195.47248149128617
  0
LINE
  8
_2-3_
  6
CONTINUOUS
 62
    7
 10
185.19021893427549
 20
195.47248149128617
 11
179.61286855011713
 21
196.455918844878
  0
LINE
  8
_2-3_
  6
CONTINUOUS
 62
    7
 10
186.88305521718144
 20
196.50131760511641
 11
185.38305521718144
 21
195.24266815835048
  0
LINE
  8
_2-3_
  6
CONTINUOUS
 62
    7
 10
177.69021893427549
 20
196.79493384659966
 11
172.11286855011713
 21
197.77837120019149
  0
LINE
  8
_2-3_
  6
CONTINUOUS
 62
    7
 10
172.11286855011713
 20
197.77837120019149
 11
170.61286855011713
 21
199.56600158908282
  0
LINE
  8
_2-3_
  6
CONTINUOUS
 62
    7
 10
177.88305521718144
 20
198.28407152489243
 11
170.61286855011713
 21
199.56600158908282
  0
LINE
  8
_2-3_
  6
CONTINUOUS
 62
    7
 10
171.88305521718144
 20
197.58553491728554
 11
170.38305521718144
 21
199.37316530617684
  0
LINE
  8
_2-3_
  6
CONTINUOUS
 62
    7
 10
185.38305521718144
 20
189.29963974477863
 11
186.88305521718144
 21
187.5120093558873
  0
LINE
  8
_2-3_
  6
CONTINUOUS
 62
    7
 10
185.38305521718144
 20
189.5329983188077
 11
186.88305521718144
 21
187.74536792991637
  0
LINE
  8
_2-3_
  6
CONTINUOUS
 62
    7
 10
185.15324188424574
 20
189.3401620359017
 11
186.65324188424574
 21
187.5525316470104
  0
LINE
  8
_2-3_
  6
CONTINUOUS
 62
    7
 10
185.15324188424574
 20
189.3401620359017
 11
179.57589150008738
 21
190.32359938949355
  0
LINE
  8
_2-3_
  6
CONTINUOUS
 62
    7
 10
186.65324188424574
 20
187.5525316470104
 11
179.61286855011713
 21
188.79393942007769
  0
LINE
  8
_2-3_
  6
CONTINUOUS
 62
    7
 10
178.84438002510228
 20
189.70978838063158
 11
179.61286855011713
 21
188.79393942007769
  0
LINE
  8
_2-3_
  6
CONTINUOUS
 62
    7
 10
179.57589150008738
 20
190.32359938949355
 11
178.84438002510228
 21
189.70978838063158
  0
LINE
  8
_2-3_
  6
CONTINUOUS
 62
    7
 10
178.42173040926059
 20
189.74676543066133
 11
177.69021893427546
 21
189.13295442179935
  0
LINE
  8
_2-3_
  6
CONTINUOUS
 62
    7
 10
177.65324188424574
 20
190.66261439121521
 11
178.42173040926059
 21
189.74676543066133
  0
LINE
  8
_2-3_
  6
CONTINUOUS
 62
    7
 10
177.88305521718144
 20
190.62209210009212
 11
178.63305521718144
 21
189.72827690564645
  0
LINE
  8
_2-3_
  6
CONTINUOUS
 62
    7
 10
179.38305521718144
 20
190.3576016290294
 11
178.63305521718144
 21
189.72827690564645
  0
LINE
  8
_2-3_
  6
CONTINUOUS
 62
    7
 10
171.88305521718144
 20
191.87586507774273
 11
170.38305521718144
 21
190.61721563097683
  0
LINE
  8
_2-3_
  6
CONTINUOUS
 62
    7
 10
177.65324188424574
 20
190.66261439121521
 11
172.07589150008738
 21
191.64605174480704
  0
LINE
  8
_2-3_
  6
CONTINUOUS
 62
    7
 10
172.07589150008738
 20
191.64605174480704
 11
170.57589150008738
 21
190.38740229804114
  0
LINE
  8
_2-3_
  6
CONTINUOUS
 62
    7
 10
177.69021893427546
 20
189.13295442179935
 11
170.57589150008738
 21
190.38740229804114
  0
LINE
  8
_2-3_
  6
CONTINUOUS
 62
    7
 10
185.38305521718144
 20
189.5329983188077
 11
185.38305521718144
 21
195.24266815835048
  0
LINE
  8
_2-3_
  6
CONTINUOUS
 62
    7
 10
186.88305521718144
 20
187.74536792991637
 11
186.88305521718144
 21
196.50131760511641
  0
LINE
  8
_2-3_
  6
CONTINUOUS
 62
    7
 10
177.88305521718144
 20
196.56512051366397
 11
177.88305521718144
 21
190.62209210009212
  0
LINE
  8
_2-3_
  6
CONTINUOUS
 62
    7
 10
179.38305521718144
 20
196.26308256197206
 11
179.38305521718144
 21
190.3576016290294
  0
LINE
  8
_2-3_
  6
CONTINUOUS
 62
    7
 10
170.38305521718144
 20
190.61721563097683
 11
170.38305521718144
 21
199.37316530617684
  0
LINE
  8
_2-3_
  6
CONTINUOUS
 62
    7
 10
171.88305521718144
 20
191.87586507774273
 11
171.88305521718144
 21
197.58553491728554
  0
CIRCLE
  8
_2-3_
  6
CONTINUOUS
 62
    7
 10
171.35241187632363
 20
187.55877769657309
 40
1.2000000000000002
  0
LINE
  8
_2-3_
  6
CONTINUOUS
 62
    4
 10
108.13305521718144
 20
229.5963059132774
 11
198.13305521718144
 21
229.5963059132774
  0
LINE
  8
_2-3_
  6
CONTINUOUS
 62
    4
 10
108.13305521718144
 20
229.5963059132774
 11
111.03083269604862
 21
230.37276304858497
  0
LINE
  8
_2-3_
  6
CONTINUOUS
 62
    4
 10
108.13305521718144
 20
229.5963059132774
 11
111.03083269604862
 21
228.81984877796984
  0
LINE
  8
_2-3_
  6
CONTINUOUS
 62
    4
 10
198.13305521718144
 20
229.5963059132774
 11
195.23527773831421
 21
230.37276304858497
  0
LINE
  8
_2-3_
  6
CONTINUOUS
 62
    4
 10
198.13305521718144
 20
229.5963059132774
 11
195.23527773831421
 21
228.81984877796984
  0
LINE
  8
_2-3_
  6
CONTINUOUS
 62
    4
 10
108.13305521718144
 20
230.0963059132774
 11
108.13305521718144
 21
212.4463059132774
  0
LINE
  8
_2-3_
  6
CONTINUOUS
 62
    4
 10
198.13305521718144
 20
230.0963059132774
 11
198.13305521718144
 21
212.4463059132774
  0
TEXT
  8
_2-3_
 62
    7
 10
151.00805521718144
 20
230.0963059132774
 40
4
 41
1
 50
0
  1
60
  0
LINE
  8
_2-3_
  6
CONTINUOUS
 62
    4
 10
198.13305521718144
 20
229.5963059132774
 11
228.13305521718144
 21
229.5963059132774
  0
LINE
  8
_2-3_
  6
CONTINUOUS
 62
    4
 10
198.13305521718144
 20
229.5963059132774
 11
201.03083269604861
 21
230.37276304858497
  0
LINE
  8
_2-3_
  6
CONTINUOUS
 62
    4
 10
198.13305521718144
 20
229.5963059132774
 11
201.03083269604861
 21
228.81984877796984
  0
LINE
  8
_2-3_
  6
CONTINUOUS
 62
    4
 10
228.13305521718144
 20
229.59630591327743
 11
225.23527773831418
 21
230.372763048585
  0
LINE
  8
_2-3_
  6
CONTINUOUS
 62
    4
 10
228.13305521718144
 20
229.59630591327743
 11
225.23527773831418
 21
228.81984877796987
  0
LINE
  8
_2-3_
  6
CONTINUOUS
 62
    4
 10
228.13305521718144
 20
230.09630591327743
 11
228.13305521718144
 21
212.4463059132774
  0
LINE
  8
_2-3_
  6
CONTINUOUS
 62
    4
 10
78.133055217181436
 20
229.5963059132774
 11
108.13305521718144
 21
229.5963059132774
  0
LINE
  8
_2-3_
  6
CONTINUOUS
 62
    4
 10
78.133055217181436
 20
229.59630591327738
 11
81.030832696048634
 21
230.37276304858494
  0
LINE
  8
_2-3_
  6
CONTINUOUS
 62
    4
 10
78.133055217181436
 20
229.59630591327738
 11
81.030832696048634
 21
228.81984877796981
  0
LINE
  8
_2-3_
  6
CONTINUOUS
 62
    4
 10
108.13305521718144
 20
229.5963059132774
 11
105.23527773831424
 21
230.37276304858497
  0
LINE
  8
_2-3_
  6
CONTINUOUS
 62
    4
 10
108.13305521718144
 20
229.5963059132774
 11
105.23527773831424
 21
228.81984877796984
  0
LINE
  8
_2-3_
  6
CONTINUOUS
 62
    4
 10
78.133055217181436
 20
230.09630591327738
 11
78.133055217181436
 21
212.4463059132774
  0
TEXT
  8
_2-3_
 62
    7
 10
211.00805521718144
 20
230.0963059132774
 40
4
 41
1
 50
0
  1
100
  0
TEXT
  8
_2-3_
 62
    7
 10
91.008055217181436
 20
230.0963059132774
 40
4
 41
1
 50
0
  1
100
  0
ARC
  8
_2-3_
  6
CONTINUOUS
 62
    4
 10
95.384145192870562
 20
195.16557421877016
 40
6.335065285245534
 50
150.22739614057977
 51
216.50552518627975
  0
ARC
  8
_2-3_
  6
CONTINUOUS
 62
    4
 10
87.308845465167991
 20
189.18896155838894
 40
3.7113452471019297
 50
335.97830350855054
 51
36.505525186279755
  0
ARC
  8
_2-3_
  6
CONTINUOUS
 62
    4
 10
95.384145192870562
 20
195.16557421877016
 40
7.085065285245534
 50
150.22739614057977
 51
216.50552518627975
  0
ARC
  8
_2-3_
  6
CONTINUOUS
 62
    4
 10
87.308845465167991
 20
189.18896155838894
 40
2.9613452471019297
 50
335.97830350855054
 51
36.505525186279755
  0
LINE
  8
_2-3_
  6
CONTINUOUS
 62
    7
 10
108.13305521718144
 20
196.9463059132774
 11
89.304503196790506
 21
196.9463059132774
  0
LINE
  8
_2-3_
  6
CONTINUOUS
 62
    7
 10
88.526511145448012
 20
196.9463059132774
 11
78.133055217181436
 21
196.9463059132774
  0
LINE
  8
ADD_LINE
  6
DOT
 62
    9
 10
108.13305521718144
 20
193.1963059132774
 11
89.362929824748875
 21
193.1963059132774
  0
LINE
  8
ADD_LINE
  6
DOT
 62
    9
 10
88.578255652393636
 20
193.1963059132774
 11
63.183055217181447
 21
193.1963059132774
  0
LINE
  8
_2-3_
  6
CONTINUOUS
 62
    7
 10
108.13305521718144
 20
189.4463059132774
 11
91.011257844440877
 21
189.4463059132774
  0
LINE
  8
_2-3_
  6
CONTINUOUS
 62
    7
 10
90.25898775928539
 20
189.4463059132774
 11
78.133055217181436
 21
189.4463059132774
  0
LINE
  8
_2-3_
  6
CONTINUOUS
 62
    7
 10
108.13305521718144
 20
193.1963059132774
 11
89.362929824748875
 21
193.1963059132774
  0
LINE
  8
_2-3_
  6
CONTINUOUS
 62
    7
 10
88.578255652393636
 20
193.1963059132774
 11
78.133055217181436
 21
193.1963059132774
  0
ARC
  8
_2-3_
  6
CONTINUOUS
 62
    4
 10
219.47070508103269
 20
195.16557421877016
 40
6.335065285245534
 50
150.22739614057977
 51
216.50552518627975
  0
ARC
  8
_2-3_
  6
CONTINUOUS
 62
    4
 10
211.39540535333015
 20
189.18896155838894
 40
3.7113452471019297
 50
335.97830350855054
 51
36.505525186279755
  0
ARC
  8
_2-3_
  6
CONTINUOUS
 62
    4
 10
219.47070508103269
 20
195.16557421877016
 40
7.085065285245534
 50
150.22739614057977
 51
216.50552518627975
  0
ARC
  8
_2-3_
  6
CONTINUOUS
 62
    4
 10
211.39540535333015
 20
189.18896155838894
 40
2.9613452471019297
 50
335.97830350855054
 51
36.505525186279755
  0
LINE
  8
_2-3_
  6
CONTINUOUS
 62
    7
 10
198.13305521718144
 20
196.9463059132774
 11
212.61307103361017
 21
196.9463059132774
  0
LINE
  8
_2-3_
  6
CONTINUOUS
 62
    7
 10
213.39106308495263
 20
196.9463059132774
 11
228.13305521718144
 21
196.9463059132774
  0
LINE
  8
ADD_LINE
  6
DOT
 62
    9
 10
198.13305521718144
 20
193.1963059132774
 11
212.66481554055582
 21
193.1963059132774
  0
LINE
  8
_2-3_
  6
CONTINUOUS
 62
    7
 10
198.13305521718144
 20
193.1963059132774
 11
212.66481554055582
 21
193.1963059132774
  0
LINE
  8
_2-3_
  6
CONTINUOUS
 62
    7
 10
213.44948971291103
 20
193.1963059132774
 11
228.13305521718144
 21
193.1963059132774
  0
LINE
  8
_2-3_
  6
CONTINUOUS
 62
    7
 10
198.13305521718144
 20
189.4463059132774
 11
214.34554764744757
 21
189.4463059132774
  0
LINE
  8
_2-3_
  6
CONTINUOUS
 62
    7
 10
215.09781773260303
 20
189.4463059132774
 11
228.13305521718144
 21
189.4463059132774
  0
LINE
  8
_2-3_
  6
CONTINUOUS
 62
    4
 10
232.93305521718145
 20
173.9463059132774
 11
242.38305521718144
 21
189.6963059132774
  0
LINE
  8
_2-3_
  6
CONTINUOUS
 62
    4
 10
165.73305521718143
 20
213.49630591327741
 11
171.68305521718145
 21
199.49630591327741
  0
TEXT
  8
_2-3_
 62
    3
 10
117.50618037394091
 20
200.73084490920021
 40
5
 41
1
 50
-90
  1
ＦＫＫ
  0
LINE
  8
_2-3_
  6
CONTINUOUS
 62
    4
 10
118.48305521718146
 20
213.49630591327741
 11
123.21268160219535
 21
203.24878207908057
  0
LINE
  8
ADD_LINE
  6
DOT
 62
    9
 10
237.21665821718142
 20
138.0963059132774
 11
94.683055217181447
 21
138.0963059132774
  0
LINE
  8
_2-3_
  6
CONTINUOUS
 62
    4
 10
61.083055217181425
 20
177.4463059132774
 11
69.483055217181459
 21
190.54630591327739
  0
LINE
  8
ADD_LINE
  6
DOT
 62
    9
 10
36.571215998182709
 20
68.781112079268752
 11
236.87434949042742
 21
68.781112079268752
  0
LINE
  8
_2-3_
  6
CONTINUOUS
 62
    7
 10
30.813015035366647
 20
74.321210497499493
 11
30.813015035366647
 21
59.321210497499493
  0
TEXT
  8
_2-3_
 62
    7
 10
30.401714966594056
 20
76.390163351561426
 40
4.9999999999999858
 41
1.0000000000000031
 50
0
  1
■　定格入力DC24V±3%
  0
LINE
  8
_2-3_
  6
CONTINUOUS
 62
    7
 10
53.313015035366647
 20
74.321210497499493
 11
53.313015035366647
 21
59.321210497499493
  0
TEXT
  8
_2-3_
 62
    7
 10
34.309065619933534
 20
60.143810635044673
 40
4
 41
1
 50
0
  1
FSD-24
  0
TEXT
  8
_2-3_
 62
    7
 10
37.188166101341579
 20
68.164161976109881
 40
4
 41
1
 50
0
  1
型番
  0
TEXT
  8
_2-3_
 62
    7
 10
116.26471432672983
 20
213.68732180891908
 40
4
 41
1
 50
0
  1
①
  0
TEXT
  8
_2-3_
 62
    7
 10
162.08915062529627
 20
213.86773297544886
 40
4
 41
1
 50
0
  1
②
  0
TEXT
  8
_2-3_
 62
    7
 10
126.00691731933844
 20
167.32165201076327
 40
4
 41
1
 50
0
  1
④
  0
TEXT
  8
_2-3_
 62
    7
 10
228.82788382998706
 20
170.99250512455848
 40
4
 41
1
 50
0
  1
⑥
  0
CIRCLE
  8
_2-3_
  6
CONTINUOUS
 62
    7
 10
133.63305521718144
 20
193.1963059132774
 40
2.25
  0
LINE
  8
_2-3_
  6
CONTINUOUS
 62
    4
 10
130.13305521718144
 20
171.49630591327738
 11
133.28305521718144
 21
191.79630591327739
  0
CIRCLE
  8
_2-3_
  6
CONTINUOUS
 62
    7
 10
147.13305521718144
 20
193.1963059132774
 40
2.25
  0
LINE
  8
_2-3_
  6
CONTINUOUS
 62
    4
 10
152.73305521718146
 20
170.79630591327739
 11
146.78305521718144
 21
191.0963059132774
  0
TEXT
  8
_2-3_
 62
    7
 10
150.64379232505644
 20
166.86512415349887
 40
4
 41
1
 50
0
  1
③
  0
ARC
  8
_2-2_
  6
CONTINUOUS
 62
    7
 10
147.13305521718144
 20
193.19630591327757
 40
3.75
 50
270
 51
90
  0
ARC
  8
_2-2_
  6
CONTINUOUS
 62
    7
 10
133.63305521718144
 20
193.19630591327757
 40
3.75
 50
90
 51
270
  0
LINE
  8
_2-2_
  6
CONTINUOUS
 62
    7
 10
147.13305521718144
 20
189.44630591327737
 11
133.63305521718144
 21
189.44630591327737
  0
LINE
  8
_2-2_
  6
CONTINUOUS
 62
    7
 10
147.13305521718144
 20
196.94630591327737
 11
133.63305521718144
 21
196.94630591327737
  0
LINE
  8
_2-2_
  6
CONTINUOUS
 62
    7
 10
107.83305521718145
 20
187.1963059132774
 11
107.83305521718145
 21
177.89630591327739
  0
LINE
  8
_2-2_
  6
CONTINUOUS
 62
    7
 10
107.83305521718145
 20
199.1963059132774
 11
107.83305521718145
 21
208.49630591327738
  0
LINE
  8
_2-2_
  6
DASHED1
 62
    7
 10
107.83305521718145
 20
208.49630591327738
 11
107.83305521718145
 21
177.89630591327739
  0
LINE
  8
_2-2_
  6
CONTINUOUS
 62
    7
 10
106.33305521718145
 20
199.1963059132774
 11
106.33305521718145
 21
187.1963059132774
  0
LINE
  8
_2-2_
  6
CONTINUOUS
 62
    7
 10
106.33305521718145
 20
199.1963059132774
 11
107.83305521718145
 21
199.1963059132774
  0
LINE
  8
_2-2_
  6
CONTINUOUS
 62
    7
 10
106.33305521718145
 20
187.1963059132774
 11
107.83305521718145
 21
187.1963059132774
  0
LINE
  8
_2-2_
  6
CONTINUOUS
 62
    7
 10
199.93305521718145
 20
199.19630591327737
 11
199.93305521718145
 21
187.19630591327737
  0
LINE
  8
_2-2_
  6
CONTINUOUS
 62
    7
 10
199.93305521718145
 20
199.19630591327737
 11
198.43305521718145
 21
199.19630591327737
  0
LINE
  8
_2-2_
  6
CONTINUOUS
 62
    7
 10
199.93305521718145
 20
187.19630591327737
 11
198.43305521718145
 21
187.19630591327737
  0
LINE
  8
_2-2_
  6
CONTINUOUS
 62
    7
 10
107.83305521718145
 20
208.49630591327738
 11
198.43305521718145
 21
208.49630591327738
  0
LINE
  8
_2-2_
  6
DASHED1
 62
    7
 10
198.43305521718145
 20
177.89630591327739
 11
198.43305521718145
 21
208.49630591327738
  0
LINE
  8
_2-2_
  6
CONTINUOUS
 62
    7
 10
107.83305521718145
 20
177.89630591327739
 11
198.43305521718145
 21
177.89630591327739
  0
LINE
  8
_2-2_
  6
CONTINUOUS
 62
    7
 10
198.43305521718145
 20
199.19630591327737
 11
198.43305521718145
 21
208.49630591327738
  0
LINE
  8
_2-2_
  6
CONTINUOUS
 62
    7
 10
198.43305521718145
 20
187.19630591327737
 11
198.43305521718145
 21
177.89630591327739
  0
LINE
  8
_2-2_
  6
CONTINUOUS
 62
    7
 10
198.3932218375775
 20
146.3463059132774
 11
199.89405493955786
 21
146.3463059132774
  0
LINE
  8
_2-2_
  6
CONTINUOUS
 62
    7
 10
199.89405493955786
 20
146.3463059132774
 11
200.11905493955786
 21
153.0963059132774
  0
LINE
  8
_2-2_
  6
CONTINUOUS
 62
    7
 10
106.37205549480501
 20
146.3463059132774
 11
107.87288859678537
 21
146.3463059132774
  0
LINE
  8
_2-2_
  6
CONTINUOUS
 62
    7
 10
108.64288859678538
 20
123.24630591327741
 11
107.64788859678538
 21
153.0963059132774
  0
LINE
  8
_2-2_
  6
CONTINUOUS
 62
    7
 10
106.37205549480501
 20
146.3463059132774
 11
106.14705549480502
 21
153.0963059132774
  0
LINE
  8
_2-2_
  6
CONTINUOUS
 62
    7
 10
106.14705549480502
 20
153.0963059132774
 11
200.11905493955786
 21
153.0963059132774
  0
LINE
  8
_2-2_
  6
CONTINUOUS
 62
    7
 10
197.62322183757746
 20
123.24630591327741
 11
198.61822183757749
 21
153.0963059132774
  0
LINE
  8
_2-f_
  6
CONTINUOUS
 62
    4
 10
100.80000000000001
 20
177.89630591327739
 11
100.80000000000001
 21
208.49630591327738
  0
LINE
  8
_2-f_
  6
CONTINUOUS
 62
    4
 10
100.80000000000001
 20
177.89630591327739
 11
100.02354286469244
 21
180.79408339214459
  0
LINE
  8
_2-f_
  6
CONTINUOUS
 62
    4
 10
100.80000000000001
 20
177.89630591327739
 11
101.57645713530758
 21
180.79408339214459
  0
LINE
  8
_2-f_
  6
CONTINUOUS
 62
    4
 10
100.80000000000001
 20
208.49630591327738
 11
101.57645713530758
 21
205.59852843441018
  0
LINE
  8
_2-f_
  6
CONTINUOUS
 62
    4
 10
100.80000000000001
 20
208.49630591327738
 11
100.02354286469244
 21
205.59852843441018
  0
LINE
  8
_2-f_
  6
CONTINUOUS
 62
    4
 10
100.30000000000001
 20
177.89630591327739
 11
105.7
 21
177.89630591327739
  0
LINE
  8
_2-f_
  6
CONTINUOUS
 62
    4
 10
100.30000000000001
 20
208.49630591327738
 11
105.7
 21
208.49630591327738
  0
TEXT
  8
_2-f_
 62
    7
 10
99.219166666666666
 20
197.27979166666665
 40
4
 41
1
 50
90
  1
20.4
  0
LINE
  8
_2-f_
  6
CONTINUOUS
 62
    4
 10
97.921783295711066
 20
123.24630591327741
 11
97.921783295711066
 21
153.0963059132774
  0
LINE
  8
_2-f_
  6
CONTINUOUS
 62
    4
 10
97.921783295711066
 20
123.24630591327741
 11
97.145326160403499
 21
126.14408339214461
  0
LINE
  8
_2-f_
  6
CONTINUOUS
 62
    4
 10
97.921783295711066
 20
123.24630591327741
 11
98.698240431018633
 21
126.14408339214461
  0
LINE
  8
_2-f_
  6
CONTINUOUS
 62
    4
 10
97.921783295711066
 20
153.0963059132774
 11
98.698240431018633
 21
150.19852843441021
  0
LINE
  8
_2-f_
  6
CONTINUOUS
 62
    4
 10
97.921783295711066
 20
153.0963059132774
 11
97.145326160403499
 21
150.19852843441021
  0
LINE
  8
_2-f_
  6
CONTINUOUS
 62
    4
 10
97.421783295711066
 20
123.24630591327741
 11
104.29762979683974
 21
123.24630591327741
  0
LINE
  8
_2-f_
  6
CONTINUOUS
 62
    4
 10
97.421783295711066
 20
153.0963059132774
 11
104.29762979683974
 21
153.0963059132774
  0
LINE
  8
_2-3_
  6
DASHED1
 62
    7
 10
198.13305521718144
 20
147.8463059132774
 11
108.13305521718144
 21
147.8463059132774
  0
LINE
  8
_2-3_
  6
DASHED1
 62
    7
 10
198.13305521718144
 20
149.3463059132774
 11
198.13305521718144
 21
147.8463059132774
  0
ARC
  8
_2-3_
  6
DASHED1
 62
    7
 10
196.63305521718144
 20
149.3463059132774
 40
1.5
 50
0
 51
90
  0
LINE
  8
_2-3_
  6
DASHED1
 62
    7
 10
109.63305521718144
 20
150.8463059132774
 11
196.63305521718144
 21
150.8463059132774
  0
LINE
  8
_2-3_
  6
DASHED1
 62
    7
 10
108.13305521718144
 20
149.3463059132774
 11
108.13305521718144
 21
147.8463059132774
  0
ARC
  8
_2-3_
  6
DASHED1
 62
    7
 10
109.63305521718144
 20
149.3463059132774
 40
1.5
 50
90
 51
180
  0
LINE
  8
_2-3_
  6
DASHED1
 62
    7
 10
197.43138947566979
 20
126.79633366792848
 11
198.13305521718144
 21
147.8463059132774
  0
ARC
  8
_2-3_
  6
DASHED1
 62
    7
 10
195.93222211520106
 20
126.8463059132774
 40
1.5
 50
270
 51
358.09084756700361
  0
LINE
  8
_2-3_
  6
DASHED1
 62
    7
 10
110.33388831916182
 20
125.3463059132774
 11
195.93222211520106
 21
125.3463059132774
  0
LINE
  8
_2-3_
  6
DASHED1
 62
    7
 10
108.83472095869308
 20
126.79633366792848
 11
108.13305521718144
 21
147.8463059132774
  0
ARC
  8
_2-3_
  6
DASHED1
 62
    7
 10
110.33388831916182
 20
126.8463059132774
 40
1.5
 50
181.90915243299636
 51
270
  0
LINE
  8
_2-3_
  6
DASHED1
 62
    7
 10
131.38305521718144
 20
151.5963059132774
 11
135.88305521718144
 21
151.5963059132774
  0
LINE
  8
_2-3_
  6
DASHED1
 62
    7
 10
135.88305521718144
 20
151.5963059132774
 11
135.88305521718144
 21
150.8463059132774
  0
LINE
  8
_2-3_
  6
DASHED1
 62
    7
 10
131.38305521718144
 20
151.5963059132774
 11
131.38305521718144
 21
150.8463059132774
  0
LINE
  8
_2-3_
  6
DASHED1
 62
    7
 10
144.88305521718144
 20
151.5963059132774
 11
149.38305521718144
 21
151.5963059132774
  0
LINE
  8
_2-3_
  6
DASHED1
 62
    7
 10
149.38305521718144
 20
151.5963059132774
 11
149.38305521718144
 21
150.8463059132774
  0
LINE
  8
_2-3_
  6
DASHED1
 62
    7
 10
144.88305521718144
 20
151.5963059132774
 11
144.88305521718144
 21
150.8463059132774
  0
ARC
  8
_2-3_
  6
DASHED1
 62
    7
 10
196.63305521718144
 20
205.1963059132774
 40
1.5
 50
0
 51
90
  0
LINE
  8
_2-3_
  6
DASHED1
 62
    7
 10
198.13305521718144
 20
181.1963059132774
 11
198.13305521718144
 21
205.1963059132774
  0
ARC
  8
_2-3_
  6
DASHED1
 62
    7
 10
196.63305521718144
 20
181.1963059132774
 40
1.5
 50
270
 51
0
  0
LINE
  8
_2-3_
  6
DASHED1
 62
    7
 10
109.63305521718144
 20
179.6963059132774
 11
196.63305521718144
 21
179.6963059132774
  0
ARC
  8
_2-3_
  6
DASHED1
 62
    7
 10
109.63305521718144
 20
181.1963059132774
 40
1.5
 50
180
 51
270
  0
LINE
  8
_2-3_
  6
DASHED1
 62
    7
 10
108.13305521718144
 20
205.1963059132774
 11
108.13305521718144
 21
181.1963059132774
  0
LINE
  8
_2-3_
  6
DASHED1
 62
    7
 10
109.63305521718144
 20
206.6963059132774
 11
196.63305521718144
 21
206.6963059132774
  0
ARC
  8
_2-3_
  6
DASHED1
 62
    7
 10
109.63305521718144
 20
205.1963059132774
 40
1.5
 50
90
 51
180
  0
LINE
  8
_2-3_
  6
DASHED1
 62
    9
 10
108.13305521718144
 20
193.1963059132774
 11
159.18922188384809
 21
193.1963059132774
  0
LINE
  8
_2-3_
  6
DASHED1
 62
    9
 10
133.63305521718144
 20
181.1963059132774
 11
133.63305521718144
 21
205.1963059132774
  0
LINE
  8
_2-3_
  6
DASHED1
 62
    9
 10
147.13305521718144
 20
181.1963059132774
 11
147.13305521718144
 21
205.1963059132774
  0
LINE
  8
_2-3_
  6
CONTINUOUS
 62
    4
 10
343.9025602992524
 20
228.11068122561113
 11
343.9025602992524
 21
123.11068122561113
  0
LINE
  8
_2-3_
  6
CONTINUOUS
 62
    4
 10
321.4025602992524
 20
213.11068122561113
 11
321.4025602992524
 21
123.11068122561113
  0
TEXT
  8
_2-3_
 62
    3
 10
309.14309708286169
 20
198.51113269287976
 40
5
 41
1
 50
0
  1
A
  0
TEXT
  8
_2-3_
 62
    3
 10
309.05737473523186
 20
191.05328844908743
 40
5
 41
1
 50
0
  1
9
  0
TEXT
  8
_2-3_
 62
    3
 10
309.05737473523186
 20
183.8526112481845
 40
5
 41
1
 50
0
  1
8
  0
TEXT
  8
_2-3_
 62
    3
 10
309.05737473523186
 20
176.39476700439221
 40
5
 41
1
 50
0
  1
7
  0
TEXT
  8
_2-3_
 62
    3
 10
309.05737473523186
 20
168.93692276059986
 40
5
 41
1
 50
0
  1
6
  0
TEXT
  8
_2-3_
 62
    3
 10
309.05737473523186
 20
160.90048558979473
 40
5
 41
1
 50
0
  1
5
  0
TEXT
  8
_2-3_
 62
    3
 10
309.05737473523186
 20
154.10906346789861
 40
5
 41
1
 50
0
  1
4
  0
TEXT
  8
_2-3_
 62
    3
 10
309.05737473523186
 20
146.54956384412131
 40
5
 41
1
 50
0
  1
3
  0
TEXT
  8
_2-3_
 62
    3
 10
309.05737473523186
 20
139.07091448369991
 40
5
 41
1
 50
0
  1
2
  0
TEXT
  8
_2-3_
 62
    3
 10
309.05737473523186
 20
131.79439078166834
 40
5
 41
1
 50
0
  1
1
  0
TEXT
  8
_2-3_
 62
    3
 10
309.05737473523186
 20
124.39659168460287
 40
5
 41
1
 50
0
  1
0
  0
TEXT
  8
_2-3_
 62
    3
 10
324.8144113150538
 20
206.73613269287975
 40
5
 41
1
 50
0
  1
明るさ
  0
TEXT
  8
_2-3_
 62
    3
 10
305.41627361753683
 20
206.73613269287975
 40
5
 41
1
 50
0
  1
表示
  0
TEXT
  8
_2-3_
 62
    3
 10
329.14340596087584
 20
191.05328844908743
 40
5
 41
1
 50
0
  1
85％
  0
TEXT
  8
_2-3_
 62
    3
 10
329.14340596087584
 20
183.8526112481845
 40
5
 41
1
 50
0
  1
70％
  0
TEXT
  8
_2-3_
 62
    3
 10
329.14340596087584
 20
176.39476700439221
 40
5
 41
1
 50
0
  1
60％
  0
TEXT
  8
_2-3_
 62
    3
 10
329.14340596087584
 20
168.93692276059986
 40
5
 41
1
 50
0
  1
50％
  0
TEXT
  8
_2-3_
 62
    3
 10
329.14340596087584
 20
160.90048558979473
 40
5
 41
1
 50
0
  1
30％
  0
TEXT
  8
_2-3_
 62
    3
 10
329.14340596087584
 20
154.10906346789861
 40
5
 41
1
 50
0
  1
20％
  0
TEXT
  8
_2-3_
 62
    3
 10
329.14340596087584
 20
146.54956384412131
 40
5
 41
1
 50
0
  1
10％
  0
TEXT
  8
_2-3_
 62
    3
 10
331.75526210698706
 20
139.07091448369991
 40
5
 41
1
 50
0
  1
5％
  0
TEXT
  8
_2-3_
 62
    3
 10
331.75526210698706
 20
131.79439078166834
 40
5
 41
1
 50
0
  1
1％
  0
TEXT
  8
_2-3_
 62
    3
 10
331.75526210698706
 20
124.39659168460287
 40
5
 41
1
 50
0
  1
0％
  0
TEXT
  8
_2-3_
 62
    3
 10
326.30639077515866
 20
198.51113269287976
 40
5
 41
1
 50
0
  1
100％
  0
LINE
  8
_2-3_
  6
CONTINUOUS
 62
    4
 10
298.9025602992524
 20
228.11068122561113
 11
298.9025602992524
 21
123.11068122561113
  0
TEXT
  8
_2-3_
 62
    3
 10
311.15137519767234
 20
221.58940583057728
 40
5
 41
1
 50
0
  1
調光ﾚﾍﾞﾙ
  0
TEXT
  8
_2-3_
 62
    3
 10
310.35655152501442
 20
214.56728393441475
 40
5
 41
1
 50
0
  1
(PWM制御)
  0
LINE
  8
_2-3_
  6
CONTINUOUS
 62
    4
 10
298.9025602992524
 20
228.11068122561113
 11
343.9025602992524
 21
228.11068122561113
  0
LINE
  8
_2-3_
  6
CONTINUOUS
 62
    4
 10
298.9025602992524
 20
213.11068122561113
 11
343.9025602992524
 21
213.11068122561113
  0
LINE
  8
_2-3_
  6
CONTINUOUS
 62
    4
 10
298.9025602992524
 20
205.61068122561113
 11
343.9025602992524
 21
205.61068122561113
  0
LINE
  8
_2-3_
  6
CONTINUOUS
 62
    4
 10
298.9025602992524
 20
198.11068122561113
 11
343.9025602992524
 21
198.11068122561113
  0
LINE
  8
_2-3_
  6
CONTINUOUS
 62
    4
 10
298.9025602992524
 20
190.61068122561113
 11
343.9025602992524
 21
190.61068122561113
  0
LINE
  8
_2-3_
  6
CONTINUOUS
 62
    4
 10
298.9025602992524
 20
183.11068122561113
 11
343.9025602992524
 21
183.11068122561113
  0
LINE
  8
_2-3_
  6
CONTINUOUS
 62
    4
 10
298.9025602992524
 20
175.61068122561113
 11
343.9025602992524
 21
175.61068122561113
  0
LINE
  8
_2-3_
  6
CONTINUOUS
 62
    4
 10
298.9025602992524
 20
168.11068122561113
 11
343.9025602992524
 21
168.11068122561113
  0
LINE
  8
_2-3_
  6
CONTINUOUS
 62
    4
 10
298.9025602992524
 20
160.61068122561113
 11
343.9025602992524
 21
160.61068122561113
  0
LINE
  8
_2-3_
  6
CONTINUOUS
 62
    4
 10
298.9025602992524
 20
153.11068122561113
 11
343.9025602992524
 21
153.11068122561113
  0
LINE
  8
_2-3_
  6
CONTINUOUS
 62
    4
 10
298.9025602992524
 20
145.61068122561113
 11
343.9025602992524
 21
145.61068122561113
  0
LINE
  8
_2-3_
  6
CONTINUOUS
 62
    4
 10
298.9025602992524
 20
138.11068122561113
 11
343.9025602992524
 21
138.11068122561113
  0
LINE
  8
_2-3_
  6
CONTINUOUS
 62
    4
 10
298.9025602992524
 20
130.61068122561113
 11
343.9025602992524
 21
130.61068122561113
  0
LINE
  8
_2-3_
  6
CONTINUOUS
 62
    4
 10
298.9025602992524
 20
123.11068122561113
 11
343.9025602992524
 21
123.11068122561113
  0
TEXT
  8
_0-0_
 62
    7
 10
299.81805869074492
 20
86.606094808126414
 40
3
 41
1
 50
0
  1
※定格表を参考にして器具の最大連結数を守って下さい。
  0
LINE
  8
_2-2_
  6
CONTINUOUS
 62
    7
 10
394.99996700802365
 20
84.995006185995578
 11
299.99997525601776
 21
84.995006185995578
  0
LINE
  8
_0-0_
  6
CONTINUOUS
 62
    7
 10
299.99997525601776
 20
84.995006185995578
 11
299.99997525601776
 21
15
  0
LINE
  8
_0-0_
  6
CONTINUOUS
 62
    7
 10
310.0098520080237
 20
84.995006185995578
 11
310.0098520080237
 21
50.000006185995574
  0
LINE
  8
_0-0_
  6
CONTINUOUS
 62
    7
 10
355.92329200802368
 20
84.995006185995578
 11
355.92329200802368
 21
50.000006185995574
  0
LINE
  8
_0-0_
  6
CONTINUOUS
 62
    7
 10
384.99996700802359
 20
84.995006185995578
 11
384.99996700802359
 21
50.000006185995574
  0
TEXT
  8
_0-0_
 62
    7
 10
302.71918735891649
 20
80.481489841986459
 40
3.9999999999999858
 41
0.9999999999999973
 50
0
  1
⑦
  0
TEXT
  8
_2-3_
 62
    7
 10
312.2821670428894
 20
81.018735891647864
 40
3
 41
1
 50
0
  1
透明樹脂カバー
  0
TEXT
  8
_2-3_
 62
    7
 10
357.7331828442438
 20
80.91128668171558
 40
3
 41
1
 50
0
  1
PC透明
  0
LINE
  8
_0-0_
  6
CONTINUOUS
 62
    7
 10
275.02411035572425
 20
261.60313517294884
 11
394.99996700802365
 21
261.60313517294884
  0
LINE
  8
_0-0_
  6
CONTINUOUS
 62
    7
 10
279.94698480640784
 20
266.4473020478344
 11
277.69699243580237
 21
261.94730002127648
  0
LINE
  8
_0-0_
  6
CONTINUOUS
 62
    7
 10
277.69699243580237
 20
261.94730002127648
 11
282.19698480640784
 21
261.94730002127648
  0
LINE
  8
_0-0_
  6
CONTINUOUS
 62
    7
 10
279.94698480640784
 20
266.4473020478344
 11
282.19698480640784
 21
261.94730002127648
  0
TEXT
  8
_0-0_
 62
    7
 10
375.52411798511878
 20
267.10311478816033
 40
4
 41
1
 50
0
  1
担当
  0
TEXT
  8
_0-0_
 62
    7
 10
385.52411798511878
 20
267.10311478816033
 40
4
 41
1
 50
0
  1
検印
  0
TEXT
  8
_0-0_
 62
    7
 10
276.7939238933219
 20
267.79221159659386
 40
3
 41
1
 50
0
  1
Ｎｏ
  0
TEXT
  8
_0-0_
 62
    7
 10
292.17555383716956
 20
267.81606489859581
 40
3
 41
1
 50
0
  1
年　月　日
  0
TEXT
  8
_0-0_
 62
    7
 10
279.33104852711097
 20
262.1818972273922
 40
3
 41
1
 50
0
  1
1
  0
TEXT
  8
_0-0_
 62
    7
 10
332.97356561695472
 20
267.81606489859581
 40
3
 41
1
 50
0
  1
訂　正　記　事
  0
LINE
  8
_0-0_
  6
CONTINUOUS
 62
    7
 10
275.02411035572425
 20
266.60311478816033
 11
275.02411035572425
 21
261.60313517294884
  0
LINE
  8
_0-0_
  6
CONTINUOUS
 62
    7
 10
285.02411798511878
 20
266.60311478816033
 11
285.02411798511878
 21
261.60313517294884
  0
LINE
  8
_0-0_
  6
CONTINUOUS
 62
    7
 10
315.02411831294432
 20
266.60311478816033
 11
315.02411831294432
 21
261.60313517294884
  0
LINE
  8
_0-0_
  6
CONTINUOUS
 62
    7
 10
275.02411035572425
 20
272.00000659839526
 11
275.02411035572425
 21
266.60311478816033
  0
LINE
  8
_0-0_
  6
CONTINUOUS
 62
    7
 10
285.02411798511878
 20
272.00000659839526
 11
285.02411798511878
 21
266.60311478816033
  0
LINE
  8
_0-0_
  6
CONTINUOUS
 62
    7
 10
315.02411831294432
 20
272.00000659839526
 11
315.02411831294432
 21
266.60311478816033
  0
LINE
  8
_0-0_
  6
CONTINUOUS
 62
    7
 10
375.02411798511878
 20
272.00000659839526
 11
375.02411798511878
 21
261.60313517294884
  0
LINE
  8
_0-0_
  6
CONTINUOUS
 62
    7
 10
385.02411798511878
 20
272.00000659839526
 11
385.02411798511878
 21
261.60313517294884
  0
LINE
  8
_0-0_
  6
CONTINUOUS
 62
    7
 10
394.99996700802365
 20
266.60311478816033
 11
275.02412561451331
 21
266.60311478816033
  0
TEXT
  8
_2-3_
 62
    7
 10
131.64977426636568
 20
214.39243792325055
 40
4
 41
1
 50
0
  1
⑦
  0
LINE
  8
_2-3_
  6
CONTINUOUS
 62
    4
 10
135.205079006772
 20
215.18250564334085
 11
141.32810383747179
 21
207.87437923250565
  0
TEXT
  8
_2-3_
 62
    7
 10
55.552119975320409
 20
60.143810635044673
 40
4
 41
1
 50
0
  1
W60×H20.4×D20
  0
TEXT
  8
_2-3_
 62
    7
 10
96.380462471233471
 20
60.143810635044673
 40
4
 41
1
 50
0
  1
25g
  0
TEXT
  8
_2-3_
 62
    7
 10
95.307343200890472
 20
68.369812010496162
 40
4
 41
1
 50
0
  1
重量
  0
TEXT
  8
_2-3_
 62
    7
 10
114.62349006706438
 20
68.575462044882499
 40
4
 41
1
 50
0
  1
最大出力電流
  0
TEXT
  8
_2-3_
 62
    7
 10
123.38729744153217
 20
60.143810635044673
 40
4
 41
1
 50
0
  1
6.3A
  0
TEXT
  8
_2-3_
 62
    7
 10
148.9633067180402
 20
68.575462044882499
 40
4
 41
1
 50
0
  1
最大接続電源容量
  0
TEXT
  8
_2-3_
 62
    7
 10
161.12532511526081
 20
60.143810635044673
 40
4
 41
1
 50
0
  1
150W
  0
LINE
  8
_2-3_
  6
CONTINUOUS
 62
    7
 10
89.324485155055442
 20
59.321210497499493
 11
89.324485155055442
 21
74.321210497499493
  0
LINE
  8
_2-3_
  6
CONTINUOUS
 62
    7
 10
110.50986619741623
 20
74.321210497499493
 11
110.50986619741623
 21
59.321210497499493
  0
LINE
  8
_2-3_
  6
CONTINUOUS
 62
    7
 10
144.49197642494443
 20
74.321210497499493
 11
144.49197642494443
 21
59.321210497499493
  0
LINE
  8
_2-3_
  6
CONTINUOUS
 62
    7
 10
187.23789402694035
 20
74.321210497499493
 11
187.23789402694035
 21
59.321210497499493
  0
LINE
  8
_2-3_
  6
CONTINUOUS
 62
    7
 10
30.813015035366647
 20
74.321210497499493
 11
215.94227655380951
 21
74.321210497499493
  0
LINE
  8
_2-3_
  6
CONTINUOUS
 62
    7
 10
30.813015035366647
 20
66.821210497499493
 11
215.94227655380951
 21
66.821210497499493
  0
LINE
  8
_2-3_
  6
CONTINUOUS
 62
    7
 10
30.813015035366647
 20
59.321210497499493
 11
215.94227655380951
 21
59.321210497499493
  0
LINE
  8
_2-3_
  6
CONTINUOUS
 62
    7
 10
215.94227655380951
 20
74.321210497499493
 11
215.94227655380951
 21
59.321210497499493
  0
TEXT
  8
_2-3_
 62
    7
 10
196.98103179243253
 20
68.575462044882499
 40
4
 41
1
 50
0
  1
調光
  0
TEXT
  8
_2-3_
 62
    7
 10
194.09289517315
 20
60.143810635044673
 40
4
 41
1
 50
0
  1
PWM方式
  0
TEXT
  8
_2-3_
 62
    7
 10
64.659142212189636
 20
68.07663656884877
 40
4
 41
1
 50
0
  1
サイズ
  0
LINE
  8
_2-3_
  6
CONTINUOUS
 62
    4
 10
106.14705549480502
 20
158.64367945823926
 11
200.11905493955786
 21
158.64367945823926
  0
LINE
  8
_2-3_
  6
CONTINUOUS
 62
    4
 10
106.14705549480502
 20
158.64367945823926
 11
109.04483297367221
 21
159.42013659354683
  0
LINE
  8
_2-3_
  6
CONTINUOUS
 62
    4
 10
106.14705549480502
 20
158.64367945823926
 11
109.04483297367221
 21
157.86722232293172
  0
LINE
  8
_2-3_
  6
CONTINUOUS
 62
    4
 10
200.11905493955786
 20
158.64367945823926
 11
197.22127746069066
 21
157.86722232293172
  0
LINE
  8
_2-3_
  6
CONTINUOUS
 62
    4
 10
200.11905493955786
 20
158.64367945823926
 11
197.22127746069066
 21
159.42013659354683
  0
LINE
  8
_2-3_
  6
CONTINUOUS
 62
    4
 10
106.14705549480502
 20
159.14367945823926
 11
106.14705549480502
 21
153.96134311512415
  0
LINE
  8
_2-3_
  6
CONTINUOUS
 62
    4
 10
200.11905493955786
 20
159.14367945823926
 11
200.11905493955786
 21
153.96134311512415
  0
TEXT
  8
_2-3_
 62
    7
 10
147.62770880361174
 20
158.99051918735893
 40
4
 41
1
 50
0
  1
62.4
  0
LINE
  8
_2-3_
  6
CONTINUOUS
 62
    7
 10
126.52077757076808
 20
193.1963059132774
 11
130.20015308398189
 21
191.01693040006359
  0
LINE
  8
_2-3_
  6
CONTINUOUS
 62
    7
 10
130.20015308398189
 20
195.37568142649124
 11
130.20015308398189
 21
191.01693040006359
  0
LINE
  8
_2-3_
  6
CONTINUOUS
 62
    7
 10
130.20015308398189
 20
195.37568142649124
 11
126.52077757076808
 21
193.1963059132774
  0
LINE
  8
_2-3_
  6
CONTINUOUS
 62
    7
 10
154.39102731782984
 20
193.1963059132774
 11
150.711651804616
 21
191.01693040006359
  0
LINE
  8
_2-3_
  6
CONTINUOUS
 62
    7
 10
150.711651804616
 20
195.37568142649124
 11
150.711651804616
 21
191.01693040006359
  0
LINE
  8
_2-3_
  6
CONTINUOUS
 62
    7
 10
150.711651804616
 20
195.37568142649124
 11
154.39102731782984
 21
193.1963059132774
  0
LINE
  8
_2-3_
  6
DASHED1
 62
    7
 10
189.13305521718144
 20
184.9463059132774
 11
168.13305521718144
 21
184.9463059132774
  0
LINE
  8
_2-3_
  6
DASHED1
 62
    7
 10
168.13305521718144
 20
184.9463059132774
 11
168.13305521718144
 21
201.4463059132774
  0
LINE
  8
_2-3_
  6
DASHED1
 62
    7
 10
189.13305521718144
 20
201.4463059132774
 11
168.13305521718144
 21
201.4463059132774
  0
LINE
  8
_2-3_
  6
DASHED1
 62
    7
 10
189.13305521718144
 20
184.9463059132774
 11
189.13305521718144
 21
201.4463059132774
  0
ARC
  8
_2-3_
  6
CONTINUOUS
 62
    4
 10
95.384145192870562
 20
144.65327855241281
 40
6.335065285245534
 50
150.22739614057977
 51
216.50552518627975
  0
ARC
  8
_2-3_
  6
CONTINUOUS
 62
    4
 10
87.308845465167991
 20
138.67666589203162
 40
3.7113452471019297
 50
335.97830350855054
 51
36.505525186279755
  0
ARC
  8
_2-3_
  6
CONTINUOUS
 62
    4
 10
95.384145192870562
 20
144.65327855241281
 40
7.085065285245534
 50
150.22739614057977
 51
216.50552518627975
  0
ARC
  8
_2-3_
  6
CONTINUOUS
 62
    4
 10
87.308845465167991
 20
138.67666589203162
 40
2.9613452471019297
 50
335.97830350855054
 51
36.505525186279755
  0
LINE
  8
_2-3_
  6
CONTINUOUS
 62
    7
 10
108.39555521718142
 20
144.94572222222223
 11
89.055833501091172
 21
144.94572222222223
  0
LINE
  8
_2-3_
  6
CONTINUOUS
 62
    7
 10
88.305117943581308
 20
144.94572222222223
 11
78.133055217181436
 21
144.94572222222223
  0
LINE
  8
_2-3_
  6
CONTINUOUS
 62
    7
 10
108.52055521718142
 20
141.19572222222223
 11
90.075816228697192
 21
141.19572222222223
  0
LINE
  8
_2-3_
  6
CONTINUOUS
 62
    7
 10
89.200015963969349
 20
141.19572222222223
 11
78.133055217181436
 21
141.19572222222223
  0
ARC
  8
_2-3_
  6
CONTINUOUS
 62
    4
 10
219.47070508103269
 20
144.65327855241284
 40
6.335065285245534
 50
150.22739614057977
 51
216.50552518627975
  0
ARC
  8
_2-3_
  6
CONTINUOUS
 62
    4
 10
211.39540535333015
 20
138.67666589203162
 40
3.7113452471019297
 50
335.97830350855054
 51
36.505525186279755
  0
ARC
  8
_2-3_
  6
CONTINUOUS
 62
    4
 10
219.47070508103269
 20
144.65327855241284
 40
7.085065285245534
 50
150.22739614057977
 51
216.50552518627975
  0
ARC
  8
_2-3_
  6
CONTINUOUS
 62
    4
 10
211.39540535333015
 20
138.67666589203162
 40
2.9613452471019297
 50
335.97830350855054
 51
36.505525186279755
  0
LINE
  8
_2-3_
  6
CONTINUOUS
 62
    7
 10
228.13305521718144
 20
144.94572222222223
 11
213.14239338925336
 21
144.94572222222223
  0
LINE
  8
_2-3_
  6
CONTINUOUS
 62
    7
 10
228.13305521718144
 20
141.19572222222223
 11
214.16237611685929
 21
141.19572222222223
  0
LINE
  8
_2-3_
  6
CONTINUOUS
 62
    7
 10
213.28657585213148
 20
141.19572222222223
 11
197.74555521718145
 21
141.19572222222223
  0
LINE
  8
_2-3_
  6
CONTINUOUS
 62
    7
 10
212.39167783174344
 20
144.94572222222223
 11
197.87055521718145
 21
144.94572222222223
  0
TEXT
  8
_2-f_
 62
    7
 10
97.281828442437927
 20
135.25214446952597
 40
4
 41
1
 50
90
  1
20
  0
LINE
  8
ADD_LINE
  6
DOT
 62
    9
 10
74.121250000000003
 20
143.07072222222223
 11
231.29750000000001
 21
143.07072222222223
  0
LINE
  8
ADD_LINE
  6
DOT
 62
    9
 10
253.36665821718142
 20
193.1963059132774
 11
228.13305521718144
 21
193.1963059132774
  0
LINE
  8
_2-3_
  6
CONTINUOUS
 62
    7
 10
231.47962121718143
 20
186.4726924132774
 11
231.47962121718143
 21
187.02563141327738
  0
LINE
  8
_2-3_
  6
CONTINUOUS
 62
    7
 10
228.13305521718144
 20
186.4726924132774
 11
231.47962121718143
 21
186.4726924132774
  0
LINE
  8
_2-3_
  6
CONTINUOUS
 62
    7
 10
237.97948121718142
 20
199.72664741327742
 11
228.13305521718144
 21
199.72664741327742
  0
LINE
  8
_2-3_
  6
CONTINUOUS
 62
    7
 10
228.13305521718144
 20
200.23617641327741
 11
231.47962121718143
 21
200.23617641327741
  0
LINE
  8
_2-3_
  6
CONTINUOUS
 62
    7
 10
231.47962121718143
 20
199.7028784132774
 11
231.47962121718143
 21
200.23617641327741
  0
LINE
  8
_2-3_
  6
CONTINUOUS
 62
    7
 10
228.13305521718144
 20
186.4726924132774
 11
228.13305521718144
 21
200.23617641327741
  0
LINE
  8
_2-3_
  6
CONTINUOUS
 62
    7
 10
253.36665821718142
 20
193.43280041327739
 11
253.36665821718142
 21
198.3628004132774
  0
LINE
  8
_2-3_
  6
CONTINUOUS
 62
    7
 10
253.36665821718142
 20
188.0231004132774
 11
253.36665821718142
 21
192.96187841327742
  0
LINE
  8
_2-3_
  6
CONTINUOUS
 62
    7
 10
253.36665821718142
 20
198.3628004132774
 11
237.97948121718142
 21
198.3628004132774
  0
LINE
  8
_2-3_
  6
CONTINUOUS
 62
    7
 10
237.97948121718142
 20
188.0231004132774
 11
253.36665821718142
 21
188.0231004132774
  0
LINE
  8
_2-3_
  6
CONTINUOUS
 62
    7
 10
78.133055217181436
 20
190.69630591327734
 11
77.383055217181436
 21
190.69630591327734
  0
LINE
  8
_2-3_
  6
CONTINUOUS
 62
    7
 10
78.133055217181436
 20
187.44630591327734
 11
53.970527000477148
 21
187.44630591327734
  0
LINE
  8
_2-3_
  6
CONTINUOUS
 62
    7
 10
57.205718874066321
 20
187.44630591327734
 11
56.69571887406633
 21
186.69630591327734
  0
LINE
  8
_2-3_
  6
CONTINUOUS
 62
    7
 10
56.69571887406633
 20
186.69630591327734
 11
53.970527000477148
 21
186.69630591327734
  0
LINE
  8
_2-3_
  6
CONTINUOUS
 62
    7
 10
78.133055217181436
 20
195.69630591327734
 11
77.383055217181436
 21
195.69630591327734
  0
LINE
  8
_2-3_
  6
CONTINUOUS
 62
    7
 10
78.133055217181436
 20
198.94630591327737
 11
53.970527000477148
 21
198.94630591327737
  0
LINE
  8
_2-3_
  6
CONTINUOUS
 62
    7
 10
57.205718874066321
 20
198.94630591327734
 11
56.69571887406633
 21
199.69630591327734
  0
LINE
  8
_2-3_
  6
CONTINUOUS
 62
    7
 10
56.69571887406633
 20
199.69630591327734
 11
53.970527000477148
 21
199.69630591327734
  0
LINE
  8
_2-3_
  6
CONTINUOUS
 62
    7
 10
77.383055217181436
 20
190.69630591327734
 11
77.383055217181436
 21
195.69630591327734
  0
LINE
  8
_2-3_
  6
CONTINUOUS
 62
    7
 10
78.133055217181436
 20
187.44630591327737
 11
78.133055217181436
 21
198.9463059132774
  0
LINE
  8
_2-3_
  6
CONTINUOUS
 62
    7
 10
53.970527000477148
 20
186.69630591327734
 11
53.970527000477148
 21
199.69630591327734
  0
LINE
  8
_2-3_
  6
CONTINUOUS
 62
    7
 10
78.133055217181436
 20
147.42072222222222
 11
53.970527000477148
 21
147.42072222222222
  0
LINE
  8
_2-3_
  6
CONTINUOUS
 62
    7
 10
53.970527000477148
 20
147.42072222222222
 11
53.970527000477148
 21
138.72072222222224
  0
LINE
  8
_2-3_
  6
CONTINUOUS
 62
    7
 10
78.133055217181436
 20
138.72072222222224
 11
53.970527000477148
 21
138.72072222222224
  0
LINE
  8
_2-3_
  6
CONTINUOUS
 62
    7
 10
65.526538643580409
 20
138.72072222222224
 11
63.263380748843559
 21
135.72072222222221
  0
LINE
  8
_2-3_
  6
CONTINUOUS
 62
    7
 10
63.263380748843559
 20
135.72072222222221
 11
56.027180944875397
 21
135.72072222222221
  0
LINE
  8
_2-3_
  6
CONTINUOUS
 62
    7
 10
56.027180944875397
 20
138.72072222222224
 11
56.027180944875397
 21
135.72072222222221
  0
LINE
  8
_2-3_
  6
CONTINUOUS
 62
    7
 10
57.205718874066321
 20
145.17072222222222
 11
53.970527000477148
 21
145.17072222222222
  0
LINE
  8
_2-3_
  6
CONTINUOUS
 62
    7
 10
57.205718874066321
 20
145.17072222222222
 11
57.205718874066321
 21
140.97072222222224
  0
LINE
  8
_2-3_
  6
CONTINUOUS
 62
    7
 10
57.205718874066321
 20
140.97072222222224
 11
53.970527000477148
 21
140.97072222222224
  0
LINE
  8
_2-3_
  6
CONTINUOUS
 62
    7
 10
78.133055217181436
 20
148.17072222222222
 11
78.133055217181436
 21
138.72072222222224
  0
LINE
  8
_2-3_
  6
CONTINUOUS
 62
    7
 10
78.133055217181436
 20
148.17072222222222
 11
77.383055217181436
 21
148.17072222222222
  0
LINE
  8
_2-3_
  6
CONTINUOUS
 62
    7
 10
77.383055217181436
 20
148.17072222222222
 11
77.383055217181436
 21
147.42072222222222
  0
LINE
  8
_2-3_
  6
CONTINUOUS
 62
    7
 10
228.13305521718146
 20
147.42072222222222
 11
228.13305521718146
 21
138.72072222222224
  0
LINE
  8
_2-3_
  6
CONTINUOUS
 62
    7
 10
232.11855521718147
 20
138.72072222222224
 11
232.11855521718147
 21
137.52072222222219
  0
LINE
  8
_2-3_
  6
CONTINUOUS
 62
    7
 10
229.30301771718146
 20
138.72072222222224
 11
230.65301771718143
 21
135.72072222222221
  0
LINE
  8
_2-3_
  6
CONTINUOUS
 62
    7
 10
253.36665821718142
 20
146.22072222222224
 11
253.36665821718142
 21
139.92072222222222
  0
LINE
  8
_2-3_
  6
CONTINUOUS
 62
    7
 10
236.00215821718146
 20
138.72072222222224
 11
236.00215821718146
 21
137.52072222222219
  0
LINE
  8
_2-3_
  6
CONTINUOUS
 62
    7
 10
240.0971582171814
 20
137.52072222222219
 11
240.0971582171814
 21
135.72072222222221
  0
LINE
  8
_2-3_
  6
CONTINUOUS
 62
    7
 10
240.0971582171814
 20
135.72072222222221
 11
230.65301771718143
 21
135.72072222222221
  0
LINE
  8
_2-3_
  6
CONTINUOUS
 62
    7
 10
250.5394082171814
 20
137.52072222222219
 11
232.11855521718147
 21
137.52072222222219
  0
LINE
  8
_2-3_
  6
CONTINUOUS
 62
    7
 10
250.5394082171814
 20
137.52072222222219
 11
250.5394082171814
 21
136.3207222222222
  0
LINE
  8
_2-3_
  6
CONTINUOUS
 62
    7
 10
250.5394082171814
 20
136.3207222222222
 11
249.82278321718141
 21
135.79547222222223
  0
LINE
  8
_2-3_
  6
CONTINUOUS
 62
    7
 10
249.82278321718141
 20
135.79547222222223
 11
248.7990332171814
 21
135.79547222222223
  0
LINE
  8
_2-3_
  6
CONTINUOUS
 62
    7
 10
248.7990332171814
 20
135.79547222222223
 11
248.7990332171814
 21
136.3207222222222
  0
LINE
  8
_2-3_
  6
CONTINUOUS
 62
    7
 10
248.7990332171814
 20
136.3207222222222
 11
240.0971582171814
 21
136.3207222222222
  0
LINE
  8
_2-3_
  6
CONTINUOUS
 62
    7
 10
237.97948121718142
 20
138.72072222222224
 11
228.13305521718146
 21
138.72072222222224
  0
LINE
  8
_2-3_
  6
CONTINUOUS
 62
    7
 10
237.97948121718142
 20
147.42072222222222
 11
237.97948121718142
 21
138.72072222222224
  0
LINE
  8
_2-3_
  6
CONTINUOUS
 62
    7
 10
237.97948121718142
 20
147.42072222222222
 11
228.13305521718146
 21
147.42072222222222
  0
LINE
  8
_2-3_
  6
CONTINUOUS
 62
    7
 10
253.36665821718142
 20
146.22072222222224
 11
237.97948121718142
 21
146.22072222222224
  0
LINE
  8
_2-3_
  6
CONTINUOUS
 62
    7
 10
253.36665821718142
 20
139.92072222222222
 11
237.97948121718142
 21
139.92072222222222
  0
LINE
  8
_2-3_
  6
CONTINUOUS
 62
    7
 10
237.97948121718142
 20
187.03493141327738
 11
228.13305521718144
 21
187.03493141327738
  0
LINE
  8
_2-3_
  6
CONTINUOUS
 62
    7
 10
253.36665821718142
 20
193.43280041327739
 11
237.97948121718142
 21
193.43280041327739
  0
LINE
  8
_2-3_
  6
CONTINUOUS
 62
    7
 10
253.36665821718142
 20
192.96187841327742
 11
237.97948121718142
 21
192.96187841327742
  0
TEXT
  8
_2-3_
 62
    7
 10
351.63117868183667
 20
17.509341051886565
 40
4
 41
1
 50
0
  1
Ｆ２１８Ｃ０５０
  0
ENDSEC
  0
EOF
