  0
SECTION
  2
HEADER
  9
$ACADVER
  1
AC1009
  9
$INSBASE
 10
0
 20
0
 30
0
  9
$EXTMIN
 10
0
 20
0
  9
$EXTMAX
 10
420
 20
297
  9
$LIMMIN
 10
0
 20
0
  9
$LIMMAX
 10
420
 20
297
  9
$LTSCALE
 40
1
  0
ENDSEC
  0
SECTION
  2
TABLES
  0
TABLE
  2
LTYPE
 70
     9
  0
LTYPE
  2
CONTINUOUS
 70
    64
  3
実線
 72
    65
 73
     0
 40
0.0
  0
LTYPE
  2
DASHED1
 70
    64
  3
--  --  --  --  --  --  --  --  
 72
    65
 73
     2
 40
2.5
 49
1.25
 49
-1.25
  0
LTYPE
  2
DASHED2
 70
    64
  3
----    ----    ----    ----    
 72
    65
 73
     2
 40
5.0
 49
2.5
 49
-2.5
  0
LTYPE
  2
DASHED3
 70
    64
  3
------  ------  ------  ------  
 72
    65
 73
     2
 40
5.0
 49
3.75
 49
-1.25
  0
LTYPE
  2
CENTER1
 70
    64
  3
----- - ----- - ----- - ----- - 
 72
    65
 73
     4
 40
10.0
 49
6.25
 49
-1.25
 49
1.25
 49
-1.25
  0
LTYPE
  2
CENTER2
 70
    64
  3
----------  --  ----------  --  
 72
    65
 73
     4
 40
20.0
 49
12.5
 49
-2.5
 49
2.5
 49
-2.5
  0
LTYPE
  2
PHANTOM1
 70
    64
  3
--- - - --- - - --- - - --- - - 
 72
    65
 73
     6
 40
10.0
 49
3.25
 49
-1.25
 49
1.25
 49
-1.25
 49
1.25
 49
-1.25
  0
LTYPE
  2
PHANTOM2
 70
    64
  3
--------  -  -  --------  -  -  
 72
    65
 73
     6
 40
20.0
 49
10.0
 49
-2.5
 49
1.25
 49
-2.5
 49
1.25
 49
-2.5
  0
LTYPE
  2
DOT
 70
    64
  3
-   -   -   -   -   -   -   -   
 72
    65
 73
     2
 40
2.5
 49
0.625
 49
-1.875
  0
LTYPE
  2
DUMMY
 70
    64
  3
ダミー
 72
    65
 73
     0
 40
0.0
  0
LTYPE
  2
RAND1
 70
    64
  3
ランダム線1
 72
    65
 73
     4
 40
10.0
 49
1.0
 49
-2.0
 49
3.0
 49
-4.0
  0
LTYPE
  2
RAND2
 70
    64
  3
ランダム線2
 72
    65
 73
     4
 40
14.0
 49
2.0
 49
-3.0
 49
4.0
 49
-5.0
  0
LTYPE
  2
RAND3
 70
    64
  3
ランダム線3
 72
    65
 73
     4
 40
18.0
 49
3.0
 49
-4.0
 49
5.0
 49
-6.0
  0
LTYPE
  2
RAND4
 70
    64
  3
ランダム線4
 72
    65
 73
     4
 40
22.0
 49
4.0
 49
-5.0
 49
6.0
 49
-7.0
  0
LTYPE
  2
RAND5
 70
    64
  3
ランダム線5
 72
    65
 73
     4
 40
26.0
 49
5.0
 49
-6.0
 49
7.0
 49
-8.0
  0
LTYPE
  2
LONG1
 70
    64
  3
----------  --  ----------  --  
 72
    65
 73
     4
 40
40.0
 49
32.5
 49
-2.5
 49
2.5
 49
-2.5
  0
LTYPE
  2
LONG2
 70
    64
  3
--------  -  -  --------  -  -  
 72
    65
 73
     6
 40
40.0
 49
30.0
 49
-2.5
 49
1.25
 49
-2.5
 49
1.25
 49
-2.5
  0
LTYPE
  2
LONG3
 70
    64
  3
+++++++++++++++..+++++++++++++++
 72
    65
 73
     2
 40
40.0
 49
37.5
 49
-2.5
  0
LTYPE
  2
LONG4
 70
    64
  3
+++++++++++++++..+++++++++++++++
 72
    65
 73
     2
 40
80.0
 49
75.0
 49
-5.0
  0
LTYPE
  2
LONG5
 70
    64
  3
----------  --  ----------  --  
 72
    65
 73
     4
 40
60.0
 49
37.5
 49
-7.5
 49
7.5
 49
-7.5
  0
LTYPE
  2
dashed
 70
   64
  3
-------   -------------   ------
 72
   65
 73
    2
 40
7.5
 49
6
 49
-1.5
  0
LTYPE
  2
dashed_spaced
 70
   64
  3
----        --------        ----
 72
   65
 73
    2
 40
12
 49
6
 49
-6
  0
LTYPE
  2
long_dashed_dotted
 70
   64
  3
------------- --- --------------
 72
   65
 73
    4
 40
15.25
 49
12
 49
-1.5
 49
0.25
 49
-1.5
  0
LTYPE
  2
long_dashed_double-dotted
 70
   64
  3
----------- --- --- ------------
 72
   65
 73
    6
 40
17
 49
12
 49
-1.5
 49
0.25
 49
-1.5
 49
0.25
 49
-1.5
  0
LTYPE
  2
long_dashed_triplicate-dotted
 70
   64
  3
--------- --- --- --- ----------
 72
   65
 73
    8
 40
18.75
 49
12
 49
-1.5
 49
0.25
 49
-1.5
 49
0.25
 49
-1.5
 49
0.25
 49
-1.5
  0
LTYPE
  2
dotted
 70
   64
  3
   -       -       -       -    
 72
   65
 73
    2
 40
1.75
 49
0.25
 49
-1.5
  0
LTYPE
  2
chain
 70
   64
  3
-------------- -- --------------
 72
   65
 73
    4
 40
18.5
 49
12
 49
-1.5
 49
3.5
 49
-1.5
  0
LTYPE
  2
chain_double_dash
 70
   64
  3
------------ -- -- -------------
 72
   65
 73
    6
 40
23.5
 49
12
 49
-1.5
 49
3.5
 49
-1.5
 49
3.5
 49
-1.5
  0
LTYPE
  2
dashed_dotted
 70
   64
  3
-----------     -     ----------
 72
   65
 73
    4
 40
9.25
 49
6
 49
-1.5
 49
0.25
 49
-1.5
  0
LTYPE
  2
double-dashed_dotted
 70
   64
  3
------   -----------   -   -----
 72
   65
 73
    6
 40
16.75
 49
6
 49
-1.5
 49
6
 49
-1.5
 49
0.25
 49
-1.5
  0
LTYPE
  2
dashed_double-dotted
 70
   64
  3
---------    -    -    ---------
 72
   65
 73
    6
 40
11
 49
6
 49
-1.5
 49
0.25
 49
-1.5
 49
0.25
 49
-1.5
  0
LTYPE
  2
double-dashed_double-dotted
 70
   64
  3
-----   ---------   -   -   ----
 72
   65
 73
    8
 40
18.5
 49
6
 49
-1.5
 49
6
 49
-1.5
 49
0.25
 49
-1.5
 49
0.25
 49
-1.5
  0
LTYPE
  2
dashed_triplicate-dotted
 70
   64
  3
-------    -    -    -    ------
 72
   65
 73
    8
 40
12.75
 49
6
 49
-1.5
 49
0.25
 49
-1.5
 49
0.25
 49
-1.5
 49
0.25
 49
-1.5
  0
LTYPE
  2
double-dashed_triplicate-dotted
 70
   64
  3
-----  ---------  -  -  -  -----
 72
   65
 73
   10
 40
20.25
 49
6
 49
-1.5
 49
6
 49
-1.5
 49
0.25
 49
-1.5
 49
0.25
 49
-1.5
 49
0.25
 49
-1.5
  0
LTYPE
  2
undefined
 70
   64
  3
--------------------------------
 72
   65
 73
    0
 40
0
  0
LTYPE
  2
_
 70
   64
  3
                                
 72
   65
 73
    0
 40
0
  0
LTYPE
  2
__18
 70
   64
  3
                                
 72
   65
 73
    0
 40
0
  0
LTYPE
  2
__19
 70
   64
  3
                                
 72
   65
 73
    0
 40
0
  0
LTYPE
  2
__20
 70
   64
  3
                                
 72
   65
 73
    0
 40
0
  0
LTYPE
  2
__21
 70
   64
  3
                                
 72
   65
 73
    0
 40
0
  0
LTYPE
  2
__22
 70
   64
  3
                                
 72
   65
 73
    0
 40
0
  0
LTYPE
  2
__23
 70
   64
  3
                                
 72
   65
 73
    0
 40
0
  0
LTYPE
  2
__24
 70
   64
  3
                                
 72
   65
 73
    0
 40
0
  0
LTYPE
  2
__25
 70
   64
  3
                                
 72
   65
 73
    0
 40
0
  0
LTYPE
  2
__26
 70
   64
  3
                                
 72
   65
 73
    0
 40
0
  0
LTYPE
  2
__27
 70
   64
  3
                                
 72
   65
 73
    0
 40
0
  0
LTYPE
  2
__28
 70
   64
  3
                                
 72
   65
 73
    0
 40
0
  0
LTYPE
  2
__29
 70
   64
  3
                                
 72
   65
 73
    0
 40
0
  0
LTYPE
  2
__30
 70
   64
  3
                                
 72
   65
 73
    0
 40
0
  0
LTYPE
  2
__31
 70
   64
  3
                                
 72
   65
 73
    0
 40
0
  0
LTYPE
  2
__32
 70
   64
  3
                                
 72
   65
 73
    0
 40
0
  0
ENDTAB
  0
TABLE
  2
STYLE
  5
3
100
AcDbSymbolTable
 70
     1
  0
STYLE
  5
10
100
AcDbSymbolTableRecord
100
AcDbTextStyleTableRecord
  2
STANDARD
 70
     0
 40
0.0
 41
1.0
 50
0.0
 71
     0
 42
0.2
  3
txt
  4
bigfont.shx
  0
STYLE
  5
26
100
AcDbSymbolTableRecord
100
AcDbTextStyleTableRecord
  2
TATEGAKI
 70
    68
 40
0.0
 41
1.0
 50
0.0
 71
     0
 42
1.0
  3
txt
  4
bigfont.shx
  0
ENDTAB
  0
TABLE
  2
LAYER
 70
   16
  0
LAYER
  2
_0-0_
 70
   64
 62
    7
  6
CONTINUOUS
  0
LAYER
  2
_1-0_
 70
   64
 62
    7
  6
CONTINUOUS
  0
LAYER
  2
_1-1_
 70
   64
 62
    7
  6
CONTINUOUS
  0
LAYER
  2
_1-2_
 70
   64
 62
    7
  6
CONTINUOUS
  0
LAYER
  2
_1-3_
 70
   64
 62
    7
  6
CONTINUOUS
  0
LAYER
  2
_1-4_
 70
   64
 62
    7
  6
CONTINUOUS
  0
LAYER
  2
_1-5_
 70
   64
 62
    7
  6
CONTINUOUS
  0
LAYER
  2
_1-7_
 70
   64
 62
    7
  6
CONTINUOUS
  0
LAYER
  2
_1-8_
 70
   64
 62
    7
  6
CONTINUOUS
  0
LAYER
  2
_1-9_
 70
   64
 62
    7
  6
CONTINUOUS
  0
LAYER
  2
_1-a_
 70
   64
 62
    7
  6
CONTINUOUS
  0
LAYER
  2
_1-c_
 70
   64
 62
    7
  6
CONTINUOUS
  0
LAYER
  2
_1-d_
 70
   64
 62
    7
  6
CONTINUOUS
  0
LAYER
  2
_1-e_
 70
   64
 62
    7
  6
CONTINUOUS
  0
LAYER
  2
_1-f_
 70
   64
 62
    7
  6
CONTINUOUS
  0
LAYER
  2
ADD_LINE
 70
   64
 62
    7
  6
CONTINUOUS
  0
ENDTAB
  0
ENDSEC
  0
SECTION
  2
BLOCKS
  0
ENDSEC
  0
SECTION
  2
ENTITIES
  0
LINE
  8
_0-0_
  6
CONTINUOUS
 62
    7
 10
22.628436074621788
 20
21.591684735036579
 11
22.628436074621788
 21
278.59169045708244
  0
LINE
  8
_0-0_
  6
CONTINUOUS
 62
    7
 10
22.628436074621788
 20
278.59169045708244
 11
402.62841318643819
 21
278.59169045708244
  0
LINE
  8
_0-0_
  6
CONTINUOUS
 62
    7
 10
402.62841318643819
 20
278.59169045708244
 11
402.62841318643819
 21
21.591684735036579
  0
LINE
  8
_0-0_
  6
CONTINUOUS
 62
    7
 10
402.62841318643819
 20
21.591684735036579
 11
22.628436074621788
 21
21.591684735036579
  0
LINE
  8
_0-0_
  6
CONTINUOUS
 62
   18
 10
357.62840746439229
 20
41.591690457082478
 11
357.62840746439229
 21
21.591684735036579
  0
LINE
  8
_0-0_
  6
CONTINUOUS
 62
   18
 10
357.62840746439229
 20
51.591692424035755
 11
357.62840746439229
 21
41.591690457082478
  0
LINE
  8
_0-0_
  6
CONTINUOUS
 62
    7
 10
352.62840746439229
 20
41.591690457082478
 11
352.62840746439229
 21
21.591684735036579
  0
LINE
  8
_0-0_
  6
CONTINUOUS
 62
    7
 10
317.65138720072042
 20
37.87089387199947
 11
317.65138720072042
 21
34.870897686696736
  0
LINE
  8
_0-0_
  6
CONTINUOUS
 62
    7
 10
317.65138720072042
 20
37.87089387199947
 11
324.65138696230184
 21
39.37089387199947
  0
LINE
  8
_0-0_
  6
CONTINUOUS
 62
    7
 10
324.65138696230184
 20
39.37089387199947
 11
324.65138696230184
 21
33.370891964650837
  0
LINE
  8
_0-0_
  6
CONTINUOUS
 62
    7
 10
317.65138720072042
 20
34.870897686696736
 11
324.65138696230184
 21
33.370891964650837
  0
LINE
  8
_0-0_
  6
CENTER2
 62
   18
 10
326.65135644472371
 20
36.370895779348103
 11
308.65138720072042
 21
36.370895779348103
  0
LINE
  8
_0-0_
  6
CENTER2
 62
   18
 10
312.65135668314229
 20
40.370897686696736
 11
312.65135668314229
 21
32.37089387199947
  0
LINE
  8
_0-0_
  6
CONTINUOUS
 62
    7
 10
352.62840746439229
 20
51.591692424035755
 11
352.62840746439229
 21
21.591684735036579
  0
LINE
  8
_0-0_
  6
CONTINUOUS
 62
    7
 10
382.62840555704366
 20
51.591692424035755
 11
382.62840555704366
 21
41.591690457082478
  0
LINE
  8
_0-0_
  6
CONTINUOUS
 62
   18
 10
387.62843988931905
 20
51.591692424035755
 11
387.62843988931905
 21
41.591690457082478
  0
LINE
  8
_0-0_
  6
CONTINUOUS
 62
    7
 10
327.62843816078435
 20
41.591690457082478
 11
327.62843816078435
 21
31.591686642385212
  0
LINE
  8
_0-0_
  6
CONTINUOUS
 62
   18
 10
332.62840746439229
 20
41.591690457082478
 11
332.62840746439229
 21
31.591686642385212
  0
LINE
  8
_0-0_
  6
CONTINUOUS
 62
   18
 10
342.6284370282961
 20
51.591692424035755
 11
342.6284370282961
 21
41.591690457082478
  0
LINE
  8
_0-0_
  6
CONTINUOUS
 62
    7
 10
337.62840651071797
 20
51.591692424035755
 11
337.62840651071797
 21
41.591690457082478
  0
LINE
  8
_0-0_
  6
CONTINUOUS
 62
   18
 10
327.62843816078435
 20
51.591692424035755
 11
327.62843816078435
 21
41.591690457082478
  0
LINE
  8
_0-0_
  6
CONTINUOUS
 62
    7
 10
322.62840746439229
 20
51.591692424035755
 11
322.62840746439229
 21
41.591690457082478
  0
LINE
  8
_0-0_
  6
CONTINUOUS
 62
   18
 10
312.62840746439229
 20
51.591692424035755
 11
312.62840746439229
 21
41.591690457082478
  0
LINE
  8
_0-0_
  6
CONTINUOUS
 62
    7
 10
307.62840746439229
 20
51.591692424035755
 11
307.62840746439229
 21
21.591684735036579
  0
LINE
  8
_0-0_
  6
CONTINUOUS
 62
    7
 10
402.62841318643819
 20
51.591692424035755
 11
307.62840746439229
 21
51.591692424035755
  0
LINE
  8
_0-0_
  6
CONTINUOUS
 62
    7
 10
402.62841318643819
 20
41.591690457082478
 11
307.62840746439229
 21
41.591690457082478
  0
LINE
  8
_0-0_
  6
CONTINUOUS
 62
    7
 10
402.62841318643819
 20
31.591686642385212
 11
307.62840746439229
 21
31.591686642385212
  0
CIRCLE
  8
_0-0_
  6
CONTINUOUS
 62
    7
 10
312.65135668314229
 20
36.370895779348103
 40
3
  0
CIRCLE
  8
_0-0_
  6
CONTINUOUS
 62
    7
 10
312.65135668314229
 20
36.370895779348103
 40
1.5
  0
TEXT
  8
_0-0_
 62
    7
 10
355.25426195657979
 20
29.717760479665486
 40
3
 41
1
 50
0
  1
図番
  7
TATEGAKI
  0
TEXT
  8
_0-0_
 62
    7
 10
355.13152025736104
 20
39.869448101735798
 40
3
 41
1
 50
0
  1
品名
  7
TATEGAKI
  0
TEXT
  8
_0-0_
 62
    7
 10
355.20732592142354
 20
49.667692637658802
 40
3
 41
1
 50
0
  1
作図
  7
TATEGAKI
  0
TEXT
  8
_0-0_
 62
    7
 10
384.90636347330342
 20
49.605480587697712
 40
3
 41
1
 50
0
  1
尺度
  7
TATEGAKI
  0
TEXT
  8
_0-0_
 62
    7
 10
330.19594304359685
 20
39.869448101735798
 40
3
 41
1
 50
0
  1
材質
  7
TATEGAKI
  0
TEXT
  8
_0-0_
 62
    7
 10
310.12947557962667
 20
49.586662686086384
 40
3
 41
1
 50
0
  1
設計
  7
TATEGAKI
  0
TEXT
  8
_0-0_
 62
    7
 10
325.11208008325826
 20
49.586662686086384
 40
3
 41
1
 50
0
  1
製図
  7
TATEGAKI
  0
TEXT
  8
_0-0_
 62
    7
 10
340.09468458688985
 20
49.586662686086384
 40
3
 41
1
 50
0
  1
検図
  7
TATEGAKI
  0
TEXT
  8
_0-0_
 62
    7
 10
393.62841318643819
 20
43.841684735036579
 40
3
 41
1
 50
0
  1
：
  0
TEXT
  8
_0-0_
 62
    7
 10
308.80708788431417
 20
24.590750134206473
 40
4
 41
1
 50
0
  1
ＦＫＫ株式会社
  0
TEXT
  8
_0-0_
 62
    7
 10
364.12843607462178
 20
45.091686642385212
 40
3
 41
1
 50
0
  1
年　月　日
  0
LINE
  8
_1-f_
  6
CONTINUOUS
 62
   18
 10
387.62528534088022
 20
41.591687982684277
 11
402.62523585291575
 21
51.591690044682806
  0
TEXT
  8
_1-f_
 62
    7
 10
359.60714384489205
 20
36.717017192020563
 40
4
 41
1
 50
0
  1
FMC-24S製品仕様図
  0
TEXT
  8
_1-e_
 62
    7
 10
359.4820059513587
 20
44.552805559585564
 40
4
 41
1
 50
0
  1
19
  0
TEXT
  8
_1-e_
 62
    7
 10
368.47025473324458
 20
44.695476175171052
 40
4
 41
1
 50
0
  1
2
  0
TEXT
  8
_1-e_
 62
    7
 10
375.10443835796991
 20
44.695476175171052
 40
4
 41
1
 50
0
  1
6
  0
TEXT
  8
_1-e_
 62
    7
 10
313.30576952576717
 20
44.169378280199566
 40
4
 41
1
 50
0
  1
百々
  0
TEXT
  8
_1-e_
 62
    7
 10
328.37535329698465
 20
44.133710626303184
 40
4
 41
1
 50
0
  1
米澤
  0
LINE
  8
_1-e_
  6
CONTINUOUS
 62
    7
 10
402.62523585291575
 20
273.59169856331413
 11
282.62524348231028
 21
273.59169856331413
  0
LINE
  8
_1-e_
  6
CONTINUOUS
 62
    7
 10
282.62522822352121
 20
268.59171906731194
 11
402.62523585291575
 21
268.59171906731194
  0
LINE
  8
_1-e_
  6
CONTINUOUS
 62
    7
 10
282.62522822352121
 20
278.59169045708244
 11
282.62522822352121
 21
273.59169856331413
  0
LINE
  8
_1-e_
  6
CONTINUOUS
 62
    7
 10
292.62523585291575
 20
278.59169045708244
 11
292.62523585291575
 21
273.59169856331413
  0
LINE
  8
_1-e_
  6
CONTINUOUS
 62
    7
 10
322.62523585291575
 20
278.59169045708244
 11
322.62523585291575
 21
273.59169856331413
  0
TEXT
  8
_1-e_
 62
    7
 10
383.12523585291575
 20
274.09169856331413
 40
4
 41
1
 50
0
  1
担当
  0
TEXT
  8
_1-e_
 62
    7
 10
393.12523585291575
 20
274.09169856331413
 40
4
 41
1
 50
0
  1
検印
  0
TEXT
  8
_1-e_
 62
    7
 10
284.39504176111887
 20
274.78079549095696
 40
3
 41
1
 50
0
  1
Ｎｏ
  0
TEXT
  8
_1-e_
 62
    7
 10
299.77667170496653
 20
274.80464879295891
 40
3
 41
1
 50
0
  1
年　月　日
  0
TEXT
  8
_1-e_
 62
    7
 10
340.57468348475157
 20
274.80464879295891
 40
3
 41
1
 50
0
  1
訂　正　記　事
  0
LINE
  8
_1-e_
  6
CONTINUOUS
 62
    7
 10
282.62522822352121
 20
273.59169856331413
 11
282.62522822352121
 21
268.59171906731194
  0
LINE
  8
_1-e_
  6
CONTINUOUS
 62
    7
 10
292.62523585291575
 20
273.59169856331413
 11
292.62523585291575
 21
268.59171906731194
  0
LINE
  8
_1-e_
  6
CONTINUOUS
 62
    7
 10
322.62523585291575
 20
273.59169856331413
 11
322.62523585291575
 21
268.59171906731194
  0
LINE
  8
_1-e_
  6
CONTINUOUS
 62
    7
 10
402.62523585291575
 20
268.59171906731194
 11
402.62523585291575
 21
278.59169045708244
  0
LINE
  8
_1-e_
  6
CONTINUOUS
 62
    7
 10
282.62522822352121
 20
278.59169045708244
 11
402.62523585291575
 21
278.59169045708244
  0
LINE
  8
_1-e_
  6
CONTINUOUS
 62
    7
 10
282.62522822352121
 20
273.59169856331413
 11
282.62522822352121
 21
268.59171906731194
  0
LINE
  8
_1-e_
  6
CONTINUOUS
 62
    7
 10
292.62523585291575
 20
273.59169856331413
 11
292.62523585291575
 21
268.59171906731194
  0
LINE
  8
_1-e_
  6
CONTINUOUS
 62
    7
 10
322.62523585291575
 20
273.59169856331413
 11
322.62523585291575
 21
268.59171906731194
  0
LINE
  8
_1-e_
  6
CONTINUOUS
 62
    7
 10
292.62523585291575
 20
273.59169856331413
 11
292.62523585291575
 21
268.59171906731194
  0
LINE
  8
_1-e_
  6
CONTINUOUS
 62
    7
 10
322.62523585291575
 20
273.59169856331413
 11
322.62523585291575
 21
268.59171906731194
  0
LINE
  8
_1-e_
  6
CONTINUOUS
 62
    7
 10
287.27950042291337
 20
273.42601552642861
 11
285.0295080523079
 21
268.92601361907998
  0
LINE
  8
_1-e_
  6
CONTINUOUS
 62
    7
 10
285.0295080523079
 20
268.92601361907998
 11
289.52950042291337
 21
268.92601361907998
  0
LINE
  8
_1-e_
  6
CONTINUOUS
 62
    7
 10
287.27950042291337
 20
273.42601552642861
 11
289.52950042291337
 21
268.92601361907998
  0
TEXT
  8
_1-e_
 62
    7
 10
305.22160094781571
 20
269.49777188934365
 40
3
 41
1
 50
0
  1
.   .
  0
TEXT
  8
_1-e_
 62
    7
 10
286.66356414361649
 20
269.1606108251957
 40
3
 41
1
 50
0
  1
1
  0
TEXT
  8
_1-e_
 62
    7
 10
294.19716542771908
 20
269.02474058005827
 40
4
 41
1
 50
0
  1
2019
  0
TEXT
  8
_1-e_
 62
    7
 10
383.5308263606272
 20
268.97019468594419
 40
4
 41
1
 50
0
  1
米澤
  0
TEXT
  8
_1-e_
 62
    7
 10
383.12523585291569
 20
274.09169856331413
 40
4
 41
1
 50
0
  1
担当
  0
LINE
  8
_1-e_
  6
CONTINUOUS
 62
    7
 10
282.62522822352121
 20
273.59169856331413
 11
282.62522822352121
 21
268.59171906731194
  0
LINE
  8
_1-e_
  6
CONTINUOUS
 62
    7
 10
292.62523585291575
 20
273.59169856331413
 11
292.62523585291575
 21
268.59171906731194
  0
LINE
  8
_1-e_
  6
CONTINUOUS
 62
    7
 10
322.62523585291575
 20
273.59169856331413
 11
322.62523585291575
 21
268.59171906731194
  0
TEXT
  8
_1-e_
 62
    7
 10
307.98865826764989
 20
268.88206996447274
 40
4
 41
1
 50
0
  1
7
  0
TEXT
  8
_1-e_
 62
    7
 10
315.02707530320077
 20
268.97718370819643
 40
4
 41
1
 50
0
  1
9
  0
TEXT
  8
_1-e_
 62
    7
 10
324.29019708130499
 20
269.12103913888086
 40
4
 41
1
 50
0
  1
寸法訂正　17.5→18.5
  0
LINE
  8
_1-e_
  6
CONTINUOUS
 62
    7
 10
282.62521296473215
 20
268.59171906731194
 11
402.62522059412668
 21
268.59171906731194
  0
LINE
  8
_1-e_
  6
CONTINUOUS
 62
    7
 10
282.62521296473215
 20
268.59171906731194
 11
402.62522059412668
 21
268.59171906731194
  0
LINE
  8
_1-e_
  6
CONTINUOUS
 62
    7
 10
402.62522059412668
 20
268.59171906731194
 11
282.62522822352121
 21
268.59171906731194
  0
LINE
  8
_1-e_
  6
CONTINUOUS
 62
    7
 10
282.62521296473215
 20
263.59173957130974
 11
402.62522059412668
 21
263.59173957130974
  0
LINE
  8
_1-e_
  6
CONTINUOUS
 62
    7
 10
282.62521296473215
 20
268.59171906731194
 11
282.62521296473215
 21
263.59173957130974
  0
LINE
  8
_1-e_
  6
CONTINUOUS
 62
    7
 10
292.62522059412668
 20
268.59171906731194
 11
292.62522059412668
 21
263.59173957130974
  0
LINE
  8
_1-e_
  6
CONTINUOUS
 62
    7
 10
322.62522059412668
 20
268.59171906731194
 11
322.62522059412668
 21
263.59173957130974
  0
LINE
  8
_1-e_
  6
CONTINUOUS
 62
    7
 10
402.62522059412668
 20
268.59171906731194
 11
282.62522822352121
 21
268.59171906731194
  0
LINE
  8
_1-e_
  6
CONTINUOUS
 62
    7
 10
282.62521296473215
 20
263.59173957130974
 11
402.62522059412668
 21
263.59173957130974
  0
LINE
  8
_1-e_
  6
CONTINUOUS
 62
    7
 10
282.62521296473215
 20
268.59171906731194
 11
282.62521296473215
 21
263.59173957130974
  0
LINE
  8
_1-e_
  6
CONTINUOUS
 62
    7
 10
292.62522059412668
 20
268.59171906731194
 11
292.62522059412668
 21
263.59173957130974
  0
LINE
  8
_1-e_
  6
CONTINUOUS
 62
    7
 10
322.62522059412668
 20
268.59171906731194
 11
322.62522059412668
 21
263.59173957130974
  0
LINE
  8
_1-e_
  6
CONTINUOUS
 62
    7
 10
282.62521296473215
 20
268.59171906731194
 11
282.62521296473215
 21
263.59173957130974
  0
LINE
  8
_1-e_
  6
CONTINUOUS
 62
    7
 10
292.62522059412668
 20
268.59171906731194
 11
292.62522059412668
 21
263.59173957130974
  0
LINE
  8
_1-e_
  6
CONTINUOUS
 62
    7
 10
322.62522059412668
 20
268.59171906731194
 11
322.62522059412668
 21
263.59173957130974
  0
LINE
  8
_1-e_
  6
CONTINUOUS
 62
    7
 10
292.62522059412668
 20
268.59171906731194
 11
292.62522059412668
 21
263.59173957130974
  0
LINE
  8
_1-e_
  6
CONTINUOUS
 62
    7
 10
322.62522059412668
 20
268.59171906731194
 11
322.62522059412668
 21
263.59173957130974
  0
LINE
  8
_1-e_
  6
CONTINUOUS
 62
    7
 10
287.2794851641243
 20
268.42603603042635
 11
285.02949279351884
 21
263.92603412307772
  0
LINE
  8
_1-e_
  6
CONTINUOUS
 62
    7
 10
285.02949279351884
 20
263.92603412307772
 11
289.5294851641243
 21
263.92603412307772
  0
LINE
  8
_1-e_
  6
CONTINUOUS
 62
    7
 10
287.2794851641243
 20
268.42603603042635
 11
289.5294851641243
 21
263.92603412307772
  0
TEXT
  8
_1-e_
 62
    7
 10
305.22158568902665
 20
264.49779239334139
 40
3
 41
1
 50
0
  1
.   .
  0
TEXT
  8
_1-e_
 62
    7
 10
294.19715016893002
 20
264.02476108405602
 40
4
 41
1
 50
0
  1
2019
  0
TEXT
  8
_1-e_
 62
    7
 10
383.53081110183813
 20
263.97021518994193
 40
4
 41
1
 50
0
  1
米澤
  0
LINE
  8
_1-e_
  6
CONTINUOUS
 62
    7
 10
282.62521296473215
 20
268.59171906731194
 11
282.62521296473215
 21
263.59173957130974
  0
LINE
  8
_1-e_
  6
CONTINUOUS
 62
    7
 10
292.62522059412668
 20
268.59171906731194
 11
292.62522059412668
 21
263.59173957130974
  0
LINE
  8
_1-e_
  6
CONTINUOUS
 62
    7
 10
322.62522059412668
 20
268.59171906731194
 11
322.62522059412668
 21
263.59173957130974
  0
TEXT
  8
_1-e_
 62
    7
 10
307.98864300886083
 20
263.88209046847055
 40
4
 41
1
 50
0
  1
7
  0
TEXT
  8
_1-e_
 62
    7
 10
286.66354888482743
 20
264.16063132919344
 40
3
 41
1
 50
0
  1
2
  0
TEXT
  8
_1-e_
 62
    7
 10
315.02706004441171
 20
263.97720421219423
 40
4
 41
1
 50
0
  1
12
  0
TEXT
  8
_1-e_
 62
    7
 10
324.29018182251593
 20
264.12105964287866
 40
4
 41
1
 50
0
  1
三面図修正
  0
LINE
  8
_1-f_
  6
CONTINUOUS
 62
   18
 10
64.50062821990636
 20
120.75355947231851
 11
88.500628219906388
 21
120.75355947231851
  0
LINE
  8
_1-f_
  6
CONTINUOUS
 62
   18
 10
64.50062821990636
 20
120.75355947231851
 11
67.398405698773558
 21
121.53001660762606
  0
LINE
  8
_1-f_
  6
CONTINUOUS
 62
   18
 10
64.50062821990636
 20
120.75355947231851
 11
67.398405698773558
 21
119.97710233701096
  0
LINE
  8
_1-f_
  6
CONTINUOUS
 62
   18
 10
88.500628219906388
 20
120.75355947231851
 11
85.602850741039191
 21
119.97710233701096
  0
LINE
  8
_1-f_
  6
CONTINUOUS
 62
   18
 10
88.500628219906388
 20
120.75355947231851
 11
85.602850741039191
 21
121.53001660762606
  0
TEXT
  8
_1-f_
 62
    7
 10
74.375628219906388
 20
121.25355947231851
 40
4
 41
1
 50
0
  1
48
  0
TEXT
  8
_1-7_
 62
    3
 10
53.588953653966598
 20
117.83189296488247
 40
6
 41
1
 50
0
  1
⑩
  0
LINE
  8
_1-f_
  6
CONTINUOUS
 62
   18
 10
127.76513678048887
 20
220.93589446256731
 11
127.76513678048887
 21
215.19274933980057
  0
LINE
  8
_1-0_
  6
CONTINUOUS
 62
    7
 10
124.26513678048887
 20
166.92870264997807
 11
124.26513678048887
 21
226.92870264997804
  0
LINE
  8
_1-0_
  6
CONTINUOUS
 62
    7
 10
127.76513678048887
 20
166.92870264997807
 11
124.26513678048887
 21
166.92870264997807
  0
LINE
  8
_1-0_
  6
CONTINUOUS
 62
    7
 10
127.76513678048887
 20
166.92870264997807
 11
127.76513678048887
 21
226.92870264997804
  0
LINE
  8
_1-0_
  6
CONTINUOUS
 62
    7
 10
127.76513678048887
 20
226.92870264997804
 11
124.26513678048887
 21
226.92870264997804
  0
LINE
  8
_1-1_
  6
CONTINUOUS
 62
    7
 10
127.76513678048887
 20
213.67870264997804
 11
127.76513678048887
 21
224.30370264997804
  0
LINE
  8
_1-1_
  6
CONTINUOUS
 62
    7
 10
127.76513678048887
 20
180.17870264997807
 11
127.76513678048887
 21
169.55370264997807
  0
LINE
  8
_1-1_
  6
CONTINUOUS
 62
    7
 10
127.76513678048887
 20
209.67870264997804
 11
127.76513678048887
 21
196.92870264997807
  0
LINE
  8
_1-1_
  6
CONTINUOUS
 62
    7
 10
127.76513678048887
 20
184.17870264997807
 11
127.76513678048887
 21
196.92870264997807
  0
LINE
  8
_1-3_
  6
CONTINUOUS
 62
   18
 10
124.01513678048887
 20
195.92870264997807
 11
124.01513678048887
 21
195.67870264997807
  0
LINE
  8
_1-3_
  6
CONTINUOUS
 62
   18
 10
124.01513678048887
 20
198.17870264997807
 11
124.01513678048887
 21
197.92870264997807
  0
LINE
  8
_1-3_
  6
CONTINUOUS
 62
    7
 10
123.26513678048887
 20
183.67870264997807
 11
123.26513678048887
 21
182.17870264997807
  0
LINE
  8
_1-c_
  6
CONTINUOUS
 62
   18
 10
119.9151367804889
 20
198.67870264997807
 11
119.9151367804889
 21
195.17870264997807
  0
LINE
  8
_1-c_
  6
CONTINUOUS
 62
   18
 10
119.9151367804889
 20
198.67870264997807
 11
123.76513678048887
 21
198.80370264997807
  0
LINE
  8
_1-c_
  6
CONTINUOUS
 62
   18
 10
123.76513678048887
 20
198.80370264997807
 11
123.76513678048887
 21
195.05370264997807
  0
LINE
  8
_1-c_
  6
CONTINUOUS
 62
   18
 10
123.76513678048887
 20
195.05370264997807
 11
119.9151367804889
 21
195.17870264997807
  0
LINE
  8
_1-3_
  6
CONTINUOUS
 62
   18
 10
124.01513678048887
 20
197.92870264997807
 11
123.76513678048887
 21
197.92870264997807
  0
LINE
  8
_1-3_
  6
CONTINUOUS
 62
   18
 10
124.01513678048887
 20
195.92870264997807
 11
123.76513678048887
 21
195.92870264997807
  0
LINE
  8
_1-3_
  6
CONTINUOUS
 62
   18
 10
124.26513678048887
 20
198.17870264997807
 11
124.01513678048887
 21
198.17870264997807
  0
LINE
  8
_1-3_
  6
CONTINUOUS
 62
   18
 10
124.26513678048887
 20
195.67870264997807
 11
124.01513678048887
 21
195.67870264997807
  0
LINE
  8
_1-3_
  6
CONTINUOUS
 62
    7
 10
124.26513678048887
 20
183.70501843945174
 11
123.26513678048887
 21
183.67870264997807
  0
LINE
  8
_1-3_
  6
CONTINUOUS
 62
    7
 10
123.26513678048887
 20
182.17870264997807
 11
124.26513678048887
 21
182.15238686050437
  0
LINE
  8
_1-9_
  6
CONTINUOUS
 62
    7
 10
129.35258892464071
 20
177.05245264997824
 11
129.34499912669298
 21
177.05245264997824
  0
ARC
  8
_1-9_
  6
CONTINUOUS
 62
    7
 10
127.1651367804984
 20
177.17870264997509
 40
2.2965323723943424
 50
341.65841042413802
 51
342.27000822997104
  0
LINE
  8
_1-9_
  6
CONTINUOUS
 62
    7
 10
129.34788161211736
 20
176.45370264997814
 11
129.34499912669298
 21
176.45602631225665
  0
LINE
  8
_1-9_
  6
CONTINUOUS
 62
    7
 10
129.34499912669298
 20
177.30495264997807
 11
129.35258892464071
 21
177.30495264997807
  0
LINE
  8
_1-9_
  6
_
 62
    2
 10
128.60575825366254
 20
177.05245264997824
 11
129.34499912669298
 21
177.05245264997824
  0
LINE
  8
_1-9_
  6
_
 62
    2
 10
129.34499912669298
 20
177.30495264997807
 11
128.60575825366254
 21
177.30495264997807
  0
LINE
  8
_1-9_
  6
_
 62
    2
 10
128.60531847662878
 20
177.30509912071374
 11
128.60513678048891
 21
177.30495264997807
  0
LINE
  8
_1-9_
  6
_
 62
    2
 10
128.60513678048891
 20
177.05245264997824
 11
128.60513678048891
 21
177.30495264997807
  0
LINE
  8
_1-9_
  6
_
 62
    2
 10
128.6053184771431
 20
177.05230617855863
 11
128.60513678048891
 21
177.05245264997824
  0
LINE
  8
_1-9_
  6
_
 62
    2
 10
129.34499912669298
 20
176.45602631225665
 11
128.60575825366254
 21
177.05195166087924
  0
LINE
  8
_1-9_
  6
CONTINUOUS
 62
    7
 10
129.34499912669298
 20
177.90137898769967
 11
129.34788161211736
 21
177.90370264997818
  0
ARC
  8
_1-9_
  6
CONTINUOUS
 62
    7
 10
127.16513678049084
 20
177.17870264997873
 40
2.2965323724022219
 50
17.729991770029037
 51
18.341589575862023
  0
LINE
  8
_1-9_
  6
_
 62
    2
 10
128.60575825366254
 20
177.30545363907708
 11
129.34499912669298
 21
177.90137898769967
  0
LINE
  8
_1-9_
  6
CONTINUOUS
 62
    7
 10
128.68644378435124
 20
175.45370264997859
 11
128.68644378435124
 21
178.90370264997818
  0
LINE
  8
_1-9_
  6
CONTINUOUS
 62
    7
 10
128.51513678048894
 20
175.45370264997859
 11
128.51513678048894
 21
178.90370264997818
  0
LINE
  8
_1-9_
  6
CONTINUOUS
 62
    7
 10
128.68644378435124
 20
178.90370264997818
 11
128.51513678048894
 21
178.90370264997818
  0
LINE
  8
_1-9_
  6
CONTINUOUS
 62
    7
 10
128.68644378435124
 20
175.45370264997859
 11
128.51513678048894
 21
175.45370264997859
  0
ARC
  8
_1-9_
  6
CONTINUOUS
 62
    7
 10
127.16513678048907
 20
177.17870264997804
 40
2.2999999999999993
 50
311.40962210926977
 51
1.1681183974255342
  0
ARC
  8
_1-9_
  6
CONTINUOUS
 62
    7
 10
127.16513678048907
 20
177.17870264997804
 40
2.2999999999999998
 50
1.1681183974255404
 51
48.590377890730273
  0
LINE
  8
_1-9_
  6
CONTINUOUS
 62
    7
 10
128.51513678048894
 20
175.70370264997805
 11
128.16513678048892
 21
175.70370264997805
  0
LINE
  8
_1-9_
  6
CONTINUOUS
 62
    7
 10
128.51513678048894
 20
178.65370264997804
 11
128.16513678048892
 21
178.65370264997804
  0
LINE
  8
_1-9_
  6
CONTINUOUS
 62
    7
 10
128.16513678048892
 20
175.70370264997805
 11
128.16513678048892
 21
178.65370264997804
  0
LINE
  8
_1-9_
  6
CONTINUOUS
 62
    7
 10
129.35258892464071
 20
216.5524526499783
 11
129.34499912669298
 21
216.5524526499783
  0
ARC
  8
_1-9_
  6
CONTINUOUS
 62
    7
 10
127.1651367804984
 20
216.67870264997515
 40
2.2965323723943424
 50
341.65841042413802
 51
342.27000822997104
  0
LINE
  8
_1-9_
  6
CONTINUOUS
 62
    7
 10
129.34788161211736
 20
215.95370264997819
 11
129.34499912669298
 21
215.95602631225671
  0
LINE
  8
_1-9_
  6
CONTINUOUS
 62
    7
 10
129.34499912669298
 20
216.80495264997813
 11
129.35258892464071
 21
216.80495264997813
  0
LINE
  8
_1-9_
  6
_
 62
    2
 10
128.60575825366254
 20
216.5524526499783
 11
129.34499912669298
 21
216.5524526499783
  0
LINE
  8
_1-9_
  6
_
 62
    2
 10
129.34499912669298
 20
216.80495264997813
 11
128.60575825366254
 21
216.80495264997813
  0
LINE
  8
_1-9_
  6
_
 62
    2
 10
128.60531847662878
 20
216.8050991207138
 11
128.60513678048891
 21
216.80495264997813
  0
LINE
  8
_1-9_
  6
_
 62
    2
 10
128.60513678048891
 20
216.5524526499783
 11
128.60513678048891
 21
216.80495264997813
  0
LINE
  8
_1-9_
  6
_
 62
    2
 10
128.6053184771431
 20
216.55230617855869
 11
128.60513678048891
 21
216.5524526499783
  0
LINE
  8
_1-9_
  6
_
 62
    2
 10
129.34499912669298
 20
215.95602631225671
 11
128.60575825366254
 21
216.55195166087929
  0
LINE
  8
_1-9_
  6
CONTINUOUS
 62
    7
 10
129.34499912669298
 20
217.40137898769972
 11
129.34788161211736
 21
217.40370264997824
  0
ARC
  8
_1-9_
  6
CONTINUOUS
 62
    7
 10
127.16513678049084
 20
216.67870264997878
 40
2.2965323724022219
 50
17.729991770029037
 51
18.341589575862023
  0
LINE
  8
_1-9_
  6
_
 62
    2
 10
128.60575825366254
 20
216.80545363907714
 11
129.34499912669298
 21
217.40137898769972
  0
LINE
  8
_1-9_
  6
CONTINUOUS
 62
    7
 10
128.68644378435124
 20
214.95370264997865
 11
128.68644378435124
 21
218.40370264997824
  0
LINE
  8
_1-9_
  6
CONTINUOUS
 62
    7
 10
128.51513678048894
 20
214.95370264997865
 11
128.51513678048894
 21
218.40370264997824
  0
LINE
  8
_1-9_
  6
CONTINUOUS
 62
    7
 10
128.68644378435124
 20
218.40370264997824
 11
128.51513678048894
 21
218.40370264997824
  0
LINE
  8
_1-9_
  6
CONTINUOUS
 62
    7
 10
128.68644378435124
 20
214.95370264997865
 11
128.51513678048894
 21
214.95370264997865
  0
ARC
  8
_1-9_
  6
CONTINUOUS
 62
    7
 10
127.16513678048907
 20
216.6787026499781
 40
2.2999999999999993
 50
311.40962210926977
 51
1.1681183974255342
  0
ARC
  8
_1-9_
  6
CONTINUOUS
 62
    7
 10
127.16513678048907
 20
216.6787026499781
 40
2.2999999999999998
 50
1.1681183974255404
 51
48.590377890730273
  0
LINE
  8
_1-9_
  6
CONTINUOUS
 62
    7
 10
128.51513678048894
 20
215.20370264997811
 11
128.16513678048892
 21
215.20370264997811
  0
LINE
  8
_1-9_
  6
CONTINUOUS
 62
    7
 10
128.51513678048894
 20
218.1537026499781
 11
128.16513678048892
 21
218.1537026499781
  0
LINE
  8
_1-9_
  6
CONTINUOUS
 62
    7
 10
128.16513678048892
 20
215.20370264997811
 11
128.16513678048892
 21
218.1537026499781
  0
ARC
  8
_1-3_
  6
CONTINUOUS
 62
    3
 10
124.56513678048888
 20
210.92870264997804
 40
0.75
 50
113.57817847820274
 51
180
  0
ARC
  8
_1-3_
  6
CONTINUOUS
 62
    3
 10
124.56513678048888
 20
210.92870264997804
 40
0.75
 50
180
 51
246.42182152179725
  0
LINE
  8
_1-3_
  6
CONTINUOUS
 62
    3
 10
124.26513678048887
 20
211.6160890042214
 11
124.26513678048887
 21
210.24131629573469
  0
LINE
  8
_1-5_
  6
CONTINUOUS
 62
  150
 10
128.16513678048886
 20
179.42870264997804
 11
128.16513678048886
 21
174.92870264997804
  0
LINE
  8
_1-5_
  6
CONTINUOUS
 62
  150
 10
128.16513678048886
 20
174.92870264997804
 11
127.76513678048887
 21
174.92870264997804
  0
LINE
  8
_1-5_
  6
CONTINUOUS
 62
  150
 10
127.76513678048887
 20
175.42870264997804
 11
128.16513678048886
 21
175.42870264997804
  0
LINE
  8
_1-5_
  6
CONTINUOUS
 62
  150
 10
128.16513678048886
 20
218.92870264997804
 11
127.76513678048887
 21
218.92870264997804
  0
LINE
  8
_1-5_
  6
CONTINUOUS
 62
  150
 10
128.16513678048886
 20
214.42870264997804
 11
128.16513678048886
 21
218.92870264997804
  0
LINE
  8
_1-5_
  6
CONTINUOUS
 62
  150
 10
127.76513678048887
 20
218.42870264997804
 11
128.16513678048886
 21
218.42870264997804
  0
LINE
  8
_1-5_
  6
CONTINUOUS
 62
  150
 10
127.76513678048887
 20
218.92870264997804
 11
127.76513678048887
 21
214.42870264997804
  0
LINE
  8
_1-5_
  6
CONTINUOUS
 62
  150
 10
127.76513678048887
 20
179.42870264997804
 11
127.76513678048887
 21
174.92870264997804
  0
LINE
  8
_1-5_
  6
CONTINUOUS
 62
  150
 10
137.01513678048888
 20
207.17870264997804
 11
136.61513678048885
 21
207.17870264997804
  0
LINE
  8
_1-5_
  6
CONTINUOUS
 62
  150
 10
137.01513678048888
 20
214.42870264997804
 11
137.01513678048888
 21
207.17870264997804
  0
LINE
  8
_1-5_
  6
CONTINUOUS
 62
  150
 10
137.01513678048888
 20
195.57870264997805
 11
136.61513678048885
 21
195.57870264997805
  0
LINE
  8
_1-5_
  6
CONTINUOUS
 62
  150
 10
137.01513678048888
 20
195.57870264997805
 11
137.01513678048888
 21
179.42870264997804
  0
LINE
  8
_1-5_
  6
CONTINUOUS
 62
  150
 10
136.61513678048885
 20
195.57870264997805
 11
136.61513678048885
 21
207.17870264997804
  0
LINE
  8
_1-5_
  6
CONTINUOUS
 62
  150
 10
137.01513678048888
 20
214.42870264997804
 11
127.76513678048887
 21
214.42870264997804
  0
LINE
  8
_1-5_
  6
CONTINUOUS
 62
  150
 10
137.01513678048888
 20
179.42870264997804
 11
127.76513678048887
 21
179.42870264997804
  0
LINE
  8
_1-5_
  6
CONTINUOUS
 62
    3
 10
139.01522305001111
 20
206.7787026499781
 11
139.01522305001111
 21
192.47870264997808
  0
LINE
  8
_1-5_
  6
CONTINUOUS
 62
    3
 10
139.01522305001111
 20
206.7787026499781
 11
136.61513678048885
 21
206.7787026499781
  0
LINE
  8
_1-5_
  6
CONTINUOUS
 62
    3
 10
139.01522305001111
 20
195.97870264997808
 11
136.61513678048891
 21
195.97870264997808
  0
LINE
  8
_1-5_
  6
CONTINUOUS
 62
    3
 10
139.01522305001111
 20
192.47870264997808
 11
137.01513678048888
 21
192.47870264997808
  0
LINE
  8
_1-2_
  6
CONTINUOUS
 62
   18
 10
69.500628219906332
 20
214.1787026499781
 11
69.500628219906332
 21
179.6787026499781
  0
LINE
  8
_1-2_
  6
CONTINUOUS
 62
   18
 10
83.500628219906374
 20
214.1787026499781
 11
69.500628219906332
 21
214.1787026499781
  0
LINE
  8
_1-0_
  6
CONTINUOUS
 62
    7
 10
59.000628219906332
 20
166.9287026499781
 11
94.000628219906374
 21
166.9287026499781
  0
LINE
  8
_1-0_
  6
CONTINUOUS
 62
    7
 10
94.000628219906374
 20
166.9287026499781
 11
94.000628219906374
 21
226.9287026499781
  0
LINE
  8
_1-0_
  6
CONTINUOUS
 62
    7
 10
94.000628219906374
 20
226.9287026499781
 11
59.000628219906332
 21
226.9287026499781
  0
LINE
  8
_1-0_
  6
CONTINUOUS
 62
    7
 10
59.000628219906332
 20
226.9287026499781
 11
59.000628219906332
 21
166.9287026499781
  0
LINE
  8
_1-2_
  6
CONTINUOUS
 62
   18
 10
83.500628219906374
 20
179.6787026499781
 11
83.500628219906374
 21
214.1787026499781
  0
LINE
  8
_1-2_
  6
CONTINUOUS
 62
   18
 10
69.500628219906332
 20
179.6787026499781
 11
83.500628219906374
 21
179.6787026499781
  0
CIRCLE
  8
_1-2_
  6
CENTER2
 62
   18
 10
76.500628219906388
 20
210.9287026499781
 40
0.8750000000000001
  0
CIRCLE
  8
_1-2_
  6
CONTINUOUS
 62
   18
 10
76.500628219906388
 20
182.9287026499781
 40
0.8750000000000001
  0
LINE
  8
_1-0_
  6
CONTINUOUS
 62
    7
 10
83.625628219906374
 20
214.22870264997806
 11
69.375628219906332
 21
214.22870264997806
  0
LINE
  8
_1-0_
  6
CONTINUOUS
 62
    7
 10
69.375628219906332
 20
179.62870264997809
 11
83.625628219906374
 21
179.62870264997809
  0
LINE
  8
_1-0_
  6
CONTINUOUS
 62
    7
 10
69.375628219906332
 20
214.22870264997806
 11
69.375628219906332
 21
179.62870264997809
  0
LINE
  8
_1-0_
  6
CONTINUOUS
 62
    7
 10
83.625628219906374
 20
179.62870264997809
 11
83.625628219906374
 21
214.22870264997806
  0
CIRCLE
  8
_1-3_
  6
DASHED3
 62
    7
 10
76.500628219906388
 20
182.9287026499781
 40
0.75
  0
LINE
  8
_1-3_
  6
CONTINUOUS
 62
    7
 10
76.945441315852008
 20
182.32484727848947
 11
77.104483591394568
 21
182.48388955403203
  0
LINE
  8
_1-3_
  6
CONTINUOUS
 62
    7
 10
76.592857023132978
 20
182.18439502012626
 11
77.24493584975778
 21
182.83647384675106
  0
LINE
  8
_1-3_
  6
CONTINUOUS
 62
    7
 10
76.384134971759408
 20
182.1878050031085
 11
77.241525866775532
 21
183.04519589812463
  0
LINE
  8
_1-3_
  6
CONTINUOUS
 62
    7
 10
76.218135837231898
 20
182.23393790293681
 11
77.195392966947224
 21
183.21119503265214
  0
LINE
  8
_1-3_
  6
CONTINUOUS
 62
    7
 10
76.079895195524272
 20
182.307829295585
 11
77.121501574299031
 21
183.34943567435976
  0
LINE
  8
_1-3_
  6
CONTINUOUS
 62
    7
 10
75.964336177140808
 20
182.40440231155827
 11
77.024928558325768
 21
183.46499469274323
  0
LINE
  8
_1-3_
  6
CONTINUOUS
 62
    7
 10
75.870211127337256
 20
182.52240929611053
 11
76.906921573773502
 21
183.55911974254678
  0
LINE
  8
_1-3_
  6
CONTINUOUS
 62
    7
 10
75.799105851490708
 20
182.6634360546198
 11
76.765894815264232
 21
183.63022501839333
  0
LINE
  8
_1-3_
  6
CONTINUOUS
 62
    7
 10
75.756734050772706
 20
182.83319628825762
 11
76.596134581626415
 21
183.67259681911133
  0
LINE
  8
_1-3_
  6
CONTINUOUS
 62
    7
 10
75.760325720525656
 20
183.04891999236639
 11
76.380410877517647
 21
183.66900514935838
  0
ARC
  8
_1-2_
  6
CONTINUOUS
 62
   18
 10
76.500628219906388
 20
205.1787026499781
 40
0.75
 50
90
 51
180
  0
ARC
  8
_1-2_
  6
CONTINUOUS
 62
   18
 10
76.500628219906388
 20
205.1787026499781
 40
0.75
 50
0
 51
90
  0
ARC
  8
_1-2_
  6
CONTINUOUS
 62
   18
 10
76.500628219906388
 20
188.6787026499781
 40
0.75
 50
180
 51
270
  0
ARC
  8
_1-2_
  6
CONTINUOUS
 62
   18
 10
76.500628219906388
 20
188.6787026499781
 40
0.75
 50
270
 51
0
  0
ARC
  8
_1-c_
  6
CONTINUOUS
 62
   18
 10
76.500628219906388
 20
197.6787026499781
 40
1
 50
90
 51
180
  0
ARC
  8
_1-c_
  6
CONTINUOUS
 62
   18
 10
76.500628219906388
 20
197.6787026499781
 40
1
 50
0
 51
90
  0
LINE
  8
_1-c_
  6
CONTINUOUS
 62
   18
 10
75.500628219906388
 20
196.1787026499781
 11
75.500628219906388
 21
197.6787026499781
  0
ARC
  8
_1-c_
  6
CONTINUOUS
 62
   18
 10
76.500628219906388
 20
196.1787026499781
 40
1
 50
180
 51
270
  0
LINE
  8
_1-c_
  6
CONTINUOUS
 62
   18
 10
77.500628219906388
 20
196.1787026499781
 11
77.500628219906388
 21
197.6787026499781
  0
ARC
  8
_1-c_
  6
CONTINUOUS
 62
   18
 10
76.500628219906388
 20
196.1787026499781
 40
1
 50
270
 51
0
  0
ARC
  8
_1-c_
  6
CONTINUOUS
 62
   18
 10
76.325628219906377
 20
196.0537026499781
 40
1
 50
180
 51
270
  0
LINE
  8
_1-c_
  6
CONTINUOUS
 62
   18
 10
76.675628219906343
 20
195.0537026499781
 11
76.325628219906377
 21
195.0537026499781
  0
ARC
  8
_1-c_
  6
CONTINUOUS
 62
   18
 10
76.675628219906343
 20
196.0537026499781
 40
1
 50
270
 51
0
  0
LINE
  8
_1-c_
  6
CONTINUOUS
 62
   18
 10
77.675628219906343
 20
197.8037026499781
 11
77.675628219906343
 21
196.0537026499781
  0
ARC
  8
_1-c_
  6
CONTINUOUS
 62
   18
 10
76.675628219906343
 20
197.8037026499781
 40
1
 50
0
 51
90
  0
LINE
  8
_1-c_
  6
CONTINUOUS
 62
   18
 10
75.325628219906377
 20
197.8037026499781
 11
75.325628219906377
 21
196.0537026499781
  0
LINE
  8
_1-c_
  6
CONTINUOUS
 62
   18
 10
76.325628219906377
 20
198.8037026499781
 11
76.675628219906343
 21
198.8037026499781
  0
ARC
  8
_1-c_
  6
CONTINUOUS
 62
   18
 10
76.325628219906377
 20
197.8037026499781
 40
1
 50
90
 51
180
  0
LINE
  8
_1-f_
  6
CONTINUOUS
 62
   18
 10
45.106435573407452
 20
166.9287026499781
 11
44.329978438099828
 21
169.8264801288453
  0
LINE
  8
_1-f_
  6
CONTINUOUS
 62
   18
 10
45.106435573407452
 20
166.9287026499781
 11
45.882892708714962
 21
169.8264801288453
  0
LINE
  8
_1-f_
  6
CONTINUOUS
 62
   18
 10
45.106435573407452
 20
226.9287026499781
 11
45.882892708714962
 21
224.03092517111088
  0
LINE
  8
_1-f_
  6
CONTINUOUS
 62
   18
 10
45.106435573407452
 20
226.9287026499781
 11
44.329978438099828
 21
224.03092517111088
  0
LINE
  8
_1-f_
  6
CONTINUOUS
 62
   18
 10
44.606435573407452
 20
166.9287026499781
 11
58.053793937790715
 21
166.9287026499781
  0
LINE
  8
_1-f_
  6
CONTINUOUS
 62
   18
 10
44.606435573407452
 20
226.9287026499781
 11
58.053793937790715
 21
226.9287026499781
  0
LINE
  8
_1-7_
  6
CONTINUOUS
 62
   18
 10
76.807185795613577
 20
183.12862244476582
 11
98.9256468524283
 21
187.87704894148109
  0
LINE
  8
_1-7_
  6
CONTINUOUS
 62
   18
 10
76.807185795613577
 20
196.61099561759471
 11
98.022066287053505
 21
201.14838849542312
  0
LINE
  8
_1-7_
  6
CONTINUOUS
 62
   18
 10
76.807185795613577
 20
211.31055619962751
 11
99.988245708091071
 21
216.51668886802269
  0
LINE
  8
_1-2_
  6
CONTINUOUS
 62
   18
 10
75.750628219906388
 20
188.6787026499781
 11
75.750628219906388
 21
195.23554924138039
  0
LINE
  8
_1-2_
  6
CONTINUOUS
 62
   18
 10
75.750628219906388
 20
198.62185605857578
 11
75.750628219906388
 21
205.1787026499781
  0
LINE
  8
_1-2_
  6
CONTINUOUS
 62
   18
 10
77.250628219906388
 20
188.6787026499781
 11
77.250628219906388
 21
195.23554924138045
  0
LINE
  8
_1-2_
  6
CONTINUOUS
 62
   18
 10
77.250628219906388
 20
198.62185605857575
 11
77.250628219906388
 21
205.1787026499781
  0
TEXT
  8
_1-7_
 62
    3
 10
107.23077237915008
 20
231.19804580504097
 40
6
 41
1
 50
0
  1
①
  0
LINE
  8
_1-7_
  6
CONTINUOUS
 62
   18
 10
89.580012849198894
 20
222.18304628273276
 11
106.5753792388043
 21
232.88334245164458
  0
TEXT
  8
_1-7_
 62
    3
 10
100.38429098548367
 20
214.59449475136847
 40
6
 41
1
 50
0
  1
②
  0
TEXT
  8
_1-7_
 62
    3
 10
98.739120449513492
 20
199.06568993623523
 40
6
 41
1
 50
0
  1
③
  0
TEXT
  8
_1-7_
 62
    3
 10
99.173076905252727
 20
185.9934947832146
 40
6
 41
1
 50
0
  1
④
  0
CIRCLE
  8
_1-3_
  6
DASHED2
 62
    3
 10
76.500628219906388
 20
210.9287026499781
 40
0.75
  0
LINE
  8
_1-3_
  6
CONTINUOUS
 62
    3
 10
76.940152223252766
 20
210.32098672087727
 11
77.108344149007621
 21
210.48917864663212
  0
LINE
  8
_1-3_
  6
CONTINUOUS
 62
    3
 10
76.591228503065281
 20
210.1841950350456
 11
77.245135834837924
 21
210.83810236681824
  0
LINE
  8
_1-3_
  6
CONTINUOUS
 62
    3
 10
76.382901440585214
 20
210.18800000692135
 11
77.241330862962172
 21
211.04642942929831
  0
LINE
  8
_1-3_
  6
CONTINUOUS
 62
    3
 10
76.217120858559496
 20
210.23435145925145
 11
77.194979410632072
 21
211.21221001132403
  0
LINE
  8
_1-3_
  6
CONTINUOUS
 62
    3
 10
76.079044192254173
 20
210.30840682730195
 11
77.120924042581577
 21
211.35028667762935
  0
LINE
  8
_1-3_
  6
CONTINUOUS
 62
    3
 10
75.96363046669137
 20
210.40512513609587
 11
77.024205733787653
 21
211.46570040319215
  0
LINE
  8
_1-3_
  6
CONTINUOUS
 62
    3
 10
75.86965179074366
 20
210.52327849450398
 11
76.906052375379545
 21
211.55967907913986
  0
LINE
  8
_1-3_
  6
CONTINUOUS
 62
    3
 10
75.798714527057995
 20
210.66447326517413
 11
76.764857604709391
 21
211.63061634282553
  0
LINE
  8
_1-3_
  6
CONTINUOUS
 62
    3
 10
75.756572484849243
 20
210.8344632573212
 11
76.594867612563689
 21
211.67275838503564
  0
LINE
  8
_1-3_
  6
CONTINUOUS
 62
    3
 10
75.760605088879742
 20
211.05062789570752
 11
76.378702974176007
 21
211.66872578100378
  0
LINE
  8
_1-f_
  6
CONTINUOUS
 62
   18
 10
45.106435573407452
 20
166.9287026499781
 11
45.106435573407452
 21
226.9287026499781
  0
TEXT
  8
_1-f_
 62
    7
 10
44.606435573407452
 20
193.6787026499781
 40
4
 41
1
 50
90
  1
120
  0
LINE
  8
_1-0_
  6
CONTINUOUS
 62
    7
 10
94.00062821990636
 20
142.49281137647301
 11
94.00062821990636
 21
145.99281137647301
  0
LINE
  8
_1-0_
  6
CONTINUOUS
 62
    7
 10
94.00062821990636
 20
145.99281137647301
 11
59.00062821990636
 21
145.99281137647301
  0
LINE
  8
_1-0_
  6
CONTINUOUS
 62
    7
 10
59.00062821990636
 20
142.49281137647301
 11
59.00062821990636
 21
145.99281137647301
  0
LINE
  8
_1-0_
  6
CONTINUOUS
 62
    7
 10
94.00062821990636
 20
142.49281137647301
 11
59.00062821990636
 21
142.49281137647301
  0
LINE
  8
_1-4_
  6
CONTINUOUS
 62
  150
 10
86.00062821990636
 20
142.09281137647303
 11
86.00062821990636
 21
142.49281137647301
  0
LINE
  8
_1-4_
  6
CONTINUOUS
 62
  150
 10
80.00062821990636
 20
142.09281137647303
 11
80.00062821990636
 21
142.49281137647301
  0
LINE
  8
_1-4_
  6
CONTINUOUS
 62
  150
 10
86.00062821990636
 20
142.09281137647303
 11
80.00062821990636
 21
142.09281137647303
  0
LINE
  8
_1-4_
  6
CONTINUOUS
 62
  150
 10
85.50062821990636
 20
142.09281137647303
 11
85.50062821990636
 21
142.49281137647301
  0
LINE
  8
_1-4_
  6
CONTINUOUS
 62
  150
 10
80.50062821990636
 20
142.09281137647303
 11
80.50062821990636
 21
142.49281137647301
  0
LINE
  8
_1-3_
  6
CONTINUOUS
 62
    3
 10
69.75062821990636
 20
134.74281137647301
 11
69.75062821990636
 21
139.69281137647303
  0
LINE
  8
_1-3_
  6
CONTINUOUS
 62
    3
 10
69.75062821990636
 20
134.74281137647301
 11
73.25062821990636
 21
134.74281137647301
  0
LINE
  8
_1-3_
  6
CONTINUOUS
 62
    3
 10
73.25062821990636
 20
134.74281137647301
 11
73.25062821990636
 21
139.69281137647303
  0
LINE
  8
_1-4_
  6
CONTINUOUS
 62
  150
 10
73.600628219906326
 20
139.99281137647304
 11
69.400628219906337
 21
139.99281137647304
  0
LINE
  8
_1-c_
  6
CONTINUOUS
 62
   18
 10
77.675628219906371
 20
146.49281137647301
 11
77.50062821990636
 21
150.34281137647303
  0
LINE
  8
_1-c_
  6
CONTINUOUS
 62
   18
 10
77.50062821990636
 20
150.34281137647303
 11
75.50062821990636
 21
150.34281137647303
  0
LINE
  8
_1-c_
  6
CONTINUOUS
 62
   18
 10
75.325628219906349
 20
146.49281137647301
 11
75.50062821990636
 21
150.34281137647303
  0
LINE
  8
_1-3_
  6
CONTINUOUS
 62
    7
 10
72.50062821990636
 20
137.73031137647302
 11
71.75062821990636
 21
137.73031137647302
  0
LINE
  8
_1-3_
  6
CONTINUOUS
 62
    7
 10
71.75062821990636
 20
137.73031137647302
 11
71.75062821990636
 21
135.98031137647302
  0
LINE
  8
_1-3_
  6
CONTINUOUS
 62
    7
 10
71.75062821990636
 20
135.98031137647302
 11
72.50062821990636
 21
135.98031137647302
  0
LINE
  8
_1-3_
  6
CONTINUOUS
 62
    7
 10
72.50062821990636
 20
135.98031137647302
 11
72.50062821990636
 21
137.73031137647302
  0
LINE
  8
_1-3_
  6
CONTINUOUS
 62
    7
 10
71.25062821990636
 20
137.73031137647302
 11
70.50062821990636
 21
137.73031137647302
  0
LINE
  8
_1-3_
  6
CONTINUOUS
 62
    7
 10
70.50062821990636
 20
137.73031137647302
 11
70.50062821990636
 21
135.98031137647302
  0
LINE
  8
_1-3_
  6
CONTINUOUS
 62
    7
 10
70.50062821990636
 20
135.98031137647302
 11
71.25062821990636
 21
135.98031137647302
  0
LINE
  8
_1-3_
  6
CONTINUOUS
 62
    7
 10
71.25062821990636
 20
135.98031137647302
 11
71.25062821990636
 21
137.73031137647302
  0
TEXT
  8
_1-3_
 62
    7
 10
72.103369016974369
 20
135.87002978331264
 40
1
 41
1
 50
180
  1
ON
  0
TEXT
  8
_1-3_
 62
    7
 10
72.441551216880696
 20
139.69571591975324
 40
1.5
 41
1
 50
180
  1
1
  0
LINE
  8
_1-3_
  6
CONTINUOUS
 62
    7
 10
72.50062821990636
 20
136.98031137647302
 11
71.75062821990636
 21
136.98031137647302
  0
LINE
  8
_1-3_
  6
CONTINUOUS
 62
    7
 10
71.25062821990636
 20
136.98031137647302
 11
70.50062821990636
 21
136.98031137647302
  0
TEXT
  8
_1-3_
 62
    7
 10
71.194504354726035
 20
139.687386128154
 40
1.5
 41
1
 50
180
  1
2
  0
LINE
  8
_1-3_
  6
CONTINUOUS
 62
    7
 10
75.75062821990636
 20
146.99281137647295
 11
77.25062821990636
 21
146.99281137647295
  0
LINE
  8
_1-3_
  6
CONTINUOUS
 62
    3
 10
69.75062821990636
 20
134.74281137647301
 11
69.75062821990636
 21
139.69281137647303
  0
LINE
  8
_1-3_
  6
CONTINUOUS
 62
    3
 10
69.75062821990636
 20
134.74281137647301
 11
73.25062821990636
 21
134.74281137647301
  0
LINE
  8
_1-3_
  6
CONTINUOUS
 62
    3
 10
73.25062821990636
 20
134.74281137647301
 11
73.25062821990636
 21
139.69281137647303
  0
LINE
  8
_1-3_
  6
CONTINUOUS
 62
    3
 10
81.25062821990636
 20
131.24281137647301
 11
87.75062821990636
 21
131.24281137647301
  0
LINE
  8
_1-3_
  6
CONTINUOUS
 62
    3
 10
65.25062821990636
 20
131.24281137647301
 11
71.75062821990636
 21
131.24281137647301
  0
LINE
  8
_1-3_
  6
CONTINUOUS
 62
    7
 10
77.25062821990636
 20
146.99281137647295
 11
77.276944009380059
 21
145.99281137647301
  0
LINE
  8
_1-3_
  6
CONTINUOUS
 62
    7
 10
75.724312430432661
 20
145.99281137647301
 11
75.75062821990636
 21
146.99281137647295
  0
LINE
  8
_1-3_
  6
CONTINUOUS
 62
    7
 10
69.400628219906337
 20
139.69281137647303
 11
73.600628219906326
 21
139.69281137647303
  0
LINE
  8
_1-4_
  6
CONTINUOUS
 62
  150
 10
88.50062821990636
 20
142.49281137647301
 11
64.50062821990636
 21
142.49281137647301
  0
LINE
  8
_1-9_
  6
CONTINUOUS
 62
    7
 10
83.12687821990616
 20
140.90535923232127
 11
83.12687821990616
 21
140.912949030269
  0
ARC
  8
_1-9_
  6
CONTINUOUS
 62
    7
 10
83.000628219909316
 20
143.09281137646357
 40
2.2965323723943424
 50
287.72999177002895
 51
288.34158957586197
  0
LINE
  8
_1-9_
  6
CONTINUOUS
 62
    7
 10
83.725628219906269
 20
140.91006654484462
 11
83.723304557627756
 21
140.912949030269
  0
LINE
  8
_1-9_
  6
CONTINUOUS
 62
    7
 10
82.874378219906333
 20
140.912949030269
 11
82.874378219906333
 21
140.90535923232127
  0
LINE
  8
_1-9_
  6
_
 62
    2
 10
83.12687821990616
 20
141.65218990329944
 11
83.12687821990616
 21
140.912949030269
  0
LINE
  8
_1-9_
  6
_
 62
    2
 10
82.874378219906333
 20
140.912949030269
 11
82.874378219906333
 21
141.65218990329944
  0
LINE
  8
_1-9_
  6
_
 62
    2
 10
82.874231749170661
 20
141.6526296803332
 11
82.874378219906333
 21
141.65281137647306
  0
LINE
  8
_1-9_
  6
_
 62
    2
 10
83.12687821990616
 20
141.65281137647306
 11
82.874378219906333
 21
141.65281137647306
  0
LINE
  8
_1-9_
  6
_
 62
    2
 10
83.127024691325772
 20
141.65262967981888
 11
83.12687821990616
 21
141.65281137647306
  0
LINE
  8
_1-9_
  6
_
 62
    2
 10
83.723304557627756
 20
140.912949030269
 11
83.127379209005169
 21
141.65218990329944
  0
LINE
  8
_1-9_
  6
CONTINUOUS
 62
    7
 10
82.277951882184737
 20
140.912949030269
 11
82.275628219906224
 21
140.91006654484462
  0
ARC
  8
_1-9_
  6
CONTINUOUS
 62
    7
 10
83.000628219905678
 20
143.09281137647113
 40
2.2965323724022219
 50
251.65841042413799
 51
252.27000822997101
  0
LINE
  8
_1-9_
  6
_
 62
    2
 10
82.873877230807323
 20
141.65218990329944
 11
82.277951882184737
 21
140.912949030269
  0
LINE
  8
_1-9_
  6
CONTINUOUS
 62
    7
 10
84.725628219905814
 20
141.57150437261074
 11
81.275628219906224
 21
141.57150437261074
  0
LINE
  8
_1-9_
  6
CONTINUOUS
 62
    7
 10
84.725628219905814
 20
141.74281137647304
 11
81.275628219906224
 21
141.74281137647304
  0
LINE
  8
_1-9_
  6
CONTINUOUS
 62
    7
 10
81.275628219906224
 20
141.57150437261074
 11
81.275628219906224
 21
141.74281137647304
  0
LINE
  8
_1-9_
  6
CONTINUOUS
 62
    7
 10
84.725628219905814
 20
141.57150437261074
 11
84.725628219905814
 21
141.74281137647304
  0
ARC
  8
_1-9_
  6
CONTINUOUS
 62
    7
 10
83.00062821990636
 20
143.09281137647289
 40
2.2999999999999993
 50
268.83188160257446
 51
318.59037789073016
  0
ARC
  8
_1-9_
  6
CONTINUOUS
 62
    7
 10
83.00062821990636
 20
143.09281137647289
 40
2.2999999999999998
 50
221.40962210926974
 51
268.83188160257446
  0
LINE
  8
_1-9_
  6
CONTINUOUS
 62
    7
 10
84.475628219906326
 20
141.74281137647304
 11
84.475628219906326
 21
142.09281137647303
  0
LINE
  8
_1-9_
  6
CONTINUOUS
 62
    7
 10
81.525628219906337
 20
141.74281137647304
 11
81.525628219906337
 21
142.09281137647303
  0
LINE
  8
_1-c_
  6
CONTINUOUS
 62
   18
 10
77.675628219906371
 20
146.49281137647301
 11
77.263786114643181
 21
146.49281137647301
  0
LINE
  8
_1-c_
  6
CONTINUOUS
 62
   18
 10
75.737470325169482
 20
146.49281137647301
 11
75.325628219906349
 21
146.49281137647301
  0
LINE
  8
_1-9_
  6
CONTINUOUS
 62
    7
 10
84.475628219906326
 20
142.09281137647303
 11
81.525628219906337
 21
142.09281137647303
  0
LINE
  8
_1-4_
  6
CONTINUOUS
 62
  150
 10
73.600628219906326
 20
133.64281137647301
 11
69.400628219906337
 21
133.64281137647301
  0
LINE
  8
_1-4_
  6
CONTINUOUS
 62
  150
 10
73.600628219906326
 20
133.24281137647301
 11
73.600628219906326
 21
139.99281137647304
  0
LINE
  8
_1-4_
  6
CONTINUOUS
 62
  150
 10
69.400628219906337
 20
139.99281137647304
 11
69.400628219906337
 21
133.24281137647301
  0
LINE
  8
_1-4_
  6
CONTINUOUS
 62
  150
 10
88.50062821990636
 20
133.24281137647301
 11
64.50062821990636
 21
133.24281137647301
  0
LINE
  8
_1-4_
  6
CONTINUOUS
 62
  150
 10
88.50062821990636
 20
133.24281137647301
 11
88.50062821990636
 21
142.49281137647301
  0
LINE
  8
_1-4_
  6
CONTINUOUS
 62
  150
 10
64.50062821990636
 20
133.24281137647301
 11
64.50062821990636
 21
142.49281137647301
  0
LINE
  8
_1-3_
  6
CONTINUOUS
 62
    3
 10
87.75062821990636
 20
131.24281137647301
 11
87.75062821990636
 21
133.24281137647301
  0
LINE
  8
_1-3_
  6
CONTINUOUS
 62
    3
 10
81.25062821990636
 20
131.24281137647301
 11
81.25062821990636
 21
133.24281137647301
  0
LINE
  8
_1-3_
  6
CONTINUOUS
 62
    3
 10
71.75062821990636
 20
131.24281137647301
 11
71.75062821990636
 21
133.24281137647301
  0
LINE
  8
_1-3_
  6
CONTINUOUS
 62
    3
 10
71.75062821990636
 20
133.64281137647301
 11
71.75062821990636
 21
134.74281137647301
  0
LINE
  8
_1-3_
  6
CONTINUOUS
 62
    3
 10
65.25062821990636
 20
131.24281137647301
 11
65.25062821990636
 21
133.24281137647301
  0
LINE
  8
_1-f_
  6
CONTINUOUS
 62
   18
 10
59.000628219906332
 20
245.61883449632421
 11
61.898405698773558
 21
246.39529163163177
  0
LINE
  8
_1-f_
  6
CONTINUOUS
 62
   18
 10
59.000628219906332
 20
245.61883449632421
 11
61.898405698773558
 21
244.84237736101664
  0
LINE
  8
_1-f_
  6
CONTINUOUS
 62
   18
 10
94.000628219906374
 20
245.61883449632421
 11
91.102850741039091
 21
244.84237736101664
  0
LINE
  8
_1-f_
  6
CONTINUOUS
 62
   18
 10
94.000628219906374
 20
245.61883449632421
 11
91.102850741039091
 21
246.39529163163177
  0
LINE
  8
_1-f_
  6
CONTINUOUS
 62
   18
 10
59.000628219906332
 20
246.11883449632421
 11
59.000628219906332
 21
227.68222811250399
  0
LINE
  8
_1-f_
  6
CONTINUOUS
 62
   18
 10
94.000628219906374
 20
246.11883449632421
 11
94.000628219906374
 21
227.68222811250399
  0
LINE
  8
_1-f_
  6
CONTINUOUS
 62
   18
 10
59.000628219906332
 20
245.61883449632421
 11
94.000628219906374
 21
245.61883449632421
  0
TEXT
  8
_1-f_
 62
    7
 10
74.37562821990636
 20
246.11883449632421
 40
4
 41
1
 50
0
  1
70
  0
LINE
  8
_1-f_
  6
CONTINUOUS
 62
   18
 10
124.26513678048887
 20
235.34335318648408
 11
119.26513678048887
 21
235.34335318648408
  0
LINE
  8
_1-f_
  6
CONTINUOUS
 62
   18
 10
127.76513678048887
 20
235.34335318648408
 11
132.76513678048888
 21
235.34335318648408
  0
LINE
  8
_1-f_
  6
CONTINUOUS
 62
   18
 10
124.26513678048887
 20
235.34335318648408
 11
127.76513678048887
 21
235.34335318648408
  0
LINE
  8
_1-f_
  6
CONTINUOUS
 62
   18
 10
124.26513678048887
 20
235.34335318648408
 11
121.36735930162166
 21
234.56689605117651
  0
LINE
  8
_1-f_
  6
CONTINUOUS
 62
   18
 10
124.26513678048887
 20
235.34335318648408
 11
121.36735930162166
 21
236.11981032179164
  0
LINE
  8
_1-f_
  6
CONTINUOUS
 62
   18
 10
127.76513678048887
 20
235.34335318648408
 11
130.66291425935608
 21
236.11981032179164
  0
LINE
  8
_1-f_
  6
CONTINUOUS
 62
   18
 10
127.76513678048887
 20
235.34335318648408
 11
130.66291425935608
 21
234.56689605117651
  0
LINE
  8
_1-f_
  6
CONTINUOUS
 62
   18
 10
124.26513678048887
 20
235.84335318648408
 11
124.26513678048887
 21
227.39838328106708
  0
LINE
  8
_1-f_
  6
CONTINUOUS
 62
   18
 10
127.76513678048887
 20
235.84335318648408
 11
127.76513678048887
 21
227.39838328106708
  0
TEXT
  8
_1-f_
 62
    7
 10
125.01513678048887
 20
235.84335318648408
 40
4
 41
1
 50
0
  1
7
  0
LINE
  8
_1-f_
  6
CONTINUOUS
 62
   18
 10
127.76513678048887
 20
235.34335318648408
 11
130.66291425935608
 21
236.11981032179164
  0
LINE
  8
_1-f_
  6
CONTINUOUS
 62
   18
 10
127.76513678048887
 20
235.34335318648408
 11
130.66291425935608
 21
234.56689605117651
  0
LINE
  8
_1-f_
  6
CONTINUOUS
 62
   18
 10
139.01522305001111
 20
235.34335318648408
 11
136.11744557114388
 21
234.56689605117651
  0
LINE
  8
_1-f_
  6
CONTINUOUS
 62
   18
 10
139.01522305001111
 20
235.34335318648408
 11
136.11744557114388
 21
236.11981032179164
  0
LINE
  8
_1-f_
  6
CONTINUOUS
 62
   18
 10
139.01522305001111
 20
235.84335318648408
 11
139.01522305001111
 21
208.54741957323261
  0
LINE
  8
_1-f_
  6
CONTINUOUS
 62
   18
 10
119.9151367804889
 20
246.11883449632421
 11
139.01522305001111
 21
246.11883449632421
  0
LINE
  8
_1-f_
  6
CONTINUOUS
 62
   18
 10
119.9151367804889
 20
246.11883449632421
 11
122.81291425935611
 21
246.89529163163177
  0
LINE
  8
_1-f_
  6
CONTINUOUS
 62
   18
 10
119.9151367804889
 20
246.11883449632421
 11
122.81291425935611
 21
245.34237736101664
  0
LINE
  8
_1-f_
  6
CONTINUOUS
 62
   18
 10
139.01522305001111
 20
246.11883449632421
 11
136.11744557114388
 21
245.34237736101664
  0
LINE
  8
_1-f_
  6
CONTINUOUS
 62
   18
 10
139.01522305001111
 20
246.11883449632421
 11
136.11744557114388
 21
246.89529163163177
  0
LINE
  8
_1-f_
  6
CONTINUOUS
 62
   18
 10
139.01522305001111
 20
246.61883449632421
 11
139.01522305001111
 21
208.54741957323261
  0
TEXT
  8
_1-f_
 62
    7
 10
125.09017991525
 20
246.61883449632421
 40
4
 41
1
 50
0
  1
38.2
  0
LINE
  8
_1-f_
  6
CONTINUOUS
 62
   18
 10
119.9151367804889
 20
246.61883449632421
 11
119.9151367804889
 21
199.70996478849741
  0
LINE
  8
_1-f_
  6
CONTINUOUS
 62
   18
 10
151.55511799091183
 20
166.92870264997804
 11
151.55511799091183
 21
179.42870264997804
  0
LINE
  8
_1-f_
  6
CONTINUOUS
 62
   18
 10
151.55511799091183
 20
166.92870264997804
 11
150.77866085560427
 21
169.82648012884524
  0
LINE
  8
_1-f_
  6
CONTINUOUS
 62
   18
 10
151.55511799091183
 20
166.92870264997804
 11
152.3315751262194
 21
169.82648012884524
  0
LINE
  8
_1-f_
  6
CONTINUOUS
 62
   18
 10
151.55511799091183
 20
179.42870264997804
 11
152.3315751262194
 21
176.53092517111085
  0
LINE
  8
_1-f_
  6
CONTINUOUS
 62
   18
 10
151.55511799091183
 20
179.42870264997804
 11
150.77866085560427
 21
176.53092517111085
  0
LINE
  8
_1-f_
  6
CONTINUOUS
 62
   18
 10
152.05511799091183
 20
166.92870264997804
 11
129.084496036197
 21
166.92870264997804
  0
LINE
  8
_1-f_
  6
CONTINUOUS
 62
   18
 10
152.05511799091183
 20
179.42870264997804
 11
129.084496036197
 21
179.42870264997804
  0
TEXT
  8
_1-f_
 62
    7
 10
151.05511799091183
 20
171.05370264997804
 40
4
 41
1
 50
90
  1
25
  0
LINE
  8
_1-f_
  6
CONTINUOUS
 62
   18
 10
151.55511799091183
 20
179.42870264997804
 11
151.55511799091183
 21
174.42870264997804
  0
LINE
  8
_1-f_
  6
CONTINUOUS
 62
   18
 10
151.55511799091183
 20
214.42870264997804
 11
151.55511799091183
 21
219.42870264997804
  0
LINE
  8
_1-f_
  6
CONTINUOUS
 62
   18
 10
151.55511799091183
 20
179.42870264997804
 11
151.55511799091183
 21
214.42870264997804
  0
LINE
  8
_1-f_
  6
CONTINUOUS
 62
   18
 10
151.55511799091183
 20
179.42870264997804
 11
152.3315751262194
 21
176.53092517111085
  0
LINE
  8
_1-f_
  6
CONTINUOUS
 62
   18
 10
151.55511799091183
 20
179.42870264997804
 11
150.7786608556043
 21
176.53092517111085
  0
LINE
  8
_1-f_
  6
CONTINUOUS
 62
   18
 10
151.55511799091183
 20
214.42870264997804
 11
150.7786608556043
 21
217.32648012884524
  0
LINE
  8
_1-f_
  6
CONTINUOUS
 62
   18
 10
151.55511799091183
 20
214.42870264997804
 11
152.3315751262194
 21
217.32648012884524
  0
LINE
  8
_1-f_
  6
CONTINUOUS
 62
   18
 10
152.05511799091183
 20
214.42870264997804
 11
129.084496036197
 21
214.42870264997804
  0
TEXT
  8
_1-f_
 62
    7
 10
151.05511799091183
 20
194.80370264997804
 40
4
 41
1
 50
90
  1
70
  0
LINE
  8
_1-f_
  6
CONTINUOUS
 62
   18
 10
151.55511799091183
 20
214.42870264997804
 11
151.55511799091183
 21
226.92870264997804
  0
LINE
  8
_1-f_
  6
CONTINUOUS
 62
   18
 10
151.55511799091183
 20
214.42870264997804
 11
150.7786608556043
 21
217.32648012884524
  0
LINE
  8
_1-f_
  6
CONTINUOUS
 62
   18
 10
151.55511799091183
 20
214.42870264997804
 11
152.3315751262194
 21
217.32648012884524
  0
LINE
  8
_1-f_
  6
CONTINUOUS
 62
   18
 10
151.55511799091183
 20
226.92870264997804
 11
152.3315751262194
 21
224.03092517111085
  0
LINE
  8
_1-f_
  6
CONTINUOUS
 62
   18
 10
151.55511799091183
 20
226.92870264997804
 11
150.7786608556043
 21
224.03092517111085
  0
LINE
  8
_1-f_
  6
CONTINUOUS
 62
   18
 10
152.05511799091183
 20
226.92870264997804
 11
129.084496036197
 21
226.92870264997804
  0
TEXT
  8
_1-f_
 62
    7
 10
151.05511799091183
 20
218.55370264997804
 40
4
 41
1
 50
90
  1
25
  0
LINE
  8
_1-f_
  6
CONTINUOUS
 62
   18
 10
119.9151367804889
 20
155.30007076268515
 11
114.9151367804889
 21
155.30007076268515
  0
LINE
  8
_1-f_
  6
CONTINUOUS
 62
   18
 10
119.9151367804889
 20
155.30007076268515
 11
127.76513678048887
 21
155.30007076268515
  0
LINE
  8
_1-f_
  6
CONTINUOUS
 62
   18
 10
119.9151367804889
 20
155.30007076268515
 11
117.01735930162169
 21
154.52361362737758
  0
LINE
  8
_1-f_
  6
CONTINUOUS
 62
   18
 10
119.9151367804889
 20
155.30007076268515
 11
117.01735930162169
 21
156.07652789799271
  0
LINE
  8
_1-f_
  6
CONTINUOUS
 62
   18
 10
127.76513678048887
 20
155.30007076268515
 11
130.66291425935608
 21
156.07652789799271
  0
LINE
  8
_1-f_
  6
CONTINUOUS
 62
   18
 10
127.76513678048887
 20
155.30007076268515
 11
130.66291425935608
 21
154.52361362737758
  0
LINE
  8
_1-f_
  6
CONTINUOUS
 62
   18
 10
127.76513678048887
 20
154.80007076268515
 11
127.76513678048887
 21
166.37487729750893
  0
LINE
  8
_1-f_
  6
CONTINUOUS
 62
   18
 10
119.9151367804889
 20
154.80007076268515
 11
119.9151367804889
 21
194.05366934143094
  0
TEXT
  8
_1-f_
 62
    7
 10
131.79498155697947
 20
155.80007076268515
 40
4
 41
1
 50
0
  1
15.7
  0
LINE
  8
_1-f_
  6
CONTINUOUS
 62
   18
 10
127.76513678048887
 20
155.30007076268515
 11
141.5201296414354
 21
155.30007076268515
  0
LINE
  8
_1-f_
  6
CONTINUOUS
 62
   18
 10
139.01522305001111
 20
220.93589446256731
 11
139.01522305001111
 21
215.19274933980057
  0
LINE
  8
_1-f_
  6
CONTINUOUS
 62
   18
 10
64.50062821990636
 20
120.25355947231851
 11
64.50062821990636
 21
132.63396933187709
  0
LINE
  8
_1-f_
  6
CONTINUOUS
 62
   18
 10
88.500628219906388
 20
120.25355947231851
 11
88.500628219906388
 21
132.63396933187709
  0
LINE
  8
_1-7_
  6
CONTINUOUS
 62
   18
 10
70.306686990438379
 20
136.20581959063355
 11
58.748698107548563
 21
123.88390826885905
  0
LINE
  8
_1-f_
  6
CONTINUOUS
 62
   18
 10
127.76513678048887
 20
220.93589446256731
 11
127.76513678048887
 21
215.20370264997811
  0
LINE
  8
_1-e_
  6
CONTINUOUS
 62
    7
 10
106.01425608437328
 20
140.11860697193679
 11
103.76426371376781
 21
135.61860506458816
  0
LINE
  8
_1-e_
  6
CONTINUOUS
 62
    7
 10
103.76426371376781
 20
135.61860506458816
 11
108.26425608437328
 21
135.61860506458816
  0
LINE
  8
_1-e_
  6
CONTINUOUS
 62
    7
 10
106.01425608437328
 20
140.11860697193679
 11
108.26425608437328
 21
135.61860506458816
  0
TEXT
  8
_1-e_
 62
    7
 10
105.39831980507641
 20
135.85320227070388
 40
3
 41
1
 50
0
  1
1
  0
LINE
  8
_1-a_
  6
CONTINUOUS
 62
   18
 10
101.28837135510045
 20
133.24281137647301
 11
100.51191421979288
 21
136.14058885534021
  0
LINE
  8
_1-a_
  6
CONTINUOUS
 62
   18
 10
101.28837135510045
 20
133.24281137647301
 11
102.06482849040801
 21
136.14058885534021
  0
LINE
  8
_1-a_
  6
CONTINUOUS
 62
   18
 10
101.28837135510045
 20
142.49281137647301
 11
102.06482849040801
 21
139.59503389760581
  0
LINE
  8
_1-a_
  6
CONTINUOUS
 62
   18
 10
101.28837135510045
 20
142.49281137647301
 11
100.51191421979288
 21
139.59503389760581
  0
LINE
  8
_1-a_
  6
CONTINUOUS
 62
   18
 10
101.78837135510045
 20
133.24281137647301
 11
89.0404403887932
 21
133.24281137647301
  0
LINE
  8
_1-a_
  6
CONTINUOUS
 62
   18
 10
101.78837135510045
 20
142.49281137647301
 11
89.0404403887932
 21
142.49281137647301
  0
TEXT
  8
_1-a_
 62
    7
 10
100.78837135510045
 20
122.75213564534595
 40
4
 41
1
 50
90
  1
18.5
  0
LINE
  8
_1-a_
  6
CONTINUOUS
 62
   18
 10
101.28837135510045
 20
122.01328576795351
 11
101.28837135510045
 21
142.49281137647301
  0
TEXT
  8
_1-f_
 62
    7
 10
140.88166065863129
 20
235.84335318648408
 40
4
 41
1
 50
0
  1
22.5
  0
LINE
  8
_1-f_
  6
CONTINUOUS
 62
   18
 10
127.76513678048887
 20
235.34335318648408
 11
151.31570336427759
 21
235.34335318648408
  0
LINE
  8
_1-f_
  6
CENTER2
 62
   18
 10
201.90896118692302
 20
176.0537026499781
 11
207.91202549131529
 21
176.0537026499781
  0
LINE
  8
_1-f_
  6
CONTINUOUS
 62
   18
 10
170.92797464056025
 20
179.42870264997813
 11
170.15151750525268
 21
182.32648012884533
  0
LINE
  8
_1-f_
  6
CONTINUOUS
 62
   18
 10
170.92797464056025
 20
179.42870264997813
 11
171.70443177586776
 21
182.32648012884533
  0
LINE
  8
_1-f_
  6
CONTINUOUS
 62
   18
 10
170.92797464056025
 20
214.4287026499781
 11
171.70443177586776
 21
211.5309251711109
  0
LINE
  8
_1-f_
  6
CONTINUOUS
 62
   18
 10
170.92797464056025
 20
214.4287026499781
 11
170.15151750525268
 21
211.5309251711109
  0
LINE
  8
_1-f_
  6
CONTINUOUS
 62
   18
 10
170.42797464056025
 20
214.4287026499781
 11
192.01588059545105
 21
214.4287026499781
  0
LINE
  8
_1-f_
  6
CONTINUOUS
 62
   18
 10
170.42797464056025
 20
179.42870264997813
 11
192.01588059545105
 21
179.42870264997813
  0
LINE
  8
_1-f_
  6
CONTINUOUS
 62
   18
 10
170.92797464056025
 20
179.42870264997813
 11
170.92797464056025
 21
214.4287026499781
  0
TEXT
  8
_1-f_
 62
    7
 10
170.42797464056025
 20
194.8037026499781
 40
4
 41
1
 50
90
  1
70
  0
LINE
  8
_1-0_
  6
CONTINUOUS
 62
    7
 10
187.47970747836012
 20
166.92870264997813
 11
222.47970747836012
 21
166.92870264997813
  0
LINE
  8
_1-0_
  6
CONTINUOUS
 62
    7
 10
222.47970747836012
 20
166.92870264997813
 11
222.47970747836012
 21
226.92870264997816
  0
LINE
  8
_1-0_
  6
CONTINUOUS
 62
    7
 10
222.47970747836012
 20
226.92870264997816
 11
187.47970747836012
 21
226.92870264997816
  0
LINE
  8
_1-0_
  6
CONTINUOUS
 62
    7
 10
187.47970747836012
 20
226.92870264997816
 11
187.47970747836012
 21
166.92870264997813
  0
LINE
  8
_1-0_
  6
DASHED3
 62
    7
 10
221.22970747836012
 20
168.17870264997813
 11
221.22970747836012
 21
225.67870264997816
  0
LINE
  8
_1-0_
  6
DASHED3
 62
    7
 10
188.72970747836012
 20
225.67870264997816
 11
188.72970747836012
 21
168.17870264997813
  0
LINE
  8
_1-0_
  6
CONTINUOUS
 62
    7
 10
188.72970747836012
 20
225.67870264997816
 11
188.72970747836012
 21
168.17870264997813
  0
LINE
  8
_1-0_
  6
CONTINUOUS
 62
    7
 10
221.22970747836012
 20
168.17870264997813
 11
221.22970747836012
 21
225.67870264997816
  0
LINE
  8
_1-1_
  6
CONTINUOUS
 62
    7
 10
198.47970747836012
 20
170.8037026499781
 11
198.47970747836012
 21
170.87158938433907
  0
LINE
  8
_1-1_
  6
CONTINUOUS
 62
    7
 10
211.47970747836012
 20
224.30370264997816
 11
198.47970747836012
 21
224.30370264997816
  0
LINE
  8
_1-1_
  6
CONTINUOUS
 62
    7
 10
211.47970747836012
 20
169.5537026499781
 11
198.47970747836012
 21
169.5537026499781
  0
CIRCLE
  8
_1-1_
  6
CONTINUOUS
 62
    7
 10
204.97970747836012
 20
222.17870264997816
 40
1
  0
CIRCLE
  8
_1-1_
  6
CONTINUOUS
 62
    7
 10
204.97970747836012
 20
171.6787026499781
 40
1
  0
CIRCLE
  8
_1-1_
  6
CONTINUOUS
 62
    7
 10
204.97970747836012
 20
171.6787026499781
 40
0.8750000000000001
  0
CIRCLE
  8
_1-1_
  6
CONTINUOUS
 62
    7
 10
204.97970747836012
 20
222.17870264997816
 40
0.8750000000000001
  0
LINE
  8
_1-4_
  6
CONTINUOUS
 62
  150
 10
207.87970747836016
 20
179.4287026499781
 11
207.87970747836016
 21
179.82870264997808
  0
LINE
  8
_1-4_
  6
CONTINUOUS
 62
  150
 10
212.07970747836014
 20
179.4287026499781
 11
212.07970747836014
 21
179.82870264997808
  0
LINE
  8
_1-4_
  6
CONTINUOUS
 62
  150
 10
207.87970747836016
 20
179.82870264997808
 11
212.07970747836014
 21
179.82870264997808
  0
LINE
  8
_1-4_
  6
CONTINUOUS
 62
  150
 10
216.97970747836012
 20
179.4287026499781
 11
216.97970747836012
 21
214.42870264997816
  0
LINE
  8
_1-4_
  6
CONTINUOUS
 62
  150
 10
192.97970747836012
 20
179.4287026499781
 11
216.97970747836012
 21
179.4287026499781
  0
LINE
  8
_1-4_
  6
CONTINUOUS
 62
  150
 10
192.97970747836012
 20
214.42870264997816
 11
192.97970747836012
 21
179.4287026499781
  0
LINE
  8
_1-4_
  6
CONTINUOUS
 62
  150
 10
216.97970747836012
 20
214.42870264997816
 11
192.97970747836012
 21
214.42870264997816
  0
LINE
  8
_1-4_
  6
CONTINUOUS
 62
  150
 10
216.97970747836012
 20
192.07870264997814
 11
209.32970747836014
 21
192.07870264997814
  0
LINE
  8
_1-4_
  6
CONTINUOUS
 62
  150
 10
209.32970747836014
 20
203.67870264997816
 11
209.32970747836014
 21
192.07870264997814
  0
LINE
  8
_1-4_
  6
CONTINUOUS
 62
  150
 10
216.97970747836012
 20
203.67870264997816
 11
209.32970747836014
 21
203.67870264997816
  0
LINE
  8
_1-4_
  6
CONTINUOUS
 62
  150
 10
200.62970747836016
 20
207.17870264997816
 11
200.62970747836016
 21
195.57870264997814
  0
LINE
  8
_1-4_
  6
CONTINUOUS
 62
  150
 10
200.62970747836016
 20
195.57870264997814
 11
192.97970747836012
 21
195.57870264997814
  0
LINE
  8
_1-4_
  6
CONTINUOUS
 62
  150
 10
200.62970747836016
 20
207.17870264997816
 11
192.97970747836012
 21
207.17870264997816
  0
LINE
  8
_1-1_
  6
CONTINUOUS
 62
    7
 10
211.47970747836012
 20
218.92870264997816
 11
214.47970747836012
 21
218.92870264997816
  0
LINE
  8
_1-1_
  6
CONTINUOUS
 62
    7
 10
211.47970747836012
 20
224.30370264997816
 11
211.47970747836012
 21
218.92870264997816
  0
CIRCLE
  8
_1-1_
  6
CONTINUOUS
 62
    7
 10
211.47970747836012
 20
216.67870264997816
 40
0.75
  0
LINE
  8
_1-1_
  6
CONTINUOUS
 62
    7
 10
211.47970747836012
 20
224.30370264997816
 11
211.47970747836012
 21
218.92870264997816
  0
LINE
  8
_1-1_
  6
CONTINUOUS
 62
    7
 10
198.47970747836012
 20
169.5537026499781
 11
198.47970747836012
 21
174.9287026499781
  0
LINE
  8
_1-1_
  6
CONTINUOUS
 62
    7
 10
198.47970747836012
 20
174.9287026499781
 11
195.47970747836012
 21
174.9287026499781
  0
CIRCLE
  8
_1-1_
  6
CONTINUOUS
 62
    7
 10
198.47970747836012
 20
177.1787026499781
 40
0.75
  0
CIRCLE
  8
_1-4_
  6
CONTINUOUS
 62
  150
 10
211.47970747836012
 20
216.67870264997816
 40
0.8750000000000001
  0
LINE
  8
_1-4_
  6
CONTINUOUS
 62
  150
 10
208.47970747836012
 20
218.42870264997816
 11
208.47970747836012
 21
214.42870264997816
  0
LINE
  8
_1-4_
  6
CONTINUOUS
 62
  150
 10
208.47970747836012
 20
218.42870264997816
 11
208.97970747836012
 21
218.92870264997816
  0
LINE
  8
_1-4_
  6
CONTINUOUS
 62
  150
 10
213.97970747836012
 20
218.92870264997816
 11
208.97970747836012
 21
218.92870264997816
  0
LINE
  8
_1-4_
  6
CONTINUOUS
 62
  150
 10
214.47970747836012
 20
218.42870264997816
 11
214.47970747836012
 21
214.42870264997816
  0
LINE
  8
_1-4_
  6
CONTINUOUS
 62
  150
 10
213.97970747836012
 20
218.92870264997816
 11
214.47970747836012
 21
218.42870264997816
  0
CIRCLE
  8
_1-4_
  6
CONTINUOUS
 62
  150
 10
198.47970747836012
 20
177.1787026499781
 40
0.8750000000000001
  0
LINE
  8
_1-4_
  6
CONTINUOUS
 62
  150
 10
195.47970747836012
 20
175.4287026499781
 11
195.47970747836012
 21
179.4287026499781
  0
LINE
  8
_1-4_
  6
CONTINUOUS
 62
  150
 10
195.47970747836012
 20
175.4287026499781
 11
195.97970747836012
 21
174.9287026499781
  0
LINE
  8
_1-4_
  6
CONTINUOUS
 62
  150
 10
200.97970747836012
 20
174.9287026499781
 11
195.97970747836012
 21
174.9287026499781
  0
LINE
  8
_1-4_
  6
CONTINUOUS
 62
  150
 10
201.47970747836012
 20
175.4287026499781
 11
201.47970747836012
 21
179.4287026499781
  0
LINE
  8
_1-4_
  6
CONTINUOUS
 62
  150
 10
200.97970747836012
 20
174.9287026499781
 11
201.47970747836012
 21
175.4287026499781
  0
LINE
  8
_1-1_
  6
CONTINUOUS
 62
    7
 10
206.22970747836012
 20
219.05370264997816
 11
203.72970747836012
 21
219.05370264997816
  0
LINE
  8
_1-1_
  6
CONTINUOUS
 62
    7
 10
206.22970747836012
 20
216.55370264997816
 11
203.72970747836012
 21
216.55370264997816
  0
ARC
  8
_1-1_
  6
CONTINUOUS
 62
    7
 10
203.72970747836012
 20
217.80370264997816
 40
1.25
 50
90
 51
270
  0
ARC
  8
_1-1_
  6
CONTINUOUS
 62
    7
 10
206.22970747836012
 20
217.80370264997816
 40
1.25
 50
270
 51
90
  0
LINE
  8
_1-1_
  6
CONTINUOUS
 62
    7
 10
206.22970747836012
 20
174.8037026499781
 11
203.72970747836012
 21
174.8037026499781
  0
LINE
  8
_1-1_
  6
CONTINUOUS
 62
    7
 10
206.22970747836012
 20
177.3037026499781
 11
203.72970747836012
 21
177.3037026499781
  0
ARC
  8
_1-1_
  6
CONTINUOUS
 62
    7
 10
203.72970747836012
 20
176.0537026499781
 40
1.25
 50
90
 51
270
  0
ARC
  8
_1-1_
  6
CONTINUOUS
 62
    7
 10
206.22970747836012
 20
176.0537026499781
 40
1.25
 50
270
 51
90
  0
LINE
  8
_1-d_
  6
CONTINUOUS
 62
    7
 10
211.27967712171454
 20
217.72873824587202
 11
211.67973783500571
 21
217.72873824587202
  0
LINE
  8
_1-d_
  6
CONTINUOUS
 62
    7
 10
210.42967188246626
 20
216.87873300662374
 11
210.42967188246626
 21
216.47867229333257
  0
LINE
  8
_1-d_
  6
CONTINUOUS
 62
    7
 10
211.27967712171454
 20
215.6286670540843
 11
211.67973783500571
 21
215.6286670540843
  0
LINE
  8
_1-d_
  6
CONTINUOUS
 62
    7
 10
212.52974307425398
 20
216.87873300662374
 11
212.52974307425398
 21
216.47867229333257
  0
LINE
  8
_1-d_
  6
CONTINUOUS
 62
    7
 10
212.07969957478422
 20
216.87873300662374
 11
212.52974307425398
 21
216.87873300662374
  0
LINE
  8
_1-d_
  6
CONTINUOUS
 62
    7
 10
211.67973783500571
 20
217.27869474640226
 11
211.67973783500571
 21
217.72873824587202
  0
LINE
  8
_1-d_
  6
CONTINUOUS
 62
    7
 10
211.27967712171454
 20
217.27869474640226
 11
211.27967712171454
 21
217.72873824587202
  0
LINE
  8
_1-d_
  6
CONTINUOUS
 62
    7
 10
210.87971538193602
 20
216.87873300662374
 11
210.42967188246626
 21
216.87873300662374
  0
LINE
  8
_1-d_
  6
CONTINUOUS
 62
    7
 10
210.87971538193602
 20
216.47867229333257
 11
210.42967188246626
 21
216.47867229333257
  0
LINE
  8
_1-d_
  6
CONTINUOUS
 62
    7
 10
211.27967712171454
 20
216.07871055355406
 11
211.27967712171454
 21
215.6286670540843
  0
LINE
  8
_1-d_
  6
CONTINUOUS
 62
    7
 10
211.67973783500571
 20
216.07871055355406
 11
211.67973783500571
 21
215.6286670540843
  0
LINE
  8
_1-d_
  6
CONTINUOUS
 62
    7
 10
212.07969957478422
 20
216.47867229333257
 11
212.52974307425398
 21
216.47867229333257
  0
ARC
  8
_1-d_
  6
CONTINUOUS
 62
    7
 10
212.07969957478422
 20
217.27869474640226
 40
0.4000000059604644
 50
180
 51
270
  0
ARC
  8
_1-d_
  6
CONTINUOUS
 62
    7
 10
210.87971538193602
 20
217.27869474640226
 40
0.4000000059604644
 50
270
 51
0
  0
ARC
  8
_1-d_
  6
CONTINUOUS
 62
    7
 10
210.87971538193602
 20
216.07871055355406
 40
0.4000000059604644
 50
0
 51
90
  0
ARC
  8
_1-d_
  6
CONTINUOUS
 62
    7
 10
212.07969957478422
 20
216.07871055355406
 40
0.4000000059604644
 50
90
 51
180
  0
ARC
  8
_1-d_
  6
CONTINUOUS
 62
    7
 10
211.47970747836012
 20
216.67870264997816
 40
0.6000000238418579
 50
71.56451416015625
 51
108.43548583984373
  0
ARC
  8
_1-d_
  6
CONTINUOUS
 62
    7
 10
211.47970747836012
 20
216.67870264997816
 40
0.6000000238418579
 50
161.56523132324218
 51
198.43476867675781
  0
ARC
  8
_1-d_
  6
CONTINUOUS
 62
    7
 10
211.47970747836012
 20
216.67870264997816
 40
0.6000000238418579
 50
251.56451416015625
 51
288.43548583984375
  0
ARC
  8
_1-d_
  6
CONTINUOUS
 62
    7
 10
211.47970747836012
 20
216.67870264997816
 40
0.6000000238418579
 50
341.56523132324218
 51
18.434768676757812
  0
CIRCLE
  8
_1-d_
  6
CONTINUOUS
 62
    7
 10
211.48331364748025
 20
216.68136209001875
 40
1.6999999999999999
  0
LINE
  8
_1-d_
  6
CONTINUOUS
 62
    7
 10
198.27967712171454
 20
178.22873824587196
 11
198.67973783500571
 21
178.22873824587196
  0
LINE
  8
_1-d_
  6
CONTINUOUS
 62
    7
 10
197.42967188246626
 20
177.37873300662369
 11
197.42967188246626
 21
176.97867229333252
  0
LINE
  8
_1-d_
  6
CONTINUOUS
 62
    7
 10
198.27967712171454
 20
176.12866705408424
 11
198.67973783500571
 21
176.12866705408424
  0
LINE
  8
_1-d_
  6
CONTINUOUS
 62
    7
 10
199.52974307425398
 20
177.37873300662369
 11
199.52974307425398
 21
176.97867229333252
  0
LINE
  8
_1-d_
  6
CONTINUOUS
 62
    7
 10
199.07969957478422
 20
177.37873300662369
 11
199.52974307425398
 21
177.37873300662369
  0
LINE
  8
_1-d_
  6
CONTINUOUS
 62
    7
 10
198.67973783500571
 20
177.7786947464022
 11
198.67973783500571
 21
178.22873824587196
  0
LINE
  8
_1-d_
  6
CONTINUOUS
 62
    7
 10
198.27967712171454
 20
177.7786947464022
 11
198.27967712171454
 21
178.22873824587196
  0
LINE
  8
_1-d_
  6
CONTINUOUS
 62
    7
 10
197.87971538193602
 20
177.37873300662369
 11
197.42967188246626
 21
177.37873300662369
  0
LINE
  8
_1-d_
  6
CONTINUOUS
 62
    7
 10
197.87971538193602
 20
176.97867229333252
 11
197.42967188246626
 21
176.97867229333252
  0
LINE
  8
_1-d_
  6
CONTINUOUS
 62
    7
 10
198.27967712171454
 20
176.578710553554
 11
198.27967712171454
 21
176.12866705408424
  0
LINE
  8
_1-d_
  6
CONTINUOUS
 62
    7
 10
198.67973783500571
 20
176.578710553554
 11
198.67973783500571
 21
176.12866705408424
  0
LINE
  8
_1-d_
  6
CONTINUOUS
 62
    7
 10
199.07969957478422
 20
176.97867229333252
 11
199.52974307425398
 21
176.97867229333252
  0
ARC
  8
_1-d_
  6
CONTINUOUS
 62
    7
 10
199.07969957478422
 20
177.7786947464022
 40
0.4000000059604644
 50
180
 51
270
  0
ARC
  8
_1-d_
  6
CONTINUOUS
 62
    7
 10
197.87971538193602
 20
177.7786947464022
 40
0.4000000059604644
 50
270
 51
0
  0
ARC
  8
_1-d_
  6
CONTINUOUS
 62
    7
 10
197.87971538193602
 20
176.578710553554
 40
0.4000000059604644
 50
0
 51
90
  0
ARC
  8
_1-d_
  6
CONTINUOUS
 62
    7
 10
199.07969957478422
 20
176.578710553554
 40
0.4000000059604644
 50
90
 51
180
  0
ARC
  8
_1-d_
  6
CONTINUOUS
 62
    7
 10
198.47970747836012
 20
177.1787026499781
 40
0.6000000238418579
 50
71.56451416015625
 51
108.43548583984373
  0
ARC
  8
_1-d_
  6
CONTINUOUS
 62
    7
 10
198.47970747836012
 20
177.1787026499781
 40
0.6000000238418579
 50
161.56523132324218
 51
198.43476867675781
  0
ARC
  8
_1-d_
  6
CONTINUOUS
 62
    7
 10
198.47970747836012
 20
177.1787026499781
 40
0.6000000238418579
 50
251.56451416015625
 51
288.43548583984375
  0
ARC
  8
_1-d_
  6
CONTINUOUS
 62
    7
 10
198.47970747836012
 20
177.1787026499781
 40
0.6000000238418579
 50
341.56523132324218
 51
18.434768676757812
  0
CIRCLE
  8
_1-d_
  6
CONTINUOUS
 62
    7
 10
198.48331364748025
 20
177.18136209001869
 40
1.6999999999999999
  0
LINE
  8
_1-7_
  6
CONTINUOUS
 62
   18
 10
209.13121984659801
 20
222.16412719968167
 11
211.8720016809533
 21
234.22055703136646
  0
TEXT
  8
_1-e_
 62
    7
 10
199.03189381459299
 20
180.43448026095376
 40
3
 41
1
 50
0
  1
FMC-24S
  0
TEXT
  8
_1-e_
 62
    7
 10
200.16062644518865
 20
205.6367442546695
 40
3.5
 41
1
 50
-90
  1
+-+-
  0
TEXT
  8
_1-e_
 62
    7
 10
209.76711456127833
 20
192.98642791654862
 40
3.5
 41
1
 50
90
  1
+-+-
  0
TEXT
  8
_1-e_
 62
    4
 10
202.68114065386561
 20
204.48861866418934
 40
2
 41
1
 50
-90
  1
IN  OUT
  0
TEXT
  8
_1-e_
 62
    7
 10
204.7528368843466
 20
203.16072040192591
 40
2
 41
1
 50
-90
  1
DC24V
  0
TEXT
  8
_1-e_
 62
    4
 10
208.42957754016435
 20
189.55945504944247
 40
2
 41
1
 50
0
  1
LED OUT
  0
LINE
  8
_1-3_
  6
CONTINUOUS
 62
    3
 10
193.72970747836012
 20
206.77870264997815
 11
193.72970747836012
 21
195.97870264997811
  0
LINE
  8
_1-3_
  6
CONTINUOUS
 62
    3
 10
200.22970747836012
 20
206.77870264997815
 11
193.72970747836012
 21
206.77870264997815
  0
LINE
  8
_1-3_
  6
CONTINUOUS
 62
    3
 10
200.22970747836012
 20
206.77870264997815
 11
200.22970747836012
 21
195.97870264997811
  0
LINE
  8
_1-3_
  6
CONTINUOUS
 62
    3
 10
199.97970747836012
 20
206.77870264997815
 11
199.97970747836012
 21
195.97870264997811
  0
LINE
  8
_1-3_
  6
CONTINUOUS
 62
    3
 10
199.72970747836012
 20
206.77870264997815
 11
199.72970747836012
 21
195.97870264997811
  0
LINE
  8
_1-3_
  6
CONTINUOUS
 62
    3
 10
198.22970747836012
 20
206.77870264997815
 11
198.22970747836012
 21
195.97870264997811
  0
LINE
  8
_1-3_
  6
CONTINUOUS
 62
    3
 10
197.97970747836012
 20
206.77870264997815
 11
197.97970747836012
 21
195.97870264997811
  0
LINE
  8
_1-3_
  6
CONTINUOUS
 62
    3
 10
196.97970747836012
 20
206.77870264997815
 11
196.97970747836012
 21
195.97870264997811
  0
LINE
  8
_1-3_
  6
CONTINUOUS
 62
    3
 10
194.72970747836012
 20
206.77870264997815
 11
194.72970747836012
 21
195.97870264997811
  0
LINE
  8
_1-3_
  6
CONTINUOUS
 62
    3
 10
200.22970747836012
 20
204.27870264997815
 11
193.72970747836012
 21
204.27870264997815
  0
LINE
  8
_1-3_
  6
CONTINUOUS
 62
    3
 10
200.22970747836012
 20
201.77870264997815
 11
193.72970747836012
 21
201.77870264997815
  0
LINE
  8
_1-3_
  6
CONTINUOUS
 62
    3
 10
200.22970747836012
 20
199.27870264997815
 11
193.72970747836012
 21
199.27870264997815
  0
LINE
  8
_1-3_
  6
CONTINUOUS
 62
    3
 10
200.22970747836012
 20
196.77870264997815
 11
193.72970747836012
 21
196.77870264997815
  0
LINE
  8
_1-3_
  6
CONTINUOUS
 62
    3
 10
194.47970747836012
 20
206.77870264997815
 11
194.47970747836012
 21
195.97870264997811
  0
LINE
  8
_1-3_
  6
CONTINUOUS
 62
    3
 10
197.97970747836012
 20
198.77870264997815
 11
196.97970747836012
 21
198.77870264997815
  0
LINE
  8
_1-3_
  6
CONTINUOUS
 62
    3
 10
197.97970747836012
 20
201.27870264997815
 11
196.97970747836012
 21
201.27870264997815
  0
LINE
  8
_1-3_
  6
CONTINUOUS
 62
    3
 10
197.97970747836012
 20
203.77870264997815
 11
196.97970747836012
 21
203.77870264997815
  0
LINE
  8
_1-3_
  6
CONTINUOUS
 62
    3
 10
197.97970747836012
 20
206.27870264997815
 11
196.97970747836012
 21
206.27870264997815
  0
LINE
  8
_1-3_
  6
CONTINUOUS
 62
    3
 10
200.22970747836012
 20
195.97870264997811
 11
195.97970747836012
 21
195.97870264997811
  0
LINE
  8
_1-3_
  6
CONTINUOUS
 62
    3
 10
195.22970747836012
 20
195.97870264997811
 11
193.72970747836012
 21
195.97870264997811
  0
ARC
  8
_1-3_
  6
CONTINUOUS
 62
    3
 10
195.60470747836012
 20
195.97870264997811
 40
0.375
 50
0
 51
180
  0
CIRCLE
  8
_1-3_
  6
CONTINUOUS
 62
    3
 10
195.85470747836012
 20
198.02870264997815
 40
0.85
  0
CIRCLE
  8
_1-3_
  6
CONTINUOUS
 62
    3
 10
195.85470747836012
 20
200.52870264997815
 40
0.85
  0
CIRCLE
  8
_1-3_
  6
CONTINUOUS
 62
    3
 10
195.85470747836012
 20
203.02870264997815
 40
0.85
  0
CIRCLE
  8
_1-3_
  6
CONTINUOUS
 62
    3
 10
195.85470747836012
 20
205.52870264997815
 40
0.85
  0
CIRCLE
  8
_1-3_
  6
CONTINUOUS
 62
    3
 10
195.85470747836012
 20
198.02870264997815
 40
0.375
  0
CIRCLE
  8
_1-3_
  6
CONTINUOUS
 62
    3
 10
195.85470747836012
 20
200.52870264997815
 40
0.375
  0
CIRCLE
  8
_1-3_
  6
CONTINUOUS
 62
    3
 10
195.85470747836012
 20
203.02870264997815
 40
0.375
  0
CIRCLE
  8
_1-3_
  6
CONTINUOUS
 62
    3
 10
195.85470747836012
 20
205.52870264997815
 40
0.375
  0
LINE
  8
_1-3_
  6
CONTINUOUS
 62
    3
 10
197.27970747836013
 20
198.57870264997814
 11
197.27970747836013
 21
196.97870264997814
  0
LINE
  8
_1-3_
  6
CONTINUOUS
 62
    3
 10
197.77970747836013
 20
197.47870264997814
 11
197.57970747836014
 21
197.47870264997814
  0
LINE
  8
_1-3_
  6
CONTINUOUS
 62
    3
 10
197.57970747836014
 20
196.97870264997814
 11
197.27970747836013
 21
196.97870264997814
  0
LINE
  8
_1-3_
  6
CONTINUOUS
 62
    3
 10
197.57970747836014
 20
197.47870264997814
 11
197.57970747836014
 21
196.97870264997814
  0
LINE
  8
_1-3_
  6
CONTINUOUS
 62
    3
 10
197.77970747836013
 20
198.07870264997814
 11
197.77970747836013
 21
197.47870264997814
  0
LINE
  8
_1-3_
  6
CONTINUOUS
 62
    3
 10
197.77970747836013
 20
198.07870264997814
 11
197.57970747836014
 21
198.07870264997814
  0
LINE
  8
_1-3_
  6
CONTINUOUS
 62
    3
 10
197.57970747836014
 20
198.57870264997814
 11
197.57970747836014
 21
198.07870264997814
  0
LINE
  8
_1-3_
  6
CONTINUOUS
 62
    3
 10
197.57970747836014
 20
198.57870264997814
 11
197.27970747836013
 21
198.57870264997814
  0
LINE
  8
_1-3_
  6
CONTINUOUS
 62
    3
 10
197.27970747836013
 20
201.07870264997814
 11
197.27970747836013
 21
199.47870264997814
  0
LINE
  8
_1-3_
  6
CONTINUOUS
 62
    3
 10
197.77970747836013
 20
199.97870264997814
 11
197.57970747836014
 21
199.97870264997814
  0
LINE
  8
_1-3_
  6
CONTINUOUS
 62
    3
 10
197.57970747836014
 20
199.47870264997814
 11
197.27970747836013
 21
199.47870264997814
  0
LINE
  8
_1-3_
  6
CONTINUOUS
 62
    3
 10
197.57970747836014
 20
199.97870264997814
 11
197.57970747836014
 21
199.47870264997814
  0
LINE
  8
_1-3_
  6
CONTINUOUS
 62
    3
 10
197.77970747836013
 20
200.57870264997814
 11
197.77970747836013
 21
199.97870264997814
  0
LINE
  8
_1-3_
  6
CONTINUOUS
 62
    3
 10
197.77970747836013
 20
200.57870264997814
 11
197.57970747836014
 21
200.57870264997814
  0
LINE
  8
_1-3_
  6
CONTINUOUS
 62
    3
 10
197.57970747836014
 20
201.07870264997814
 11
197.57970747836014
 21
200.57870264997814
  0
LINE
  8
_1-3_
  6
CONTINUOUS
 62
    3
 10
197.57970747836014
 20
201.07870264997814
 11
197.27970747836013
 21
201.07870264997814
  0
LINE
  8
_1-3_
  6
CONTINUOUS
 62
    3
 10
197.27970747836013
 20
203.57870264997814
 11
197.27970747836013
 21
201.97870264997814
  0
LINE
  8
_1-3_
  6
CONTINUOUS
 62
    3
 10
197.77970747836013
 20
202.47870264997814
 11
197.57970747836014
 21
202.47870264997814
  0
LINE
  8
_1-3_
  6
CONTINUOUS
 62
    3
 10
197.57970747836014
 20
201.97870264997814
 11
197.27970747836013
 21
201.97870264997814
  0
LINE
  8
_1-3_
  6
CONTINUOUS
 62
    3
 10
197.57970747836014
 20
202.47870264997814
 11
197.57970747836014
 21
201.97870264997814
  0
LINE
  8
_1-3_
  6
CONTINUOUS
 62
    3
 10
197.77970747836013
 20
203.07870264997814
 11
197.77970747836013
 21
202.47870264997814
  0
LINE
  8
_1-3_
  6
CONTINUOUS
 62
    3
 10
197.77970747836013
 20
203.07870264997814
 11
197.57970747836014
 21
203.07870264997814
  0
LINE
  8
_1-3_
  6
CONTINUOUS
 62
    3
 10
197.57970747836014
 20
203.57870264997814
 11
197.57970747836014
 21
203.07870264997814
  0
LINE
  8
_1-3_
  6
CONTINUOUS
 62
    3
 10
197.57970747836014
 20
203.57870264997814
 11
197.27970747836013
 21
203.57870264997814
  0
LINE
  8
_1-3_
  6
CONTINUOUS
 62
    3
 10
197.27970747836013
 20
206.07870264997814
 11
197.27970747836013
 21
204.47870264997814
  0
LINE
  8
_1-3_
  6
CONTINUOUS
 62
    3
 10
197.77970747836013
 20
204.97870264997814
 11
197.57970747836014
 21
204.97870264997814
  0
LINE
  8
_1-3_
  6
CONTINUOUS
 62
    3
 10
197.57970747836014
 20
204.47870264997814
 11
197.27970747836013
 21
204.47870264997814
  0
LINE
  8
_1-3_
  6
CONTINUOUS
 62
    3
 10
197.57970747836014
 20
204.97870264997814
 11
197.57970747836014
 21
204.47870264997814
  0
LINE
  8
_1-3_
  6
CONTINUOUS
 62
    3
 10
197.77970747836013
 20
205.57870264997814
 11
197.77970747836013
 21
204.97870264997814
  0
LINE
  8
_1-3_
  6
CONTINUOUS
 62
    3
 10
197.77970747836013
 20
205.57870264997814
 11
197.57970747836014
 21
205.57870264997814
  0
LINE
  8
_1-3_
  6
CONTINUOUS
 62
    3
 10
197.57970747836014
 20
206.07870264997814
 11
197.57970747836014
 21
205.57870264997814
  0
LINE
  8
_1-3_
  6
CONTINUOUS
 62
    3
 10
197.57970747836014
 20
206.07870264997814
 11
197.27970747836013
 21
206.07870264997814
  0
LINE
  8
_1-3_
  6
CONTINUOUS
 62
    3
 10
216.22970747836012
 20
192.47849437574583
 11
216.22970747836012
 21
203.27849437574585
  0
LINE
  8
_1-3_
  6
CONTINUOUS
 62
    3
 10
209.72970747836012
 20
192.47849437574583
 11
216.22970747836012
 21
192.47849437574583
  0
LINE
  8
_1-3_
  6
CONTINUOUS
 62
    3
 10
209.72970747836012
 20
192.47849437574583
 11
209.72970747836012
 21
203.27849437574585
  0
LINE
  8
_1-3_
  6
CONTINUOUS
 62
    3
 10
209.97970747836012
 20
192.47849437574583
 11
209.97970747836012
 21
203.27849437574585
  0
LINE
  8
_1-3_
  6
CONTINUOUS
 62
    3
 10
210.22970747836012
 20
192.47849437574583
 11
210.22970747836012
 21
203.27849437574585
  0
LINE
  8
_1-3_
  6
CONTINUOUS
 62
    3
 10
211.72970747836012
 20
192.47849437574583
 11
211.72970747836012
 21
203.27849437574585
  0
LINE
  8
_1-3_
  6
CONTINUOUS
 62
    3
 10
211.97970747836012
 20
192.47849437574583
 11
211.97970747836012
 21
203.27849437574585
  0
LINE
  8
_1-3_
  6
CONTINUOUS
 62
    3
 10
212.97970747836012
 20
192.47849437574583
 11
212.97970747836012
 21
203.27849437574585
  0
LINE
  8
_1-3_
  6
CONTINUOUS
 62
    3
 10
215.22970747836012
 20
192.47849437574583
 11
215.22970747836012
 21
203.27849437574585
  0
LINE
  8
_1-3_
  6
CONTINUOUS
 62
    3
 10
209.72970747836012
 20
194.97849437574583
 11
216.22970747836012
 21
194.97849437574583
  0
LINE
  8
_1-3_
  6
CONTINUOUS
 62
    3
 10
209.72970747836012
 20
197.47849437574583
 11
216.22970747836012
 21
197.47849437574583
  0
LINE
  8
_1-3_
  6
CONTINUOUS
 62
    3
 10
209.72970747836012
 20
199.97849437574583
 11
216.22970747836012
 21
199.97849437574583
  0
LINE
  8
_1-3_
  6
CONTINUOUS
 62
    3
 10
209.72970747836012
 20
202.47849437574583
 11
216.22970747836012
 21
202.47849437574583
  0
LINE
  8
_1-3_
  6
CONTINUOUS
 62
    3
 10
215.47970747836012
 20
192.47849437574583
 11
215.47970747836012
 21
203.27849437574585
  0
LINE
  8
_1-3_
  6
CONTINUOUS
 62
    3
 10
211.97970747836012
 20
200.47849437574583
 11
212.97970747836012
 21
200.47849437574583
  0
LINE
  8
_1-3_
  6
CONTINUOUS
 62
    3
 10
211.97970747836012
 20
197.97849437574583
 11
212.97970747836012
 21
197.97849437574583
  0
LINE
  8
_1-3_
  6
CONTINUOUS
 62
    3
 10
211.97970747836012
 20
195.47849437574583
 11
212.97970747836012
 21
195.47849437574583
  0
LINE
  8
_1-3_
  6
CONTINUOUS
 62
    3
 10
211.97970747836012
 20
192.97849437574583
 11
212.97970747836012
 21
192.97849437574583
  0
LINE
  8
_1-3_
  6
CONTINUOUS
 62
    3
 10
209.72970747836012
 20
203.27849437574585
 11
213.97970747836012
 21
203.27849437574585
  0
LINE
  8
_1-3_
  6
CONTINUOUS
 62
    3
 10
214.72970747836012
 20
203.27849437574585
 11
216.22970747836012
 21
203.27849437574585
  0
ARC
  8
_1-3_
  6
CONTINUOUS
 62
    3
 10
214.35470747836012
 20
203.27849437574585
 40
0.375
 50
180
 51
0
  0
CIRCLE
  8
_1-3_
  6
CONTINUOUS
 62
    3
 10
214.10470747836012
 20
201.22849437574583
 40
0.85
  0
CIRCLE
  8
_1-3_
  6
CONTINUOUS
 62
    3
 10
214.10470747836012
 20
198.72849437574583
 40
0.85
  0
CIRCLE
  8
_1-3_
  6
CONTINUOUS
 62
    3
 10
214.10470747836012
 20
196.22849437574583
 40
0.85
  0
CIRCLE
  8
_1-3_
  6
CONTINUOUS
 62
    3
 10
214.10470747836012
 20
193.72849437574583
 40
0.85
  0
CIRCLE
  8
_1-3_
  6
CONTINUOUS
 62
    3
 10
214.10470747836012
 20
201.22849437574583
 40
0.375
  0
CIRCLE
  8
_1-3_
  6
CONTINUOUS
 62
    3
 10
214.10470747836012
 20
198.72849437574583
 40
0.375
  0
CIRCLE
  8
_1-3_
  6
CONTINUOUS
 62
    3
 10
214.10470747836012
 20
196.22849437574583
 40
0.375
  0
CIRCLE
  8
_1-3_
  6
CONTINUOUS
 62
    3
 10
214.10470747836012
 20
193.72849437574583
 40
0.375
  0
LINE
  8
_1-3_
  6
CONTINUOUS
 62
    3
 10
212.67970747836011
 20
200.67849437574582
 11
212.67970747836011
 21
202.27849437574582
  0
LINE
  8
_1-3_
  6
CONTINUOUS
 62
    3
 10
212.17970747836011
 20
201.77849437574582
 11
212.37970747836016
 21
201.77849437574582
  0
LINE
  8
_1-3_
  6
CONTINUOUS
 62
    3
 10
212.37970747836016
 20
202.27849437574582
 11
212.67970747836011
 21
202.27849437574582
  0
LINE
  8
_1-3_
  6
CONTINUOUS
 62
    3
 10
212.37970747836016
 20
201.77849437574582
 11
212.37970747836016
 21
202.27849437574582
  0
LINE
  8
_1-3_
  6
CONTINUOUS
 62
    3
 10
212.17970747836011
 20
201.17849437574582
 11
212.17970747836011
 21
201.77849437574582
  0
LINE
  8
_1-3_
  6
CONTINUOUS
 62
    3
 10
212.17970747836011
 20
201.17849437574582
 11
212.37970747836016
 21
201.17849437574582
  0
LINE
  8
_1-3_
  6
CONTINUOUS
 62
    3
 10
212.37970747836016
 20
200.67849437574582
 11
212.37970747836016
 21
201.17849437574582
  0
LINE
  8
_1-3_
  6
CONTINUOUS
 62
    3
 10
212.37970747836016
 20
200.67849437574582
 11
212.67970747836011
 21
200.67849437574582
  0
LINE
  8
_1-3_
  6
CONTINUOUS
 62
    3
 10
212.67970747836011
 20
198.17849437574582
 11
212.67970747836011
 21
199.77849437574582
  0
LINE
  8
_1-3_
  6
CONTINUOUS
 62
    3
 10
212.17970747836011
 20
199.27849437574582
 11
212.37970747836016
 21
199.27849437574582
  0
LINE
  8
_1-3_
  6
CONTINUOUS
 62
    3
 10
212.37970747836016
 20
199.77849437574582
 11
212.67970747836011
 21
199.77849437574582
  0
LINE
  8
_1-3_
  6
CONTINUOUS
 62
    3
 10
212.37970747836016
 20
199.27849437574582
 11
212.37970747836016
 21
199.77849437574582
  0
LINE
  8
_1-3_
  6
CONTINUOUS
 62
    3
 10
212.17970747836011
 20
198.67849437574582
 11
212.17970747836011
 21
199.27849437574582
  0
LINE
  8
_1-3_
  6
CONTINUOUS
 62
    3
 10
212.17970747836011
 20
198.67849437574582
 11
212.37970747836016
 21
198.67849437574582
  0
LINE
  8
_1-3_
  6
CONTINUOUS
 62
    3
 10
212.37970747836016
 20
198.17849437574582
 11
212.37970747836016
 21
198.67849437574582
  0
LINE
  8
_1-3_
  6
CONTINUOUS
 62
    3
 10
212.37970747836016
 20
198.17849437574582
 11
212.67970747836011
 21
198.17849437574582
  0
LINE
  8
_1-3_
  6
CONTINUOUS
 62
    3
 10
212.67970747836011
 20
195.67849437574582
 11
212.67970747836011
 21
197.27849437574582
  0
LINE
  8
_1-3_
  6
CONTINUOUS
 62
    3
 10
212.17970747836011
 20
196.77849437574582
 11
212.37970747836016
 21
196.77849437574582
  0
LINE
  8
_1-3_
  6
CONTINUOUS
 62
    3
 10
212.37970747836016
 20
197.27849437574582
 11
212.67970747836011
 21
197.27849437574582
  0
LINE
  8
_1-3_
  6
CONTINUOUS
 62
    3
 10
212.37970747836016
 20
196.77849437574582
 11
212.37970747836016
 21
197.27849437574582
  0
LINE
  8
_1-3_
  6
CONTINUOUS
 62
    3
 10
212.17970747836011
 20
196.17849437574582
 11
212.17970747836011
 21
196.77849437574582
  0
LINE
  8
_1-3_
  6
CONTINUOUS
 62
    3
 10
212.17970747836011
 20
196.17849437574582
 11
212.37970747836016
 21
196.17849437574582
  0
LINE
  8
_1-3_
  6
CONTINUOUS
 62
    3
 10
212.37970747836016
 20
195.67849437574582
 11
212.37970747836016
 21
196.17849437574582
  0
LINE
  8
_1-3_
  6
CONTINUOUS
 62
    3
 10
212.37970747836016
 20
195.67849437574582
 11
212.67970747836011
 21
195.67849437574582
  0
LINE
  8
_1-3_
  6
CONTINUOUS
 62
    3
 10
212.67970747836011
 20
193.17849437574582
 11
212.67970747836011
 21
194.77849437574582
  0
LINE
  8
_1-3_
  6
CONTINUOUS
 62
    3
 10
212.17970747836011
 20
194.27849437574582
 11
212.37970747836016
 21
194.27849437574582
  0
LINE
  8
_1-3_
  6
CONTINUOUS
 62
    3
 10
212.37970747836016
 20
194.77849437574582
 11
212.67970747836011
 21
194.77849437574582
  0
LINE
  8
_1-3_
  6
CONTINUOUS
 62
    3
 10
212.37970747836016
 20
194.27849437574582
 11
212.37970747836016
 21
194.77849437574582
  0
LINE
  8
_1-3_
  6
CONTINUOUS
 62
    3
 10
212.17970747836011
 20
193.67849437574582
 11
212.17970747836011
 21
194.27849437574582
  0
LINE
  8
_1-3_
  6
CONTINUOUS
 62
    3
 10
212.17970747836011
 20
193.67849437574582
 11
212.37970747836016
 21
193.67849437574582
  0
LINE
  8
_1-3_
  6
CONTINUOUS
 62
    3
 10
212.37970747836016
 20
193.17849437574582
 11
212.37970747836016
 21
193.67849437574582
  0
LINE
  8
_1-3_
  6
CONTINUOUS
 62
    3
 10
212.37970747836016
 20
193.17849437574582
 11
212.67970747836011
 21
193.17849437574582
  0
LINE
  8
_1-f_
  6
CONTINUOUS
 62
   18
 10
181.63506049612544
 20
207.17870264997816
 11
181.63506049612544
 21
202.17870264997816
  0
LINE
  8
_1-f_
  6
CONTINUOUS
 62
   18
 10
181.63506049612544
 20
207.17870264997816
 11
181.63506049612544
 21
214.42870264997816
  0
LINE
  8
_1-f_
  6
CONTINUOUS
 62
   18
 10
181.63506049612544
 20
207.17870264997816
 11
182.41151763143301
 21
204.28092517111096
  0
LINE
  8
_1-f_
  6
CONTINUOUS
 62
   18
 10
181.63506049612544
 20
207.17870264997816
 11
180.85860336081788
 21
204.28092517111096
  0
LINE
  8
_1-f_
  6
CONTINUOUS
 62
   18
 10
181.63506049612544
 20
214.42870264997816
 11
180.85860336081788
 21
217.32648012884536
  0
LINE
  8
_1-f_
  6
CONTINUOUS
 62
   18
 10
181.63506049612544
 20
214.42870264997816
 11
182.41151763143301
 21
217.32648012884536
  0
LINE
  8
_1-f_
  6
CONTINUOUS
 62
   18
 10
181.13506049612544
 20
207.17870264997816
 11
192.01588059545105
 21
207.17870264997816
  0
LINE
  8
_1-f_
  6
CONTINUOUS
 62
   18
 10
181.13506049612544
 20
214.42870264997816
 11
192.01588059545105
 21
214.42870264997816
  0
LINE
  8
_1-f_
  6
CONTINUOUS
 62
   18
 10
181.63506049612544
 20
195.57870264997814
 11
180.85860336081788
 21
198.47648012884533
  0
LINE
  8
_1-f_
  6
CONTINUOUS
 62
   18
 10
181.63506049612544
 20
195.57870264997814
 11
182.41151763143301
 21
198.47648012884533
  0
LINE
  8
_1-f_
  6
CONTINUOUS
 62
   18
 10
181.63506049612544
 20
207.17870264997816
 11
182.41151763143301
 21
204.28092517111096
  0
LINE
  8
_1-f_
  6
CONTINUOUS
 62
   18
 10
181.63506049612544
 20
207.17870264997816
 11
180.85860336081788
 21
204.28092517111096
  0
LINE
  8
_1-f_
  6
CONTINUOUS
 62
   18
 10
181.13506049612544
 20
195.57870264997814
 11
192.01588059545105
 21
195.57870264997814
  0
TEXT
  8
_1-f_
 62
    7
 10
181.13506049612544
 20
217.68864348935181
 40
4
 41
1
 50
90
  1
14.5
  0
LINE
  8
_1-f_
  6
CONTINUOUS
 62
   18
 10
181.63506049612544
 20
214.42870264997816
 11
181.63506049612544
 21
226.23675899522743
  0
LINE
  8
_1-f_
  6
CONTINUOUS
 62
   18
 10
241.24413168635646
 20
203.67870264997816
 11
241.24413168635646
 21
198.67870264997816
  0
LINE
  8
_1-f_
  6
CONTINUOUS
 62
   18
 10
241.24413168635646
 20
214.42870264997816
 11
241.24413168635646
 21
219.42870264997816
  0
LINE
  8
_1-f_
  6
CONTINUOUS
 62
   18
 10
241.24413168635646
 20
203.67870264997816
 11
242.02058882166403
 21
200.78092517111093
  0
LINE
  8
_1-f_
  6
CONTINUOUS
 62
   18
 10
241.24413168635646
 20
203.67870264997816
 11
240.4676745510489
 21
200.78092517111093
  0
LINE
  8
_1-f_
  6
CONTINUOUS
 62
   18
 10
241.24413168635646
 20
214.42870264997816
 11
240.4676745510489
 21
217.32648012884536
  0
LINE
  8
_1-f_
  6
CONTINUOUS
 62
   18
 10
241.24413168635646
 20
214.42870264997816
 11
242.02058882166403
 21
217.32648012884536
  0
LINE
  8
_1-f_
  6
CONTINUOUS
 62
   18
 10
241.74413168635646
 20
203.67870264997816
 11
217.50433571382905
 21
203.67870264997816
  0
LINE
  8
_1-f_
  6
CONTINUOUS
 62
   18
 10
241.74413168635646
 20
214.42870264997816
 11
217.50433571382905
 21
214.42870264997816
  0
LINE
  8
_1-f_
  6
CONTINUOUS
 62
   18
 10
241.24413168635646
 20
192.07870264997814
 11
240.4676745510489
 21
194.97648012884533
  0
LINE
  8
_1-f_
  6
CONTINUOUS
 62
   18
 10
241.24413168635646
 20
192.07870264997814
 11
242.02058882166403
 21
194.97648012884533
  0
LINE
  8
_1-f_
  6
CONTINUOUS
 62
   18
 10
241.24413168635646
 20
203.67870264997816
 11
242.02058882166403
 21
200.78092517111093
  0
LINE
  8
_1-f_
  6
CONTINUOUS
 62
   18
 10
241.24413168635646
 20
203.67870264997816
 11
240.4676745510489
 21
200.78092517111093
  0
LINE
  8
_1-f_
  6
CONTINUOUS
 62
   18
 10
241.74413168635646
 20
192.07870264997814
 11
217.50433571382905
 21
192.07870264997814
  0
LINE
  8
_1-9_
  6
CONTINUOUS
 62
    7
 10
216.72970747836012
 20
225.92870264997816
 11
213.72970747836012
 21
225.92870264997816
  0
LINE
  8
_1-9_
  6
CONTINUOUS
 62
    7
 10
218.47970747836012
 20
222.92870264997816
 11
216.72970747836012
 21
222.92870264997816
  0
LINE
  8
_1-9_
  6
CONTINUOUS
 62
    7
 10
216.72970747836012
 20
222.92870264997816
 11
216.72970747836012
 21
225.92870264997816
  0
LINE
  8
_1-9_
  6
CONTINUOUS
 62
    7
 10
218.22970747836012
 20
221.92870264997816
 11
214.47970747836012
 21
221.92870264997816
  0
LINE
  8
_1-9_
  6
CONTINUOUS
 62
    7
 10
214.47970747836012
 20
218.42870264997816
 11
214.47970747836012
 21
221.92870264997816
  0
LINE
  8
_1-9_
  6
CONTINUOUS
 62
    7
 10
215.47970747836012
 20
218.42870264997816
 11
215.47970747836012
 21
219.42870264997816
  0
LINE
  8
_1-9_
  6
CONTINUOUS
 62
    7
 10
217.97970747836012
 20
219.42870264997816
 11
215.47970747836012
 21
219.42870264997816
  0
LINE
  8
_1-9_
  6
CONTINUOUS
 62
    7
 10
217.97970747836012
 20
218.42870264997816
 11
217.97970747836012
 21
219.42870264997816
  0
LINE
  8
_1-9_
  6
CONTINUOUS
 62
    7
 10
218.22970747836012
 20
218.42870264997816
 11
217.97970747836012
 21
218.42870264997816
  0
LINE
  8
_1-9_
  6
CONTINUOUS
 62
    7
 10
215.47970747836012
 20
218.42870264997816
 11
214.47970747836012
 21
218.42870264997816
  0
LINE
  8
_1-9_
  6
CONTINUOUS
 62
    7
 10
217.97970747836012
 20
219.17870264997816
 11
215.47970747836012
 21
219.17870264997816
  0
LINE
  8
_1-9_
  6
CONTINUOUS
 62
    7
 10
213.72970747836012
 20
225.42870264997816
 11
198.65155747772661
 21
225.42870264997816
  0
LINE
  8
_1-9_
  6
CONTINUOUS
 62
    7
 10
212.72970747836012
 20
225.17870264997816
 11
212.72970747836012
 21
225.42870264997816
  0
LINE
  8
_1-9_
  6
CONTINUOUS
 62
    7
 10
213.72970747836012
 20
225.17870264997816
 11
213.72970747836012
 21
225.92870264997816
  0
ARC
  8
_1-9_
  6
CONTINUOUS
 62
    7
 10
213.27970747836013
 20
222.72870264997817
 40
0.45
 50
90
 51
180
  0
ARC
  8
_1-9_
  6
CONTINUOUS
 62
    7
 10
213.27970747836013
 20
222.72870264997817
 40
0.45
 50
0
 51
90
  0
LINE
  8
_1-9_
  6
CONTINUOUS
 62
    7
 10
212.82970747836014
 20
221.12870264997815
 11
212.82970747836014
 21
222.72870264997817
  0
ARC
  8
_1-9_
  6
CONTINUOUS
 62
    7
 10
213.27970747836013
 20
221.12870264997815
 40
0.45
 50
180
 51
270
  0
LINE
  8
_1-9_
  6
CONTINUOUS
 62
    7
 10
213.72970747836012
 20
221.12870264997815
 11
213.72970747836012
 21
222.72870264997817
  0
ARC
  8
_1-9_
  6
CONTINUOUS
 62
    7
 10
213.27970747836013
 20
221.12870264997815
 40
0.45
 50
270
 51
0
  0
LINE
  8
_1-9_
  6
CONTINUOUS
 62
    7
 10
216.72970747836012
 20
225.17870264997816
 11
198.65155747772661
 21
225.17870264997816
  0
LINE
  8
_1-9_
  6
CONTINUOUS
 62
    7
 10
218.22970747836012
 20
196.02468912758837
 11
218.22970747836012
 21
222.92870264997816
  0
LINE
  8
_1-9_
  6
CONTINUOUS
 62
    7
 10
218.47970747836012
 20
196.02468912758837
 11
218.47970747836012
 21
222.92870264997816
  0
LINE
  8
_1-9_
  6
CONTINUOUS
 62
    7
 10
216.72970747836012
 20
167.92870264997813
 11
213.72970747836012
 21
167.92870264997813
  0
LINE
  8
_1-9_
  6
CONTINUOUS
 62
    7
 10
218.47970747836012
 20
170.92870264997813
 11
216.72970747836012
 21
170.92870264997813
  0
LINE
  8
_1-9_
  6
CONTINUOUS
 62
    7
 10
216.72970747836012
 20
170.92870264997813
 11
216.72970747836012
 21
167.92870264997813
  0
LINE
  8
_1-9_
  6
CONTINUOUS
 62
    7
 10
218.22970747836012
 20
171.92870264997813
 11
214.47970747836012
 21
171.92870264997813
  0
LINE
  8
_1-9_
  6
CONTINUOUS
 62
    7
 10
214.47970747836012
 20
175.42870264997813
 11
214.47970747836012
 21
171.92870264997813
  0
LINE
  8
_1-9_
  6
CONTINUOUS
 62
    7
 10
215.47970747836012
 20
175.42870264997813
 11
215.47970747836012
 21
174.42870264997813
  0
LINE
  8
_1-9_
  6
CONTINUOUS
 62
    7
 10
217.97970747836012
 20
174.42870264997813
 11
215.47970747836012
 21
174.42870264997813
  0
LINE
  8
_1-9_
  6
CONTINUOUS
 62
    7
 10
217.97970747836012
 20
175.42870264997813
 11
217.97970747836012
 21
174.42870264997813
  0
LINE
  8
_1-9_
  6
CONTINUOUS
 62
    7
 10
218.22970747836012
 20
175.42870264997813
 11
217.97970747836012
 21
175.42870264997813
  0
LINE
  8
_1-9_
  6
CONTINUOUS
 62
    7
 10
215.47970747836012
 20
175.42870264997813
 11
214.47970747836012
 21
175.42870264997813
  0
LINE
  8
_1-9_
  6
CONTINUOUS
 62
    7
 10
217.97970747836012
 20
174.67870264997813
 11
215.47970747836012
 21
174.67870264997813
  0
LINE
  8
_1-9_
  6
CONTINUOUS
 62
    7
 10
213.72970747836012
 20
168.42870264997813
 11
198.65155747772661
 21
168.42870264997813
  0
LINE
  8
_1-9_
  6
CONTINUOUS
 62
    7
 10
212.72970747836012
 20
168.67870264997813
 11
212.72970747836012
 21
168.42870264997813
  0
LINE
  8
_1-9_
  6
CONTINUOUS
 62
    7
 10
213.72970747836012
 20
168.67870264997813
 11
213.72970747836012
 21
167.92870264997813
  0
ARC
  8
_1-9_
  6
CONTINUOUS
 62
    7
 10
213.27970747836013
 20
171.12870264997815
 40
0.45
 50
180
 51
270
  0
ARC
  8
_1-9_
  6
CONTINUOUS
 62
    7
 10
213.27970747836013
 20
171.12870264997815
 40
0.45
 50
270
 51
0
  0
LINE
  8
_1-9_
  6
CONTINUOUS
 62
    7
 10
212.82970747836014
 20
172.72870264997811
 11
212.82970747836014
 21
171.12870264997815
  0
ARC
  8
_1-9_
  6
CONTINUOUS
 62
    7
 10
213.27970747836013
 20
172.72870264997811
 40
0.45
 50
90
 51
180
  0
LINE
  8
_1-9_
  6
CONTINUOUS
 62
    7
 10
213.72970747836012
 20
172.72870264997811
 11
213.72970747836012
 21
171.12870264997815
  0
ARC
  8
_1-9_
  6
CONTINUOUS
 62
    7
 10
213.27970747836013
 20
172.72870264997811
 40
0.45
 50
0
 51
90
  0
LINE
  8
_1-9_
  6
CONTINUOUS
 62
    7
 10
216.72970747836012
 20
168.67870264997813
 11
198.65155747772661
 21
168.67870264997813
  0
LINE
  8
_1-9_
  6
CONTINUOUS
 62
    7
 10
218.22970747836012
 20
197.83271617236792
 11
218.22970747836012
 21
170.92870264997813
  0
LINE
  8
_1-9_
  6
CONTINUOUS
 62
    7
 10
218.47970747836012
 20
197.83271617236792
 11
218.47970747836012
 21
170.92870264997813
  0
LINE
  8
_1-9_
  6
CONTINUOUS
 62
    7
 10
193.22970747836012
 20
225.92870264997816
 11
196.22970747836012
 21
225.92870264997816
  0
LINE
  8
_1-9_
  6
CONTINUOUS
 62
    7
 10
191.47970747836012
 20
222.92870264997816
 11
193.22970747836012
 21
222.92870264997816
  0
LINE
  8
_1-9_
  6
CONTINUOUS
 62
    7
 10
193.22970747836012
 20
222.92870264997816
 11
193.22970747836012
 21
225.92870264997816
  0
LINE
  8
_1-9_
  6
CONTINUOUS
 62
    7
 10
191.72970747836012
 20
221.92870264997816
 11
195.47970747836012
 21
221.92870264997816
  0
LINE
  8
_1-9_
  6
CONTINUOUS
 62
    7
 10
195.47970747836012
 20
218.42870264997816
 11
195.47970747836012
 21
221.92870264997816
  0
LINE
  8
_1-9_
  6
CONTINUOUS
 62
    7
 10
194.47970747836012
 20
218.42870264997816
 11
194.47970747836012
 21
219.42870264997816
  0
LINE
  8
_1-9_
  6
CONTINUOUS
 62
    7
 10
191.97970747836012
 20
219.42870264997816
 11
194.47970747836012
 21
219.42870264997816
  0
LINE
  8
_1-9_
  6
CONTINUOUS
 62
    7
 10
191.97970747836012
 20
218.42870264997816
 11
191.97970747836012
 21
219.42870264997816
  0
LINE
  8
_1-9_
  6
CONTINUOUS
 62
    7
 10
191.72970747836012
 20
218.42870264997816
 11
191.97970747836012
 21
218.42870264997816
  0
LINE
  8
_1-9_
  6
CONTINUOUS
 62
    7
 10
194.47970747836012
 20
218.42870264997816
 11
195.47970747836012
 21
218.42870264997816
  0
LINE
  8
_1-9_
  6
CONTINUOUS
 62
    7
 10
191.97970747836012
 20
219.17870264997816
 11
194.47970747836012
 21
219.17870264997816
  0
LINE
  8
_1-9_
  6
CONTINUOUS
 62
    7
 10
196.22970747836012
 20
225.42870264997816
 11
211.30785747899369
 21
225.42870264997816
  0
LINE
  8
_1-9_
  6
CONTINUOUS
 62
    7
 10
197.22970747836012
 20
225.17870264997816
 11
197.22970747836012
 21
225.42870264997816
  0
LINE
  8
_1-9_
  6
CONTINUOUS
 62
    7
 10
196.22970747836012
 20
225.17870264997816
 11
196.22970747836012
 21
225.92870264997816
  0
ARC
  8
_1-9_
  6
CONTINUOUS
 62
    7
 10
196.67970747836011
 20
222.72870264997817
 40
0.45
 50
0
 51
90
  0
ARC
  8
_1-9_
  6
CONTINUOUS
 62
    7
 10
196.67970747836017
 20
222.72870264997817
 40
0.45
 50
90
 51
180
  0
LINE
  8
_1-9_
  6
CONTINUOUS
 62
    7
 10
197.12970747836016
 20
221.12870264997815
 11
197.12970747836016
 21
222.72870264997817
  0
ARC
  8
_1-9_
  6
CONTINUOUS
 62
    7
 10
196.67970747836011
 20
221.12870264997815
 40
0.45
 50
270
 51
0
  0
LINE
  8
_1-9_
  6
CONTINUOUS
 62
    7
 10
196.22970747836012
 20
221.12870264997815
 11
196.22970747836012
 21
222.72870264997817
  0
ARC
  8
_1-9_
  6
CONTINUOUS
 62
    7
 10
196.67970747836017
 20
221.12870264997815
 40
0.45
 50
180
 51
270
  0
LINE
  8
_1-9_
  6
CONTINUOUS
 62
    7
 10
193.22970747836012
 20
225.17870264997816
 11
211.30785747899369
 21
225.17870264997816
  0
LINE
  8
_1-9_
  6
CONTINUOUS
 62
    7
 10
191.72970747836012
 20
196.02468912758837
 11
191.72970747836012
 21
222.92870264997816
  0
LINE
  8
_1-9_
  6
CONTINUOUS
 62
    7
 10
191.47970747836012
 20
196.02468912758837
 11
191.47970747836012
 21
222.92870264997816
  0
LINE
  8
_1-9_
  6
CONTINUOUS
 62
    7
 10
193.22970747836012
 20
167.92870264997813
 11
196.22970747836012
 21
167.92870264997813
  0
LINE
  8
_1-9_
  6
CONTINUOUS
 62
    7
 10
191.47970747836012
 20
170.92870264997813
 11
193.22970747836012
 21
170.92870264997813
  0
LINE
  8
_1-9_
  6
CONTINUOUS
 62
    7
 10
193.22970747836012
 20
170.92870264997813
 11
193.22970747836012
 21
167.92870264997813
  0
LINE
  8
_1-9_
  6
CONTINUOUS
 62
    7
 10
191.72970747836012
 20
171.92870264997813
 11
195.47970747836012
 21
171.92870264997813
  0
LINE
  8
_1-9_
  6
CONTINUOUS
 62
    7
 10
195.47970747836012
 20
175.42870264997813
 11
195.47970747836012
 21
171.92870264997813
  0
LINE
  8
_1-9_
  6
CONTINUOUS
 62
    7
 10
194.47970747836012
 20
175.42870264997813
 11
194.47970747836012
 21
174.42870264997813
  0
LINE
  8
_1-9_
  6
CONTINUOUS
 62
    7
 10
191.97970747836012
 20
174.42870264997813
 11
194.47970747836012
 21
174.42870264997813
  0
LINE
  8
_1-9_
  6
CONTINUOUS
 62
    7
 10
191.97970747836012
 20
175.42870264997813
 11
191.97970747836012
 21
174.42870264997813
  0
LINE
  8
_1-9_
  6
CONTINUOUS
 62
    7
 10
191.72970747836012
 20
175.42870264997813
 11
191.97970747836012
 21
175.42870264997813
  0
LINE
  8
_1-9_
  6
CONTINUOUS
 62
    7
 10
194.47970747836012
 20
175.42870264997813
 11
195.47970747836012
 21
175.42870264997813
  0
LINE
  8
_1-9_
  6
CONTINUOUS
 62
    7
 10
191.97970747836012
 20
174.67870264997813
 11
194.47970747836012
 21
174.67870264997813
  0
LINE
  8
_1-9_
  6
CONTINUOUS
 62
    7
 10
196.22970747836012
 20
168.42870264997813
 11
211.30785747899369
 21
168.42870264997813
  0
LINE
  8
_1-9_
  6
CONTINUOUS
 62
    7
 10
197.22970747836012
 20
168.67870264997813
 11
197.22970747836012
 21
168.42870264997813
  0
LINE
  8
_1-9_
  6
CONTINUOUS
 62
    7
 10
196.22970747836012
 20
168.67870264997813
 11
196.22970747836012
 21
167.92870264997813
  0
ARC
  8
_1-9_
  6
CONTINUOUS
 62
    7
 10
196.67970747836011
 20
171.12870264997815
 40
0.45
 50
270
 51
0
  0
ARC
  8
_1-9_
  6
CONTINUOUS
 62
    7
 10
196.67970747836017
 20
171.12870264997815
 40
0.45
 50
180
 51
270
  0
LINE
  8
_1-9_
  6
CONTINUOUS
 62
    7
 10
197.12970747836016
 20
172.72870264997811
 11
197.12970747836016
 21
171.12870264997815
  0
ARC
  8
_1-9_
  6
CONTINUOUS
 62
    7
 10
196.67970747836011
 20
172.72870264997811
 40
0.45
 50
0
 51
90
  0
LINE
  8
_1-9_
  6
CONTINUOUS
 62
    7
 10
196.22970747836012
 20
172.72870264997811
 11
196.22970747836012
 21
171.12870264997815
  0
ARC
  8
_1-9_
  6
CONTINUOUS
 62
    7
 10
196.67970747836017
 20
172.72870264997811
 40
0.45
 50
90
 51
180
  0
LINE
  8
_1-9_
  6
CONTINUOUS
 62
    7
 10
193.22970747836012
 20
168.67870264997813
 11
211.30785747899369
 21
168.67870264997813
  0
LINE
  8
_1-9_
  6
CONTINUOUS
 62
    7
 10
191.72970747836012
 20
197.83271617236792
 11
191.72970747836012
 21
170.92870264997813
  0
LINE
  8
_1-9_
  6
CONTINUOUS
 62
    7
 10
191.47970747836012
 20
197.83271617236792
 11
191.47970747836012
 21
170.92870264997813
  0
LINE
  8
_1-0_
  6
DASHED3
 62
    7
 10
193.22970747836012
 20
225.67870264997816
 11
188.72970747836012
 21
225.67870264997816
  0
LINE
  8
_1-0_
  6
CONTINUOUS
 62
    7
 10
193.22970747836012
 20
225.67870264997816
 11
188.72970747836012
 21
225.67870264997816
  0
LINE
  8
_1-0_
  6
DASHED3
 62
    7
 10
221.22970747836012
 20
225.67870264997816
 11
216.72970747836012
 21
225.67870264997816
  0
LINE
  8
_1-0_
  6
DASHED3
 62
    7
 10
213.72970747836012
 20
225.67870264997816
 11
196.22970747836012
 21
225.67870264997816
  0
LINE
  8
_1-0_
  6
CONTINUOUS
 62
    7
 10
221.22970747836012
 20
225.67870264997816
 11
216.72970747836012
 21
225.67870264997816
  0
LINE
  8
_1-0_
  6
CONTINUOUS
 62
    7
 10
213.72970747836012
 20
225.67870264997816
 11
196.22970747836012
 21
225.67870264997816
  0
LINE
  8
_1-0_
  6
DASHED3
 62
    7
 10
188.72970747836012
 20
168.17870264997813
 11
193.22970747836012
 21
168.17870264997813
  0
LINE
  8
_1-0_
  6
CONTINUOUS
 62
    7
 10
188.72970747836012
 20
168.17870264997813
 11
193.22970747836012
 21
168.17870264997813
  0
LINE
  8
_1-0_
  6
DASHED3
 62
    7
 10
196.22970747836012
 20
168.17870264997813
 11
213.72970747836012
 21
168.17870264997813
  0
LINE
  8
_1-0_
  6
DASHED3
 62
    7
 10
216.72970747836012
 20
168.17870264997813
 11
221.22970747836012
 21
168.17870264997813
  0
LINE
  8
_1-0_
  6
CONTINUOUS
 62
    7
 10
196.22970747836012
 20
168.17870264997813
 11
213.72970747836012
 21
168.17870264997813
  0
LINE
  8
_1-0_
  6
CONTINUOUS
 62
    7
 10
216.72970747836012
 20
168.17870264997813
 11
221.22970747836012
 21
168.17870264997813
  0
LINE
  8
_1-0_
  6
CONTINUOUS
 62
    7
 10
215.47970747836012
 20
220.42870264997816
 11
215.47970747836012
 21
219.42870264997816
  0
LINE
  8
_1-0_
  6
CONTINUOUS
 62
    7
 10
217.97970747836012
 20
220.42870264997816
 11
215.47970747836012
 21
220.42870264997816
  0
LINE
  8
_1-0_
  6
CONTINUOUS
 62
    7
 10
217.97970747836012
 20
220.42870264997816
 11
217.97970747836012
 21
219.42870264997816
  0
LINE
  8
_1-0_
  6
CONTINUOUS
 62
    7
 10
215.47970747836012
 20
219.42870264997816
 11
217.97970747836012
 21
219.42870264997816
  0
LINE
  8
_1-0_
  6
CONTINUOUS
 62
    7
 10
194.47970747836012
 20
220.42870264997816
 11
194.47970747836012
 21
219.42870264997816
  0
LINE
  8
_1-0_
  6
CONTINUOUS
 62
    7
 10
191.97970747836012
 20
220.42870264997816
 11
194.47970747836012
 21
220.42870264997816
  0
LINE
  8
_1-0_
  6
CONTINUOUS
 62
    7
 10
191.97970747836012
 20
220.42870264997816
 11
191.97970747836012
 21
219.42870264997816
  0
LINE
  8
_1-0_
  6
CONTINUOUS
 62
    7
 10
194.47970747836012
 20
219.42870264997816
 11
191.97970747836012
 21
219.42870264997816
  0
LINE
  8
_1-0_
  6
CONTINUOUS
 62
    7
 10
215.47970747836012
 20
173.42870264997813
 11
215.47970747836012
 21
174.42870264997813
  0
LINE
  8
_1-0_
  6
CONTINUOUS
 62
    7
 10
217.97970747836012
 20
173.42870264997813
 11
215.47970747836012
 21
173.42870264997813
  0
LINE
  8
_1-0_
  6
CONTINUOUS
 62
    7
 10
217.97970747836012
 20
173.42870264997813
 11
217.97970747836012
 21
174.42870264997813
  0
LINE
  8
_1-0_
  6
CONTINUOUS
 62
    7
 10
215.47970747836012
 20
174.42870264997813
 11
217.97970747836012
 21
174.42870264997813
  0
LINE
  8
_1-0_
  6
CONTINUOUS
 62
    7
 10
194.47970747836012
 20
173.42870264997813
 11
194.47970747836012
 21
174.42870264997813
  0
LINE
  8
_1-0_
  6
CONTINUOUS
 62
    7
 10
191.97970747836012
 20
173.42870264997813
 11
194.47970747836012
 21
173.42870264997813
  0
LINE
  8
_1-0_
  6
CONTINUOUS
 62
    7
 10
191.97970747836012
 20
173.42870264997813
 11
191.97970747836012
 21
174.42870264997813
  0
LINE
  8
_1-0_
  6
CONTINUOUS
 62
    7
 10
194.47970747836012
 20
174.42870264997813
 11
191.97970747836012
 21
174.42870264997813
  0
LINE
  8
_1-4_
  6
CONTINUOUS
 62
  150
 10
193.3797074783601
 20
207.17870264997816
 11
193.3797074783601
 21
195.57870264997814
  0
LINE
  8
_1-4_
  6
CONTINUOUS
 62
  150
 10
216.57970747836014
 20
203.67870264997816
 11
216.57970747836014
 21
192.07870264997814
  0
LINE
  8
_1-1_
  6
CONTINUOUS
 62
    7
 10
195.47970747836012
 20
174.9287026499781
 11
195.47970747836012
 21
179.4287026499781
  0
LINE
  8
_1-1_
  6
CONTINUOUS
 62
    7
 10
211.47970747836012
 20
169.5537026499781
 11
211.47970747836012
 21
179.4287026499781
  0
LINE
  8
_1-1_
  6
CONTINUOUS
 62
    7
 10
198.47970747836012
 20
224.30370264997816
 11
198.47970747836012
 21
214.42870264997816
  0
LINE
  8
_1-1_
  6
CONTINUOUS
 62
    7
 10
214.47970747836012
 20
218.92870264997816
 11
214.47970747836012
 21
214.42870264997816
  0
TEXT
  8
_1-7_
 62
    3
 10
209.64394892943573
 20
234.99738634120296
 40
6
 41
1
 50
0
  1
⑤
  0
LINE
  8
_1-f_
  6
CONTINUOUS
 62
   18
 10
181.63506049612544
 20
195.57870264997814
 11
181.63506049612544
 21
207.17870264997816
  0
TEXT
  8
_1-f_
 62
    7
 10
181.13506049612544
 20
197.00370264997815
 40
4
 41
1
 50
90
  1
23.2
  0
LINE
  8
_1-f_
  6
CONTINUOUS
 62
   18
 10
241.24413168635646
 20
203.67870264997816
 11
241.24413168635646
 21
214.42870264997816
  0
TEXT
  8
_1-f_
 62
    7
 10
240.74413168635646
 20
204.67870264997816
 40
4
 41
1
 50
90
  1
21.5
  0
LINE
  8
_1-f_
  6
CONTINUOUS
 62
   18
 10
241.24413168635646
 20
192.07870264997814
 11
241.24413168635646
 21
203.67870264997816
  0
TEXT
  8
_1-f_
 62
    7
 10
240.74413168635646
 20
193.50370264997815
 40
4
 41
1
 50
90
  1
23.2
  0
LINE
  8
_1-7_
  6
CONTINUOUS
 62
   18
 10
213.01305981121035
 20
197.93374415776503
 11
229.11019525465763
 21
180.75355475824216
  0
TEXT
  8
_1-7_
 62
    3
 10
228.94023311463394
 20
175.22268469217783
 40
6
 41
1
 50
0
  1
⑧
  0
LINE
  8
_1-7_
  6
CONTINUOUS
 62
   18
 10
197.25500553910467
 20
200.50181523830383
 11
182.38448708237754
 21
188.778776884926
  0
TEXT
  8
_1-7_
 62
    3
 10
176.49540651675491
 20
183.60904181456248
 40
6
 41
1
 50
0
  1
⑦
  0
LINE
  8
_1-7_
  6
CONTINUOUS
 62
   18
 10
211.97259012552473
 20
211.34697456460281
 11
227.66194486607551
 21
224.21651866435587
  0
TEXT
  8
_1-7_
 62
    3
 10
227.77657590626481
 20
223.25363912038079
 40
6
 41
1
 50
0
  1
⑥
  0
LINE
  8
_1-7_
  6
CONTINUOUS
 62
   18
 10
204.48197167670153
 20
217.46119950618214
 11
194.97061700210264
 21
234.45899489493064
  0
TEXT
  8
_1-7_
 62
    3
 10
190.71813119997449
 20
234.75816382490978
 40
6
 41
1
 50
0
  1
⑨
  0
LINE
  8
_1-f_
  6
CENTER2
 62
   18
 10
204.97970747836012
 20
220.120387806459
 11
204.97970747836012
 21
215.80856475765304
  0
LINE
  8
_1-f_
  6
CENTER2
 62
   18
 10
204.97970747836012
 20
178.09794690754918
 11
204.97970747836012
 21
173.7702715681226
  0
LINE
  8
_1-f_
  6
CENTER2
 62
   18
 10
201.90896118692302
 20
217.80370264997816
 11
207.91202549131529
 21
217.80370264997816
  0
LINE
  8
_1-f_
  6
CONTINUOUS
 62
   18
 10
164.74160275177055
 20
176.0537026499781
 11
164.74160275177055
 21
217.80370264997816
  0
LINE
  8
_1-f_
  6
CONTINUOUS
 62
   18
 10
164.74160275177055
 20
176.0537026499781
 11
163.96514561646299
 21
178.9514801288453
  0
LINE
  8
_1-f_
  6
CONTINUOUS
 62
   18
 10
164.74160275177055
 20
176.0537026499781
 11
165.51805988707809
 21
178.9514801288453
  0
LINE
  8
_1-f_
  6
CONTINUOUS
 62
   18
 10
164.74160275177055
 20
217.80370264997816
 11
165.51805988707809
 21
214.90592517111096
  0
LINE
  8
_1-f_
  6
CONTINUOUS
 62
   18
 10
164.74160275177055
 20
217.80370264997816
 11
163.96514561646299
 21
214.90592517111096
  0
TEXT
  8
_1-f_
 62
    7
 10
164.24160275177055
 20
192.55370264997813
 40
4
 41
1
 50
90
  1
83.5
  0
LINE
  8
_1-f_
  6
CONTINUOUS
 62
   18
 10
164.24160275177055
 20
176.0537026499781
 11
201.06079680118548
 21
176.0537026499781
  0
LINE
  8
_1-f_
  6
CONTINUOUS
 62
   18
 10
164.24160275177055
 20
217.80370264997816
 11
201.06079680118548
 21
217.80370264997816
  0
TEXT
  8
_1-8_
 62
    7
 10
35.803740021795363
 20
261.10692184259517
 40
5
 41
1.0000000000000004
 50
0
  1
◆外形図
  0
LINE
  8
_1-e_
  6
CONTINUOUS
 62
    7
 10
61.284825905776642
 20
265.69945563948635
 11
59.034833535171173
 21
261.19945373213772
  0
LINE
  8
_1-e_
  6
CONTINUOUS
 62
    7
 10
59.034833535171173
 20
261.19945373213772
 11
63.534825905776642
 21
261.19945373213772
  0
LINE
  8
_1-e_
  6
CONTINUOUS
 62
    7
 10
61.284825905776642
 20
265.69945563948635
 11
63.534825905776642
 21
261.19945373213772
  0
TEXT
  8
_1-e_
 62
    7
 10
60.668889626479767
 20
261.43405093825344
 40
3
 41
1
 50
0
  1
2
  0
TEXT
  8
_1-8_
 62
    7
 10
37.786234680280472
 20
96.112555047843159
 40
5
 41
1.0000000000000004
 50
0
  1
◆型式内容
  0
LINE
  8
_1-8_
  6
CONTINUOUS
 62
    7
 10
63.173772384780306
 20
95.762463047843084
 11
37.692094180280491
 21
95.762463047843084
  0
TEXT
  8
_1-8_
 62
    7
 10
37.786234680280472
 20
72.355939317429545
 40
5
 41
1.0000000000000004
 50
0
  1
◆定格表
  0
TEXT
  8
_1-8_
 62
    7
 10
42.62857199307308
 20
62.747597005210081
 40
4.9999999999999857
 41
1.0000000000000031
 50
0
  1
定格　入力電圧 DC24V / 12V(※AC100V器具調光時)
  0
TEXT
  8
_1-8_
 62
    7
 10
153.63333185058439
 20
55.043383763593567
 40
4
 41
1
 50
0
  1
最大出力電流（A）
  0
TEXT
  8
_1-8_
 62
    7
 10
152.14422322347064
 20
50.49575789180605
 40
4
 41
1
 50
0
  1
（DC24V / DC12V）
  0
LINE
  8
_1-8_
  6
CONTINUOUS
 62
    7
 10
40.94327534646942
 20
60.580787031005456
 11
272.65818888425485
 21
60.580787031005456
  0
LINE
  8
_1-8_
  6
CONTINUOUS
 62
    7
 10
40.94327534646942
 20
48.950902632419484
 11
272.65818888425485
 21
48.950902632419484
  0
TEXT
  8
_1-8_
 62
    7
 10
160.5882258030063
 20
42.193355102086087
 40
4
 41
1
 50
0
  1
6.3 / 1.0
  0
LINE
  8
_1-8_
  6
CONTINUOUS
 62
    7
 10
40.94327534646942
 20
40.164120364338856
 11
272.65818888425485
 21
40.164120364338856
  0
TEXT
  8
_1-8_
 62
    7
 10
41.683389912884535
 20
35.105887020583111
 40
3
 41
1
 50
0
  1
※本製品をAC100V照明のPWM調光器としてご使用の場合（FKK製品専用）
  0
TEXT
  8
_1-8_
 62
    7
 10
41.683389912884535
 20
31.494537063575364
 40
3
 41
1
 50
0
  1
※ディップスイッチ切り替えが必要となります。
  0
TEXT
  8
_1-8_
 62
    7
 10
128.10725380256951
 20
89.101155072075869
 40
5
 41
1.0000000000000004
 50
0
  1
①化粧パネルカラー　B=ﾌﾞﾗｯｸ/G=ｸﾞﾚｰ/W=ﾎﾜｲﾄ
  0
TEXT
  8
_1-e_
 62
    7
 10
310.82010854909299
 20
52.06190885640575
 40
4
 41
1
 50
0
  1
出図
  0
TEXT
  8
_1-8_
 62
    7
 10
310.56214413674217
 20
89.947406136946682
 40
4
 41
1
 50
0
  1
⑥
  0
TEXT
  8
_1-8_
 62
    7
 10
310.56214413674217
 20
64.094208462528058
 40
4
 41
1
 50
0
  1
②
  0
TEXT
  8
_1-8_
 62
    7
 10
310.68949979031071
 20
57.726425784099888
 40
4
 41
1
 50
0
  1
①
  0
TEXT
  8
_1-8_
 62
    7
 10
310.43478848317363
 20
70.589346794524885
 40
4
 41
1
 50
0
  1
③
  0
TEXT
  8
_1-8_
 62
    7
 10
310.43478848317363
 20
77.084485126521656
 40
4
 41
1
 50
0
  1
④
  0
TEXT
  8
_1-8_
 62
    7
 10
310.56214413674217
 20
83.579623458518483
 40
4
 41
1
 50
0
  1
⑤
  0
TEXT
  8
_1-8_
 62
    7
 10
310.56214413674217
 20
96.076553113607445
 40
4
 41
1
 50
0
  1
⑦
  0
TEXT
  8
_1-8_
 62
    7
 10
310.56214413674217
 20
102.47655311360745
 40
4
 41
1
 50
0
  1
⑧
  0
TEXT
  8
_1-8_
 62
    7
 10
310.56214413674217
 20
108.87655311360745
 40
4
 41
1
 50
0
  1
⑨
  0
TEXT
  8
_1-8_
 62
    7
 10
310.56214413674217
 20
115.27655311360746
 40
4
 41
1
 50
0
  1
⑩
  0
TEXT
  8
_1-8_
 62
    7
 10
319.08998116466739
 20
77.051125111608143
 40
4
 41
1
 50
0
  1
ON/OFFﾀｸﾄｽｲｯﾁ
  0
TEXT
  8
_1-8_
 62
    7
 10
318.51423258192329
 20
96.14788842140021
 40
4
 41
1
 50
0
  1
入力接続端子台
  0
TEXT
  8
_1-8_
 62
    7
 10
318.51423258192329
 20
102.54788842140021
 40
4
 41
1
 50
0
  1
出力接続端子台
  0
TEXT
  8
_1-8_
 62
    7
 10
319.14677410114546
 20
115.34788842140022
 40
4
 41
1
 50
0
  1
ﾃﾞｨｯﾌﾟｽｲｯﾁ
  0
TEXT
  8
_1-8_
 62
    7
 10
319.21386591350818
 20
108.94788842140022
 40
4
 41
1
 50
0
  1
2-5×10取付穴
  0
TEXT
  8
_1-8_
 62
    7
 10
318.63563194006781
 20
89.819767119152714
 40
4
 41
1
 50
0
  1
ケース
  0
TEXT
  8
_1-8_
 62
    7
 10
318.78732296901597
 20
83.42254556569901
 40
4
 41
1
 50
0
  1
基板固定金具
  0
TEXT
  8
_1-f_
 62
    7
 10
366.42377490434722
 20
89.615434283962315
 40
4
 41
1
 50
0
  1
SPCC　白塗装
  0
TEXT
  8
_1-f_
 62
    7
 10
366.34242471736786
 20
83.520060060211505
 40
4
 41
1
 50
0
  1
SECC 
  0
TEXT
  8
_1-8_
 62
    7
 10
366.38864139836528
 20
63.990076100430201
 40
4
 41
1
 50
0
  1
緑色
  0
TEXT
  8
_1-8_
 62
    7
 10
366.62603033502335
 20
58.326597879048335
 40
3
 41
1
 50
0
  1
ﾌﾞﾗｯｸ/ｸﾞﾚｰ/ﾎﾜｲﾄ
  0
LINE
  8
_1-8_
  6
CONTINUOUS
 62
   18
 10
402.62523585291575
 20
120.59169242403572
 11
307.62523013086985
 21
120.59169242403572
  0
LINE
  8
_1-8_
  6
CONTINUOUS
 62
   18
 10
402.62523585291575
 20
114.19169242403575
 11
307.62523013086985
 21
114.19169242403575
  0
LINE
  8
_1-8_
  6
CONTINUOUS
 62
   18
 10
402.62523585291575
 20
107.79169242403574
 11
307.62523013086985
 21
107.79169242403574
  0
LINE
  8
_1-8_
  6
CONTINUOUS
 62
   18
 10
402.62523585291575
 20
101.39169242403573
 11
307.62523013086985
 21
101.39169242403573
  0
LINE
  8
_1-8_
  6
CONTINUOUS
 62
   18
 10
402.62523585291575
 20
94.991692424035733
 11
307.62523013086985
 21
94.991692424035733
  0
LINE
  8
_1-8_
  6
CONTINUOUS
 62
   18
 10
402.62523585291575
 20
88.591692424035727
 11
307.62523013086985
 21
88.591692424035727
  0
LINE
  8
_1-8_
  6
CONTINUOUS
 62
   18
 10
402.62523585291575
 20
82.19169242403575
 11
307.62523013086985
 21
82.19169242403575
  0
LINE
  8
_1-8_
  6
CONTINUOUS
 62
   18
 10
402.62523585291575
 20
75.791692424035716
 11
307.62523013086985
 21
75.791692424035716
  0
LINE
  8
_1-8_
  6
CONTINUOUS
 62
   18
 10
402.62523585291575
 20
69.391692424035738
 11
307.62523013086985
 21
69.391692424035738
  0
LINE
  8
_1-8_
  6
CONTINUOUS
 62
   18
 10
402.62523585291575
 20
62.991692424035704
 11
307.62523013086985
 21
62.991692424035704
  0
LINE
  8
_1-e_
  6
CONTINUOUS
 62
    7
 10
402.62523585291575
 20
56.591692424035727
 11
307.62523013086985
 21
56.591692424035727
  0
TEXT
  8
_1-8_
 62
    7
 10
397.48069237830549
 20
115.27655311360746
 40
4
 41
1
 50
0
  1
1
  0
TEXT
  8
_1-8_
 62
    7
 10
397.48069237830549
 20
108.87655311360745
 40
4
 41
1
 50
0
  1
2
  0
TEXT
  8
_1-8_
 62
    7
 10
397.48069237830549
 20
102.47655311360745
 40
4
 41
1
 50
0
  1
1
  0
TEXT
  8
_1-8_
 62
    7
 10
397.48069237830549
 20
96.076553113607445
 40
4
 41
1
 50
0
  1
1
  0
TEXT
  8
_1-8_
 62
    7
 10
397.48069237830549
 20
89.947406136946682
 40
4
 41
1
 50
0
  1
1
  0
TEXT
  8
_1-8_
 62
    7
 10
397.48069237830549
 20
83.579623458518483
 40
4
 41
1
 50
0
  1
1
  0
TEXT
  8
_1-8_
 62
    7
 10
397.35333672473694
 20
77.084485126521656
 40
4
 41
1
 50
0
  1
1
  0
TEXT
  8
_1-8_
 62
    7
 10
397.35333672473694
 20
70.589346794524885
 40
4
 41
1
 50
0
  1
1
  0
TEXT
  8
_1-8_
 62
    7
 10
397.48069237830549
 20
64.094208462528058
 40
4
 41
1
 50
0
  1
1
  0
TEXT
  8
_1-8_
 62
    7
 10
397.60804803187409
 20
57.726425784099888
 40
4
 41
1
 50
0
  1
1
  0
LINE
  8
_1-8_
  6
CONTINUOUS
 62
   18
 10
307.62523013086985
 20
120.59169242403572
 11
307.62523013086985
 21
56.591692424035727
  0
LINE
  8
_1-8_
  6
CONTINUOUS
 62
   18
 10
317.62523013086985
 20
120.59169242403572
 11
317.62523013086985
 21
56.591692424035727
  0
LINE
  8
_1-8_
  6
CONTINUOUS
 62
   18
 10
365.12523013086985
 20
120.59169242403572
 11
365.12523013086985
 21
56.591692424035727
  0
LINE
  8
_1-8_
  6
CONTINUOUS
 62
   18
 10
394.12523013086985
 20
120.59169242403572
 11
394.12523013086985
 21
56.591692424035727
  0
LINE
  8
_1-e_
  6
CONTINUOUS
 62
    7
 10
307.62523013086985
 20
56.591692424035727
 11
307.62840746439229
 21
51.591692424035755
  0
LINE
  8
_1-e_
  6
CONTINUOUS
 62
    7
 10
357.62840746439229
 20
51.591692424035755
 11
357.62840746439229
 21
56.591692424035727
  0
LINE
  8
_1-e_
  6
CONTINUOUS
 62
    7
 10
322.62840746439229
 20
51.591692424035755
 11
322.62840746439229
 21
56.591692424035727
  0
LINE
  8
_1-8_
  6
CONTINUOUS
 62
    7
 10
58.41344106757657
 20
72.00584731742947
 11
37.692094180280491
 21
72.00584731742947
  0
LINE
  8
_1-8_
  6
CONTINUOUS
 62
    7
 10
56.353634055061064
 20
260.75682984259509
 11
35.709599521795382
 21
260.75682984259509
  0
TEXT
  8
_1-8_
 62
    7
 10
53.122100823635321
 20
52.562252589427231
 40
4
 41
1
 50
0
  1
型番
  0
TEXT
  8
_1-8_
 62
    7
 10
91.563614982773941
 20
55.043383763593567
 40
4
 41
1
 50
0
  1
外形寸法
  0
TEXT
  8
_1-8_
 62
    7
 10
93.436596734947457
 20
50.49575789180605
 40
4
 41
1
 50
0
  1
（mm）
  0
TEXT
  8
_1-8_
 62
    7
 10
83.046729904804038
 20
42.193355102086087
 40
4
 41
1
 50
0
  1
W70×H120×D38.2
  0
TEXT
  8
_1-8_
 62
    7
 10
131.3806455355872
 20
55.043383763593567
 40
4
 41
1
 50
0
  1
重量
  0
TEXT
  8
_1-8_
 62
    7
 10
130.14992039944502
 20
50.49575789180605
 40
4
 41
1
 50
0
  1
（g）
  0
TEXT
  8
_1-8_
 62
    7
 10
132.21779443211914
 20
42.193355102086087
 40
4
 41
1
 50
0
  1
168
  0
TEXT
  8
_1-8_
 62
    7
 10
198.9746970785317
 20
55.043383763593567
 40
4
 41
1
 50
0
  1
最大接続電源容量（W）
  0
TEXT
  8
_1-8_
 62
    7
 10
201.44023161564834
 20
50.49575789180605
 40
4
 41
1
 50
0
  1
（DC24V / DC12V）
  0
TEXT
  8
_1-8_
 62
    7
 10
210.4459997440519
 20
42.193355102086087
 40
4
 41
1
 50
0
  1
150 / 12
  0
TEXT
  8
_1-8_
 62
    7
 10
254.87036663182163
 20
52.562252589427231
 40
4
 41
1
 50
0
  1
調光
  0
TEXT
  8
_1-8_
 62
    7
 10
252.15573288494368
 20
42.193355102086087
 40
4
 41
1
 50
0
  1
PWM方式
  0
LINE
  8
_1-8_
  6
CONTINUOUS
 62
    7
 10
40.94327534646942
 20
48.950902632419484
 11
272.65818888425491
 21
48.950902632419484
  0
LINE
  8
_1-8_
  6
CONTINUOUS
 62
    7
 10
40.94327534646942
 20
60.580787031005456
 11
272.65818888425491
 21
60.580787031005456
  0
LINE
  8
_1-8_
  6
CONTINUOUS
 62
    7
 10
40.94327534646942
 20
40.164120364338856
 11
272.65818888425491
 21
40.164120364338856
  0
LINE
  8
_1-8_
  6
CONTINUOUS
 62
    7
 10
40.94327534646942
 20
60.580787031005456
 11
40.94327534646942
 21
40.164120364338856
  0
LINE
  8
_1-8_
  6
CONTINUOUS
 62
    7
 10
272.65818888425491
 20
60.580787031005456
 11
272.65818888425491
 21
40.164120364338856
  0
LINE
  8
_1-8_
  6
CONTINUOUS
 62
    7
 10
75.94327534646942
 20
60.580787031005456
 11
75.94327534646942
 21
40.164120364338856
  0
LINE
  8
_1-8_
  6
CONTINUOUS
 62
    7
 10
125.94327534646943
 20
60.580787031005456
 11
125.94327534646943
 21
40.164120364338856
  0
LINE
  8
_1-8_
  6
CONTINUOUS
 62
    7
 10
145.94327534646942
 20
60.580787031005456
 11
145.94327534646942
 21
40.164120364338856
  0
LINE
  8
_1-8_
  6
CONTINUOUS
 62
    7
 10
195.94327534646942
 20
60.580787031005456
 11
195.94327534646942
 21
40.164120364338856
  0
LINE
  8
_1-8_
  6
CONTINUOUS
 62
    7
 10
245.94327534646942
 20
60.580787031005456
 11
245.94327534646942
 21
40.164120364338856
  0
TEXT
  8
_1-8_
 62
    7
 10
79.907386504585474
 20
88.417679548610905
 40
6.9999999999999857
 41
1.0000000000000024
 50
0
  1
FMC-24S□
  0
TEXT
  8
_1-8_
 62
    7
 10
318.89913278322535
 20
70.717887316633436
 40
4
 41
1
 50
0
  1
ｽﾗｲﾄﾞﾎﾞﾘｭｰﾑ
  0
LINE
  8
_1-8_
  6
CONTINUOUS
 62
    7
 10
104.18005678045209
 20
88.323986782455079
 11
111.56326113700124
 21
88.323986782455079
  0
TEXT
  8
_1-8_
 62
    7
 10
104.81815747788211
 20
80.696853554130882
 40
6
 41
1
 50
0
  1
①
  0
TEXT
  8
_1-f_
 62
    7
 10
260.36452363573084
 20
237.31728848823198
 40
4
 41
1
 50
0
  1
□適合電線
  0
TEXT
  8
_1-f_
 62
    7
 10
260.36452363573084
 20
218.5416954729568
 40
4
 41
1
 50
0
  1
□適用工具
  0
TEXT
  8
_1-f_
 62
    7
 10
260.3750318599915
 20
211.27504131027615
 40
4
 41
1
 50
0
  1
□標準剥ぎ線長　11mm
  0
TEXT
  8
_1-f_
 62
    7
 10
260.38987501483632
 20
204.15186411478475
 40
4
 41
1
 50
0
  1
□ディップスイッチ
  0
TEXT
  8
_1-8_
 62
    7
 10
318.94269284428014
 20
63.990076100430201
 40
4
 41
1
 50
0
  1
ﾊﾟｲﾛｯﾄLED
  0
TEXT
  8
_1-8_
 62
    7
 10
48.389550629629582
 20
42.193355102086087
 40
4
 41
1
 50
0
  1
FMC-24S□
  0
TEXT
  8
_1-f_
 62
    7
 10
265.90485500851036
 20
166.7932852334851
 40
3
 41
1
 50
0
  1
【SW1:OFF/SW2:OFF】
  0
LINE
  8
_1-f_
  6
CONTINUOUS
 62
    3
 10
289.49045693329338
 20
191.46986274863138
 11
289.49045693329338
 21
171.66986274863137
  0
LINE
  8
_1-f_
  6
CONTINUOUS
 62
    3
 10
289.49045693329338
 20
191.46986274863138
 11
275.49045693329338
 21
191.46986274863138
  0
LINE
  8
_1-f_
  6
CONTINUOUS
 62
    3
 10
275.49045693329338
 20
191.46986274863138
 11
275.49045693329338
 21
171.66986274863137
  0
LINE
  8
_1-f_
  6
CONTINUOUS
 62
    7
 10
278.49045693329338
 20
179.51986274863139
 11
281.49045693329338
 21
179.51986274863139
  0
LINE
  8
_1-f_
  6
CONTINUOUS
 62
    7
 10
281.49045693329338
 20
179.51986274863139
 11
281.49045693329338
 21
186.51986274863139
  0
LINE
  8
_1-f_
  6
CONTINUOUS
 62
    7
 10
281.49045693329338
 20
186.51986274863139
 11
278.49045693329338
 21
186.51986274863139
  0
LINE
  8
_1-f_
  6
CONTINUOUS
 62
    7
 10
278.49045693329338
 20
186.51986274863139
 11
278.49045693329338
 21
179.51986274863139
  0
LINE
  8
_1-f_
  6
CONTINUOUS
 62
    7
 10
283.49045693329338
 20
179.51986274863139
 11
286.49045693329338
 21
179.51986274863139
  0
LINE
  8
_1-f_
  6
CONTINUOUS
 62
    7
 10
286.49045693329338
 20
179.51986274863139
 11
286.49045693329338
 21
186.51986274863139
  0
LINE
  8
_1-f_
  6
CONTINUOUS
 62
    7
 10
286.49045693329338
 20
186.51986274863139
 11
283.49045693329338
 21
186.51986274863139
  0
LINE
  8
_1-f_
  6
CONTINUOUS
 62
    7
 10
283.49045693329338
 20
186.51986274863139
 11
283.49045693329338
 21
179.51986274863139
  0
LINE
  8
_1-f_
  6
CONTINUOUS
 62
    7
 10
278.49045693329338
 20
182.51986274863139
 11
281.49045693329338
 21
182.51986274863139
  0
LINE
  8
_1-f_
  6
CONTINUOUS
 62
    7
 10
283.49045693329338
 20
182.51986274863139
 11
286.49045693329338
 21
182.51986274863139
  0
LINE
  8
_1-f_
  6
CONTINUOUS
 62
    3
 10
275.49045693329338
 20
171.66986274863137
 11
289.49045693329338
 21
171.66986274863137
  0
TEXT
  8
_1-f_
 62
    3
 10
278.64893689433876
 20
171.91514163411602
 40
6
 41
1
 50
0
  1
1
  0
TEXT
  8
_1-f_
 62
    3
 10
283.5948515679691
 20
171.85569554428872
 40
6
 41
1
 50
0
  1
2
  0
TEXT
  8
_1-f_
 62
    7
 10
280.17075679391734
 20
187.12145141193622
 40
4
 41
1
 50
0
  1
ON
  0
LINE
  8
_1-f_
  6
CONTINUOUS
 62
    3
 10
280.81335909694678
 20
182.51986274863168
 11
281.49045693329316
 21
183.19696058497811
  0
LINE
  8
_1-f_
  6
CONTINUOUS
 62
    3
 10
280.10625231576119
 20
182.5198627486319
 11
281.49045693329304
 21
183.9040673661637
  0
LINE
  8
_1-f_
  6
CONTINUOUS
 62
    3
 10
279.39914553457526
 20
182.51986274863168
 11
281.49045693329293
 21
184.61117414734934
  0
LINE
  8
_1-f_
  6
CONTINUOUS
 62
    3
 10
278.6920387533886
 20
182.51986274863168
 11
281.49045693329287
 21
185.31828092853595
  0
LINE
  8
_1-f_
  6
CONTINUOUS
 62
    3
 10
278.4904569332935
 20
183.0253877097233
 11
281.49045693329287
 21
186.02538770972262
  0
LINE
  8
_1-f_
  6
CONTINUOUS
 62
    3
 10
278.49045693329338
 20
183.7324944909098
 11
281.2778251910156
 21
186.51986274863202
  0
LINE
  8
_1-f_
  6
CONTINUOUS
 62
    3
 10
278.4904569332935
 20
184.43960127209658
 11
280.57071840982837
 21
186.51986274863151
  0
LINE
  8
_1-f_
  6
CONTINUOUS
 62
    3
 10
278.49045693329344
 20
185.14670805328319
 11
279.86361162864147
 21
186.51986274863122
  0
LINE
  8
_1-f_
  6
CONTINUOUS
 62
    3
 10
278.49045693329338
 20
185.8538148344698
 11
279.15650484745492
 21
186.51986274863139
  0
LINE
  8
_1-f_
  6
CONTINUOUS
 62
    3
 10
286.47021334643989
 20
182.51986274863145
 11
286.49045693329333
 21
182.54010633548489
  0
LINE
  8
_1-f_
  6
CONTINUOUS
 62
    3
 10
285.76310656525322
 20
182.51986274863145
 11
286.49045693329327
 21
183.24721311667155
  0
LINE
  8
_1-f_
  6
CONTINUOUS
 62
    3
 10
285.05599978406655
 20
182.51986274863145
 11
286.49045693329321
 21
183.95431989785816
  0
LINE
  8
_1-f_
  6
CONTINUOUS
 62
    3
 10
284.34889300287989
 20
182.51986274863145
 11
286.49045693329316
 21
184.66142667904478
  0
LINE
  8
_1-f_
  6
CONTINUOUS
 62
    3
 10
283.64178622169316
 20
182.51986274863145
 11
286.4904569332931
 21
185.36853346023139
  0
LINE
  8
_1-f_
  6
CONTINUOUS
 62
    3
 10
283.49045693329333
 20
183.07564024141822
 11
286.49045693329304
 21
186.075640241418
  0
LINE
  8
_1-f_
  6
CONTINUOUS
 62
    3
 10
283.49045693329327
 20
183.78274702260483
 11
286.22757265932017
 21
186.51986274863179
  0
LINE
  8
_1-f_
  6
CONTINUOUS
 62
    3
 10
283.49045693329321
 20
184.4898538037915
 11
285.52046587813316
 21
186.51986274863139
  0
LINE
  8
_1-f_
  6
CONTINUOUS
 62
    3
 10
280.81335909694678
 20
182.51986274863168
 11
281.49045693329316
 21
183.19696058497811
  0
LINE
  8
_1-f_
  6
CONTINUOUS
 62
    3
 10
283.49045693329316
 20
185.19696058497805
 11
284.81335909694661
 21
186.51986274863151
  0
LINE
  8
_1-f_
  6
CONTINUOUS
 62
    3
 10
280.10625231576119
 20
182.5198627486319
 11
281.49045693329304
 21
183.9040673661637
  0
LINE
  8
_1-f_
  6
CONTINUOUS
 62
    3
 10
283.49045693329304
 20
185.9040673661637
 11
284.10625231576102
 21
186.51986274863173
  0
LINE
  8
_1-f_
  6
CONTINUOUS
 62
    3
 10
279.39914553457526
 20
182.51986274863168
 11
281.49045693329293
 21
184.61117414734934
  0
LINE
  8
_1-f_
  6
CONTINUOUS
 62
    3
 10
278.6920387533886
 20
182.51986274863168
 11
281.49045693329287
 21
185.31828092853595
  0
LINE
  8
_1-f_
  6
CONTINUOUS
 62
    3
 10
278.4904569332935
 20
183.0253877097233
 11
281.49045693329287
 21
186.02538770972262
  0
LINE
  8
_1-f_
  6
CONTINUOUS
 62
    3
 10
278.49045693329338
 20
183.7324944909098
 11
281.2778251910156
 21
186.51986274863202
  0
LINE
  8
_1-f_
  6
CONTINUOUS
 62
    3
 10
278.4904569332935
 20
184.43960127209658
 11
280.57071840982837
 21
186.51986274863151
  0
LINE
  8
_1-f_
  6
CONTINUOUS
 62
    3
 10
278.49045693329344
 20
185.14670805328319
 11
279.86361162864147
 21
186.51986274863122
  0
LINE
  8
_1-f_
  6
CONTINUOUS
 62
    3
 10
278.49045693329338
 20
185.8538148344698
 11
279.15650484745492
 21
186.51986274863139
  0
TEXT
  8
_1-f_
 62
    7
 10
266.1336428339818
 20
176.9451912237402
 40
10
 41
1
 50
0
  1
↓
  0
TEXT
  8
_1-f_
 62
    7
 10
289.07897011910722
 20
176.9451912237402
 40
10
 41
1
 50
0
  1
↓
  0
TEXT
  8
_1-f_
 62
    7
 10
262.0374444597387
 20
160.85332013124599
 40
3
 41
1
 50
0
  1
初期設定（DC24V器具調光）
  0
LINE
  8
_1-f_
  6
CONTINUOUS
 62
    3
 10
264.99045693329338
 20
165.63363400921059
 11
264.99045693329338
 21
195.38642850620112
  0
LINE
  8
_1-f_
  6
CONTINUOUS
 62
    3
 10
264.99045693329338
 20
195.38642850620112
 11
299.99045693329338
 21
195.38642850620112
  0
TEXT
  8
_1-f_
 62
    7
 10
343.27260874837406
 20
187.08326106845871
 40
10
 41
1
 50
180
  1
↓
  0
LINE
  8
_1-f_
  6
CONTINUOUS
 62
    3
 10
334.49045693329338
 20
191.46986274863138
 11
334.49045693329338
 21
171.66986274863137
  0
LINE
  8
_1-f_
  6
CONTINUOUS
 62
    3
 10
334.49045693329338
 20
191.46986274863138
 11
320.49045693329338
 21
191.46986274863138
  0
LINE
  8
_1-f_
  6
CONTINUOUS
 62
    3
 10
320.49045693329338
 20
191.46986274863138
 11
320.49045693329338
 21
171.66986274863137
  0
LINE
  8
_1-f_
  6
CONTINUOUS
 62
    7
 10
323.49045693329338
 20
179.51986274863139
 11
326.49045693329338
 21
179.51986274863139
  0
LINE
  8
_1-f_
  6
CONTINUOUS
 62
    7
 10
326.49045693329338
 20
179.51986274863139
 11
326.49045693329338
 21
186.51986274863139
  0
LINE
  8
_1-f_
  6
CONTINUOUS
 62
    7
 10
326.49045693329338
 20
186.51986274863139
 11
323.49045693329338
 21
186.51986274863139
  0
LINE
  8
_1-f_
  6
CONTINUOUS
 62
    7
 10
323.49045693329338
 20
186.51986274863139
 11
323.49045693329338
 21
179.51986274863139
  0
LINE
  8
_1-f_
  6
CONTINUOUS
 62
    7
 10
328.49045693329338
 20
179.51986274863139
 11
331.49045693329338
 21
179.51986274863139
  0
LINE
  8
_1-f_
  6
CONTINUOUS
 62
    7
 10
331.49045693329338
 20
179.51986274863139
 11
331.49045693329338
 21
186.51986274863139
  0
LINE
  8
_1-f_
  6
CONTINUOUS
 62
    7
 10
331.49045693329338
 20
186.51986274863139
 11
328.49045693329338
 21
186.51986274863139
  0
LINE
  8
_1-f_
  6
CONTINUOUS
 62
    7
 10
328.49045693329338
 20
186.51986274863139
 11
328.49045693329338
 21
179.51986274863139
  0
LINE
  8
_1-f_
  6
CONTINUOUS
 62
    7
 10
323.49045693329338
 20
182.51986274863139
 11
326.49045693329338
 21
182.51986274863139
  0
LINE
  8
_1-f_
  6
CONTINUOUS
 62
    3
 10
320.49045693329338
 20
171.66986274863137
 11
334.49045693329338
 21
171.66986274863137
  0
TEXT
  8
_1-f_
 62
    3
 10
323.64893689433876
 20
171.91514163411602
 40
6
 41
1
 50
0
  1
1
  0
TEXT
  8
_1-f_
 62
    3
 10
328.5948515679691
 20
171.85569554428872
 40
6
 41
1
 50
0
  1
2
  0
TEXT
  8
_1-f_
 62
    7
 10
325.17075679391734
 20
187.12145141193622
 40
4
 41
1
 50
0
  1
ON
  0
LINE
  8
_1-f_
  6
CONTINUOUS
 62
    3
 10
325.81335909694678
 20
182.51986274863168
 11
326.49045693329316
 21
183.19696058497811
  0
LINE
  8
_1-f_
  6
CONTINUOUS
 62
    3
 10
325.10625231576119
 20
182.5198627486319
 11
326.49045693329304
 21
183.9040673661637
  0
LINE
  8
_1-f_
  6
CONTINUOUS
 62
    3
 10
324.39914553457526
 20
182.51986274863168
 11
326.49045693329293
 21
184.61117414734934
  0
LINE
  8
_1-f_
  6
CONTINUOUS
 62
    3
 10
323.6920387533886
 20
182.51986274863168
 11
326.49045693329287
 21
185.31828092853595
  0
LINE
  8
_1-f_
  6
CONTINUOUS
 62
    3
 10
323.4904569332935
 20
183.0253877097233
 11
326.49045693329287
 21
186.02538770972262
  0
LINE
  8
_1-f_
  6
CONTINUOUS
 62
    3
 10
323.49045693329338
 20
183.7324944909098
 11
326.2778251910156
 21
186.51986274863202
  0
LINE
  8
_1-f_
  6
CONTINUOUS
 62
    3
 10
323.4904569332935
 20
184.43960127209658
 11
325.57071840982837
 21
186.51986274863151
  0
LINE
  8
_1-f_
  6
CONTINUOUS
 62
    3
 10
323.49045693329344
 20
185.14670805328319
 11
324.86361162864147
 21
186.51986274863122
  0
LINE
  8
_1-f_
  6
CONTINUOUS
 62
    3
 10
323.49045693329338
 20
185.8538148344698
 11
324.15650484745492
 21
186.51986274863139
  0
LINE
  8
_1-f_
  6
CONTINUOUS
 62
    3
 10
331.47021334643989
 20
182.51986274863145
 11
331.49045693329333
 21
182.54010633548489
  0
LINE
  8
_1-f_
  6
CONTINUOUS
 62
    3
 10
325.81335909694678
 20
182.51986274863168
 11
326.49045693329316
 21
183.19696058497811
  0
LINE
  8
_1-f_
  6
CONTINUOUS
 62
    3
 10
325.10625231576119
 20
182.5198627486319
 11
326.49045693329304
 21
183.9040673661637
  0
LINE
  8
_1-f_
  6
CONTINUOUS
 62
    3
 10
324.39914553457526
 20
182.51986274863168
 11
326.49045693329293
 21
184.61117414734934
  0
LINE
  8
_1-f_
  6
CONTINUOUS
 62
    3
 10
323.6920387533886
 20
182.51986274863168
 11
326.49045693329287
 21
185.31828092853595
  0
LINE
  8
_1-f_
  6
CONTINUOUS
 62
    3
 10
323.4904569332935
 20
183.0253877097233
 11
326.49045693329287
 21
186.02538770972262
  0
LINE
  8
_1-f_
  6
CONTINUOUS
 62
    3
 10
323.49045693329338
 20
183.7324944909098
 11
326.2778251910156
 21
186.51986274863202
  0
LINE
  8
_1-f_
  6
CONTINUOUS
 62
    3
 10
323.4904569332935
 20
184.43960127209658
 11
325.57071840982837
 21
186.51986274863151
  0
LINE
  8
_1-f_
  6
CONTINUOUS
 62
    3
 10
323.49045693329344
 20
185.14670805328319
 11
324.86361162864147
 21
186.51986274863122
  0
LINE
  8
_1-f_
  6
CONTINUOUS
 62
    3
 10
323.49045693329338
 20
185.8538148344698
 11
324.15650484745492
 21
186.51986274863139
  0
TEXT
  8
_1-f_
 62
    7
 10
311.1336428339818
 20
176.9451912237402
 40
10
 41
1
 50
0
  1
↓
  0
TEXT
  8
_1-f_
 62
    7
 10
312.13711309807501
 20
166.7932852334851
 40
3
 41
1
 50
0
  1
【SW1:OFF/SW2:ON】
  0
LINE
  8
_1-f_
  6
CONTINUOUS
 62
    3
 10
330.76310656525322
 20
179.51986274863139
 11
331.49045693329327
 21
180.2472131166715
  0
LINE
  8
_1-f_
  6
CONTINUOUS
 62
    3
 10
330.05599978406655
 20
179.51986274863139
 11
331.49045693329321
 21
180.95431989785811
  0
LINE
  8
_1-f_
  6
CONTINUOUS
 62
    3
 10
329.34889300287989
 20
179.51986274863139
 11
331.49045693329316
 21
181.66142667904472
  0
LINE
  8
_1-f_
  6
CONTINUOUS
 62
    3
 10
328.64178622169316
 20
179.51986274863139
 11
331.4904569332931
 21
182.36853346023133
  0
LINE
  8
_1-f_
  6
CONTINUOUS
 62
    3
 10
328.49045693329333
 20
180.07564024141817
 11
331.49045693329304
 21
183.07564024141794
  0
LINE
  8
_1-f_
  6
CONTINUOUS
 62
    3
 10
328.49045693329327
 20
180.78274702260478
 11
331.22757265932017
 21
183.51986274863173
  0
LINE
  8
_1-f_
  6
CONTINUOUS
 62
    3
 10
328.49045693329321
 20
181.48985380379144
 11
330.52046587813316
 21
183.51986274863133
  0
LINE
  8
_1-f_
  6
CONTINUOUS
 62
    3
 10
328.49045693329316
 20
182.196960584978
 11
329.81335909694661
 21
183.51986274863145
  0
LINE
  8
_1-f_
  6
CONTINUOUS
 62
    3
 10
328.49045693329304
 20
182.90406736616364
 11
329.10625231576102
 21
183.51986274863168
  0
LINE
  8
_1-f_
  6
CONTINUOUS
 62
    7
 10
328.49045693329338
 20
183.51986274863168
 11
331.49045693329338
 21
183.51986274863168
  0
TEXT
  8
_1-f_
 62
    7
 10
313.95563099974134
 20
160.87518229048475
 40
3
 41
1
 50
0
  1
固定用マグネット
  0
LINE
  8
_1-f_
  6
CONTINUOUS
 62
    3
 10
309.99045693329338
 20
165.63363400921059
 11
309.99045693329338
 21
195.38642850620112
  0
LINE
  8
_1-f_
  6
CONTINUOUS
 62
    3
 10
309.99045693329338
 20
195.38642850620112
 11
344.99045693329338
 21
195.38642850620112
  0
LINE
  8
_1-f_
  6
CONTINUOUS
 62
    3
 10
379.49045693329338
 20
191.46986274863138
 11
379.49045693329338
 21
171.66986274863137
  0
LINE
  8
_1-f_
  6
CONTINUOUS
 62
    3
 10
379.49045693329338
 20
191.46986274863138
 11
365.49045693329338
 21
191.46986274863138
  0
LINE
  8
_1-f_
  6
CONTINUOUS
 62
    3
 10
365.49045693329338
 20
191.46986274863138
 11
365.49045693329338
 21
171.66986274863137
  0
LINE
  8
_1-f_
  6
CONTINUOUS
 62
    7
 10
368.49045693329338
 20
179.51986274863139
 11
371.49045693329338
 21
179.51986274863139
  0
LINE
  8
_1-f_
  6
CONTINUOUS
 62
    7
 10
371.49045693329338
 20
179.51986274863139
 11
371.49045693329338
 21
186.51986274863139
  0
LINE
  8
_1-f_
  6
CONTINUOUS
 62
    7
 10
371.49045693329338
 20
186.51986274863139
 11
368.49045693329338
 21
186.51986274863139
  0
LINE
  8
_1-f_
  6
CONTINUOUS
 62
    7
 10
368.49045693329338
 20
186.51986274863139
 11
368.49045693329338
 21
179.51986274863139
  0
LINE
  8
_1-f_
  6
CONTINUOUS
 62
    7
 10
373.49045693329338
 20
179.51986274863139
 11
376.49045693329338
 21
179.51986274863139
  0
LINE
  8
_1-f_
  6
CONTINUOUS
 62
    7
 10
376.49045693329338
 20
179.51986274863139
 11
376.49045693329338
 21
186.51986274863139
  0
LINE
  8
_1-f_
  6
CONTINUOUS
 62
    7
 10
376.49045693329338
 20
186.51986274863139
 11
373.49045693329338
 21
186.51986274863139
  0
LINE
  8
_1-f_
  6
CONTINUOUS
 62
    7
 10
373.49045693329338
 20
186.51986274863139
 11
373.49045693329338
 21
179.51986274863139
  0
LINE
  8
_1-f_
  6
CONTINUOUS
 62
    3
 10
365.49045693329338
 20
171.66986274863137
 11
379.49045693329338
 21
171.66986274863137
  0
TEXT
  8
_1-f_
 62
    3
 10
368.64893689433876
 20
171.91514163411602
 40
6
 41
1
 50
0
  1
1
  0
TEXT
  8
_1-f_
 62
    3
 10
373.5948515679691
 20
171.85569554428872
 40
6
 41
1
 50
0
  1
2
  0
TEXT
  8
_1-f_
 62
    7
 10
370.17075679391734
 20
187.12145141193622
 40
4
 41
1
 50
0
  1
ON
  0
LINE
  8
_1-f_
  6
CONTINUOUS
 62
    3
 10
376.47021334643989
 20
182.51986274863145
 11
376.49045693329333
 21
182.54010633548489
  0
TEXT
  8
_1-f_
 62
    7
 10
357.13711309807501
 20
166.7932852334851
 40
3
 41
1
 50
0
  1
【SW1:ON/SW2:OFF】
  0
TEXT
  8
_1-f_
 62
    7
 10
366.7083051182127
 20
187.08326106845871
 40
10
 41
1
 50
180
  1
↓
  0
TEXT
  8
_1-f_
 62
    7
 10
378.84727103260496
 20
176.94519122374018
 40
10
 41
1
 50
0
  1
↓
  0
LINE
  8
_1-f_
  6
CONTINUOUS
 62
    3
 10
370.76310656525322
 20
179.51986274863139
 11
371.49045693329327
 21
180.2472131166715
  0
LINE
  8
_1-f_
  6
CONTINUOUS
 62
    3
 10
370.05599978406655
 20
179.51986274863139
 11
371.49045693329321
 21
180.95431989785811
  0
LINE
  8
_1-f_
  6
CONTINUOUS
 62
    3
 10
369.34889300287989
 20
179.51986274863139
 11
371.49045693329316
 21
181.66142667904472
  0
LINE
  8
_1-f_
  6
CONTINUOUS
 62
    3
 10
368.64178622169316
 20
179.51986274863139
 11
371.4904569332931
 21
182.36853346023133
  0
LINE
  8
_1-f_
  6
CONTINUOUS
 62
    3
 10
368.49045693329333
 20
180.07564024141817
 11
371.49045693329304
 21
183.07564024141794
  0
LINE
  8
_1-f_
  6
CONTINUOUS
 62
    3
 10
368.49045693329327
 20
180.78274702260478
 11
371.22757265932017
 21
183.51986274863173
  0
LINE
  8
_1-f_
  6
CONTINUOUS
 62
    3
 10
368.49045693329321
 20
181.48985380379144
 11
370.52046587813316
 21
183.51986274863133
  0
LINE
  8
_1-f_
  6
CONTINUOUS
 62
    3
 10
368.49045693329316
 20
182.196960584978
 11
369.81335909694661
 21
183.51986274863145
  0
LINE
  8
_1-f_
  6
CONTINUOUS
 62
    3
 10
368.49045693329304
 20
182.90406736616364
 11
369.10625231576102
 21
183.51986274863168
  0
LINE
  8
_1-f_
  6
CONTINUOUS
 62
    7
 10
368.49045693329338
 20
183.51986274863168
 11
371.49045693329338
 21
183.51986274863168
  0
LINE
  8
_1-f_
  6
CONTINUOUS
 62
    7
 10
373.49045693329338
 20
182.51986274863139
 11
376.49045693329338
 21
182.51986274863139
  0
LINE
  8
_1-f_
  6
CONTINUOUS
 62
    3
 10
375.81335909694678
 20
182.51986274863168
 11
376.49045693329316
 21
183.19696058497811
  0
LINE
  8
_1-f_
  6
CONTINUOUS
 62
    3
 10
375.10625231576119
 20
182.5198627486319
 11
376.49045693329304
 21
183.9040673661637
  0
LINE
  8
_1-f_
  6
CONTINUOUS
 62
    3
 10
374.39914553457526
 20
182.51986274863168
 11
376.49045693329293
 21
184.61117414734934
  0
LINE
  8
_1-f_
  6
CONTINUOUS
 62
    3
 10
373.6920387533886
 20
182.51986274863168
 11
376.49045693329287
 21
185.31828092853595
  0
LINE
  8
_1-f_
  6
CONTINUOUS
 62
    3
 10
373.4904569332935
 20
183.0253877097233
 11
376.49045693329287
 21
186.02538770972262
  0
LINE
  8
_1-f_
  6
CONTINUOUS
 62
    3
 10
373.49045693329338
 20
183.7324944909098
 11
376.2778251910156
 21
186.51986274863202
  0
LINE
  8
_1-f_
  6
CONTINUOUS
 62
    3
 10
373.4904569332935
 20
184.43960127209658
 11
375.57071840982837
 21
186.51986274863151
  0
LINE
  8
_1-f_
  6
CONTINUOUS
 62
    3
 10
373.49045693329344
 20
185.14670805328319
 11
374.86361162864147
 21
186.51986274863122
  0
LINE
  8
_1-f_
  6
CONTINUOUS
 62
    3
 10
373.49045693329338
 20
185.8538148344698
 11
374.15650484745492
 21
186.51986274863139
  0
LINE
  8
_1-f_
  6
CONTINUOUS
 62
    3
 10
375.81335909694678
 20
182.51986274863168
 11
376.49045693329316
 21
183.19696058497811
  0
LINE
  8
_1-f_
  6
CONTINUOUS
 62
    3
 10
375.10625231576119
 20
182.5198627486319
 11
376.49045693329304
 21
183.9040673661637
  0
LINE
  8
_1-f_
  6
CONTINUOUS
 62
    3
 10
374.39914553457526
 20
182.51986274863168
 11
376.49045693329293
 21
184.61117414734934
  0
LINE
  8
_1-f_
  6
CONTINUOUS
 62
    3
 10
373.6920387533886
 20
182.51986274863168
 11
376.49045693329287
 21
185.31828092853595
  0
LINE
  8
_1-f_
  6
CONTINUOUS
 62
    3
 10
373.4904569332935
 20
183.0253877097233
 11
376.49045693329287
 21
186.02538770972262
  0
LINE
  8
_1-f_
  6
CONTINUOUS
 62
    3
 10
373.49045693329338
 20
183.7324944909098
 11
376.2778251910156
 21
186.51986274863202
  0
LINE
  8
_1-f_
  6
CONTINUOUS
 62
    3
 10
373.4904569332935
 20
184.43960127209658
 11
375.57071840982837
 21
186.51986274863151
  0
LINE
  8
_1-f_
  6
CONTINUOUS
 62
    3
 10
373.49045693329344
 20
185.14670805328319
 11
374.86361162864147
 21
186.51986274863122
  0
LINE
  8
_1-f_
  6
CONTINUOUS
 62
    3
 10
373.49045693329338
 20
185.8538148344698
 11
374.15650484745492
 21
186.51986274863139
  0
TEXT
  8
_1-f_
 62
    7
 10
355.49623160027556
 20
161.20238048522864
 40
3
 41
1
 50
0
  1
AC100V照明調光モード
  0
LINE
  8
_1-f_
  6
CONTINUOUS
 62
    3
 10
354.99045693329338
 20
165.63363400921059
 11
354.99045693329338
 21
195.38642850620112
  0
LINE
  8
_1-f_
  6
CONTINUOUS
 62
    3
 10
354.99045693329338
 20
195.38642850620112
 11
389.99045693329338
 21
195.38642850620112
  0
LINE
  8
_1-e_
  6
CONTINUOUS
 62
    7
 10
282.62522822352121
 20
263.59173957130974
 11
402.62523585291575
 21
263.59173957130974
  0
LINE
  8
_1-e_
  6
CONTINUOUS
 62
    7
 10
282.62521296473215
 20
263.59173957130974
 11
402.62522059412668
 21
263.59173957130974
  0
LINE
  8
_1-e_
  6
CONTINUOUS
 62
    7
 10
282.62521296473215
 20
263.59173957130974
 11
402.62522059412668
 21
263.59173957130974
  0
LINE
  8
_1-e_
  6
CONTINUOUS
 62
    7
 10
402.62522059412668
 20
263.59173957130974
 11
282.62522822352121
 21
263.59173957130974
  0
LINE
  8
_1-e_
  6
CONTINUOUS
 62
    7
 10
282.62521296473215
 20
258.59176007530754
 11
402.62522059412668
 21
258.59176007530754
  0
LINE
  8
_1-e_
  6
CONTINUOUS
 62
    7
 10
282.62521296473215
 20
263.59173957130974
 11
282.62521296473215
 21
258.59176007530754
  0
LINE
  8
_1-e_
  6
CONTINUOUS
 62
    7
 10
292.62522059412668
 20
263.59173957130974
 11
292.62522059412668
 21
258.59176007530754
  0
LINE
  8
_1-e_
  6
CONTINUOUS
 62
    7
 10
322.62522059412668
 20
263.59173957130974
 11
322.62522059412668
 21
258.59176007530754
  0
LINE
  8
_1-e_
  6
CONTINUOUS
 62
    7
 10
402.62522059412668
 20
263.59173957130974
 11
282.62522822352121
 21
263.59173957130974
  0
LINE
  8
_1-e_
  6
CONTINUOUS
 62
    7
 10
282.62521296473215
 20
258.59176007530754
 11
402.62522059412668
 21
258.59176007530754
  0
LINE
  8
_1-e_
  6
CONTINUOUS
 62
    7
 10
282.62521296473215
 20
263.59173957130974
 11
282.62521296473215
 21
258.59176007530754
  0
LINE
  8
_1-e_
  6
CONTINUOUS
 62
    7
 10
292.62522059412668
 20
263.59173957130974
 11
292.62522059412668
 21
258.59176007530754
  0
LINE
  8
_1-e_
  6
CONTINUOUS
 62
    7
 10
322.62522059412668
 20
263.59173957130974
 11
322.62522059412668
 21
258.59176007530754
  0
LINE
  8
_1-e_
  6
CONTINUOUS
 62
    7
 10
282.62521296473215
 20
263.59173957130974
 11
282.62521296473215
 21
258.59176007530754
  0
LINE
  8
_1-e_
  6
CONTINUOUS
 62
    7
 10
292.62522059412668
 20
263.59173957130974
 11
292.62522059412668
 21
258.59176007530754
  0
LINE
  8
_1-e_
  6
CONTINUOUS
 62
    7
 10
322.62522059412668
 20
263.59173957130974
 11
322.62522059412668
 21
258.59176007530754
  0
LINE
  8
_1-e_
  6
CONTINUOUS
 62
    7
 10
292.62522059412668
 20
263.59173957130974
 11
292.62522059412668
 21
258.59176007530754
  0
LINE
  8
_1-e_
  6
CONTINUOUS
 62
    7
 10
322.62522059412668
 20
263.59173957130974
 11
322.62522059412668
 21
258.59176007530754
  0
LINE
  8
_1-e_
  6
CONTINUOUS
 62
    7
 10
287.2794851641243
 20
263.42605653442416
 11
285.02949279351884
 21
258.92605462707552
  0
LINE
  8
_1-e_
  6
CONTINUOUS
 62
    7
 10
285.02949279351884
 20
258.92605462707552
 11
289.5294851641243
 21
258.92605462707552
  0
LINE
  8
_1-e_
  6
CONTINUOUS
 62
    7
 10
287.2794851641243
 20
263.42605653442416
 11
289.5294851641243
 21
258.92605462707552
  0
TEXT
  8
_1-e_
 62
    7
 10
305.22158568902665
 20
259.4978128973392
 40
3
 41
1
 50
0
  1
.   .
  0
TEXT
  8
_1-e_
 62
    7
 10
294.19715016893002
 20
259.02478158805382
 40
4
 41
1
 50
0
  1
2019
  0
TEXT
  8
_1-e_
 62
    7
 10
383.53081110183813
 20
258.97023569393974
 40
4
 41
1
 50
0
  1
米澤
  0
LINE
  8
_1-e_
  6
CONTINUOUS
 62
    7
 10
282.62521296473215
 20
263.59173957130974
 11
282.62521296473215
 21
258.59176007530754
  0
LINE
  8
_1-e_
  6
CONTINUOUS
 62
    7
 10
292.62522059412668
 20
263.59173957130974
 11
292.62522059412668
 21
258.59176007530754
  0
LINE
  8
_1-e_
  6
CONTINUOUS
 62
    7
 10
322.62522059412668
 20
263.59173957130974
 11
322.62522059412668
 21
258.59176007530754
  0
TEXT
  8
_1-e_
 62
    7
 10
307.98864300886083
 20
258.88211097246835
 40
4
 41
1
 50
0
  1
7
  0
TEXT
  8
_1-e_
 62
    7
 10
286.66354888482743
 20
259.16065183319125
 40
3
 41
1
 50
0
  1
3
  0
TEXT
  8
_1-e_
 62
    7
 10
315.02706004441171
 20
258.97722471619204
 40
4
 41
1
 50
0
  1
22
  0
TEXT
  8
_1-e_
 62
    7
 10
324.29018182251593
 20
259.12108014687646
 40
4
 41
1
 50
0
  1
仕様図フォーマット変更
  0
LINE
  8
_1-e_
  6
CONTINUOUS
 62
    7
 10
382.62523585291575
 20
278.59169045708244
 11
382.62523585291575
 21
258.59176007530754
  0
LINE
  8
_1-e_
  6
CONTINUOUS
 62
    7
 10
392.62523585291575
 20
278.59169045708244
 11
392.62523585291575
 21
258.59176007530754
  0
LINE
  8
_1-f_
  6
CONTINUOUS
 62
    3
 10
299.99045693329338
 20
165.63363400921059
 11
299.99045693329338
 21
195.38642850620112
  0
LINE
  8
_1-f_
  6
CONTINUOUS
 62
    3
 10
299.99045693329338
 20
165.63363400921059
 11
264.99045693329338
 21
165.63363400921059
  0
TEXT
  8
_1-f_
 62
    7
 10
314.09579011156648
 20
156.91247450014333
 40
3
 41
1
 50
0
  1
振動音軽減モード
  0
LINE
  8
_1-f_
  6
CONTINUOUS
 62
    3
 10
344.99045693329338
 20
165.63363400921059
 11
344.99045693329338
 21
195.38642850620112
  0
LINE
  8
_1-f_
  6
CONTINUOUS
 62
    3
 10
344.99045693329338
 20
165.63363400921059
 11
309.99045693329338
 21
165.63363400921059
  0
TEXT
  8
_1-f_
 62
    7
 10
352.42424344703204
 20
157.23967269488721
 40
3
 41
1
 50
0
  1
調光ドライバー接続モード
  0
LINE
  8
_1-f_
  6
CONTINUOUS
 62
    3
 10
389.99045693329338
 20
165.63363400921059
 11
389.99045693329338
 21
195.38642850620112
  0
LINE
  8
_1-f_
  6
CONTINUOUS
 62
    3
 10
389.99045693329338
 20
165.63363400921059
 11
354.99045693329338
 21
165.63363400921059
  0
TEXT
  8
_1-f_
 62
    7
 10
290.78521293324513
 20
231.55866433681669
 40
4
 41
1
 50
0
  1
撚線0.3～0.8sq
  0
TEXT
  8
_1-f_
 62
    7
 10
290.78521293324513
 20
225.53815084470599
 40
4
 41
1
 50
0
  1
(AWG22～AWG18、素線径φ0.18mm以上）
  0
TEXT
  8
_1-f_
 62
    7
 10
290.78521293324513
 20
237.28921291261792
 40
4
 41
1
 50
0
  1
単線 0.5～1.0φ　（AWG24～AWG18）
  0
TEXT
  8
_1-f_
 62
    7
 10
289.82218627804309
 20
218.53021105886148
 40
4
 41
1
 50
0
  1
マイナスドライバー（軸径φ3mm、刃先幅2.6mm）
  0
TEXT
  8
_1-f_
 62
    7
 10
272.81537212190693
 20
197.44174222086363
 40
3
 41
1
 50
0
  1
切替モード1
  0
TEXT
  8
_1-f_
 62
    7
 10
317.81537212190693
 20
197.44174222086363
 40
3
 41
1
 50
0
  1
切替モード2
  0
TEXT
  8
_1-f_
 62
    7
 10
362.81537212190693
 20
197.4417422208636
 40
3
 41
1
 50
0
  1
切替モード3
  0
TEXT
  8
_1-8_
 62
    7
 10
318.88764085980557
 20
57.775692424035696
 40
4
 41
1
 50
0
  1
化粧ﾌﾟﾚｰﾄ
  0
TEXT
  8
_1-e_
 62
    7
 10
395.78319783197832
 20
268.97019468594419
 40
4
 41
1
 50
0
  1
長
  0
TEXT
  8
_1-e_
 62
    7
 10
395.78319783197832
 20
263.97021518994193
 40
4
 41
1
 50
0
  1
長
  0
TEXT
  8
_1-e_
 62
    7
 10
395.78319783197832
 20
258.97023569393974
 40
4
 41
1
 50
0
  1
長
  0
TEXT
  8
_1-e_
 62
    7
 10
345.62059620596198
 20
44.133710626303184
 40
4
 41
1
 50
0
  1
長
  0
TEXT
  8
_1-f_
 62
    7
 10
358.77478984509809
 20
24.202921999417526
 40
4
 41
1
 50
-0.0000023087964322
  1
Ｆ４１９２１１０-３
  0
ENDSEC
  0
EOF
