  0
SECTION
  2
HEADER
  9
$ACADVER
  1
AC1009
  9
$INSBASE
 10
0
 20
0
 30
0
  9
$EXTMIN
 10
0
 20
0
  9
$EXTMAX
 10
420
 20
297
  9
$LIMMIN
 10
0
 20
0
  9
$LIMMAX
 10
420
 20
297
  9
$LTSCALE
 40
1
  0
ENDSEC
  0
SECTION
  2
TABLES
  0
TABLE
  2
LTYPE
 70
     9
  0
LTYPE
  2
CONTINUOUS
 70
    64
  3
実線
 72
    65
 73
     0
 40
0.0
  0
LTYPE
  2
DASHED1
 70
    64
  3
--  --  --  --  --  --  --  --  
 72
    65
 73
     2
 40
2.5
 49
1.25
 49
-1.25
  0
LTYPE
  2
DASHED2
 70
    64
  3
----    ----    ----    ----    
 72
    65
 73
     2
 40
5.0
 49
2.5
 49
-2.5
  0
LTYPE
  2
DASHED3
 70
    64
  3
------  ------  ------  ------  
 72
    65
 73
     2
 40
5.0
 49
3.75
 49
-1.25
  0
LTYPE
  2
CENTER1
 70
    64
  3
----- - ----- - ----- - ----- - 
 72
    65
 73
     4
 40
10.0
 49
6.25
 49
-1.25
 49
1.25
 49
-1.25
  0
LTYPE
  2
CENTER2
 70
    64
  3
----------  --  ----------  --  
 72
    65
 73
     4
 40
20.0
 49
12.5
 49
-2.5
 49
2.5
 49
-2.5
  0
LTYPE
  2
PHANTOM1
 70
    64
  3
--- - - --- - - --- - - --- - - 
 72
    65
 73
     6
 40
10.0
 49
3.25
 49
-1.25
 49
1.25
 49
-1.25
 49
1.25
 49
-1.25
  0
LTYPE
  2
PHANTOM2
 70
    64
  3
--------  -  -  --------  -  -  
 72
    65
 73
     6
 40
20.0
 49
10.0
 49
-2.5
 49
1.25
 49
-2.5
 49
1.25
 49
-2.5
  0
LTYPE
  2
DOT
 70
    64
  3
-   -   -   -   -   -   -   -   
 72
    65
 73
     2
 40
2.5
 49
0.625
 49
-1.875
  0
LTYPE
  2
DUMMY
 70
    64
  3
ダミー
 72
    65
 73
     0
 40
0.0
  0
LTYPE
  2
RAND1
 70
    64
  3
ランダム線1
 72
    65
 73
     4
 40
10.0
 49
1.0
 49
-2.0
 49
3.0
 49
-4.0
  0
LTYPE
  2
RAND2
 70
    64
  3
ランダム線2
 72
    65
 73
     4
 40
14.0
 49
2.0
 49
-3.0
 49
4.0
 49
-5.0
  0
LTYPE
  2
RAND3
 70
    64
  3
ランダム線3
 72
    65
 73
     4
 40
18.0
 49
3.0
 49
-4.0
 49
5.0
 49
-6.0
  0
LTYPE
  2
RAND4
 70
    64
  3
ランダム線4
 72
    65
 73
     4
 40
22.0
 49
4.0
 49
-5.0
 49
6.0
 49
-7.0
  0
LTYPE
  2
RAND5
 70
    64
  3
ランダム線5
 72
    65
 73
     4
 40
26.0
 49
5.0
 49
-6.0
 49
7.0
 49
-8.0
  0
LTYPE
  2
LONG1
 70
    64
  3
----------  --  ----------  --  
 72
    65
 73
     4
 40
40.0
 49
32.5
 49
-2.5
 49
2.5
 49
-2.5
  0
LTYPE
  2
LONG2
 70
    64
  3
--------  -  -  --------  -  -  
 72
    65
 73
     6
 40
40.0
 49
30.0
 49
-2.5
 49
1.25
 49
-2.5
 49
1.25
 49
-2.5
  0
LTYPE
  2
LONG3
 70
    64
  3
+++++++++++++++..+++++++++++++++
 72
    65
 73
     2
 40
40.0
 49
37.5
 49
-2.5
  0
LTYPE
  2
LONG4
 70
    64
  3
+++++++++++++++..+++++++++++++++
 72
    65
 73
     2
 40
80.0
 49
75.0
 49
-5.0
  0
LTYPE
  2
LONG5
 70
    64
  3
----------  --  ----------  --  
 72
    65
 73
     4
 40
60.0
 49
37.5
 49
-7.5
 49
7.5
 49
-7.5
  0
LTYPE
  2
dashed
 70
   64
  3
-------   -------------   ------
 72
   65
 73
    2
 40
7.5
 49
6
 49
-1.5
  0
LTYPE
  2
dashed_spaced
 70
   64
  3
----        --------        ----
 72
   65
 73
    2
 40
12
 49
6
 49
-6
  0
LTYPE
  2
long_dashed_dotted
 70
   64
  3
------------- --- --------------
 72
   65
 73
    4
 40
15.25
 49
12
 49
-1.5
 49
0.25
 49
-1.5
  0
LTYPE
  2
long_dashed_double-dotted
 70
   64
  3
----------- --- --- ------------
 72
   65
 73
    6
 40
17
 49
12
 49
-1.5
 49
0.25
 49
-1.5
 49
0.25
 49
-1.5
  0
LTYPE
  2
long_dashed_triplicate-dotted
 70
   64
  3
--------- --- --- --- ----------
 72
   65
 73
    8
 40
18.75
 49
12
 49
-1.5
 49
0.25
 49
-1.5
 49
0.25
 49
-1.5
 49
0.25
 49
-1.5
  0
LTYPE
  2
dotted
 70
   64
  3
   -       -       -       -    
 72
   65
 73
    2
 40
1.75
 49
0.25
 49
-1.5
  0
LTYPE
  2
chain
 70
   64
  3
-------------- -- --------------
 72
   65
 73
    4
 40
18.5
 49
12
 49
-1.5
 49
3.5
 49
-1.5
  0
LTYPE
  2
chain_double_dash
 70
   64
  3
------------ -- -- -------------
 72
   65
 73
    6
 40
23.5
 49
12
 49
-1.5
 49
3.5
 49
-1.5
 49
3.5
 49
-1.5
  0
LTYPE
  2
dashed_dotted
 70
   64
  3
-----------     -     ----------
 72
   65
 73
    4
 40
9.25
 49
6
 49
-1.5
 49
0.25
 49
-1.5
  0
LTYPE
  2
double-dashed_dotted
 70
   64
  3
------   -----------   -   -----
 72
   65
 73
    6
 40
16.75
 49
6
 49
-1.5
 49
6
 49
-1.5
 49
0.25
 49
-1.5
  0
LTYPE
  2
dashed_double-dotted
 70
   64
  3
---------    -    -    ---------
 72
   65
 73
    6
 40
11
 49
6
 49
-1.5
 49
0.25
 49
-1.5
 49
0.25
 49
-1.5
  0
LTYPE
  2
double-dashed_double-dotted
 70
   64
  3
-----   ---------   -   -   ----
 72
   65
 73
    8
 40
18.5
 49
6
 49
-1.5
 49
6
 49
-1.5
 49
0.25
 49
-1.5
 49
0.25
 49
-1.5
  0
LTYPE
  2
dashed_triplicate-dotted
 70
   64
  3
-------    -    -    -    ------
 72
   65
 73
    8
 40
12.75
 49
6
 49
-1.5
 49
0.25
 49
-1.5
 49
0.25
 49
-1.5
 49
0.25
 49
-1.5
  0
LTYPE
  2
double-dashed_triplicate-dotted
 70
   64
  3
-----  ---------  -  -  -  -----
 72
   65
 73
   10
 40
20.25
 49
6
 49
-1.5
 49
6
 49
-1.5
 49
0.25
 49
-1.5
 49
0.25
 49
-1.5
 49
0.25
 49
-1.5
  0
LTYPE
  2
undefined
 70
   64
  3
--------------------------------
 72
   65
 73
    0
 40
0
  0
LTYPE
  2
_
 70
   64
  3
                                
 72
   65
 73
    0
 40
0
  0
LTYPE
  2
__18
 70
   64
  3
                                
 72
   65
 73
    0
 40
0
  0
LTYPE
  2
__19
 70
   64
  3
                                
 72
   65
 73
    0
 40
0
  0
LTYPE
  2
__20
 70
   64
  3
                                
 72
   65
 73
    0
 40
0
  0
LTYPE
  2
__21
 70
   64
  3
                                
 72
   65
 73
    0
 40
0
  0
LTYPE
  2
__22
 70
   64
  3
                                
 72
   65
 73
    0
 40
0
  0
LTYPE
  2
__23
 70
   64
  3
                                
 72
   65
 73
    0
 40
0
  0
LTYPE
  2
__24
 70
   64
  3
                                
 72
   65
 73
    0
 40
0
  0
LTYPE
  2
__25
 70
   64
  3
                                
 72
   65
 73
    0
 40
0
  0
LTYPE
  2
__26
 70
   64
  3
                                
 72
   65
 73
    0
 40
0
  0
LTYPE
  2
__27
 70
   64
  3
                                
 72
   65
 73
    0
 40
0
  0
LTYPE
  2
__28
 70
   64
  3
                                
 72
   65
 73
    0
 40
0
  0
LTYPE
  2
__29
 70
   64
  3
                                
 72
   65
 73
    0
 40
0
  0
LTYPE
  2
__30
 70
   64
  3
                                
 72
   65
 73
    0
 40
0
  0
LTYPE
  2
__31
 70
   64
  3
                                
 72
   65
 73
    0
 40
0
  0
LTYPE
  2
__32
 70
   64
  3
                                
 72
   65
 73
    0
 40
0
  0
ENDTAB
  0
TABLE
  2
STYLE
  5
3
100
AcDbSymbolTable
 70
     1
  0
STYLE
  5
10
100
AcDbSymbolTableRecord
100
AcDbTextStyleTableRecord
  2
STANDARD
 70
     0
 40
0.0
 41
1.0
 50
0.0
 71
     0
 42
0.2
  3
txt
  4
bigfont.shx
  0
STYLE
  5
26
100
AcDbSymbolTableRecord
100
AcDbTextStyleTableRecord
  2
TATEGAKI
 70
    68
 40
0.0
 41
1.0
 50
0.0
 71
     0
 42
1.0
  3
txt
  4
bigfont.shx
  0
ENDTAB
  0
TABLE
  2
LAYER
 70
   16
  0
LAYER
  2
_0-0_
 70
   64
 62
    7
  6
CONTINUOUS
  0
LAYER
  2
_1-0_
 70
   64
 62
    7
  6
CONTINUOUS
  0
LAYER
  2
_1-1_
 70
   64
 62
    7
  6
CONTINUOUS
  0
LAYER
  2
_1-2_
 70
   64
 62
    7
  6
CONTINUOUS
  0
LAYER
  2
_1-3_
 70
   64
 62
    7
  6
CONTINUOUS
  0
LAYER
  2
_1-4_
 70
   64
 62
    7
  6
CONTINUOUS
  0
LAYER
  2
_1-5_
 70
   64
 62
    7
  6
CONTINUOUS
  0
LAYER
  2
_1-7_
 70
   64
 62
    7
  6
CONTINUOUS
  0
LAYER
  2
_1-8_
 70
   64
 62
    7
  6
CONTINUOUS
  0
LAYER
  2
_1-9_
 70
   64
 62
    7
  6
CONTINUOUS
  0
LAYER
  2
_1-b_
 70
   64
 62
    7
  6
CONTINUOUS
  0
LAYER
  2
_1-c_
 70
   64
 62
    7
  6
CONTINUOUS
  0
LAYER
  2
_1-d_
 70
   64
 62
    7
  6
CONTINUOUS
  0
LAYER
  2
_1-e_
 70
   64
 62
    7
  6
CONTINUOUS
  0
LAYER
  2
_1-f_
 70
   64
 62
    7
  6
CONTINUOUS
  0
LAYER
  2
ADD_LINE
 70
   64
 62
    7
  6
CONTINUOUS
  0
ENDTAB
  0
ENDSEC
  0
SECTION
  2
BLOCKS
  0
ENDSEC
  0
SECTION
  2
ENTITIES
  0
TEXT
  8
_1-e_
 62
    7
 10
286.66672621834987
 20
254.16067233718905
 40
3
 41
1
 50
0
  1
4
  0
TEXT
  8
_1-e_
 62
    7
 10
305.22476302254909
 20
254.497833401337
 40
3
 41
1
 50
0
  1
.   .
  0
TEXT
  8
_1-e_
 62
    7
 10
307.99182034238327
 20
253.88213147646615
 40
4
 41
1
 50
0
  1
7
  0
LINE
  8
_1-e_
  6
CONTINUOUS
 62
    7
 10
287.28266249764675
 20
258.42607703842196
 11
289.53266249764675
 21
253.92607513107333
  0
LINE
  8
_1-e_
  6
CONTINUOUS
 62
    7
 10
285.03267012704128
 20
253.92607513107333
 11
289.53266249764675
 21
253.92607513107333
  0
LINE
  8
_1-e_
  6
CONTINUOUS
 62
    7
 10
287.28266249764675
 20
258.42607703842196
 11
285.03267012704128
 21
253.92607513107333
  0
LINE
  8
_1-e_
  6
CONTINUOUS
 62
    7
 10
392.62841318643819
 20
278.59169045708244
 11
392.62841318643819
 21
253.59178057930535
  0
LINE
  8
_1-e_
  6
CONTINUOUS
 62
    7
 10
382.62841318643819
 20
278.59169045708244
 11
382.62841318643819
 21
253.59178057930535
  0
LINE
  8
_1-e_
  6
CONTINUOUS
 62
    7
 10
282.62837503946553
 20
253.59178057930535
 11
402.62838266886006
 21
253.59178057930535
  0
LINE
  8
_0-0_
  6
CONTINUOUS
 62
    7
 10
22.628436074621788
 20
21.591684735036579
 11
22.628436074621788
 21
278.59169045708244
  0
LINE
  8
_0-0_
  6
CONTINUOUS
 62
    7
 10
22.628436074621788
 20
278.59169045708244
 11
402.62841318643819
 21
278.59169045708244
  0
LINE
  8
_0-0_
  6
CONTINUOUS
 62
    7
 10
402.62841318643819
 20
278.59169045708244
 11
402.62841318643819
 21
21.591684735036579
  0
LINE
  8
_0-0_
  6
CONTINUOUS
 62
    7
 10
402.62841318643819
 20
21.591684735036579
 11
22.628436074621788
 21
21.591684735036579
  0
LINE
  8
_0-0_
  6
CONTINUOUS
 62
   18
 10
357.62840746439229
 20
41.591690457082478
 11
357.62840746439229
 21
21.591684735036579
  0
LINE
  8
_0-0_
  6
CONTINUOUS
 62
    7
 10
352.62840746439229
 20
41.591690457082478
 11
352.62840746439229
 21
21.591684735036579
  0
LINE
  8
_0-0_
  6
CONTINUOUS
 62
    7
 10
317.65138720072042
 20
37.87089387199947
 11
317.65138720072042
 21
34.870897686696736
  0
LINE
  8
_0-0_
  6
CONTINUOUS
 62
    7
 10
317.65138720072042
 20
37.87089387199947
 11
324.65138696230184
 21
39.37089387199947
  0
LINE
  8
_0-0_
  6
CONTINUOUS
 62
    7
 10
324.65138696230184
 20
39.37089387199947
 11
324.65138696230184
 21
33.370891964650837
  0
LINE
  8
_0-0_
  6
CONTINUOUS
 62
    7
 10
317.65138720072042
 20
34.870897686696736
 11
324.65138696230184
 21
33.370891964650837
  0
LINE
  8
_0-0_
  6
CENTER2
 62
   18
 10
326.65135644472371
 20
36.370895779348103
 11
308.65138720072042
 21
36.370895779348103
  0
LINE
  8
_0-0_
  6
CENTER2
 62
   18
 10
312.65135668314229
 20
40.370897686696736
 11
312.65135668314229
 21
32.37089387199947
  0
LINE
  8
_0-0_
  6
CONTINUOUS
 62
    7
 10
352.62840746439229
 20
51.591692424035755
 11
352.62840746439229
 21
21.591684735036579
  0
LINE
  8
_0-0_
  6
CONTINUOUS
 62
    7
 10
382.62840555704366
 20
51.591692424035755
 11
382.62840555704366
 21
41.591690457082478
  0
LINE
  8
_0-0_
  6
CONTINUOUS
 62
   18
 10
387.62843988931905
 20
51.591692424035755
 11
387.62843988931905
 21
41.591690457082478
  0
LINE
  8
_0-0_
  6
CONTINUOUS
 62
    7
 10
327.62843816078435
 20
41.591690457082478
 11
327.62843816078435
 21
31.591686642385212
  0
LINE
  8
_0-0_
  6
CONTINUOUS
 62
   18
 10
332.62840746439229
 20
41.591690457082478
 11
332.62840746439229
 21
31.591686642385212
  0
LINE
  8
_0-0_
  6
CONTINUOUS
 62
   18
 10
342.6284370282961
 20
51.591692424035755
 11
342.6284370282961
 21
41.591690457082478
  0
LINE
  8
_0-0_
  6
CONTINUOUS
 62
    7
 10
337.62840651071797
 20
51.591692424035755
 11
337.62840651071797
 21
41.591690457082478
  0
LINE
  8
_0-0_
  6
CONTINUOUS
 62
   18
 10
327.62843816078435
 20
51.591692424035755
 11
327.62843816078435
 21
41.591690457082478
  0
LINE
  8
_0-0_
  6
CONTINUOUS
 62
   18
 10
312.62840746439229
 20
51.591692424035755
 11
312.62840746439229
 21
41.591690457082478
  0
LINE
  8
_0-0_
  6
CONTINUOUS
 62
    7
 10
402.62841318643819
 20
51.591692424035755
 11
307.62840746439229
 21
51.591692424035755
  0
LINE
  8
_0-0_
  6
CONTINUOUS
 62
    7
 10
402.62841318643819
 20
41.591690457082478
 11
307.62840746439229
 21
41.591690457082478
  0
LINE
  8
_0-0_
  6
CONTINUOUS
 62
    7
 10
402.62841318643819
 20
31.591686642385212
 11
307.62840746439229
 21
31.591686642385212
  0
CIRCLE
  8
_0-0_
  6
CONTINUOUS
 62
    7
 10
312.65135668314229
 20
36.370895779348103
 40
3
  0
CIRCLE
  8
_0-0_
  6
CONTINUOUS
 62
    7
 10
312.65135668314229
 20
36.370895779348103
 40
1.5
  0
TEXT
  8
_0-0_
 62
    7
 10
355.25426195657979
 20
29.717760479665486
 40
3
 41
1
 50
0
  1
図番
  7
TATEGAKI
  0
TEXT
  8
_0-0_
 62
    7
 10
355.13152025736104
 20
39.869448101735798
 40
3
 41
1
 50
0
  1
品名
  7
TATEGAKI
  0
TEXT
  8
_0-0_
 62
    7
 10
355.20732592142354
 20
49.667692637658802
 40
3
 41
1
 50
0
  1
作図
  7
TATEGAKI
  0
TEXT
  8
_0-0_
 62
    7
 10
384.90636347330342
 20
49.605480587697712
 40
3
 41
1
 50
0
  1
尺度
  7
TATEGAKI
  0
TEXT
  8
_0-0_
 62
    7
 10
330.19594304359685
 20
39.869448101735798
 40
3
 41
1
 50
0
  1
材質
  7
TATEGAKI
  0
TEXT
  8
_0-0_
 62
    7
 10
310.12947557962667
 20
49.586662686086384
 40
3
 41
1
 50
0
  1
設計
  7
TATEGAKI
  0
TEXT
  8
_0-0_
 62
    7
 10
325.11208008325826
 20
49.586662686086384
 40
3
 41
1
 50
0
  1
製図
  7
TATEGAKI
  0
TEXT
  8
_0-0_
 62
    7
 10
340.09468458688985
 20
49.586662686086384
 40
3
 41
1
 50
0
  1
検図
  7
TATEGAKI
  0
TEXT
  8
_0-0_
 62
    7
 10
364.12843607462178
 20
45.091686642385212
 40
3
 41
1
 50
0
  1
年　月　日
  0
TEXT
  8
_0-0_
 62
    7
 10
308.80708788431417
 20
24.590750134206473
 40
4
 41
1
 50
0
  1
ＦＫＫ株式会社
  0
LINE
  8
_1-f_
  6
CONTINUOUS
 62
   18
 10
387.62846267440266
 20
41.591687982684291
 11
402.62841318643819
 21
51.59169004468282
  0
LINE
  8
_1-e_
  6
CONTINUOUS
 62
    7
 10
402.62841318643819
 20
273.59169856331413
 11
282.62842081583272
 21
273.59169856331413
  0
LINE
  8
_1-e_
  6
CONTINUOUS
 62
    7
 10
282.62840555704366
 20
268.59171906731194
 11
402.62841318643819
 21
268.59171906731194
  0
LINE
  8
_1-e_
  6
CONTINUOUS
 62
    7
 10
282.62840555704366
 20
278.59169045708244
 11
282.62840555704366
 21
273.59169856331413
  0
LINE
  8
_1-e_
  6
CONTINUOUS
 62
    7
 10
292.62841318643819
 20
278.59169045708244
 11
292.62841318643819
 21
273.59169856331413
  0
LINE
  8
_1-e_
  6
CONTINUOUS
 62
    7
 10
322.62841318643819
 20
278.59169045708244
 11
322.62841318643819
 21
273.59169856331413
  0
TEXT
  8
_1-e_
 62
    7
 10
383.12841318643819
 20
274.09169856331413
 40
4
 41
1
 50
0
  1
担当
  0
TEXT
  8
_1-e_
 62
    7
 10
393.12841318643819
 20
274.09169856331413
 40
4
 41
1
 50
0
  1
検印
  0
TEXT
  8
_1-e_
 62
    7
 10
284.39821909464131
 20
274.78079549095696
 40
3
 41
1
 50
0
  1
Ｎｏ
  0
TEXT
  8
_1-e_
 62
    7
 10
299.77984903848897
 20
274.80464879295891
 40
3
 41
1
 50
0
  1
年　月　日
  0
TEXT
  8
_1-e_
 62
    7
 10
340.57786081827401
 20
274.80464879295891
 40
3
 41
1
 50
0
  1
訂　正　記　事
  0
LINE
  8
_1-e_
  6
CONTINUOUS
 62
    7
 10
282.62840555704366
 20
273.59169856331413
 11
282.62840555704366
 21
268.59171906731194
  0
LINE
  8
_1-e_
  6
CONTINUOUS
 62
    7
 10
292.62841318643819
 20
273.59169856331413
 11
292.62841318643819
 21
268.59171906731194
  0
LINE
  8
_1-e_
  6
CONTINUOUS
 62
    7
 10
322.62841318643819
 20
273.59169856331413
 11
322.62841318643819
 21
268.59171906731194
  0
LINE
  8
_1-e_
  6
CONTINUOUS
 62
    7
 10
402.62841318643819
 20
268.59171906731194
 11
402.62841318643819
 21
278.59169045708244
  0
LINE
  8
_1-e_
  6
CONTINUOUS
 62
    7
 10
282.62840555704366
 20
278.59169045708244
 11
402.62841318643819
 21
278.59169045708244
  0
TEXT
  8
_1-e_
 62
    7
 10
359.48518328488114
 20
44.552805559585578
 40
4
 41
1
 50
0
  1
19
  0
TEXT
  8
_1-e_
 62
    7
 10
368.47343206676703
 20
44.695476175171066
 40
4
 41
1
 50
0
  1
2
  0
TEXT
  8
_1-e_
 62
    7
 10
313.30894685928961
 20
44.16937828019958
 40
4
 41
1
 50
0
  1
百々
  0
TEXT
  8
_1-e_
 62
    7
 10
328.3785306305071
 20
44.133710626303198
 40
4
 41
1
 50
0
  1
米澤
  0
TEXT
  8
_1-f_
 62
    7
 10
359.61032117841449
 20
36.717017192020577
 40
4
 41
1
 50
0
  1
FMC-24R製品仕様図
  0
TEXT
  8
_1-e_
 62
    7
 10
375.10761569149235
 20
44.695476175171066
 40
4
 41
1
 50
0
  1
7
  0
LINE
  8
_1-e_
  6
CONTINUOUS
 62
    7
 10
402.62841318643819
 20
273.59169856331413
 11
282.62842081583272
 21
273.59169856331413
  0
LINE
  8
_1-e_
  6
CONTINUOUS
 62
    7
 10
282.62840555704366
 20
268.59171906731194
 11
402.62841318643819
 21
268.59171906731194
  0
LINE
  8
_1-e_
  6
CONTINUOUS
 62
    7
 10
282.62840555704366
 20
278.59169045708244
 11
282.62840555704366
 21
273.59169856331413
  0
LINE
  8
_1-e_
  6
CONTINUOUS
 62
    7
 10
292.62841318643819
 20
278.59169045708244
 11
292.62841318643819
 21
273.59169856331413
  0
LINE
  8
_1-e_
  6
CONTINUOUS
 62
    7
 10
322.62841318643819
 20
278.59169045708244
 11
322.62841318643819
 21
273.59169856331413
  0
TEXT
  8
_1-e_
 62
    7
 10
383.12841318643819
 20
274.09169856331413
 40
4
 41
1
 50
0
  1
担当
  0
TEXT
  8
_1-e_
 62
    7
 10
393.12841318643819
 20
274.09169856331413
 40
4
 41
1
 50
0
  1
検印
  0
TEXT
  8
_1-e_
 62
    7
 10
284.39821909464131
 20
274.78079549095696
 40
3
 41
1
 50
0
  1
Ｎｏ
  0
TEXT
  8
_1-e_
 62
    7
 10
299.77984903848897
 20
274.80464879295891
 40
3
 41
1
 50
0
  1
年　月　日
  0
TEXT
  8
_1-e_
 62
    7
 10
340.57786081827401
 20
274.80464879295891
 40
3
 41
1
 50
0
  1
訂　正　記　事
  0
LINE
  8
_1-e_
  6
CONTINUOUS
 62
    7
 10
282.62840555704366
 20
273.59169856331413
 11
282.62840555704366
 21
268.59171906731194
  0
LINE
  8
_1-e_
  6
CONTINUOUS
 62
    7
 10
292.62841318643819
 20
273.59169856331413
 11
292.62841318643819
 21
268.59171906731194
  0
LINE
  8
_1-e_
  6
CONTINUOUS
 62
    7
 10
322.62841318643819
 20
273.59169856331413
 11
322.62841318643819
 21
268.59171906731194
  0
LINE
  8
_1-e_
  6
CONTINUOUS
 62
    7
 10
382.62841318643819
 20
278.59169045708244
 11
382.62841318643819
 21
268.59171906731194
  0
LINE
  8
_1-e_
  6
CONTINUOUS
 62
    7
 10
392.62841318643819
 20
278.59169045708244
 11
392.62841318643819
 21
268.59171906731194
  0
LINE
  8
_1-e_
  6
CONTINUOUS
 62
    7
 10
402.62841318643819
 20
268.59171906731194
 11
402.62841318643819
 21
278.59169045708244
  0
LINE
  8
_1-e_
  6
CONTINUOUS
 62
    7
 10
282.62840555704366
 20
278.59169045708244
 11
402.62841318643819
 21
278.59169045708244
  0
LINE
  8
_1-e_
  6
CONTINUOUS
 62
    7
 10
282.62840555704366
 20
273.59169856331413
 11
282.62840555704366
 21
268.59171906731194
  0
LINE
  8
_1-e_
  6
CONTINUOUS
 62
    7
 10
292.62841318643819
 20
273.59169856331413
 11
292.62841318643819
 21
268.59171906731194
  0
LINE
  8
_1-e_
  6
CONTINUOUS
 62
    7
 10
322.62841318643819
 20
273.59169856331413
 11
322.62841318643819
 21
268.59171906731194
  0
LINE
  8
_1-e_
  6
CONTINUOUS
 62
    7
 10
292.62841318643819
 20
273.59169856331413
 11
292.62841318643819
 21
268.59171906731194
  0
LINE
  8
_1-e_
  6
CONTINUOUS
 62
    7
 10
322.62841318643819
 20
273.59169856331413
 11
322.62841318643819
 21
268.59171906731194
  0
LINE
  8
_1-e_
  6
CONTINUOUS
 62
    7
 10
287.28267775643581
 20
273.42601552642861
 11
285.03268538583034
 21
268.92601361907998
  0
LINE
  8
_1-e_
  6
CONTINUOUS
 62
    7
 10
285.03268538583034
 20
268.92601361907998
 11
289.53267775643581
 21
268.92601361907998
  0
LINE
  8
_1-e_
  6
CONTINUOUS
 62
    7
 10
287.28267775643581
 20
273.42601552642861
 11
289.53267775643581
 21
268.92601361907998
  0
TEXT
  8
_1-e_
 62
    7
 10
305.22477828133816
 20
269.49777188934365
 40
3
 41
1
 50
0
  1
.   .
  0
TEXT
  8
_1-e_
 62
    7
 10
286.66674147713894
 20
269.1606108251957
 40
3
 41
1
 50
0
  1
1
  0
TEXT
  8
_1-e_
 62
    7
 10
294.20034276124152
 20
269.02474058005827
 40
4
 41
1
 50
0
  1
2019
  0
TEXT
  8
_1-e_
 62
    7
 10
383.53400369414964
 20
268.97019468594419
 40
4
 41
1
 50
0
  1
米澤
  0
TEXT
  8
_1-e_
 62
    7
 10
383.12841318643813
 20
274.09169856331413
 40
4
 41
1
 50
0
  1
担当
  0
LINE
  8
_1-e_
  6
CONTINUOUS
 62
    7
 10
282.62840555704366
 20
273.59169856331413
 11
282.62840555704366
 21
268.59171906731194
  0
LINE
  8
_1-e_
  6
CONTINUOUS
 62
    7
 10
292.62841318643819
 20
273.59169856331413
 11
292.62841318643819
 21
268.59171906731194
  0
LINE
  8
_1-e_
  6
CONTINUOUS
 62
    7
 10
322.62841318643819
 20
273.59169856331413
 11
322.62841318643819
 21
268.59171906731194
  0
TEXT
  8
_1-e_
 62
    7
 10
307.99183560117234
 20
268.88206996447274
 40
4
 41
1
 50
0
  1
7
  0
TEXT
  8
_1-e_
 62
    7
 10
315.03025263672321
 20
268.97718370819643
 40
4
 41
1
 50
0
  1
9
  0
TEXT
  8
_1-e_
 62
    7
 10
324.29337441482743
 20
269.12103913888086
 40
4
 41
1
 50
0
  1
寸法訂正　28→29
  0
LINE
  8
_1-e_
  6
CONTINUOUS
 62
    7
 10
402.62841318643819
 20
268.59171906731194
 11
282.62842081583272
 21
268.59171906731194
  0
LINE
  8
_1-e_
  6
CONTINUOUS
 62
    7
 10
282.62840555704366
 20
263.59173957130974
 11
402.62841318643819
 21
263.59173957130974
  0
LINE
  8
_1-e_
  6
CONTINUOUS
 62
    7
 10
282.62840555704366
 20
268.59171906731194
 11
282.62840555704366
 21
263.59173957130974
  0
LINE
  8
_1-e_
  6
CONTINUOUS
 62
    7
 10
292.62841318643819
 20
268.59171906731194
 11
292.62841318643819
 21
263.59173957130974
  0
LINE
  8
_1-e_
  6
CONTINUOUS
 62
    7
 10
322.62841318643819
 20
268.59171906731194
 11
322.62841318643819
 21
263.59173957130974
  0
LINE
  8
_1-e_
  6
CONTINUOUS
 62
    7
 10
402.62841318643819
 20
268.59171906731194
 11
282.62842081583272
 21
268.59171906731194
  0
LINE
  8
_1-e_
  6
CONTINUOUS
 62
    7
 10
282.62840555704366
 20
263.59173957130974
 11
402.62841318643819
 21
263.59173957130974
  0
LINE
  8
_1-e_
  6
CONTINUOUS
 62
    7
 10
282.62840555704366
 20
268.59171906731194
 11
282.62840555704366
 21
263.59173957130974
  0
LINE
  8
_1-e_
  6
CONTINUOUS
 62
    7
 10
292.62841318643819
 20
268.59171906731194
 11
292.62841318643819
 21
263.59173957130974
  0
LINE
  8
_1-e_
  6
CONTINUOUS
 62
    7
 10
322.62841318643819
 20
268.59171906731194
 11
322.62841318643819
 21
263.59173957130974
  0
LINE
  8
_1-e_
  6
CONTINUOUS
 62
    7
 10
282.62840555704366
 20
268.59171906731194
 11
282.62840555704366
 21
263.59173957130974
  0
LINE
  8
_1-e_
  6
CONTINUOUS
 62
    7
 10
292.62841318643819
 20
268.59171906731194
 11
292.62841318643819
 21
263.59173957130974
  0
LINE
  8
_1-e_
  6
CONTINUOUS
 62
    7
 10
322.62841318643819
 20
268.59171906731194
 11
322.62841318643819
 21
263.59173957130974
  0
LINE
  8
_1-e_
  6
CONTINUOUS
 62
    7
 10
292.62841318643819
 20
268.59171906731194
 11
292.62841318643819
 21
263.59173957130974
  0
LINE
  8
_1-e_
  6
CONTINUOUS
 62
    7
 10
322.62841318643819
 20
268.59171906731194
 11
322.62841318643819
 21
263.59173957130974
  0
LINE
  8
_1-e_
  6
CONTINUOUS
 62
    7
 10
287.28267775643581
 20
268.42603603042641
 11
285.03268538583034
 21
263.92603412307778
  0
LINE
  8
_1-e_
  6
CONTINUOUS
 62
    7
 10
285.03268538583034
 20
263.92603412307778
 11
289.53267775643581
 21
263.92603412307778
  0
LINE
  8
_1-e_
  6
CONTINUOUS
 62
    7
 10
287.28267775643581
 20
268.42603603042641
 11
289.53267775643581
 21
263.92603412307778
  0
TEXT
  8
_1-e_
 62
    7
 10
305.22477828133816
 20
264.49779239334145
 40
3
 41
1
 50
0
  1
.   .
  0
TEXT
  8
_1-e_
 62
    7
 10
294.20034276124152
 20
264.02476108405608
 40
4
 41
1
 50
0
  1
2019
  0
TEXT
  8
_1-e_
 62
    7
 10
383.53400369414964
 20
263.97021518994199
 40
4
 41
1
 50
0
  1
米澤
  0
LINE
  8
_1-e_
  6
CONTINUOUS
 62
    7
 10
282.62840555704366
 20
268.59171906731194
 11
282.62840555704366
 21
263.59173957130974
  0
LINE
  8
_1-e_
  6
CONTINUOUS
 62
    7
 10
292.62841318643819
 20
268.59171906731194
 11
292.62841318643819
 21
263.59173957130974
  0
LINE
  8
_1-e_
  6
CONTINUOUS
 62
    7
 10
322.62841318643819
 20
268.59171906731194
 11
322.62841318643819
 21
263.59173957130974
  0
TEXT
  8
_1-e_
 62
    7
 10
307.99183560117234
 20
263.88209046847055
 40
4
 41
1
 50
0
  1
7
  0
TEXT
  8
_1-e_
 62
    7
 10
286.66674147713894
 20
264.1606313291935
 40
3
 41
1
 50
0
  1
2
  0
TEXT
  8
_1-e_
 62
    7
 10
315.03025263672321
 20
263.97720421219423
 40
4
 41
1
 50
0
  1
12
  0
TEXT
  8
_1-e_
 62
    7
 10
324.29337441482743
 20
264.12105964287866
 40
4
 41
1
 50
0
  1
三面図修正
  0
TEXT
  8
_1-e_
 62
    7
 10
310.82328588261549
 20
52.061908856405807
 40
4
 41
1
 50
0
  1
出図
  0
TEXT
  8
_1-8_
 62
    7
 10
310.56532147026462
 20
89.947406136946739
 40
4
 41
1
 50
0
  1
⑥
  0
TEXT
  8
_1-8_
 62
    7
 10
310.56532147026462
 20
64.094208462528115
 40
4
 41
1
 50
0
  1
②
  0
TEXT
  8
_1-8_
 62
    7
 10
310.69267712383322
 20
57.726425784099916
 40
4
 41
1
 50
0
  1
①
  0
TEXT
  8
_1-8_
 62
    7
 10
310.43796581669607
 20
70.589346794524914
 40
4
 41
1
 50
0
  1
③
  0
TEXT
  8
_1-8_
 62
    7
 10
310.43796581669607
 20
77.084485126521713
 40
4
 41
1
 50
0
  1
④
  0
TEXT
  8
_1-8_
 62
    7
 10
310.56532147026462
 20
83.579623458518511
 40
4
 41
1
 50
0
  1
⑤
  0
TEXT
  8
_1-8_
 62
    7
 10
310.56532147026462
 20
96.076553113607502
 40
4
 41
1
 50
0
  1
⑦
  0
TEXT
  8
_1-8_
 62
    7
 10
310.56532147026462
 20
102.4765531136075
 40
4
 41
1
 50
0
  1
⑧
  0
TEXT
  8
_1-8_
 62
    7
 10
310.56532147026462
 20
108.87655311360751
 40
4
 41
1
 50
0
  1
⑨
  0
TEXT
  8
_1-8_
 62
    7
 10
310.56532147026462
 20
115.27655311360751
 40
4
 41
1
 50
0
  1
⑩
  0
TEXT
  8
_1-8_
 62
    7
 10
319.09315849818989
 20
77.0511251116082
 40
4
 41
1
 50
0
  1
ON/OFFﾀｸﾄｽｲｯﾁ
  0
TEXT
  8
_1-8_
 62
    7
 10
318.51740991544573
 20
96.147888421400239
 40
4
 41
1
 50
0
  1
入力接続端子台
  0
TEXT
  8
_1-8_
 62
    7
 10
318.51740991544573
 20
102.54788842140024
 40
4
 41
1
 50
0
  1
出力接続端子台
  0
TEXT
  8
_1-8_
 62
    7
 10
319.14995143466796
 20
115.34788842140025
 40
4
 41
1
 50
0
  1
ﾃﾞｨｯﾌﾟｽｲｯﾁ
  0
TEXT
  8
_1-8_
 62
    7
 10
319.21704324703063
 20
108.94788842140025
 40
4
 41
1
 50
0
  1
2-5×10取付穴
  0
TEXT
  8
_1-8_
 62
    7
 10
318.63880927359025
 20
89.819767119152743
 40
4
 41
1
 50
0
  1
ケース
  0
TEXT
  8
_1-8_
 62
    7
 10
318.79050030253841
 20
83.422545565699039
 40
4
 41
1
 50
0
  1
基板固定金具
  0
TEXT
  8
_1-f_
 62
    7
 10
366.42695223786967
 20
89.615434283962343
 40
4
 41
1
 50
0
  1
SPCC　白塗装
  0
TEXT
  8
_1-f_
 62
    7
 10
366.3456020508903
 20
83.520060060211534
 40
4
 41
1
 50
0
  1
SECC 
  0
TEXT
  8
_1-8_
 62
    7
 10
366.39181873188772
 20
63.990076100430229
 40
4
 41
1
 50
0
  1
緑色
  0
TEXT
  8
_1-8_
 62
    7
 10
366.62920766854585
 20
58.326597879048364
 40
3
 41
1
 50
0
  1
ﾌﾞﾗｯｸ/ｸﾞﾚｰ/ﾎﾜｲﾄ
  0
LINE
  8
_1-8_
  6
CONTINUOUS
 62
   18
 10
402.62841318643819
 20
120.59169242403581
 11
307.62840746439229
 21
120.59169242403581
  0
LINE
  8
_1-8_
  6
CONTINUOUS
 62
   18
 10
402.62841318643819
 20
114.1916924240358
 11
307.62840746439229
 21
114.1916924240358
  0
LINE
  8
_1-8_
  6
CONTINUOUS
 62
   18
 10
402.62841318643819
 20
107.7916924240358
 11
307.62840746439229
 21
107.7916924240358
  0
LINE
  8
_1-8_
  6
CONTINUOUS
 62
   18
 10
402.62841318643819
 20
101.39169242403579
 11
307.62840746439229
 21
101.39169242403579
  0
LINE
  8
_1-8_
  6
CONTINUOUS
 62
   18
 10
402.62841318643819
 20
94.99169242403579
 11
307.62840746439229
 21
94.99169242403579
  0
LINE
  8
_1-8_
  6
CONTINUOUS
 62
   18
 10
402.62841318643819
 20
88.591692424035784
 11
307.62840746439229
 21
88.591692424035784
  0
LINE
  8
_1-8_
  6
CONTINUOUS
 62
   18
 10
402.62841318643819
 20
82.191692424035778
 11
307.62840746439229
 21
82.191692424035778
  0
LINE
  8
_1-8_
  6
CONTINUOUS
 62
   18
 10
402.62841318643819
 20
75.791692424035773
 11
307.62840746439229
 21
75.791692424035773
  0
LINE
  8
_1-8_
  6
CONTINUOUS
 62
   18
 10
402.62841318643819
 20
69.391692424035767
 11
307.62840746439229
 21
69.391692424035767
  0
LINE
  8
_1-8_
  6
CONTINUOUS
 62
   18
 10
402.62841318643819
 20
62.991692424035761
 11
307.62840746439229
 21
62.991692424035761
  0
LINE
  8
_1-e_
  6
CONTINUOUS
 62
    7
 10
402.62841318643819
 20
56.591692424035755
 11
307.62840746439229
 21
56.591692424035755
  0
TEXT
  8
_1-8_
 62
    7
 10
397.48386971182799
 20
115.27655311360751
 40
4
 41
1
 50
0
  1
1
  0
TEXT
  8
_1-8_
 62
    7
 10
397.48386971182799
 20
108.87655311360751
 40
4
 41
1
 50
0
  1
2
  0
TEXT
  8
_1-8_
 62
    7
 10
397.48386971182799
 20
102.4765531136075
 40
4
 41
1
 50
0
  1
1
  0
TEXT
  8
_1-8_
 62
    7
 10
397.48386971182799
 20
96.076553113607502
 40
4
 41
1
 50
0
  1
1
  0
TEXT
  8
_1-8_
 62
    7
 10
397.48386971182799
 20
89.947406136946739
 40
4
 41
1
 50
0
  1
1
  0
TEXT
  8
_1-8_
 62
    7
 10
397.48386971182799
 20
83.579623458518511
 40
4
 41
1
 50
0
  1
1
  0
TEXT
  8
_1-8_
 62
    7
 10
397.35651405825944
 20
77.084485126521713
 40
4
 41
1
 50
0
  1
1
  0
TEXT
  8
_1-8_
 62
    7
 10
397.35651405825944
 20
70.589346794524914
 40
4
 41
1
 50
0
  1
1
  0
TEXT
  8
_1-8_
 62
    7
 10
397.48386971182799
 20
64.094208462528115
 40
4
 41
1
 50
0
  1
1
  0
TEXT
  8
_1-8_
 62
    7
 10
397.61122536539653
 20
57.726425784099916
 40
4
 41
1
 50
0
  1
1
  0
LINE
  8
_1-8_
  6
CONTINUOUS
 62
   18
 10
307.62840746439229
 20
120.59169242403581
 11
307.62840746439229
 21
56.591692424035755
  0
LINE
  8
_1-8_
  6
CONTINUOUS
 62
   18
 10
317.62840746439229
 20
120.59169242403581
 11
317.62840746439229
 21
56.591692424035755
  0
LINE
  8
_1-8_
  6
CONTINUOUS
 62
   18
 10
365.12840746439229
 20
120.59169242403581
 11
365.12840746439229
 21
56.591692424035755
  0
LINE
  8
_1-8_
  6
CONTINUOUS
 62
   18
 10
394.12840746439229
 20
120.59169242403581
 11
394.12840746439229
 21
56.591692424035755
  0
LINE
  8
_1-2_
  6
CONTINUOUS
 62
   18
 10
69.503805553428804
 20
214.17870264997813
 11
69.503805553428804
 21
179.67870264997816
  0
LINE
  8
_1-2_
  6
CONTINUOUS
 62
   18
 10
83.503805553428804
 20
214.17870264997813
 11
69.503805553428804
 21
214.17870264997813
  0
LINE
  8
_1-0_
  6
CONTINUOUS
 62
    7
 10
59.003805553428804
 20
166.92870264997816
 11
94.003805553428804
 21
166.92870264997816
  0
LINE
  8
_1-0_
  6
CONTINUOUS
 62
    7
 10
94.003805553428804
 20
166.92870264997816
 11
94.003805553428804
 21
226.92870264997813
  0
LINE
  8
_1-0_
  6
CONTINUOUS
 62
    7
 10
94.003805553428804
 20
226.92870264997813
 11
59.003805553428804
 21
226.92870264997813
  0
LINE
  8
_1-0_
  6
CONTINUOUS
 62
    7
 10
59.003805553428804
 20
226.92870264997813
 11
59.003805553428804
 21
166.92870264997816
  0
LINE
  8
_1-2_
  6
CONTINUOUS
 62
   18
 10
83.503805553428804
 20
179.67870264997816
 11
83.503805553428804
 21
214.17870264997813
  0
LINE
  8
_1-2_
  6
CONTINUOUS
 62
   18
 10
69.503805553428804
 20
179.67870264997816
 11
83.503805553428804
 21
179.67870264997816
  0
CIRCLE
  8
_1-2_
  6
CENTER2
 62
   18
 10
76.503805553428804
 20
210.92870264997813
 40
0.8750000000000001
  0
CIRCLE
  8
_1-2_
  6
CONTINUOUS
 62
   18
 10
76.503805553428804
 20
182.92870264997816
 40
0.8750000000000001
  0
LINE
  8
_1-0_
  6
CONTINUOUS
 62
    7
 10
83.628805553428804
 20
214.2287026499782
 11
69.378805553428804
 21
214.2287026499782
  0
LINE
  8
_1-0_
  6
CONTINUOUS
 62
    7
 10
69.378805553428804
 20
179.62870264997818
 11
83.628805553428804
 21
179.62870264997818
  0
LINE
  8
_1-0_
  6
CONTINUOUS
 62
    7
 10
69.378805553428804
 20
214.2287026499782
 11
69.378805553428804
 21
179.62870264997818
  0
LINE
  8
_1-0_
  6
CONTINUOUS
 62
    7
 10
83.628805553428804
 20
179.62870264997818
 11
83.628805553428804
 21
214.2287026499782
  0
CIRCLE
  8
_1-3_
  6
DASHED3
 62
    7
 10
76.503805553428804
 20
182.92870264997816
 40
0.75
  0
LINE
  8
_1-3_
  6
CONTINUOUS
 62
    7
 10
76.948618649374452
 20
182.3248472784895
 11
77.107660924917013
 21
182.48388955403206
  0
LINE
  8
_1-3_
  6
CONTINUOUS
 62
    7
 10
76.596034356655422
 20
182.18439502012628
 11
77.248113183280224
 21
182.83647384675109
  0
LINE
  8
_1-3_
  6
CONTINUOUS
 62
    7
 10
76.387312305281852
 20
182.18780500310853
 11
77.244703200297976
 21
183.04519589812466
  0
LINE
  8
_1-3_
  6
CONTINUOUS
 62
    7
 10
76.221313170754342
 20
182.23393790293684
 11
77.198570300469668
 21
183.21119503265217
  0
LINE
  8
_1-3_
  6
CONTINUOUS
 62
    7
 10
76.083072529046717
 20
182.30782929558503
 11
77.124678907821476
 21
183.34943567435979
  0
LINE
  8
_1-3_
  6
CONTINUOUS
 62
    7
 10
75.967513510663252
 20
182.4044023115583
 11
77.028105891848213
 21
183.46499469274326
  0
LINE
  8
_1-3_
  6
CONTINUOUS
 62
    7
 10
75.8733884608597
 20
182.52240929611056
 11
76.910098907295946
 21
183.55911974254681
  0
LINE
  8
_1-3_
  6
CONTINUOUS
 62
    7
 10
75.802283185013152
 20
182.66343605461983
 11
76.769072148786676
 21
183.63022501839336
  0
LINE
  8
_1-3_
  6
CONTINUOUS
 62
    7
 10
75.759911384295151
 20
182.83319628825765
 11
76.599311915148859
 21
183.67259681911136
  0
LINE
  8
_1-3_
  6
CONTINUOUS
 62
    7
 10
75.763503054048101
 20
183.04891999236642
 11
76.383588211040091
 21
183.66900514935841
  0
CIRCLE
  8
_1-3_
  6
CONTINUOUS
 62
    7
 10
76.503805553428804
 20
182.92870264997816
 40
0.8750000000000001
  0
CIRCLE
  8
_1-c_
  6
CONTINUOUS
 62
   18
 10
76.503805553428804
 20
196.92870264997813
 40
3.125
  0
CIRCLE
  8
_1-c_
  6
CONTINUOUS
 62
   18
 10
76.503805553428804
 20
196.92870264997813
 40
2.9500000000000001
  0
LINE
  8
_1-c_
  6
CONTINUOUS
 62
   18
 10
74.09964249739454
 20
195.16093569701178
 11
74.73603860046245
 21
194.52453959394387
  0
LINE
  8
_1-c_
  6
CONTINUOUS
 62
   18
 10
74.73603860046245
 20
194.52453959394387
 11
75.725988094123607
 21
195.51448908760505
  0
LINE
  8
_1-c_
  6
CONTINUOUS
 62
   18
 10
75.725988094123607
 20
195.51448908760505
 11
75.089591991055698
 21
196.15088519067293
  0
LINE
  8
_1-c_
  6
CONTINUOUS
 62
   18
 10
75.089591991055698
 20
196.15088519067293
 11
74.09964249739454
 21
195.16093569701178
  0
LINE
  8
_1-f_
  6
CONTINUOUS
 62
   18
 10
45.062234941622278
 20
166.92870264997816
 11
45.062234941622278
 21
226.92870264997816
  0
LINE
  8
_1-f_
  6
CONTINUOUS
 62
   18
 10
45.062234941622278
 20
166.92870264997816
 11
44.285777806314769
 21
169.82648012884536
  0
LINE
  8
_1-f_
  6
CONTINUOUS
 62
   18
 10
45.062234941622278
 20
166.92870264997816
 11
45.838692076929845
 21
169.82648012884536
  0
LINE
  8
_1-f_
  6
CONTINUOUS
 62
   18
 10
45.062234941622278
 20
226.92870264997816
 11
45.838692076929845
 21
224.03092517111096
  0
LINE
  8
_1-f_
  6
CONTINUOUS
 62
   18
 10
45.062234941622278
 20
226.92870264997816
 11
44.285777806314769
 21
224.03092517111096
  0
LINE
  8
_1-f_
  6
CONTINUOUS
 62
   18
 10
44.562234941622278
 20
166.92870264997816
 11
58.009593306005598
 21
166.92870264997816
  0
LINE
  8
_1-f_
  6
CONTINUOUS
 62
   18
 10
44.562234941622278
 20
226.92870264997816
 11
58.009593306005598
 21
226.92870264997816
  0
TEXT
  8
_1-f_
 62
    7
 10
44.562234941622278
 20
193.67870264997816
 40
4
 41
1
 50
90
  1
120
  0
LINE
  8
_1-7_
  6
CONTINUOUS
 62
   18
 10
76.779141973585211
 20
183.1286224447659
 11
98.897603030399949
 21
187.87704894148117
  0
LINE
  8
_1-7_
  6
CONTINUOUS
 62
   18
 10
76.779141973585211
 20
196.61099561759479
 11
97.994022465025153
 21
201.1483884954232
  0
LINE
  8
_1-7_
  6
CONTINUOUS
 62
   18
 10
76.779141973585211
 20
211.31055619962759
 11
99.960201886062719
 21
216.51668886802281
  0
TEXT
  8
_1-7_
 62
    3
 10
107.61383591390864
 20
231.39056267024443
 40
6
 41
1
 50
0
  1
①
  0
LINE
  8
_1-7_
  6
CONTINUOUS
 62
   18
 10
89.963076383957456
 20
222.37556314793624
 11
106.95844277356286
 21
233.07585931684803
  0
TEXT
  8
_1-7_
 62
    3
 10
100.35624716345532
 20
214.59449475136858
 40
6
 41
1
 50
0
  1
②
  0
TEXT
  8
_1-7_
 62
    3
 10
98.711076627485141
 20
199.06568993623531
 40
6
 41
1
 50
0
  1
③
  0
TEXT
  8
_1-7_
 62
    3
 10
99.145033083224376
 20
185.99349478321471
 40
6
 41
1
 50
0
  1
④
  0
CIRCLE
  8
_1-3_
  6
DASHED2
 62
    3
 10
76.503805553428804
 20
210.92870264997813
 40
0.75
  0
LINE
  8
_1-3_
  6
CONTINUOUS
 62
    3
 10
76.943329556775211
 20
210.32098672087735
 11
77.111521482530065
 21
210.48917864663221
  0
LINE
  8
_1-3_
  6
CONTINUOUS
 62
    3
 10
76.594405836587725
 20
210.18419503504568
 11
77.248313168360368
 21
210.83810236681833
  0
LINE
  8
_1-3_
  6
CONTINUOUS
 62
    3
 10
76.386078774107659
 20
210.18800000692144
 11
77.244508196484616
 21
211.04642942929839
  0
LINE
  8
_1-3_
  6
CONTINUOUS
 62
    3
 10
76.220298192081941
 20
210.23435145925154
 11
77.198156744154516
 21
211.21221001132411
  0
LINE
  8
_1-3_
  6
CONTINUOUS
 62
    3
 10
76.082221525776617
 20
210.30840682730203
 11
77.124101376104022
 21
211.35028667762944
  0
LINE
  8
_1-3_
  6
CONTINUOUS
 62
    3
 10
75.966807800213814
 20
210.40512513609596
 11
77.027383067310097
 21
211.46570040319224
  0
LINE
  8
_1-3_
  6
CONTINUOUS
 62
    3
 10
75.872829124266104
 20
210.52327849450406
 11
76.909229708901989
 21
211.55967907913995
  0
LINE
  8
_1-3_
  6
CONTINUOUS
 62
    3
 10
75.80189186058044
 20
210.66447326517422
 11
76.768034938231835
 21
211.63061634282561
  0
LINE
  8
_1-3_
  6
CONTINUOUS
 62
    3
 10
75.759749818371687
 20
210.83446325732128
 11
76.598044946086133
 21
211.67275838503573
  0
LINE
  8
_1-3_
  6
CONTINUOUS
 62
    3
 10
75.763782422402186
 20
211.0506278957076
 11
76.381880307698452
 21
211.66872578100387
  0
ARC
  8
_1-c_
  6
CONTINUOUS
 62
   18
 10
117.06831411401125
 20
194.97870264997811
 40
1
 50
180
 51
270
  0
LINE
  8
_1-0_
  6
CONTINUOUS
 62
    7
 10
124.2683141140113
 20
166.9287026499781
 11
124.2683141140113
 21
226.9287026499781
  0
LINE
  8
_1-0_
  6
CONTINUOUS
 62
    7
 10
127.7683141140113
 20
166.9287026499781
 11
124.2683141140113
 21
166.9287026499781
  0
LINE
  8
_1-0_
  6
CONTINUOUS
 62
    7
 10
127.7683141140113
 20
166.9287026499781
 11
127.7683141140113
 21
226.9287026499781
  0
LINE
  8
_1-0_
  6
CONTINUOUS
 62
    7
 10
127.7683141140113
 20
226.9287026499781
 11
124.2683141140113
 21
226.9287026499781
  0
LINE
  8
_1-c_
  6
CONTINUOUS
 62
   18
 10
122.06831411401125
 20
193.8037026499781
 11
122.06831411401125
 21
200.0537026499781
  0
LINE
  8
_1-c_
  6
CONTINUOUS
 62
   18
 10
123.56831411401125
 20
193.9287026499781
 11
123.56831411401125
 21
199.9287026499781
  0
LINE
  8
_1-c_
  6
CONTINUOUS
 62
   18
 10
123.56831411401125
 20
199.9287026499781
 11
122.06831411401125
 21
199.9287026499781
  0
LINE
  8
_1-c_
  6
CONTINUOUS
 62
   18
 10
123.56831411401125
 20
193.9287026499781
 11
122.06831411401125
 21
193.9287026499781
  0
ARC
  8
_1-c_
  6
CONTINUOUS
 62
   18
 10
117.06831411401125
 20
198.87870264997809
 40
1
 50
90
 51
180
  0
LINE
  8
_1-c_
  6
CONTINUOUS
 62
   18
 10
116.06831411401125
 20
194.97870264997811
 11
116.06831411401125
 21
198.87870264997809
  0
LINE
  8
_1-c_
  6
CONTINUOUS
 62
   18
 10
117.31831411401125
 20
193.8037026499781
 11
122.06831411401125
 21
193.8037026499781
  0
LINE
  8
_1-c_
  6
CONTINUOUS
 62
   18
 10
117.31831411401125
 20
200.0537026499781
 11
122.06831411401125
 21
200.0537026499781
  0
LINE
  8
_1-c_
  6
CONTINUOUS
 62
   18
 10
117.06831411401125
 20
199.87870264997809
 11
117.31831411401125
 21
199.87870264997809
  0
LINE
  8
_1-c_
  6
CONTINUOUS
 62
   18
 10
117.06831411401125
 20
193.97870264997811
 11
117.08432258093912
 21
193.97870264997811
  0
LINE
  8
_1-c_
  6
CONTINUOUS
 62
   18
 10
117.31831411401125
 20
193.8037026499781
 11
117.31831411401125
 21
194.00531580609049
  0
LINE
  8
_1-c_
  6
CONTINUOUS
 62
   18
 10
117.31831411401125
 20
194.00531580609049
 11
117.31831411401125
 21
200.0537026499781
  0
LINE
  8
_1-c_
  6
CONTINUOUS
 62
   18
 10
117.08432258093912
 20
193.97870264997811
 11
117.31831411401125
 21
193.97870264997811
  0
LINE
  8
_1-3_
  6
CONTINUOUS
 62
    7
 10
123.26831411401124
 20
183.67870264997813
 11
123.26831411401124
 21
182.17870264997813
  0
LINE
  8
_1-9_
  6
CONTINUOUS
 62
    7
 10
129.35576625816312
 20
177.05245264997833
 11
129.34817646021539
 21
177.05245264997833
  0
ARC
  8
_1-9_
  6
CONTINUOUS
 62
    7
 10
127.16831411402083
 20
177.17870264997517
 40
2.2965323723943424
 50
341.65841042413802
 51
342.27000822997104
  0
LINE
  8
_1-9_
  6
CONTINUOUS
 62
    7
 10
129.35105894563977
 20
176.45370264997822
 11
129.34817646021539
 21
176.45602631225673
  0
LINE
  8
_1-9_
  6
CONTINUOUS
 62
    7
 10
129.34817646021539
 20
177.30495264997816
 11
129.35576625816312
 21
177.30495264997816
  0
LINE
  8
_1-9_
  6
_
 62
    2
 10
128.60893558718495
 20
177.05245264997833
 11
129.34817646021539
 21
177.05245264997833
  0
LINE
  8
_1-9_
  6
_
 62
    2
 10
129.34817646021539
 20
177.30495264997816
 11
128.60893558718495
 21
177.30495264997816
  0
LINE
  8
_1-9_
  6
_
 62
    2
 10
128.60849581015119
 20
177.30509912071383
 11
128.60831411401133
 21
177.30495264997816
  0
LINE
  8
_1-9_
  6
_
 62
    2
 10
128.60831411401133
 20
177.05245264997833
 11
128.60831411401133
 21
177.30495264997816
  0
LINE
  8
_1-9_
  6
_
 62
    2
 10
128.60849581066551
 20
177.05230617855872
 11
128.60831411401133
 21
177.05245264997833
  0
LINE
  8
_1-9_
  6
_
 62
    2
 10
129.34817646021539
 20
176.45602631225673
 11
128.60893558718495
 21
177.05195166087932
  0
LINE
  8
_1-9_
  6
CONTINUOUS
 62
    7
 10
129.34817646021539
 20
177.90137898769975
 11
129.35105894563977
 21
177.90370264997827
  0
ARC
  8
_1-9_
  6
CONTINUOUS
 62
    7
 10
127.16831411401327
 20
177.17870264997881
 40
2.2965323724022219
 50
17.729991770029037
 51
18.341589575862023
  0
LINE
  8
_1-9_
  6
_
 62
    2
 10
128.60893558718495
 20
177.30545363907717
 11
129.34817646021539
 21
177.90137898769975
  0
LINE
  8
_1-9_
  6
CONTINUOUS
 62
    7
 10
128.68962111787365
 20
175.45370264997868
 11
128.68962111787365
 21
178.90370264997827
  0
LINE
  8
_1-9_
  6
CONTINUOUS
 62
    7
 10
128.51831411401136
 20
175.45370264997868
 11
128.51831411401136
 21
178.90370264997827
  0
LINE
  8
_1-9_
  6
CONTINUOUS
 62
    7
 10
128.68962111787365
 20
178.90370264997827
 11
128.51831411401136
 21
178.90370264997827
  0
LINE
  8
_1-9_
  6
CONTINUOUS
 62
    7
 10
128.68962111787365
 20
175.45370264997868
 11
128.51831411401136
 21
175.45370264997868
  0
ARC
  8
_1-9_
  6
CONTINUOUS
 62
    7
 10
127.1683141140115
 20
177.17870264997813
 40
2.2999999999999993
 50
311.40962210926977
 51
1.1681183974255342
  0
ARC
  8
_1-9_
  6
CONTINUOUS
 62
    7
 10
127.1683141140115
 20
177.17870264997813
 40
2.2999999999999998
 50
1.1681183974255404
 51
48.590377890730273
  0
LINE
  8
_1-9_
  6
CONTINUOUS
 62
    7
 10
128.51831411401136
 20
175.70370264997814
 11
128.16831411401133
 21
175.70370264997814
  0
LINE
  8
_1-9_
  6
CONTINUOUS
 62
    7
 10
128.51831411401136
 20
178.65370264997812
 11
128.16831411401133
 21
178.65370264997812
  0
LINE
  8
_1-9_
  6
CONTINUOUS
 62
    7
 10
128.16831411401133
 20
175.70370264997814
 11
128.16831411401133
 21
178.65370264997812
  0
LINE
  8
_1-9_
  6
CONTINUOUS
 62
    7
 10
129.35576625816312
 20
216.55245264997839
 11
129.34817646021539
 21
216.55245264997839
  0
ARC
  8
_1-9_
  6
CONTINUOUS
 62
    7
 10
127.16831411402083
 20
216.67870264997523
 40
2.2965323723943424
 50
341.65841042413802
 51
342.27000822997104
  0
LINE
  8
_1-9_
  6
CONTINUOUS
 62
    7
 10
129.35105894563977
 20
215.95370264997828
 11
129.34817646021539
 21
215.95602631225679
  0
LINE
  8
_1-9_
  6
CONTINUOUS
 62
    7
 10
129.34817646021539
 20
216.80495264997821
 11
129.35576625816312
 21
216.80495264997821
  0
LINE
  8
_1-9_
  6
_
 62
    2
 10
128.60893558718495
 20
216.55245264997839
 11
129.34817646021539
 21
216.55245264997839
  0
LINE
  8
_1-9_
  6
_
 62
    2
 10
129.34817646021539
 20
216.80495264997821
 11
128.60893558718495
 21
216.80495264997821
  0
LINE
  8
_1-9_
  6
_
 62
    2
 10
128.60849581015119
 20
216.80509912071389
 11
128.60831411401133
 21
216.80495264997821
  0
LINE
  8
_1-9_
  6
_
 62
    2
 10
128.60831411401133
 20
216.55245264997839
 11
128.60831411401133
 21
216.80495264997821
  0
LINE
  8
_1-9_
  6
_
 62
    2
 10
128.60849581066551
 20
216.55230617855877
 11
128.60831411401133
 21
216.55245264997839
  0
LINE
  8
_1-9_
  6
_
 62
    2
 10
129.34817646021539
 20
215.95602631225679
 11
128.60893558718495
 21
216.55195166087938
  0
LINE
  8
_1-9_
  6
CONTINUOUS
 62
    7
 10
129.34817646021539
 20
217.40137898769981
 11
129.35105894563977
 21
217.40370264997832
  0
ARC
  8
_1-9_
  6
CONTINUOUS
 62
    7
 10
127.16831411401327
 20
216.67870264997887
 40
2.2965323724022219
 50
17.729991770029037
 51
18.341589575862023
  0
LINE
  8
_1-9_
  6
_
 62
    2
 10
128.60893558718495
 20
216.80545363907722
 11
129.34817646021539
 21
217.40137898769981
  0
LINE
  8
_1-9_
  6
CONTINUOUS
 62
    7
 10
128.68962111787365
 20
214.95370264997873
 11
128.68962111787365
 21
218.40370264997832
  0
LINE
  8
_1-9_
  6
CONTINUOUS
 62
    7
 10
128.51831411401136
 20
214.95370264997873
 11
128.51831411401136
 21
218.40370264997832
  0
LINE
  8
_1-9_
  6
CONTINUOUS
 62
    7
 10
128.68962111787365
 20
218.40370264997832
 11
128.51831411401136
 21
218.40370264997832
  0
LINE
  8
_1-9_
  6
CONTINUOUS
 62
    7
 10
128.68962111787365
 20
214.95370264997873
 11
128.51831411401136
 21
214.95370264997873
  0
ARC
  8
_1-9_
  6
CONTINUOUS
 62
    7
 10
127.1683141140115
 20
216.67870264997819
 40
2.2999999999999993
 50
311.40962210926977
 51
1.1681183974255342
  0
ARC
  8
_1-9_
  6
CONTINUOUS
 62
    7
 10
127.1683141140115
 20
216.67870264997819
 40
2.2999999999999998
 50
1.1681183974255404
 51
48.590377890730273
  0
LINE
  8
_1-9_
  6
CONTINUOUS
 62
    7
 10
128.51831411401136
 20
215.20370264997819
 11
128.16831411401133
 21
215.20370264997819
  0
LINE
  8
_1-9_
  6
CONTINUOUS
 62
    7
 10
128.51831411401136
 20
218.15370264997818
 11
128.16831411401133
 21
218.15370264997818
  0
LINE
  8
_1-9_
  6
CONTINUOUS
 62
    7
 10
128.16831411401133
 20
215.20370264997819
 11
128.16831411401133
 21
218.15370264997818
  0
LINE
  8
_1-3_
  6
CONTINUOUS
 62
    7
 10
124.2683141140113
 20
183.7050184394518
 11
123.26831411401124
 21
183.67870264997813
  0
LINE
  8
_1-3_
  6
CONTINUOUS
 62
    7
 10
123.26831411401124
 20
182.17870264997813
 11
124.2683141140113
 21
182.15238686050446
  0
ARC
  8
_1-3_
  6
CONTINUOUS
 62
    3
 10
124.61831411401126
 20
210.9287026499781
 40
0.75
 50
117.81813928465078
 51
180
  0
ARC
  8
_1-3_
  6
CONTINUOUS
 62
    3
 10
124.61831411401126
 20
210.9287026499781
 40
0.75
 50
180
 51
242.18186071534921
  0
LINE
  8
_1-5_
  6
CONTINUOUS
 62
  150
 10
128.16831411401119
 20
218.9287026499781
 11
127.76831411401121
 21
218.9287026499781
  0
LINE
  8
_1-5_
  6
CONTINUOUS
 62
  150
 10
128.16831411401119
 20
214.4287026499781
 11
128.16831411401119
 21
218.9287026499781
  0
LINE
  8
_1-5_
  6
CONTINUOUS
 62
  150
 10
128.16831411401119
 20
218.4287026499781
 11
127.76831411401124
 21
218.4287026499781
  0
LINE
  8
_1-5_
  6
CONTINUOUS
 62
  150
 10
128.16831411401119
 20
174.9287026499781
 11
127.76831411401121
 21
174.9287026499781
  0
LINE
  8
_1-5_
  6
CONTINUOUS
 62
  150
 10
128.16831411401119
 20
179.4287026499781
 11
128.16831411401119
 21
174.9287026499781
  0
LINE
  8
_1-5_
  6
CONTINUOUS
 62
  150
 10
128.16831411401119
 20
175.4287026499781
 11
127.76831411401121
 21
175.4287026499781
  0
LINE
  8
_1-5_
  6
CONTINUOUS
 62
  150
 10
127.76831411401121
 20
179.4287026499781
 11
127.76831411401121
 21
174.9287026499781
  0
LINE
  8
_1-5_
  6
CONTINUOUS
 62
  150
 10
142.26831411401124
 20
207.1787026499781
 11
141.86831411401124
 21
207.1787026499781
  0
LINE
  8
_1-5_
  6
CONTINUOUS
 62
  150
 10
142.26831411401124
 20
214.4287026499781
 11
142.26831411401124
 21
207.1787026499781
  0
LINE
  8
_1-5_
  6
CONTINUOUS
 62
  150
 10
142.26831411401124
 20
195.57870264997808
 11
141.86831411401124
 21
195.57870264997808
  0
LINE
  8
_1-5_
  6
CONTINUOUS
 62
  150
 10
142.26831411401124
 20
195.57870264997808
 11
142.26831411401124
 21
179.4287026499781
  0
LINE
  8
_1-5_
  6
CONTINUOUS
 62
  150
 10
141.86831411401124
 20
195.57870264997808
 11
141.86831411401124
 21
207.1787026499781
  0
LINE
  8
_1-5_
  6
CONTINUOUS
 62
  150
 10
142.26831411401124
 20
214.4287026499781
 11
127.76831411401121
 21
214.4287026499781
  0
LINE
  8
_1-5_
  6
CONTINUOUS
 62
  150
 10
142.26831411401124
 20
179.4287026499781
 11
127.76831411401121
 21
179.4287026499781
  0
LINE
  8
_1-5_
  6
CONTINUOUS
 62
  150
 10
127.76831411401121
 20
218.9287026499781
 11
127.76831411401121
 21
214.4287026499781
  0
LINE
  8
_1-5_
  6
CONTINUOUS
 62
    3
 10
144.31831411401131
 20
206.77870264997812
 11
144.31831411401131
 21
192.47870264997811
  0
LINE
  8
_1-5_
  6
CONTINUOUS
 62
    3
 10
144.31831411401131
 20
192.47870264997811
 11
142.26831411401124
 21
192.47870264997811
  0
LINE
  8
_1-5_
  6
CONTINUOUS
 62
    3
 10
144.31831411401131
 20
195.97870264997811
 11
141.86831411401126
 21
195.97870264997811
  0
LINE
  8
_1-5_
  6
CONTINUOUS
 62
    3
 10
144.31831411401131
 20
206.77870264997812
 11
141.86831411401124
 21
206.77870264997812
  0
LINE
  8
_1-f_
  6
CONTINUOUS
 62
   18
 10
116.06831411401125
 20
155.3000707626852
 11
111.06831411401125
 21
155.3000707626852
  0
LINE
  8
_1-f_
  6
CONTINUOUS
 62
   18
 10
127.7683141140113
 20
155.3000707626852
 11
132.7683141140113
 21
155.3000707626852
  0
LINE
  8
_1-f_
  6
CONTINUOUS
 62
   18
 10
116.06831411401125
 20
155.3000707626852
 11
127.7683141140113
 21
155.3000707626852
  0
LINE
  8
_1-f_
  6
CONTINUOUS
 62
   18
 10
116.06831411401125
 20
155.3000707626852
 11
113.17053663514406
 21
154.52361362737764
  0
LINE
  8
_1-f_
  6
CONTINUOUS
 62
   18
 10
116.06831411401125
 20
155.3000707626852
 11
113.17053663514406
 21
156.07652789799277
  0
LINE
  8
_1-f_
  6
CONTINUOUS
 62
   18
 10
127.7683141140113
 20
155.3000707626852
 11
130.6660915928785
 21
156.07652789799277
  0
LINE
  8
_1-f_
  6
CONTINUOUS
 62
   18
 10
127.7683141140113
 20
155.3000707626852
 11
130.6660915928785
 21
154.52361362737764
  0
LINE
  8
_1-f_
  6
CONTINUOUS
 62
   18
 10
127.7683141140113
 20
154.8000707626852
 11
127.7683141140113
 21
166.37487729750893
  0
TEXT
  8
_1-f_
 62
    7
 10
117.54331411401128
 20
155.8000707626852
 40
4
 41
1
 50
0
  1
23.4
  0
LINE
  8
_1-f_
  6
CONTINUOUS
 62
   18
 10
116.06831411401125
 20
154.8000707626852
 11
116.06831411401125
 21
193.17911920063306
  0
LINE
  8
_1-f_
  6
CONTINUOUS
 62
   18
 10
151.55829532443425
 20
166.9287026499781
 11
151.55829532443425
 21
179.4287026499781
  0
LINE
  8
_1-f_
  6
CONTINUOUS
 62
   18
 10
151.55829532443425
 20
166.9287026499781
 11
150.78183818912668
 21
169.82648012884533
  0
LINE
  8
_1-f_
  6
CONTINUOUS
 62
   18
 10
151.55829532443425
 20
166.9287026499781
 11
152.33475245974182
 21
169.82648012884533
  0
LINE
  8
_1-f_
  6
CONTINUOUS
 62
   18
 10
151.55829532443425
 20
179.4287026499781
 11
152.33475245974182
 21
176.53092517111088
  0
LINE
  8
_1-f_
  6
CONTINUOUS
 62
   18
 10
151.55829532443425
 20
179.4287026499781
 11
150.78183818912668
 21
176.53092517111088
  0
TEXT
  8
_1-f_
 62
    7
 10
151.05829532443425
 20
171.0537026499781
 40
4
 41
1
 50
90
  1
25
  0
LINE
  8
_1-f_
  6
CONTINUOUS
 62
   18
 10
151.55829532443425
 20
214.4287026499781
 11
151.55829532443425
 21
226.9287026499781
  0
LINE
  8
_1-f_
  6
CONTINUOUS
 62
   18
 10
151.55829532443425
 20
214.4287026499781
 11
150.78183818912668
 21
217.3264801288453
  0
LINE
  8
_1-f_
  6
CONTINUOUS
 62
   18
 10
151.55829532443425
 20
214.4287026499781
 11
152.33475245974182
 21
217.3264801288453
  0
LINE
  8
_1-f_
  6
CONTINUOUS
 62
   18
 10
151.55829532443425
 20
226.9287026499781
 11
152.33475245974182
 21
224.03092517111088
  0
LINE
  8
_1-f_
  6
CONTINUOUS
 62
   18
 10
151.55829532443425
 20
226.9287026499781
 11
150.78183818912668
 21
224.03092517111088
  0
TEXT
  8
_1-f_
 62
    7
 10
151.05829532443425
 20
218.5537026499781
 40
4
 41
1
 50
90
  1
25
  0
LINE
  8
_1-f_
  6
CONTINUOUS
 62
   18
 10
151.55829532443425
 20
179.4287026499781
 11
151.55829532443425
 21
174.4287026499781
  0
LINE
  8
_1-f_
  6
CONTINUOUS
 62
   18
 10
151.55829532443425
 20
214.4287026499781
 11
151.55829532443425
 21
219.4287026499781
  0
LINE
  8
_1-f_
  6
CONTINUOUS
 62
   18
 10
151.55829532443425
 20
179.4287026499781
 11
151.55829532443425
 21
214.4287026499781
  0
LINE
  8
_1-f_
  6
CONTINUOUS
 62
   18
 10
151.55829532443425
 20
179.4287026499781
 11
152.33475245974182
 21
176.53092517111088
  0
LINE
  8
_1-f_
  6
CONTINUOUS
 62
   18
 10
151.55829532443425
 20
179.4287026499781
 11
150.78183818912668
 21
176.53092517111088
  0
LINE
  8
_1-f_
  6
CONTINUOUS
 62
   18
 10
151.55829532443425
 20
214.4287026499781
 11
150.78183818912668
 21
217.3264801288453
  0
LINE
  8
_1-f_
  6
CONTINUOUS
 62
   18
 10
151.55829532443425
 20
214.4287026499781
 11
152.33475245974182
 21
217.3264801288453
  0
TEXT
  8
_1-f_
 62
    7
 10
151.05829532443425
 20
194.8037026499781
 40
4
 41
1
 50
90
  1
70
  0
LINE
  8
_1-f_
  6
CONTINUOUS
 62
   18
 10
152.05829532443425
 20
166.9287026499781
 11
129.08767336971942
 21
166.9287026499781
  0
LINE
  8
_1-f_
  6
CONTINUOUS
 62
   18
 10
152.05829532443425
 20
179.4287026499781
 11
143.69357764028407
 21
179.4287026499781
  0
LINE
  8
_1-f_
  6
CONTINUOUS
 62
   18
 10
152.05829532443425
 20
214.4287026499781
 11
143.69357764028407
 21
214.4287026499781
  0
LINE
  8
_1-f_
  6
CONTINUOUS
 62
   18
 10
152.05829532443425
 20
226.9287026499781
 11
129.08767336971942
 21
226.9287026499781
  0
LINE
  8
_1-f_
  6
CONTINUOUS
 62
   18
 10
124.2683141140113
 20
235.34335318648413
 11
119.2683141140113
 21
235.34335318648413
  0
LINE
  8
_1-f_
  6
CONTINUOUS
 62
   18
 10
127.7683141140113
 20
235.34335318648413
 11
132.7683141140113
 21
235.34335318648413
  0
LINE
  8
_1-f_
  6
CONTINUOUS
 62
   18
 10
124.2683141140113
 20
235.34335318648413
 11
127.7683141140113
 21
235.34335318648413
  0
LINE
  8
_1-f_
  6
CONTINUOUS
 62
   18
 10
124.2683141140113
 20
235.34335318648413
 11
121.3705366351441
 21
234.56689605117657
  0
LINE
  8
_1-f_
  6
CONTINUOUS
 62
   18
 10
124.2683141140113
 20
235.34335318648413
 11
121.3705366351441
 21
236.1198103217917
  0
LINE
  8
_1-f_
  6
CONTINUOUS
 62
   18
 10
127.7683141140113
 20
235.34335318648413
 11
130.6660915928785
 21
236.1198103217917
  0
LINE
  8
_1-f_
  6
CONTINUOUS
 62
   18
 10
127.7683141140113
 20
235.34335318648413
 11
130.6660915928785
 21
234.56689605117657
  0
LINE
  8
_1-f_
  6
CONTINUOUS
 62
   18
 10
124.2683141140113
 20
235.84335318648413
 11
124.2683141140113
 21
227.39838328106711
  0
LINE
  8
_1-f_
  6
CONTINUOUS
 62
   18
 10
127.7683141140113
 20
235.84335318648413
 11
127.7683141140113
 21
227.39838328106711
  0
TEXT
  8
_1-f_
 62
    7
 10
125.0183141140113
 20
235.84335318648413
 40
4
 41
1
 50
0
  1
7
  0
LINE
  8
_1-f_
  6
CONTINUOUS
 62
   18
 10
127.7683141140113
 20
235.34335318648413
 11
144.31831411401131
 21
235.34335318648413
  0
LINE
  8
_1-f_
  6
CONTINUOUS
 62
   18
 10
127.7683141140113
 20
235.34335318648413
 11
130.6660915928785
 21
236.1198103217917
  0
LINE
  8
_1-f_
  6
CONTINUOUS
 62
   18
 10
127.7683141140113
 20
235.34335318648413
 11
130.6660915928785
 21
234.56689605117657
  0
LINE
  8
_1-f_
  6
CONTINUOUS
 62
   18
 10
144.31831411401131
 20
235.34335318648413
 11
141.42053663514411
 21
234.56689605117657
  0
LINE
  8
_1-f_
  6
CONTINUOUS
 62
   18
 10
144.31831411401131
 20
235.34335318648413
 11
141.42053663514411
 21
236.1198103217917
  0
TEXT
  8
_1-f_
 62
    7
 10
131.6683141140113
 20
235.84335318648413
 40
4
 41
1
 50
0
  1
33.1
  0
LINE
  8
_1-f_
  6
CONTINUOUS
 62
   18
 10
144.31831411401131
 20
235.84335318648413
 11
144.31831411401131
 21
208.54741957323264
  0
LINE
  8
_1-f_
  6
CONTINUOUS
 62
   18
 10
116.06831411401125
 20
246.11883449632426
 11
144.31831411401131
 21
246.11883449632426
  0
LINE
  8
_1-f_
  6
CONTINUOUS
 62
   18
 10
116.06831411401125
 20
246.11883449632426
 11
118.96609159287845
 21
246.89529163163183
  0
LINE
  8
_1-f_
  6
CONTINUOUS
 62
   18
 10
116.06831411401125
 20
246.11883449632426
 11
118.96609159287845
 21
245.3423773610167
  0
LINE
  8
_1-f_
  6
CONTINUOUS
 62
   18
 10
144.31831411401131
 20
246.11883449632426
 11
141.42053663514411
 21
245.3423773610167
  0
LINE
  8
_1-f_
  6
CONTINUOUS
 62
   18
 10
144.31831411401131
 20
246.11883449632426
 11
141.42053663514411
 21
246.89529163163183
  0
LINE
  8
_1-f_
  6
CONTINUOUS
 62
   18
 10
144.31831411401131
 20
246.61883449632426
 11
144.31831411401131
 21
227.39838328106711
  0
TEXT
  8
_1-f_
 62
    7
 10
125.81831411401128
 20
246.61883449632426
 40
4
 41
1
 50
0
  1
56.5
  0
LINE
  8
_1-f_
  6
CONTINUOUS
 62
   18
 10
116.06831411401125
 20
246.61883449632426
 11
116.06831411401125
 21
201.67693774144385
  0
LINE
  8
_1-f_
  6
CONTINUOUS
 62
   18
 10
59.003805553428804
 20
245.61883449632426
 11
94.003805553428804
 21
245.61883449632426
  0
LINE
  8
_1-f_
  6
CONTINUOUS
 62
   18
 10
59.003805553428804
 20
245.61883449632426
 11
61.901583032296002
 21
246.39529163163183
  0
LINE
  8
_1-f_
  6
CONTINUOUS
 62
   18
 10
59.003805553428804
 20
245.61883449632426
 11
61.901583032296002
 21
244.8423773610167
  0
LINE
  8
_1-f_
  6
CONTINUOUS
 62
   18
 10
94.003805553428804
 20
245.61883449632426
 11
91.106028074561606
 21
244.8423773610167
  0
LINE
  8
_1-f_
  6
CONTINUOUS
 62
   18
 10
94.003805553428804
 20
245.61883449632426
 11
91.106028074561606
 21
246.39529163163183
  0
LINE
  8
_1-f_
  6
CONTINUOUS
 62
   18
 10
59.003805553428804
 20
246.11883449632426
 11
59.003805553428804
 21
227.39838328106711
  0
LINE
  8
_1-f_
  6
CONTINUOUS
 62
   18
 10
94.003805553428804
 20
246.11883449632426
 11
94.003805553428804
 21
227.39838328106711
  0
TEXT
  8
_1-f_
 62
    7
 10
74.378805553428804
 20
246.11883449632426
 40
4
 41
1
 50
0
  1
70
  0
LINE
  8
_1-f_
  6
CONTINUOUS
 62
   18
 10
127.76831411401121
 20
220.93589446256737
 11
127.76831411401121
 21
215.19274933980059
  0
LINE
  8
_1-4_
  6
CONTINUOUS
 62
  150
 10
86.503805553428833
 20
142.49281137647304
 11
69.753805553428804
 21
142.49281137647304
  0
LINE
  8
_1-4_
  6
CONTINUOUS
 62
  150
 10
80.503805553428833
 20
142.09281137647303
 11
80.503805553428833
 21
142.49281137647304
  0
LINE
  8
_1-4_
  6
CONTINUOUS
 62
  150
 10
85.503805553428833
 20
142.09281137647303
 11
85.503805553428833
 21
142.49281137647304
  0
LINE
  8
_1-4_
  6
CONTINUOUS
 62
  150
 10
86.003805553428833
 20
142.09281137647303
 11
80.003805553428833
 21
142.09281137647303
  0
LINE
  8
_1-4_
  6
CONTINUOUS
 62
  150
 10
80.003805553428833
 20
142.09281137647303
 11
80.003805553428833
 21
142.49281137647304
  0
LINE
  8
_1-4_
  6
CONTINUOUS
 62
  150
 10
86.003805553428833
 20
142.09281137647303
 11
86.003805553428833
 21
142.49281137647304
  0
LINE
  8
_1-0_
  6
CONTINUOUS
 62
    7
 10
94.003805553428833
 20
142.49281137647304
 11
94.003805553428833
 21
145.99281137647304
  0
LINE
  8
_1-0_
  6
CONTINUOUS
 62
    7
 10
94.003805553428833
 20
145.99281137647304
 11
59.003805553428804
 21
145.99281137647304
  0
LINE
  8
_1-0_
  6
CONTINUOUS
 62
    7
 10
59.003805553428804
 20
142.49281137647304
 11
59.003805553428804
 21
145.99281137647304
  0
LINE
  8
_1-0_
  6
CONTINUOUS
 62
    7
 10
94.003805553428833
 20
142.49281137647304
 11
59.003805553428804
 21
142.49281137647304
  0
LINE
  8
_1-3_
  6
CONTINUOUS
 62
    3
 10
69.753805553428804
 20
129.44281137647303
 11
69.753805553428804
 21
134.39281137647304
  0
LINE
  8
_1-3_
  6
CONTINUOUS
 62
    3
 10
69.753805553428804
 20
129.44281137647303
 11
73.253805553428833
 21
129.44281137647303
  0
LINE
  8
_1-3_
  6
CONTINUOUS
 62
    3
 10
73.253805553428833
 20
129.44281137647303
 11
73.253805553428833
 21
134.39281137647304
  0
LINE
  8
_1-4_
  6
CONTINUOUS
 62
  150
 10
73.603805553428856
 20
134.74281137647304
 11
69.403805553428838
 21
134.74281137647304
  0
ARC
  8
_1-c_
  6
CONTINUOUS
 62
   18
 10
74.553805553428844
 20
153.192811376473
 40
1
 50
90
 51
180
  0
LINE
  8
_1-c_
  6
CONTINUOUS
 62
   18
 10
73.378805553428833
 20
148.19281137647303
 11
79.628805553428833
 21
148.19281137647303
  0
LINE
  8
_1-c_
  6
CONTINUOUS
 62
   18
 10
79.503805553428833
 20
146.69281137647303
 11
79.503805553428833
 21
148.19281137647303
  0
LINE
  8
_1-c_
  6
CONTINUOUS
 62
   18
 10
73.503805553428833
 20
146.69281137647303
 11
73.503805553428833
 21
148.19281137647303
  0
ARC
  8
_1-c_
  6
CONTINUOUS
 62
   18
 10
78.453805553428821
 20
153.192811376473
 40
1
 50
0
 51
90
  0
LINE
  8
_1-c_
  6
CONTINUOUS
 62
   18
 10
74.553805553428844
 20
154.192811376473
 11
78.453805553428821
 21
154.192811376473
  0
LINE
  8
_1-c_
  6
CONTINUOUS
 62
   18
 10
73.378805553428833
 20
152.942811376473
 11
73.378805553428833
 21
148.19281137647303
  0
LINE
  8
_1-c_
  6
CONTINUOUS
 62
   18
 10
79.628805553428833
 20
152.942811376473
 11
79.628805553428833
 21
148.19281137647303
  0
LINE
  8
_1-c_
  6
CONTINUOUS
 62
   18
 10
79.453805553428821
 20
153.192811376473
 11
79.453805553428821
 21
152.942811376473
  0
LINE
  8
_1-c_
  6
CONTINUOUS
 62
   18
 10
73.553805553428844
 20
153.192811376473
 11
73.553805553428844
 21
153.17680290954515
  0
LINE
  8
_1-c_
  6
CONTINUOUS
 62
   18
 10
73.378805553428833
 20
152.942811376473
 11
73.58041870954122
 21
152.942811376473
  0
LINE
  8
_1-c_
  6
CONTINUOUS
 62
   18
 10
73.58041870954122
 20
152.942811376473
 11
79.628805553428833
 21
152.942811376473
  0
LINE
  8
_1-c_
  6
CONTINUOUS
 62
   18
 10
73.553805553428844
 20
153.17680290954515
 11
73.553805553428844
 21
152.942811376473
  0
LINE
  8
_1-3_
  6
CONTINUOUS
 62
    3
 10
69.753805553428804
 20
129.44281137647303
 11
69.753805553428804
 21
134.39281137647304
  0
LINE
  8
_1-3_
  6
CONTINUOUS
 62
    3
 10
69.753805553428804
 20
129.44281137647303
 11
73.253805553428833
 21
129.44281137647303
  0
LINE
  8
_1-3_
  6
CONTINUOUS
 62
    3
 10
73.253805553428833
 20
129.44281137647303
 11
73.253805553428833
 21
134.39281137647304
  0
LINE
  8
_1-3_
  6
CONTINUOUS
 62
    7
 10
72.503805553428833
 20
132.43031137647304
 11
71.753805553428833
 21
132.43031137647304
  0
LINE
  8
_1-3_
  6
CONTINUOUS
 62
    7
 10
71.753805553428833
 20
132.43031137647304
 11
71.753805553428833
 21
130.68031137647304
  0
LINE
  8
_1-3_
  6
CONTINUOUS
 62
    7
 10
71.753805553428833
 20
130.68031137647304
 11
72.503805553428833
 21
130.68031137647304
  0
LINE
  8
_1-3_
  6
CONTINUOUS
 62
    7
 10
72.503805553428833
 20
130.68031137647304
 11
72.503805553428833
 21
132.43031137647304
  0
LINE
  8
_1-3_
  6
CONTINUOUS
 62
    7
 10
71.253805553428833
 20
132.43031137647304
 11
70.503805553428804
 21
132.43031137647304
  0
LINE
  8
_1-3_
  6
CONTINUOUS
 62
    7
 10
70.503805553428804
 20
132.43031137647304
 11
70.503805553428804
 21
130.68031137647304
  0
LINE
  8
_1-3_
  6
CONTINUOUS
 62
    7
 10
70.503805553428804
 20
130.68031137647304
 11
71.253805553428833
 21
130.68031137647304
  0
LINE
  8
_1-3_
  6
CONTINUOUS
 62
    7
 10
71.253805553428833
 20
130.68031137647304
 11
71.253805553428833
 21
132.43031137647304
  0
TEXT
  8
_1-3_
 62
    7
 10
72.106546350496842
 20
130.57002978331266
 40
1
 41
1
 50
180
  1
ON
  0
TEXT
  8
_1-3_
 62
    7
 10
72.444728550403226
 20
134.39571591975322
 40
1.5
 41
1
 50
180
  1
1
  0
LINE
  8
_1-3_
  6
CONTINUOUS
 62
    7
 10
72.503805553428833
 20
131.68031137647304
 11
71.753805553428833
 21
131.68031137647304
  0
LINE
  8
_1-3_
  6
CONTINUOUS
 62
    7
 10
71.253805553428833
 20
131.68031137647304
 11
70.503805553428804
 21
131.68031137647304
  0
TEXT
  8
_1-3_
 62
    7
 10
71.197681688248565
 20
134.39015240266783
 40
1.5
 41
1
 50
180
  1
2
  0
LINE
  8
_1-3_
  6
CONTINUOUS
 62
    7
 10
75.753805553428833
 20
146.99281137647304
 11
77.253805553428833
 21
146.99281137647304
  0
LINE
  8
_1-3_
  6
CONTINUOUS
 62
    3
 10
69.753805553428804
 20
129.44281137647303
 11
69.753805553428804
 21
134.39281137647304
  0
LINE
  8
_1-3_
  6
CONTINUOUS
 62
    3
 10
69.753805553428804
 20
129.44281137647303
 11
73.253805553428804
 21
129.44281137647303
  0
LINE
  8
_1-3_
  6
CONTINUOUS
 62
    3
 10
73.253805553428804
 20
129.44281137647303
 11
73.253805553428804
 21
134.39281137647304
  0
LINE
  8
_1-3_
  6
CONTINUOUS
 62
    3
 10
81.253805553428804
 20
125.94281137647303
 11
87.753805553428833
 21
125.94281137647303
  0
LINE
  8
_1-3_
  6
CONTINUOUS
 62
    3
 10
65.253805553428804
 20
125.94281137647303
 11
71.753805553428804
 21
125.94281137647303
  0
LINE
  8
_1-9_
  6
CONTINUOUS
 62
    7
 10
83.130055553428604
 20
140.90535923232127
 11
83.130055553428604
 21
140.912949030269
  0
ARC
  8
_1-9_
  6
CONTINUOUS
 62
    7
 10
83.00380555343176
 20
143.09281137646357
 40
2.2965323723943424
 50
287.72999177002895
 51
288.34158957586197
  0
LINE
  8
_1-9_
  6
CONTINUOUS
 62
    7
 10
83.728805553428713
 20
140.91006654484462
 11
83.7264818911502
 21
140.912949030269
  0
LINE
  8
_1-9_
  6
CONTINUOUS
 62
    7
 10
82.877555553428777
 20
140.912949030269
 11
82.877555553428777
 21
140.90535923232127
  0
LINE
  8
_1-9_
  6
_
 62
    2
 10
83.130055553428604
 20
141.65218990329944
 11
83.130055553428604
 21
140.912949030269
  0
LINE
  8
_1-9_
  6
_
 62
    2
 10
82.877555553428777
 20
140.912949030269
 11
82.877555553428777
 21
141.65218990329944
  0
LINE
  8
_1-9_
  6
_
 62
    2
 10
82.877409082693105
 20
141.6526296803332
 11
82.877555553428777
 21
141.65281137647306
  0
LINE
  8
_1-9_
  6
_
 62
    2
 10
83.130055553428604
 20
141.65281137647306
 11
82.877555553428777
 21
141.65281137647306
  0
LINE
  8
_1-9_
  6
_
 62
    2
 10
83.130202024848216
 20
141.65262967981888
 11
83.130055553428604
 21
141.65281137647306
  0
LINE
  8
_1-9_
  6
_
 62
    2
 10
83.7264818911502
 20
140.912949030269
 11
83.130556542527614
 21
141.65218990329944
  0
LINE
  8
_1-9_
  6
CONTINUOUS
 62
    7
 10
82.281129215707181
 20
140.912949030269
 11
82.278805553428668
 21
140.91006654484462
  0
ARC
  8
_1-9_
  6
CONTINUOUS
 62
    7
 10
83.003805553428122
 20
143.09281137647113
 40
2.2965323724022219
 50
251.65841042413799
 51
252.27000822997101
  0
LINE
  8
_1-9_
  6
_
 62
    2
 10
82.877054564329768
 20
141.65218990329944
 11
82.281129215707181
 21
140.912949030269
  0
LINE
  8
_1-9_
  6
CONTINUOUS
 62
    7
 10
84.728805553428259
 20
141.57150437261074
 11
81.278805553428668
 21
141.57150437261074
  0
LINE
  8
_1-9_
  6
CONTINUOUS
 62
    7
 10
84.728805553428259
 20
141.74281137647304
 11
81.278805553428668
 21
141.74281137647304
  0
LINE
  8
_1-9_
  6
CONTINUOUS
 62
    7
 10
81.278805553428668
 20
141.57150437261074
 11
81.278805553428668
 21
141.74281137647304
  0
LINE
  8
_1-9_
  6
CONTINUOUS
 62
    7
 10
84.728805553428259
 20
141.57150437261074
 11
84.728805553428259
 21
141.74281137647304
  0
ARC
  8
_1-9_
  6
CONTINUOUS
 62
    7
 10
83.003805553428804
 20
143.09281137647289
 40
2.2999999999999993
 50
268.83188160257446
 51
318.59037789073016
  0
ARC
  8
_1-9_
  6
CONTINUOUS
 62
    7
 10
83.003805553428804
 20
143.09281137647289
 40
2.2999999999999998
 50
221.40962210926974
 51
268.83188160257446
  0
LINE
  8
_1-9_
  6
CONTINUOUS
 62
    7
 10
84.47880555342877
 20
141.74281137647304
 11
84.47880555342877
 21
142.09281137647303
  0
LINE
  8
_1-9_
  6
CONTINUOUS
 62
    7
 10
81.528805553428782
 20
141.74281137647304
 11
81.528805553428782
 21
142.09281137647303
  0
LINE
  8
_1-9_
  6
CONTINUOUS
 62
    7
 10
84.47880555342877
 20
142.09281137647303
 11
81.528805553428782
 21
142.09281137647303
  0
LINE
  8
_1-3_
  6
CONTINUOUS
 62
    7
 10
77.253805553428833
 20
146.99281137647304
 11
77.280121342902504
 21
145.99281137647304
  0
LINE
  8
_1-3_
  6
CONTINUOUS
 62
    7
 10
75.727489763955134
 20
145.99281137647304
 11
75.753805553428833
 21
146.99281137647304
  0
LINE
  8
_1-3_
  6
CONTINUOUS
 62
    7
 10
69.403805553428838
 20
134.39281137647304
 11
73.603805553428856
 21
134.39281137647304
  0
LINE
  8
_1-b_
  6
CONTINUOUS
 62
    3
 10
78.753805553428833
 20
145.99281137647304
 11
78.753805553428833
 21
146.69281137647303
  0
LINE
  8
_1-b_
  6
CONTINUOUS
 62
    3
 10
74.253805553428833
 20
145.99281137647304
 11
74.253805553428833
 21
146.69281137647303
  0
LINE
  8
_1-c_
  6
CONTINUOUS
 62
   18
 10
73.503805553428833
 20
146.69281137647303
 11
75.745910816586729
 21
146.69281137647303
  0
LINE
  8
_1-c_
  6
CONTINUOUS
 62
   18
 10
77.261700290270937
 20
146.69281137647303
 11
79.503805553428833
 21
146.69281137647303
  0
LINE
  8
_1-4_
  6
CONTINUOUS
 62
  150
 10
73.603805553428856
 20
128.39281137647304
 11
69.403805553428838
 21
128.39281137647304
  0
LINE
  8
_1-4_
  6
CONTINUOUS
 62
  150
 10
73.603805553428856
 20
127.99281137647304
 11
73.603805553428856
 21
134.74281137647304
  0
LINE
  8
_1-4_
  6
CONTINUOUS
 62
  150
 10
69.403805553428838
 20
134.74281137647304
 11
69.403805553428838
 21
127.99281137647304
  0
LINE
  8
_1-4_
  6
CONTINUOUS
 62
  150
 10
88.503805553428833
 20
127.99281137647304
 11
64.503805553428804
 21
127.99281137647304
  0
LINE
  8
_1-4_
  6
CONTINUOUS
 62
  150
 10
88.503805553428833
 20
127.99281137647304
 11
88.503805553428833
 21
142.49281137647304
  0
LINE
  8
_1-4_
  6
CONTINUOUS
 62
  150
 10
64.503805553428804
 20
127.99281137647304
 11
64.503805553428804
 21
142.49281137647304
  0
LINE
  8
_1-3_
  6
CONTINUOUS
 62
    3
 10
87.753805553428833
 20
125.94281137647303
 11
87.753805553428833
 21
127.99281137647304
  0
LINE
  8
_1-3_
  6
CONTINUOUS
 62
    3
 10
81.253805553428804
 20
125.94281137647303
 11
81.253805553428804
 21
127.99281137647304
  0
LINE
  8
_1-3_
  6
CONTINUOUS
 62
    3
 10
71.753805553428804
 20
125.94281137647303
 11
71.753805553428804
 21
127.99281137647304
  0
LINE
  8
_1-3_
  6
CONTINUOUS
 62
    3
 10
71.753805553428804
 20
128.39281137647304
 11
71.753805553428804
 21
129.44281137647303
  0
LINE
  8
_1-3_
  6
CONTINUOUS
 62
    3
 10
65.253805553428804
 20
125.94281137647303
 11
65.253805553428804
 21
127.99281137647304
  0
LINE
  8
_1-f_
  6
CONTINUOUS
 62
   18
 10
64.503805553428833
 20
115.27788197888853
 11
88.503805553428833
 21
115.27788197888853
  0
LINE
  8
_1-f_
  6
CONTINUOUS
 62
   18
 10
64.503805553428833
 20
115.27788197888853
 11
67.401583032296059
 21
116.05433911419609
  0
LINE
  8
_1-f_
  6
CONTINUOUS
 62
   18
 10
64.503805553428833
 20
115.27788197888853
 11
67.401583032296059
 21
114.50142484358099
  0
LINE
  8
_1-f_
  6
CONTINUOUS
 62
   18
 10
88.503805553428833
 20
115.27788197888853
 11
85.606028074561663
 21
114.50142484358099
  0
LINE
  8
_1-f_
  6
CONTINUOUS
 62
   18
 10
88.503805553428833
 20
115.27788197888853
 11
85.606028074561663
 21
116.05433911419609
  0
TEXT
  8
_1-f_
 62
    7
 10
74.378805553428833
 20
115.77788197888853
 40
4
 41
1
 50
0
  1
48
  0
LINE
  8
_1-f_
  6
CONTINUOUS
 62
   18
 10
64.503805553428833
 20
114.77788197888853
 11
64.503805553428833
 21
127.15829183844714
  0
LINE
  8
_1-f_
  6
CONTINUOUS
 62
   18
 10
88.503805553428833
 20
114.77788197888853
 11
88.503805553428833
 21
127.15829183844714
  0
TEXT
  8
_1-7_
 62
    3
 10
53.592130987489042
 20
111.68709721727753
 40
6
 41
1
 50
0
  1
⑩
  0
LINE
  8
_1-7_
  6
CONTINUOUS
 62
   18
 10
70.309864323960823
 20
130.06102384302863
 11
58.751875441071007
 21
117.73911252125412
  0
LINE
  8
_1-f_
  6
CONTINUOUS
 62
   18
 10
101.29154868862292
 20
127.99281137647304
 11
101.29154868862292
 21
142.49281137647304
  0
LINE
  8
_1-f_
  6
CONTINUOUS
 62
   18
 10
101.29154868862292
 20
127.99281137647304
 11
100.51509155331535
 21
130.89058885534024
  0
LINE
  8
_1-f_
  6
CONTINUOUS
 62
   18
 10
101.29154868862292
 20
127.99281137647304
 11
102.06800582393049
 21
130.89058885534024
  0
LINE
  8
_1-f_
  6
CONTINUOUS
 62
   18
 10
101.29154868862292
 20
142.49281137647304
 11
102.06800582393049
 21
139.59503389760581
  0
LINE
  8
_1-f_
  6
CONTINUOUS
 62
   18
 10
101.29154868862292
 20
142.49281137647304
 11
100.51509155331535
 21
139.59503389760581
  0
LINE
  8
_1-f_
  6
CONTINUOUS
 62
   18
 10
101.79154868862292
 20
127.99281137647304
 11
89.153400222013601
 21
127.99281137647304
  0
LINE
  8
_1-f_
  6
CONTINUOUS
 62
   18
 10
101.79154868862292
 20
142.49281137647304
 11
89.153400222013601
 21
142.49281137647304
  0
TEXT
  8
_1-f_
 62
    7
 10
100.79154868862292
 20
133.11781137647304
 40
4
 41
1
 50
90
  1
29
  0
LINE
  8
_1-e_
  6
CONTINUOUS
 62
    7
 10
106.01743341789574
 20
137.66226793631329
 11
103.76744104729027
 21
133.16226602896466
  0
LINE
  8
_1-e_
  6
CONTINUOUS
 62
    7
 10
103.76744104729027
 20
133.16226602896466
 11
108.26743341789574
 21
133.16226602896466
  0
LINE
  8
_1-e_
  6
CONTINUOUS
 62
    7
 10
106.01743341789574
 20
137.66226793631329
 11
108.26743341789574
 21
133.16226602896466
  0
TEXT
  8
_1-e_
 62
    7
 10
105.40149713859887
 20
133.39686323508038
 40
3
 41
1
 50
0
  1
1
  0
LINE
  8
_1-4_
  6
CONTINUOUS
 62
  150
 10
201.48288481188257
 20
176.55370264997816
 11
201.48288481188257
 21
179.42870264997816
  0
LINE
  8
_1-0_
  6
CONTINUOUS
 62
    7
 10
187.48288481188257
 20
166.92870264997816
 11
222.48288481188257
 21
166.92870264997816
  0
LINE
  8
_1-0_
  6
CONTINUOUS
 62
    7
 10
222.48288481188257
 20
166.92870264997816
 11
222.48288481188257
 21
226.92870264997813
  0
LINE
  8
_1-0_
  6
CONTINUOUS
 62
    7
 10
222.48288481188257
 20
226.92870264997813
 11
187.48288481188257
 21
226.92870264997813
  0
LINE
  8
_1-0_
  6
CONTINUOUS
 62
    7
 10
187.48288481188257
 20
226.92870264997813
 11
187.48288481188257
 21
166.92870264997816
  0
LINE
  8
_1-0_
  6
CONTINUOUS
 62
    7
 10
221.23288481188257
 20
168.17870264997816
 11
221.23288481188257
 21
225.67870264997813
  0
LINE
  8
_1-4_
  6
CONTINUOUS
 62
  150
 10
207.88288481188257
 20
179.42870264997816
 11
207.88288481188257
 21
179.82870264997816
  0
LINE
  8
_1-4_
  6
CONTINUOUS
 62
  150
 10
212.08288481188256
 20
179.42870264997816
 11
212.08288481188256
 21
179.82870264997816
  0
LINE
  8
_1-4_
  6
CONTINUOUS
 62
  150
 10
207.88288481188257
 20
179.82870264997816
 11
212.08288481188256
 21
179.82870264997816
  0
LINE
  8
_1-4_
  6
CONTINUOUS
 62
  150
 10
216.98288481188257
 20
179.42870264997816
 11
216.98288481188257
 21
214.42870264997813
  0
LINE
  8
_1-4_
  6
CONTINUOUS
 62
  150
 10
192.98288481188257
 20
179.42870264997816
 11
216.98288481188257
 21
179.42870264997816
  0
LINE
  8
_1-4_
  6
CONTINUOUS
 62
  150
 10
192.98288481188257
 20
214.42870264997813
 11
192.98288481188257
 21
179.42870264997816
  0
LINE
  8
_1-4_
  6
CONTINUOUS
 62
  150
 10
216.98288481188257
 20
214.42870264997813
 11
192.98288481188257
 21
214.42870264997813
  0
LINE
  8
_1-4_
  6
CONTINUOUS
 62
  150
 10
216.98288481188257
 20
192.07870264997816
 11
209.33288481188256
 21
192.07870264997816
  0
LINE
  8
_1-4_
  6
CONTINUOUS
 62
  150
 10
209.33288481188256
 20
203.67870264997813
 11
209.33288481188256
 21
192.07870264997816
  0
LINE
  8
_1-4_
  6
CONTINUOUS
 62
  150
 10
216.98288481188257
 20
203.67870264997813
 11
209.33288481188256
 21
203.67870264997813
  0
LINE
  8
_1-4_
  6
CONTINUOUS
 62
  150
 10
200.63288481188257
 20
207.17870264997813
 11
200.63288481188257
 21
195.57870264997816
  0
LINE
  8
_1-4_
  6
CONTINUOUS
 62
  150
 10
200.63288481188257
 20
195.57870264997816
 11
192.98288481188257
 21
195.57870264997816
  0
LINE
  8
_1-4_
  6
CONTINUOUS
 62
  150
 10
200.63288481188257
 20
207.17870264997813
 11
192.98288481188257
 21
207.17870264997813
  0
CIRCLE
  8
_1-4_
  6
CONTINUOUS
 62
  150
 10
211.48288481188257
 20
216.67870264997813
 40
0.8750000000000001
  0
CIRCLE
  8
_1-4_
  6
CONTINUOUS
 62
  150
 10
198.48288481188257
 20
177.17870264997816
 40
0.8750000000000001
  0
LINE
  8
_1-4_
  6
CONTINUOUS
 62
  150
 10
195.48288481188257
 20
175.42870264997816
 11
195.48288481188257
 21
179.42870264997816
  0
LINE
  8
_1-4_
  6
CONTINUOUS
 62
  150
 10
195.48288481188257
 20
175.42870264997816
 11
195.98288481188257
 21
174.92870264997816
  0
LINE
  8
_1-4_
  6
CONTINUOUS
 62
  150
 10
200.98288481188257
 20
174.92870264997816
 11
195.98288481188257
 21
174.92870264997816
  0
LINE
  8
_1-4_
  6
CONTINUOUS
 62
  150
 10
201.48288481188257
 20
175.42870264997816
 11
201.48288481188257
 21
179.42870264997816
  0
LINE
  8
_1-4_
  6
CONTINUOUS
 62
  150
 10
200.98288481188257
 20
174.92870264997816
 11
201.48288481188257
 21
175.42870264997816
  0
LINE
  8
_1-4_
  6
CONTINUOUS
 62
  150
 10
208.48288481188257
 20
218.42870264997813
 11
208.48288481188257
 21
214.42870264997813
  0
LINE
  8
_1-4_
  6
CONTINUOUS
 62
  150
 10
208.48288481188257
 20
218.42870264997813
 11
208.98288481188257
 21
218.92870264997813
  0
LINE
  8
_1-4_
  6
CONTINUOUS
 62
  150
 10
213.98288481188257
 20
218.92870264997813
 11
208.98288481188257
 21
218.92870264997813
  0
LINE
  8
_1-4_
  6
CONTINUOUS
 62
  150
 10
214.48288481188257
 20
218.42870264997813
 11
214.48288481188257
 21
214.42870264997813
  0
LINE
  8
_1-4_
  6
CONTINUOUS
 62
  150
 10
213.98288481188257
 20
218.92870264997813
 11
214.48288481188257
 21
218.42870264997813
  0
LINE
  8
_1-1_
  6
CONTINUOUS
 62
    7
 10
198.48288481188257
 20
170.80370264997816
 11
198.48288481188257
 21
170.87158938433913
  0
LINE
  8
_1-1_
  6
CONTINUOUS
 62
    7
 10
211.48288481188257
 20
224.30370264997813
 11
198.48288481188257
 21
224.30370264997813
  0
LINE
  8
_1-1_
  6
CONTINUOUS
 62
    7
 10
211.48288481188257
 20
169.55370264997816
 11
198.48288481188257
 21
169.55370264997816
  0
CIRCLE
  8
_1-1_
  6
CONTINUOUS
 62
    7
 10
204.98288481188257
 20
222.17870264997813
 40
1
  0
CIRCLE
  8
_1-1_
  6
CONTINUOUS
 62
    7
 10
204.98288481188257
 20
171.67870264997816
 40
1
  0
LINE
  8
_1-1_
  6
CONTINUOUS
 62
    7
 10
211.48288481188257
 20
218.92870264997813
 11
214.48288481188257
 21
218.92870264997813
  0
LINE
  8
_1-1_
  6
CONTINUOUS
 62
    7
 10
211.48288481188257
 20
224.30370264997813
 11
211.48288481188257
 21
218.92870264997813
  0
CIRCLE
  8
_1-1_
  6
CONTINUOUS
 62
    7
 10
211.48288481188257
 20
216.67870264997813
 40
0.75
  0
LINE
  8
_1-1_
  6
CONTINUOUS
 62
    7
 10
195.48288481188257
 20
174.92870264997816
 11
198.48288481188257
 21
174.92870264997816
  0
LINE
  8
_1-1_
  6
CONTINUOUS
 62
    7
 10
198.48288481188257
 20
169.55370264997816
 11
198.48288481188257
 21
174.92870264997816
  0
CIRCLE
  8
_1-1_
  6
CONTINUOUS
 62
    7
 10
198.48288481188257
 20
177.17870264997816
 40
0.75
  0
LINE
  8
_1-1_
  6
CONTINUOUS
 62
    7
 10
206.23288481188257
 20
219.05370264997813
 11
203.73288481188257
 21
219.05370264997813
  0
LINE
  8
_1-1_
  6
CONTINUOUS
 62
    7
 10
206.23288481188257
 20
216.55370264997813
 11
203.73288481188257
 21
216.55370264997813
  0
ARC
  8
_1-1_
  6
CONTINUOUS
 62
    7
 10
203.73288481188257
 20
217.80370264997813
 40
1.25
 50
90
 51
270
  0
ARC
  8
_1-1_
  6
CONTINUOUS
 62
    7
 10
206.23288481188257
 20
217.80370264997813
 40
1.25
 50
270
 51
90
  0
LINE
  8
_1-1_
  6
CONTINUOUS
 62
    7
 10
206.23288481188257
 20
174.80370264997816
 11
203.73288481188257
 21
174.80370264997816
  0
LINE
  8
_1-1_
  6
CONTINUOUS
 62
    7
 10
206.23288481188257
 20
177.30370264997816
 11
203.73288481188257
 21
177.30370264997816
  0
ARC
  8
_1-1_
  6
CONTINUOUS
 62
    7
 10
203.73288481188257
 20
176.05370264997816
 40
1.25
 50
90
 51
270
  0
ARC
  8
_1-1_
  6
CONTINUOUS
 62
    7
 10
206.23288481188257
 20
176.05370264997816
 40
1.25
 50
270
 51
90
  0
CIRCLE
  8
_1-1_
  6
CONTINUOUS
 62
    7
 10
204.98288481188257
 20
222.17870264997813
 40
0.8750000000000001
  0
CIRCLE
  8
_1-1_
  6
CONTINUOUS
 62
    7
 10
204.98288481188257
 20
171.67870264997816
 40
0.8750000000000001
  0
LINE
  8
_1-d_
  6
CONTINUOUS
 62
    7
 10
198.28285445523698
 20
178.22873824587202
 11
198.68291516852815
 21
178.22873824587202
  0
LINE
  8
_1-d_
  6
CONTINUOUS
 62
    7
 10
197.43284921598871
 20
177.37873300662374
 11
197.43284921598871
 21
176.97867229333257
  0
LINE
  8
_1-d_
  6
CONTINUOUS
 62
    7
 10
198.28285445523698
 20
176.1286670540843
 11
198.68291516852815
 21
176.1286670540843
  0
LINE
  8
_1-d_
  6
CONTINUOUS
 62
    7
 10
199.53292040777643
 20
177.37873300662374
 11
199.53292040777643
 21
176.97867229333257
  0
LINE
  8
_1-d_
  6
CONTINUOUS
 62
    7
 10
199.08287690830667
 20
177.37873300662374
 11
199.53292040777643
 21
177.37873300662374
  0
LINE
  8
_1-d_
  6
CONTINUOUS
 62
    7
 10
198.68291516852815
 20
177.77869474640226
 11
198.68291516852815
 21
178.22873824587202
  0
LINE
  8
_1-d_
  6
CONTINUOUS
 62
    7
 10
198.28285445523698
 20
177.77869474640226
 11
198.28285445523698
 21
178.22873824587202
  0
LINE
  8
_1-d_
  6
CONTINUOUS
 62
    7
 10
197.88289271545846
 20
177.37873300662374
 11
197.43284921598871
 21
177.37873300662374
  0
LINE
  8
_1-d_
  6
CONTINUOUS
 62
    7
 10
197.88289271545846
 20
176.97867229333257
 11
197.43284921598871
 21
176.97867229333257
  0
LINE
  8
_1-d_
  6
CONTINUOUS
 62
    7
 10
198.28285445523698
 20
176.57871055355406
 11
198.28285445523698
 21
176.1286670540843
  0
LINE
  8
_1-d_
  6
CONTINUOUS
 62
    7
 10
198.68291516852815
 20
176.57871055355406
 11
198.68291516852815
 21
176.1286670540843
  0
LINE
  8
_1-d_
  6
CONTINUOUS
 62
    7
 10
199.08287690830667
 20
176.97867229333257
 11
199.53292040777643
 21
176.97867229333257
  0
ARC
  8
_1-d_
  6
CONTINUOUS
 62
    7
 10
199.08287690830667
 20
177.77869474640226
 40
0.4000000059604644
 50
180
 51
270
  0
ARC
  8
_1-d_
  6
CONTINUOUS
 62
    7
 10
197.88289271545846
 20
177.77869474640226
 40
0.4000000059604644
 50
270
 51
0
  0
ARC
  8
_1-d_
  6
CONTINUOUS
 62
    7
 10
197.88289271545846
 20
176.57871055355406
 40
0.4000000059604644
 50
0
 51
90
  0
ARC
  8
_1-d_
  6
CONTINUOUS
 62
    7
 10
199.08287690830667
 20
176.57871055355406
 40
0.4000000059604644
 50
90
 51
180
  0
ARC
  8
_1-d_
  6
CONTINUOUS
 62
    7
 10
198.48288481188257
 20
177.17870264997816
 40
0.6000000238418579
 50
71.56451416015625
 51
108.43548583984373
  0
ARC
  8
_1-d_
  6
CONTINUOUS
 62
    7
 10
198.48288481188257
 20
177.17870264997816
 40
0.6000000238418579
 50
161.56523132324218
 51
198.43476867675781
  0
ARC
  8
_1-d_
  6
CONTINUOUS
 62
    7
 10
198.48288481188257
 20
177.17870264997816
 40
0.6000000238418579
 50
251.56451416015625
 51
288.43548583984375
  0
ARC
  8
_1-d_
  6
CONTINUOUS
 62
    7
 10
198.48288481188257
 20
177.17870264997816
 40
0.6000000238418579
 50
341.56523132324218
 51
18.434768676757812
  0
CIRCLE
  8
_1-d_
  6
CONTINUOUS
 62
    7
 10
198.48649098100267
 20
177.18136209001875
 40
1.6999999999999999
  0
LINE
  8
_1-d_
  6
CONTINUOUS
 62
    7
 10
211.28285445523698
 20
217.72873824587196
 11
211.68291516852815
 21
217.72873824587196
  0
LINE
  8
_1-d_
  6
CONTINUOUS
 62
    7
 10
210.43284921598871
 20
216.87873300662371
 11
210.43284921598871
 21
216.47867229333255
  0
LINE
  8
_1-d_
  6
CONTINUOUS
 62
    7
 10
211.28285445523698
 20
215.62866705408427
 11
211.68291516852815
 21
215.62866705408427
  0
LINE
  8
_1-d_
  6
CONTINUOUS
 62
    7
 10
212.53292040777643
 20
216.87873300662371
 11
212.53292040777643
 21
216.47867229333255
  0
LINE
  8
_1-d_
  6
CONTINUOUS
 62
    7
 10
212.08287690830667
 20
216.87873300662371
 11
212.53292040777643
 21
216.87873300662371
  0
LINE
  8
_1-d_
  6
CONTINUOUS
 62
    7
 10
211.68291516852815
 20
217.2786947464022
 11
211.68291516852815
 21
217.72873824587196
  0
LINE
  8
_1-d_
  6
CONTINUOUS
 62
    7
 10
211.28285445523698
 20
217.2786947464022
 11
211.28285445523698
 21
217.72873824587196
  0
LINE
  8
_1-d_
  6
CONTINUOUS
 62
    7
 10
210.88289271545846
 20
216.87873300662371
 11
210.43284921598871
 21
216.87873300662371
  0
LINE
  8
_1-d_
  6
CONTINUOUS
 62
    7
 10
210.88289271545846
 20
216.47867229333255
 11
210.43284921598871
 21
216.47867229333255
  0
LINE
  8
_1-d_
  6
CONTINUOUS
 62
    7
 10
211.28285445523698
 20
216.07871055355403
 11
211.28285445523698
 21
215.62866705408427
  0
LINE
  8
_1-d_
  6
CONTINUOUS
 62
    7
 10
211.68291516852815
 20
216.07871055355403
 11
211.68291516852815
 21
215.62866705408427
  0
LINE
  8
_1-d_
  6
CONTINUOUS
 62
    7
 10
212.08287690830667
 20
216.47867229333255
 11
212.53292040777643
 21
216.47867229333255
  0
ARC
  8
_1-d_
  6
CONTINUOUS
 62
    7
 10
212.08287690830667
 20
217.2786947464022
 40
0.4000000059604644
 50
180
 51
270
  0
ARC
  8
_1-d_
  6
CONTINUOUS
 62
    7
 10
210.88289271545846
 20
217.2786947464022
 40
0.4000000059604644
 50
270
 51
0
  0
ARC
  8
_1-d_
  6
CONTINUOUS
 62
    7
 10
210.88289271545846
 20
216.07871055355403
 40
0.4000000059604644
 50
0
 51
90
  0
ARC
  8
_1-d_
  6
CONTINUOUS
 62
    7
 10
212.08287690830667
 20
216.07871055355403
 40
0.4000000059604644
 50
90
 51
180
  0
ARC
  8
_1-d_
  6
CONTINUOUS
 62
    7
 10
211.48288481188257
 20
216.67870264997813
 40
0.6000000238418579
 50
71.56451416015625
 51
108.43548583984373
  0
ARC
  8
_1-d_
  6
CONTINUOUS
 62
    7
 10
211.48288481188257
 20
216.67870264997813
 40
0.6000000238418579
 50
161.56523132324218
 51
198.43476867675781
  0
ARC
  8
_1-d_
  6
CONTINUOUS
 62
    7
 10
211.48288481188257
 20
216.67870264997813
 40
0.6000000238418579
 50
251.56451416015625
 51
288.43548583984375
  0
ARC
  8
_1-d_
  6
CONTINUOUS
 62
    7
 10
211.48288481188257
 20
216.67870264997813
 40
0.6000000238418579
 50
341.56523132324218
 51
18.434768676757812
  0
CIRCLE
  8
_1-d_
  6
CONTINUOUS
 62
    7
 10
211.48649098100267
 20
216.68136209001872
 40
1.6999999999999999
  0
LINE
  8
_1-7_
  6
CONTINUOUS
 62
   18
 10
209.13439718012043
 20
222.40256506324593
 11
211.87517901447569
 21
234.45899489493066
  0
TEXT
  8
_1-e_
 62
    7
 10
200.16380377871104
 20
205.71943851744052
 40
3.5
 41
1
 50
-90
  1
+-+-
  0
TEXT
  8
_1-e_
 62
    7
 10
209.77029189480077
 20
193.06912217931966
 40
3.5
 41
1
 50
90
  1
+-+-
  0
TEXT
  8
_1-e_
 62
    4
 10
202.68431798738805
 20
204.57131292696038
 40
2
 41
1
 50
-90
  1
IN  OUT
  0
TEXT
  8
_1-e_
 62
    7
 10
204.75601421786902
 20
203.24341466469695
 40
2
 41
1
 50
-90
  1
DC24V
  0
TEXT
  8
_1-e_
 62
    4
 10
208.43275487368677
 20
189.64214931221349
 40
2
 41
1
 50
0
  1
LED OUT
  0
TEXT
  8
_1-e_
 62
    7
 10
199.0350711481154
 20
180.5171745237248
 40
3
 41
1
 50
0
  1
FMC-24R
  0
LINE
  8
_1-3_
  6
CONTINUOUS
 62
    3
 10
193.73288481188257
 20
206.77870264997818
 11
193.73288481188257
 21
195.97870264997817
  0
LINE
  8
_1-3_
  6
CONTINUOUS
 62
    3
 10
200.23288481188257
 20
206.77870264997818
 11
193.73288481188257
 21
206.77870264997818
  0
LINE
  8
_1-3_
  6
CONTINUOUS
 62
    3
 10
200.23288481188257
 20
206.77870264997818
 11
200.23288481188257
 21
195.97870264997817
  0
LINE
  8
_1-3_
  6
CONTINUOUS
 62
    3
 10
199.98288481188257
 20
206.77870264997818
 11
199.98288481188257
 21
195.97870264997817
  0
LINE
  8
_1-3_
  6
CONTINUOUS
 62
    3
 10
199.73288481188257
 20
206.77870264997818
 11
199.73288481188257
 21
195.97870264997817
  0
LINE
  8
_1-3_
  6
CONTINUOUS
 62
    3
 10
198.23288481188257
 20
206.77870264997818
 11
198.23288481188257
 21
195.97870264997817
  0
LINE
  8
_1-3_
  6
CONTINUOUS
 62
    3
 10
197.98288481188257
 20
206.77870264997818
 11
197.98288481188257
 21
195.97870264997817
  0
LINE
  8
_1-3_
  6
CONTINUOUS
 62
    3
 10
196.98288481188257
 20
206.77870264997818
 11
196.98288481188257
 21
195.97870264997817
  0
LINE
  8
_1-3_
  6
CONTINUOUS
 62
    3
 10
194.73288481188257
 20
206.77870264997818
 11
194.73288481188257
 21
195.97870264997817
  0
LINE
  8
_1-3_
  6
CONTINUOUS
 62
    3
 10
200.23288481188257
 20
204.27870264997818
 11
193.73288481188257
 21
204.27870264997818
  0
LINE
  8
_1-3_
  6
CONTINUOUS
 62
    3
 10
200.23288481188257
 20
201.77870264997818
 11
193.73288481188257
 21
201.77870264997818
  0
LINE
  8
_1-3_
  6
CONTINUOUS
 62
    3
 10
200.23288481188257
 20
199.27870264997818
 11
193.73288481188257
 21
199.27870264997818
  0
LINE
  8
_1-3_
  6
CONTINUOUS
 62
    3
 10
200.23288481188257
 20
196.77870264997818
 11
193.73288481188257
 21
196.77870264997818
  0
LINE
  8
_1-3_
  6
CONTINUOUS
 62
    3
 10
194.48288481188257
 20
206.77870264997818
 11
194.48288481188257
 21
195.97870264997817
  0
LINE
  8
_1-3_
  6
CONTINUOUS
 62
    3
 10
197.98288481188257
 20
198.77870264997818
 11
196.98288481188257
 21
198.77870264997818
  0
LINE
  8
_1-3_
  6
CONTINUOUS
 62
    3
 10
197.98288481188257
 20
201.27870264997818
 11
196.98288481188257
 21
201.27870264997818
  0
LINE
  8
_1-3_
  6
CONTINUOUS
 62
    3
 10
197.98288481188257
 20
203.77870264997818
 11
196.98288481188257
 21
203.77870264997818
  0
LINE
  8
_1-3_
  6
CONTINUOUS
 62
    3
 10
197.98288481188257
 20
206.27870264997818
 11
196.98288481188257
 21
206.27870264997818
  0
LINE
  8
_1-3_
  6
CONTINUOUS
 62
    3
 10
200.23288481188257
 20
195.97870264997817
 11
195.98288481188257
 21
195.97870264997817
  0
LINE
  8
_1-3_
  6
CONTINUOUS
 62
    3
 10
195.23288481188257
 20
195.97870264997817
 11
193.73288481188257
 21
195.97870264997817
  0
ARC
  8
_1-3_
  6
CONTINUOUS
 62
    3
 10
195.60788481188257
 20
195.97870264997817
 40
0.375
 50
0
 51
180
  0
CIRCLE
  8
_1-3_
  6
CONTINUOUS
 62
    3
 10
195.85788481188257
 20
198.02870264997818
 40
0.85
  0
CIRCLE
  8
_1-3_
  6
CONTINUOUS
 62
    3
 10
195.85788481188257
 20
200.52870264997818
 40
0.85
  0
CIRCLE
  8
_1-3_
  6
CONTINUOUS
 62
    3
 10
195.85788481188257
 20
203.02870264997818
 40
0.85
  0
CIRCLE
  8
_1-3_
  6
CONTINUOUS
 62
    3
 10
195.85788481188257
 20
205.52870264997818
 40
0.85
  0
CIRCLE
  8
_1-3_
  6
CONTINUOUS
 62
    3
 10
195.85788481188257
 20
198.02870264997818
 40
0.375
  0
CIRCLE
  8
_1-3_
  6
CONTINUOUS
 62
    3
 10
195.85788481188257
 20
200.52870264997818
 40
0.375
  0
CIRCLE
  8
_1-3_
  6
CONTINUOUS
 62
    3
 10
195.85788481188257
 20
203.02870264997818
 40
0.375
  0
CIRCLE
  8
_1-3_
  6
CONTINUOUS
 62
    3
 10
195.85788481188257
 20
205.52870264997818
 40
0.375
  0
LINE
  8
_1-3_
  6
CONTINUOUS
 62
    3
 10
197.28288481188255
 20
198.57870264997819
 11
197.28288481188255
 21
196.97870264997817
  0
LINE
  8
_1-3_
  6
CONTINUOUS
 62
    3
 10
197.78288481188255
 20
197.47870264997817
 11
197.58288481188256
 21
197.47870264997817
  0
LINE
  8
_1-3_
  6
CONTINUOUS
 62
    3
 10
197.58288481188256
 20
196.97870264997817
 11
197.28288481188255
 21
196.97870264997817
  0
LINE
  8
_1-3_
  6
CONTINUOUS
 62
    3
 10
197.58288481188256
 20
197.47870264997817
 11
197.58288481188256
 21
196.97870264997817
  0
LINE
  8
_1-3_
  6
CONTINUOUS
 62
    3
 10
197.78288481188255
 20
198.07870264997819
 11
197.78288481188255
 21
197.47870264997817
  0
LINE
  8
_1-3_
  6
CONTINUOUS
 62
    3
 10
197.78288481188255
 20
198.07870264997819
 11
197.58288481188256
 21
198.07870264997819
  0
LINE
  8
_1-3_
  6
CONTINUOUS
 62
    3
 10
197.58288481188256
 20
198.57870264997819
 11
197.58288481188256
 21
198.07870264997819
  0
LINE
  8
_1-3_
  6
CONTINUOUS
 62
    3
 10
197.58288481188256
 20
198.57870264997819
 11
197.28288481188255
 21
198.57870264997819
  0
LINE
  8
_1-3_
  6
CONTINUOUS
 62
    3
 10
197.28288481188255
 20
201.07870264997819
 11
197.28288481188255
 21
199.47870264997817
  0
LINE
  8
_1-3_
  6
CONTINUOUS
 62
    3
 10
197.78288481188255
 20
199.97870264997817
 11
197.58288481188256
 21
199.97870264997817
  0
LINE
  8
_1-3_
  6
CONTINUOUS
 62
    3
 10
197.58288481188256
 20
199.47870264997817
 11
197.28288481188255
 21
199.47870264997817
  0
LINE
  8
_1-3_
  6
CONTINUOUS
 62
    3
 10
197.58288481188256
 20
199.97870264997817
 11
197.58288481188256
 21
199.47870264997817
  0
LINE
  8
_1-3_
  6
CONTINUOUS
 62
    3
 10
197.78288481188255
 20
200.57870264997819
 11
197.78288481188255
 21
199.97870264997817
  0
LINE
  8
_1-3_
  6
CONTINUOUS
 62
    3
 10
197.78288481188255
 20
200.57870264997819
 11
197.58288481188256
 21
200.57870264997819
  0
LINE
  8
_1-3_
  6
CONTINUOUS
 62
    3
 10
197.58288481188256
 20
201.07870264997819
 11
197.58288481188256
 21
200.57870264997819
  0
LINE
  8
_1-3_
  6
CONTINUOUS
 62
    3
 10
197.58288481188256
 20
201.07870264997819
 11
197.28288481188255
 21
201.07870264997819
  0
LINE
  8
_1-3_
  6
CONTINUOUS
 62
    3
 10
197.28288481188255
 20
203.57870264997819
 11
197.28288481188255
 21
201.97870264997817
  0
LINE
  8
_1-3_
  6
CONTINUOUS
 62
    3
 10
197.78288481188255
 20
202.47870264997817
 11
197.58288481188256
 21
202.47870264997817
  0
LINE
  8
_1-3_
  6
CONTINUOUS
 62
    3
 10
197.58288481188256
 20
201.97870264997817
 11
197.28288481188255
 21
201.97870264997817
  0
LINE
  8
_1-3_
  6
CONTINUOUS
 62
    3
 10
197.58288481188256
 20
202.47870264997817
 11
197.58288481188256
 21
201.97870264997817
  0
LINE
  8
_1-3_
  6
CONTINUOUS
 62
    3
 10
197.78288481188255
 20
203.07870264997819
 11
197.78288481188255
 21
202.47870264997817
  0
LINE
  8
_1-3_
  6
CONTINUOUS
 62
    3
 10
197.78288481188255
 20
203.07870264997819
 11
197.58288481188256
 21
203.07870264997819
  0
LINE
  8
_1-3_
  6
CONTINUOUS
 62
    3
 10
197.58288481188256
 20
203.57870264997819
 11
197.58288481188256
 21
203.07870264997819
  0
LINE
  8
_1-3_
  6
CONTINUOUS
 62
    3
 10
197.58288481188256
 20
203.57870264997819
 11
197.28288481188255
 21
203.57870264997819
  0
LINE
  8
_1-3_
  6
CONTINUOUS
 62
    3
 10
197.28288481188255
 20
206.07870264997819
 11
197.28288481188255
 21
204.47870264997817
  0
LINE
  8
_1-3_
  6
CONTINUOUS
 62
    3
 10
197.78288481188255
 20
204.97870264997817
 11
197.58288481188256
 21
204.97870264997817
  0
LINE
  8
_1-3_
  6
CONTINUOUS
 62
    3
 10
197.58288481188256
 20
204.47870264997817
 11
197.28288481188255
 21
204.47870264997817
  0
LINE
  8
_1-3_
  6
CONTINUOUS
 62
    3
 10
197.58288481188256
 20
204.97870264997817
 11
197.58288481188256
 21
204.47870264997817
  0
LINE
  8
_1-3_
  6
CONTINUOUS
 62
    3
 10
197.78288481188255
 20
205.57870264997819
 11
197.78288481188255
 21
204.97870264997817
  0
LINE
  8
_1-3_
  6
CONTINUOUS
 62
    3
 10
197.78288481188255
 20
205.57870264997819
 11
197.58288481188256
 21
205.57870264997819
  0
LINE
  8
_1-3_
  6
CONTINUOUS
 62
    3
 10
197.58288481188256
 20
206.07870264997819
 11
197.58288481188256
 21
205.57870264997819
  0
LINE
  8
_1-3_
  6
CONTINUOUS
 62
    3
 10
197.58288481188256
 20
206.07870264997819
 11
197.28288481188255
 21
206.07870264997819
  0
LINE
  8
_1-3_
  6
CONTINUOUS
 62
    3
 10
216.23288481188257
 20
192.47870264997808
 11
216.23288481188257
 21
203.2787026499781
  0
LINE
  8
_1-3_
  6
CONTINUOUS
 62
    3
 10
209.73288481188257
 20
192.47870264997808
 11
216.23288481188257
 21
192.47870264997808
  0
LINE
  8
_1-3_
  6
CONTINUOUS
 62
    3
 10
209.73288481188257
 20
192.47870264997808
 11
209.73288481188257
 21
203.2787026499781
  0
LINE
  8
_1-3_
  6
CONTINUOUS
 62
    3
 10
209.98288481188257
 20
192.47870264997808
 11
209.98288481188257
 21
203.2787026499781
  0
LINE
  8
_1-3_
  6
CONTINUOUS
 62
    3
 10
210.23288481188257
 20
192.47870264997808
 11
210.23288481188257
 21
203.2787026499781
  0
LINE
  8
_1-3_
  6
CONTINUOUS
 62
    3
 10
211.73288481188257
 20
192.47870264997808
 11
211.73288481188257
 21
203.2787026499781
  0
LINE
  8
_1-3_
  6
CONTINUOUS
 62
    3
 10
211.98288481188257
 20
192.47870264997808
 11
211.98288481188257
 21
203.2787026499781
  0
LINE
  8
_1-3_
  6
CONTINUOUS
 62
    3
 10
212.98288481188257
 20
192.47870264997808
 11
212.98288481188257
 21
203.2787026499781
  0
LINE
  8
_1-3_
  6
CONTINUOUS
 62
    3
 10
215.23288481188257
 20
192.47870264997808
 11
215.23288481188257
 21
203.2787026499781
  0
LINE
  8
_1-3_
  6
CONTINUOUS
 62
    3
 10
209.73288481188257
 20
194.97870264997808
 11
216.23288481188257
 21
194.97870264997808
  0
LINE
  8
_1-3_
  6
CONTINUOUS
 62
    3
 10
209.73288481188257
 20
197.47870264997808
 11
216.23288481188257
 21
197.47870264997808
  0
LINE
  8
_1-3_
  6
CONTINUOUS
 62
    3
 10
209.73288481188257
 20
199.97870264997808
 11
216.23288481188257
 21
199.97870264997808
  0
LINE
  8
_1-3_
  6
CONTINUOUS
 62
    3
 10
209.73288481188257
 20
202.47870264997808
 11
216.23288481188257
 21
202.47870264997808
  0
LINE
  8
_1-3_
  6
CONTINUOUS
 62
    3
 10
215.48288481188257
 20
192.47870264997808
 11
215.48288481188257
 21
203.2787026499781
  0
LINE
  8
_1-3_
  6
CONTINUOUS
 62
    3
 10
211.98288481188257
 20
200.47870264997808
 11
212.98288481188257
 21
200.47870264997808
  0
LINE
  8
_1-3_
  6
CONTINUOUS
 62
    3
 10
211.98288481188257
 20
197.97870264997808
 11
212.98288481188257
 21
197.97870264997808
  0
LINE
  8
_1-3_
  6
CONTINUOUS
 62
    3
 10
211.98288481188257
 20
195.47870264997808
 11
212.98288481188257
 21
195.47870264997808
  0
LINE
  8
_1-3_
  6
CONTINUOUS
 62
    3
 10
211.98288481188257
 20
192.97870264997808
 11
212.98288481188257
 21
192.97870264997808
  0
LINE
  8
_1-3_
  6
CONTINUOUS
 62
    3
 10
209.73288481188257
 20
203.2787026499781
 11
213.98288481188257
 21
203.2787026499781
  0
LINE
  8
_1-3_
  6
CONTINUOUS
 62
    3
 10
214.73288481188257
 20
203.2787026499781
 11
216.23288481188257
 21
203.2787026499781
  0
ARC
  8
_1-3_
  6
CONTINUOUS
 62
    3
 10
214.35788481188257
 20
203.2787026499781
 40
0.375
 50
180
 51
0
  0
CIRCLE
  8
_1-3_
  6
CONTINUOUS
 62
    3
 10
214.10788481188257
 20
201.22870264997808
 40
0.85
  0
CIRCLE
  8
_1-3_
  6
CONTINUOUS
 62
    3
 10
214.10788481188257
 20
198.72870264997808
 40
0.85
  0
CIRCLE
  8
_1-3_
  6
CONTINUOUS
 62
    3
 10
214.10788481188257
 20
196.22870264997808
 40
0.85
  0
CIRCLE
  8
_1-3_
  6
CONTINUOUS
 62
    3
 10
214.10788481188257
 20
193.72870264997808
 40
0.85
  0
CIRCLE
  8
_1-3_
  6
CONTINUOUS
 62
    3
 10
214.10788481188257
 20
201.22870264997808
 40
0.375
  0
CIRCLE
  8
_1-3_
  6
CONTINUOUS
 62
    3
 10
214.10788481188257
 20
198.72870264997808
 40
0.375
  0
CIRCLE
  8
_1-3_
  6
CONTINUOUS
 62
    3
 10
214.10788481188257
 20
196.22870264997808
 40
0.375
  0
CIRCLE
  8
_1-3_
  6
CONTINUOUS
 62
    3
 10
214.10788481188257
 20
193.72870264997808
 40
0.375
  0
LINE
  8
_1-3_
  6
CONTINUOUS
 62
    3
 10
212.68288481188255
 20
200.6787026499781
 11
212.68288481188255
 21
202.27870264997807
  0
LINE
  8
_1-3_
  6
CONTINUOUS
 62
    3
 10
212.18288481188255
 20
201.77870264997807
 11
212.38288481188257
 21
201.77870264997807
  0
LINE
  8
_1-3_
  6
CONTINUOUS
 62
    3
 10
212.38288481188257
 20
202.27870264997807
 11
212.68288481188255
 21
202.27870264997807
  0
LINE
  8
_1-3_
  6
CONTINUOUS
 62
    3
 10
212.38288481188257
 20
201.77870264997807
 11
212.38288481188257
 21
202.27870264997807
  0
LINE
  8
_1-3_
  6
CONTINUOUS
 62
    3
 10
212.18288481188255
 20
201.1787026499781
 11
212.18288481188255
 21
201.77870264997807
  0
LINE
  8
_1-3_
  6
CONTINUOUS
 62
    3
 10
212.18288481188255
 20
201.1787026499781
 11
212.38288481188257
 21
201.1787026499781
  0
LINE
  8
_1-3_
  6
CONTINUOUS
 62
    3
 10
212.38288481188257
 20
200.6787026499781
 11
212.38288481188257
 21
201.1787026499781
  0
LINE
  8
_1-3_
  6
CONTINUOUS
 62
    3
 10
212.38288481188257
 20
200.6787026499781
 11
212.68288481188255
 21
200.6787026499781
  0
LINE
  8
_1-3_
  6
CONTINUOUS
 62
    3
 10
212.68288481188255
 20
198.1787026499781
 11
212.68288481188255
 21
199.77870264997807
  0
LINE
  8
_1-3_
  6
CONTINUOUS
 62
    3
 10
212.18288481188255
 20
199.27870264997807
 11
212.38288481188257
 21
199.27870264997807
  0
LINE
  8
_1-3_
  6
CONTINUOUS
 62
    3
 10
212.38288481188257
 20
199.77870264997807
 11
212.68288481188255
 21
199.77870264997807
  0
LINE
  8
_1-3_
  6
CONTINUOUS
 62
    3
 10
212.38288481188257
 20
199.27870264997807
 11
212.38288481188257
 21
199.77870264997807
  0
LINE
  8
_1-3_
  6
CONTINUOUS
 62
    3
 10
212.18288481188255
 20
198.6787026499781
 11
212.18288481188255
 21
199.27870264997807
  0
LINE
  8
_1-3_
  6
CONTINUOUS
 62
    3
 10
212.18288481188255
 20
198.6787026499781
 11
212.38288481188257
 21
198.6787026499781
  0
LINE
  8
_1-3_
  6
CONTINUOUS
 62
    3
 10
212.38288481188257
 20
198.1787026499781
 11
212.38288481188257
 21
198.6787026499781
  0
LINE
  8
_1-3_
  6
CONTINUOUS
 62
    3
 10
212.38288481188257
 20
198.1787026499781
 11
212.68288481188255
 21
198.1787026499781
  0
LINE
  8
_1-3_
  6
CONTINUOUS
 62
    3
 10
212.68288481188255
 20
195.6787026499781
 11
212.68288481188255
 21
197.27870264997807
  0
LINE
  8
_1-3_
  6
CONTINUOUS
 62
    3
 10
212.18288481188255
 20
196.77870264997807
 11
212.38288481188257
 21
196.77870264997807
  0
LINE
  8
_1-3_
  6
CONTINUOUS
 62
    3
 10
212.38288481188257
 20
197.27870264997807
 11
212.68288481188255
 21
197.27870264997807
  0
LINE
  8
_1-3_
  6
CONTINUOUS
 62
    3
 10
212.38288481188257
 20
196.77870264997807
 11
212.38288481188257
 21
197.27870264997807
  0
LINE
  8
_1-3_
  6
CONTINUOUS
 62
    3
 10
212.18288481188255
 20
196.1787026499781
 11
212.18288481188255
 21
196.77870264997807
  0
LINE
  8
_1-3_
  6
CONTINUOUS
 62
    3
 10
212.18288481188255
 20
196.1787026499781
 11
212.38288481188257
 21
196.1787026499781
  0
LINE
  8
_1-3_
  6
CONTINUOUS
 62
    3
 10
212.38288481188257
 20
195.6787026499781
 11
212.38288481188257
 21
196.1787026499781
  0
LINE
  8
_1-3_
  6
CONTINUOUS
 62
    3
 10
212.38288481188257
 20
195.6787026499781
 11
212.68288481188255
 21
195.6787026499781
  0
LINE
  8
_1-3_
  6
CONTINUOUS
 62
    3
 10
212.68288481188255
 20
193.1787026499781
 11
212.68288481188255
 21
194.77870264997807
  0
LINE
  8
_1-3_
  6
CONTINUOUS
 62
    3
 10
212.18288481188255
 20
194.27870264997807
 11
212.38288481188257
 21
194.27870264997807
  0
LINE
  8
_1-3_
  6
CONTINUOUS
 62
    3
 10
212.38288481188257
 20
194.77870264997807
 11
212.68288481188255
 21
194.77870264997807
  0
LINE
  8
_1-3_
  6
CONTINUOUS
 62
    3
 10
212.38288481188257
 20
194.27870264997807
 11
212.38288481188257
 21
194.77870264997807
  0
LINE
  8
_1-3_
  6
CONTINUOUS
 62
    3
 10
212.18288481188255
 20
193.6787026499781
 11
212.18288481188255
 21
194.27870264997807
  0
LINE
  8
_1-3_
  6
CONTINUOUS
 62
    3
 10
212.18288481188255
 20
193.6787026499781
 11
212.38288481188257
 21
193.6787026499781
  0
LINE
  8
_1-3_
  6
CONTINUOUS
 62
    3
 10
212.38288481188257
 20
193.1787026499781
 11
212.38288481188257
 21
193.6787026499781
  0
LINE
  8
_1-3_
  6
CONTINUOUS
 62
    3
 10
212.38288481188257
 20
193.1787026499781
 11
212.68288481188255
 21
193.1787026499781
  0
LINE
  8
_1-f_
  6
CONTINUOUS
 62
   18
 10
181.63823782964789
 20
207.17870264997819
 11
181.63823782964789
 21
202.17870264997819
  0
LINE
  8
_1-f_
  6
CONTINUOUS
 62
   18
 10
181.63823782964789
 20
207.17870264997819
 11
181.63823782964789
 21
214.42870264997819
  0
LINE
  8
_1-f_
  6
CONTINUOUS
 62
   18
 10
181.63823782964789
 20
207.17870264997819
 11
182.41469496495545
 21
204.28092517111099
  0
LINE
  8
_1-f_
  6
CONTINUOUS
 62
   18
 10
181.63823782964789
 20
207.17870264997819
 11
180.86178069434032
 21
204.28092517111099
  0
LINE
  8
_1-f_
  6
CONTINUOUS
 62
   18
 10
181.63823782964789
 20
214.42870264997819
 11
180.86178069434032
 21
217.32648012884538
  0
LINE
  8
_1-f_
  6
CONTINUOUS
 62
   18
 10
181.63823782964789
 20
214.42870264997819
 11
182.41469496495545
 21
217.32648012884538
  0
LINE
  8
_1-f_
  6
CONTINUOUS
 62
   18
 10
181.13823782964789
 20
207.17870264997819
 11
192.01905792897349
 21
207.17870264997819
  0
LINE
  8
_1-f_
  6
CONTINUOUS
 62
   18
 10
181.13823782964789
 20
214.42870264997819
 11
192.01905792897349
 21
214.42870264997819
  0
LINE
  8
_1-f_
  6
CONTINUOUS
 62
   18
 10
181.63823782964789
 20
195.57870264997816
 11
181.63823782964789
 21
207.17870264997819
  0
LINE
  8
_1-f_
  6
CONTINUOUS
 62
   18
 10
181.63823782964789
 20
195.57870264997816
 11
180.86178069434032
 21
198.47648012884536
  0
LINE
  8
_1-f_
  6
CONTINUOUS
 62
   18
 10
181.63823782964789
 20
195.57870264997816
 11
182.41469496495545
 21
198.47648012884536
  0
LINE
  8
_1-f_
  6
CONTINUOUS
 62
   18
 10
181.63823782964789
 20
207.17870264997819
 11
182.41469496495545
 21
204.28092517111099
  0
LINE
  8
_1-f_
  6
CONTINUOUS
 62
   18
 10
181.63823782964789
 20
207.17870264997819
 11
180.86178069434032
 21
204.28092517111099
  0
LINE
  8
_1-f_
  6
CONTINUOUS
 62
   18
 10
181.13823782964789
 20
195.57870264997816
 11
192.01905792897349
 21
195.57870264997816
  0
TEXT
  8
_1-f_
 62
    7
 10
181.13823782964789
 20
197.00370264997818
 40
4
 41
1
 50
90
  1
23.2
  0
TEXT
  8
_1-f_
 62
    7
 10
181.13823782964789
 20
217.68864348935184
 40
4
 41
1
 50
90
  1
14.5
  0
LINE
  8
_1-f_
  6
CONTINUOUS
 62
   18
 10
181.63823782964789
 20
214.42870264997819
 11
181.63823782964789
 21
226.23675899522746
  0
LINE
  8
_1-f_
  6
CONTINUOUS
 62
   18
 10
241.24730901987891
 20
203.67870264997819
 11
241.24730901987891
 21
198.67870264997819
  0
LINE
  8
_1-f_
  6
CONTINUOUS
 62
   18
 10
241.24730901987891
 20
214.42870264997819
 11
241.24730901987891
 21
219.42870264997819
  0
LINE
  8
_1-f_
  6
CONTINUOUS
 62
   18
 10
241.24730901987891
 20
203.67870264997819
 11
241.24730901987891
 21
214.42870264997819
  0
LINE
  8
_1-f_
  6
CONTINUOUS
 62
   18
 10
241.24730901987891
 20
203.67870264997819
 11
242.02376615518647
 21
200.78092517111099
  0
LINE
  8
_1-f_
  6
CONTINUOUS
 62
   18
 10
241.24730901987891
 20
203.67870264997819
 11
240.47085188457134
 21
200.78092517111099
  0
LINE
  8
_1-f_
  6
CONTINUOUS
 62
   18
 10
241.24730901987891
 20
214.42870264997819
 11
240.47085188457134
 21
217.32648012884538
  0
LINE
  8
_1-f_
  6
CONTINUOUS
 62
   18
 10
241.24730901987891
 20
214.42870264997819
 11
242.02376615518647
 21
217.32648012884538
  0
LINE
  8
_1-f_
  6
CONTINUOUS
 62
   18
 10
241.74730901987891
 20
203.67870264997819
 11
217.50751304735149
 21
203.67870264997819
  0
LINE
  8
_1-f_
  6
CONTINUOUS
 62
   18
 10
241.74730901987891
 20
214.42870264997819
 11
217.50751304735149
 21
214.42870264997819
  0
TEXT
  8
_1-f_
 62
    7
 10
240.74730901987891
 20
204.67870264997819
 40
4
 41
1
 50
90
  1
21.5
  0
LINE
  8
_1-f_
  6
CONTINUOUS
 62
   18
 10
241.24730901987891
 20
192.07870264997816
 11
241.24730901987891
 21
203.67870264997819
  0
LINE
  8
_1-f_
  6
CONTINUOUS
 62
   18
 10
241.24730901987891
 20
192.07870264997816
 11
240.47085188457134
 21
194.97648012884536
  0
LINE
  8
_1-f_
  6
CONTINUOUS
 62
   18
 10
241.24730901987891
 20
192.07870264997816
 11
242.02376615518647
 21
194.97648012884536
  0
LINE
  8
_1-f_
  6
CONTINUOUS
 62
   18
 10
241.24730901987891
 20
203.67870264997819
 11
242.02376615518647
 21
200.78092517111099
  0
LINE
  8
_1-f_
  6
CONTINUOUS
 62
   18
 10
241.24730901987891
 20
203.67870264997819
 11
240.47085188457134
 21
200.78092517111099
  0
LINE
  8
_1-f_
  6
CONTINUOUS
 62
   18
 10
241.74730901987891
 20
192.07870264997816
 11
217.50751304735149
 21
192.07870264997816
  0
TEXT
  8
_1-f_
 62
    7
 10
240.74730901987891
 20
193.50370264997818
 40
4
 41
1
 50
90
  1
23.2
  0
LINE
  8
_1-0_
  6
CONTINUOUS
 62
    7
 10
187.48288481188257
 20
166.92870264997816
 11
222.48288481188257
 21
166.92870264997816
  0
LINE
  8
_1-0_
  6
CONTINUOUS
 62
    7
 10
222.48288481188257
 20
166.92870264997816
 11
222.48288481188257
 21
226.92870264997819
  0
LINE
  8
_1-0_
  6
CONTINUOUS
 62
    7
 10
222.48288481188257
 20
226.92870264997819
 11
187.48288481188257
 21
226.92870264997819
  0
LINE
  8
_1-0_
  6
CONTINUOUS
 62
    7
 10
187.48288481188257
 20
226.92870264997819
 11
187.48288481188257
 21
166.92870264997816
  0
LINE
  8
_1-0_
  6
DASHED3
 62
    7
 10
221.23288481188257
 20
168.17870264997816
 11
221.23288481188257
 21
225.67870264997819
  0
LINE
  8
_1-0_
  6
DASHED3
 62
    7
 10
188.73288481188257
 20
225.67870264997819
 11
188.73288481188257
 21
168.17870264997816
  0
LINE
  8
_1-0_
  6
CONTINUOUS
 62
    7
 10
188.73288481188257
 20
225.67870264997819
 11
188.73288481188257
 21
168.17870264997816
  0
LINE
  8
_1-0_
  6
CONTINUOUS
 62
    7
 10
221.23288481188257
 20
168.17870264997816
 11
221.23288481188257
 21
225.67870264997819
  0
LINE
  8
_1-0_
  6
DASHED3
 62
    7
 10
193.23288481188257
 20
225.67870264997819
 11
188.73288481188257
 21
225.67870264997819
  0
LINE
  8
_1-0_
  6
CONTINUOUS
 62
    7
 10
193.23288481188257
 20
225.67870264997819
 11
188.73288481188257
 21
225.67870264997819
  0
LINE
  8
_1-0_
  6
DASHED3
 62
    7
 10
221.23288481188257
 20
225.67870264997819
 11
216.73288481188257
 21
225.67870264997819
  0
LINE
  8
_1-0_
  6
DASHED3
 62
    7
 10
213.73288481188257
 20
225.67870264997819
 11
196.23288481188257
 21
225.67870264997819
  0
LINE
  8
_1-0_
  6
CONTINUOUS
 62
    7
 10
221.23288481188257
 20
225.67870264997819
 11
216.73288481188257
 21
225.67870264997819
  0
LINE
  8
_1-0_
  6
CONTINUOUS
 62
    7
 10
213.73288481188257
 20
225.67870264997819
 11
196.23288481188257
 21
225.67870264997819
  0
LINE
  8
_1-0_
  6
DASHED3
 62
    7
 10
188.73288481188257
 20
168.17870264997816
 11
193.23288481188257
 21
168.17870264997816
  0
LINE
  8
_1-0_
  6
CONTINUOUS
 62
    7
 10
188.73288481188257
 20
168.17870264997816
 11
193.23288481188257
 21
168.17870264997816
  0
LINE
  8
_1-0_
  6
DASHED3
 62
    7
 10
196.23288481188257
 20
168.17870264997816
 11
213.73288481188257
 21
168.17870264997816
  0
LINE
  8
_1-0_
  6
DASHED3
 62
    7
 10
216.73288481188257
 20
168.17870264997816
 11
221.23288481188257
 21
168.17870264997816
  0
LINE
  8
_1-0_
  6
CONTINUOUS
 62
    7
 10
196.23288481188257
 20
168.17870264997816
 11
213.73288481188257
 21
168.17870264997816
  0
LINE
  8
_1-0_
  6
CONTINUOUS
 62
    7
 10
216.73288481188257
 20
168.17870264997816
 11
221.23288481188257
 21
168.17870264997816
  0
LINE
  8
_1-0_
  6
CONTINUOUS
 62
    7
 10
215.48288481188257
 20
220.42870264997819
 11
215.48288481188257
 21
219.42870264997819
  0
LINE
  8
_1-0_
  6
CONTINUOUS
 62
    7
 10
217.98288481188257
 20
220.42870264997819
 11
215.48288481188257
 21
220.42870264997819
  0
LINE
  8
_1-0_
  6
CONTINUOUS
 62
    7
 10
217.98288481188257
 20
220.42870264997819
 11
217.98288481188257
 21
219.42870264997819
  0
LINE
  8
_1-0_
  6
CONTINUOUS
 62
    7
 10
215.48288481188257
 20
219.42870264997819
 11
217.98288481188257
 21
219.42870264997819
  0
LINE
  8
_1-0_
  6
CONTINUOUS
 62
    7
 10
194.48288481188257
 20
220.42870264997819
 11
194.48288481188257
 21
219.42870264997819
  0
LINE
  8
_1-0_
  6
CONTINUOUS
 62
    7
 10
191.98288481188257
 20
220.42870264997819
 11
194.48288481188257
 21
220.42870264997819
  0
LINE
  8
_1-0_
  6
CONTINUOUS
 62
    7
 10
191.98288481188257
 20
220.42870264997819
 11
191.98288481188257
 21
219.42870264997819
  0
LINE
  8
_1-0_
  6
CONTINUOUS
 62
    7
 10
194.48288481188257
 20
219.42870264997819
 11
191.98288481188257
 21
219.42870264997819
  0
LINE
  8
_1-0_
  6
CONTINUOUS
 62
    7
 10
215.48288481188257
 20
173.42870264997816
 11
215.48288481188257
 21
174.42870264997816
  0
LINE
  8
_1-0_
  6
CONTINUOUS
 62
    7
 10
217.98288481188257
 20
173.42870264997816
 11
215.48288481188257
 21
173.42870264997816
  0
LINE
  8
_1-0_
  6
CONTINUOUS
 62
    7
 10
217.98288481188257
 20
173.42870264997816
 11
217.98288481188257
 21
174.42870264997816
  0
LINE
  8
_1-0_
  6
CONTINUOUS
 62
    7
 10
215.48288481188257
 20
174.42870264997816
 11
217.98288481188257
 21
174.42870264997816
  0
LINE
  8
_1-0_
  6
CONTINUOUS
 62
    7
 10
194.48288481188257
 20
173.42870264997816
 11
194.48288481188257
 21
174.42870264997816
  0
LINE
  8
_1-0_
  6
CONTINUOUS
 62
    7
 10
191.98288481188257
 20
173.42870264997816
 11
194.48288481188257
 21
173.42870264997816
  0
LINE
  8
_1-0_
  6
CONTINUOUS
 62
    7
 10
191.98288481188257
 20
173.42870264997816
 11
191.98288481188257
 21
174.42870264997816
  0
LINE
  8
_1-0_
  6
CONTINUOUS
 62
    7
 10
194.48288481188257
 20
174.42870264997816
 11
191.98288481188257
 21
174.42870264997816
  0
LINE
  8
_1-9_
  6
CONTINUOUS
 62
    7
 10
216.73288481188257
 20
225.92870264997819
 11
213.73288481188257
 21
225.92870264997819
  0
LINE
  8
_1-9_
  6
CONTINUOUS
 62
    7
 10
218.48288481188257
 20
222.92870264997819
 11
216.73288481188257
 21
222.92870264997819
  0
LINE
  8
_1-9_
  6
CONTINUOUS
 62
    7
 10
216.73288481188257
 20
222.92870264997819
 11
216.73288481188257
 21
225.92870264997819
  0
LINE
  8
_1-9_
  6
CONTINUOUS
 62
    7
 10
218.23288481188257
 20
221.92870264997819
 11
214.48288481188257
 21
221.92870264997819
  0
LINE
  8
_1-9_
  6
CONTINUOUS
 62
    7
 10
214.48288481188257
 20
218.42870264997819
 11
214.48288481188257
 21
221.92870264997819
  0
LINE
  8
_1-9_
  6
CONTINUOUS
 62
    7
 10
215.48288481188257
 20
218.42870264997819
 11
215.48288481188257
 21
219.42870264997819
  0
LINE
  8
_1-9_
  6
CONTINUOUS
 62
    7
 10
217.98288481188257
 20
219.42870264997819
 11
215.48288481188257
 21
219.42870264997819
  0
LINE
  8
_1-9_
  6
CONTINUOUS
 62
    7
 10
217.98288481188257
 20
218.42870264997819
 11
217.98288481188257
 21
219.42870264997819
  0
LINE
  8
_1-9_
  6
CONTINUOUS
 62
    7
 10
218.23288481188257
 20
218.42870264997819
 11
217.98288481188257
 21
218.42870264997819
  0
LINE
  8
_1-9_
  6
CONTINUOUS
 62
    7
 10
215.48288481188257
 20
218.42870264997819
 11
214.48288481188257
 21
218.42870264997819
  0
LINE
  8
_1-9_
  6
CONTINUOUS
 62
    7
 10
217.98288481188257
 20
219.17870264997819
 11
215.48288481188257
 21
219.17870264997819
  0
LINE
  8
_1-9_
  6
CONTINUOUS
 62
    7
 10
213.73288481188257
 20
225.42870264997819
 11
198.65473481124905
 21
225.42870264997819
  0
LINE
  8
_1-9_
  6
CONTINUOUS
 62
    7
 10
212.73288481188257
 20
225.17870264997819
 11
212.73288481188257
 21
225.42870264997819
  0
LINE
  8
_1-9_
  6
CONTINUOUS
 62
    7
 10
213.73288481188257
 20
225.17870264997819
 11
213.73288481188257
 21
225.92870264997819
  0
ARC
  8
_1-9_
  6
CONTINUOUS
 62
    7
 10
213.28288481188258
 20
222.7287026499782
 40
0.45
 50
90
 51
180
  0
ARC
  8
_1-9_
  6
CONTINUOUS
 62
    7
 10
213.28288481188258
 20
222.7287026499782
 40
0.45
 50
0
 51
90
  0
LINE
  8
_1-9_
  6
CONTINUOUS
 62
    7
 10
212.83288481188259
 20
221.1287026499782
 11
212.83288481188259
 21
222.7287026499782
  0
ARC
  8
_1-9_
  6
CONTINUOUS
 62
    7
 10
213.28288481188258
 20
221.1287026499782
 40
0.45
 50
180
 51
270
  0
LINE
  8
_1-9_
  6
CONTINUOUS
 62
    7
 10
213.73288481188257
 20
221.1287026499782
 11
213.73288481188257
 21
222.7287026499782
  0
ARC
  8
_1-9_
  6
CONTINUOUS
 62
    7
 10
213.28288481188258
 20
221.1287026499782
 40
0.45
 50
270
 51
0
  0
LINE
  8
_1-9_
  6
CONTINUOUS
 62
    7
 10
216.73288481188257
 20
225.17870264997819
 11
198.65473481124905
 21
225.17870264997819
  0
LINE
  8
_1-9_
  6
CONTINUOUS
 62
    7
 10
218.23288481188257
 20
196.0246891275884
 11
218.23288481188257
 21
222.92870264997819
  0
LINE
  8
_1-9_
  6
CONTINUOUS
 62
    7
 10
218.48288481188257
 20
196.0246891275884
 11
218.48288481188257
 21
222.92870264997819
  0
LINE
  8
_1-9_
  6
CONTINUOUS
 62
    7
 10
216.73288481188257
 20
167.92870264997816
 11
213.73288481188257
 21
167.92870264997816
  0
LINE
  8
_1-9_
  6
CONTINUOUS
 62
    7
 10
218.48288481188257
 20
170.92870264997816
 11
216.73288481188257
 21
170.92870264997816
  0
LINE
  8
_1-9_
  6
CONTINUOUS
 62
    7
 10
216.73288481188257
 20
170.92870264997816
 11
216.73288481188257
 21
167.92870264997816
  0
LINE
  8
_1-9_
  6
CONTINUOUS
 62
    7
 10
218.23288481188257
 20
171.92870264997816
 11
214.48288481188257
 21
171.92870264997816
  0
LINE
  8
_1-9_
  6
CONTINUOUS
 62
    7
 10
214.48288481188257
 20
175.42870264997816
 11
214.48288481188257
 21
171.92870264997816
  0
LINE
  8
_1-9_
  6
CONTINUOUS
 62
    7
 10
215.48288481188257
 20
175.42870264997816
 11
215.48288481188257
 21
174.42870264997816
  0
LINE
  8
_1-9_
  6
CONTINUOUS
 62
    7
 10
217.98288481188257
 20
174.42870264997816
 11
215.48288481188257
 21
174.42870264997816
  0
LINE
  8
_1-9_
  6
CONTINUOUS
 62
    7
 10
217.98288481188257
 20
175.42870264997816
 11
217.98288481188257
 21
174.42870264997816
  0
LINE
  8
_1-9_
  6
CONTINUOUS
 62
    7
 10
218.23288481188257
 20
175.42870264997816
 11
217.98288481188257
 21
175.42870264997816
  0
LINE
  8
_1-9_
  6
CONTINUOUS
 62
    7
 10
215.48288481188257
 20
175.42870264997816
 11
214.48288481188257
 21
175.42870264997816
  0
LINE
  8
_1-9_
  6
CONTINUOUS
 62
    7
 10
217.98288481188257
 20
174.67870264997816
 11
215.48288481188257
 21
174.67870264997816
  0
LINE
  8
_1-9_
  6
CONTINUOUS
 62
    7
 10
213.73288481188257
 20
168.42870264997816
 11
198.65473481124905
 21
168.42870264997816
  0
LINE
  8
_1-9_
  6
CONTINUOUS
 62
    7
 10
212.73288481188257
 20
168.67870264997816
 11
212.73288481188257
 21
168.42870264997816
  0
LINE
  8
_1-9_
  6
CONTINUOUS
 62
    7
 10
213.73288481188257
 20
168.67870264997816
 11
213.73288481188257
 21
167.92870264997816
  0
ARC
  8
_1-9_
  6
CONTINUOUS
 62
    7
 10
213.28288481188258
 20
171.12870264997818
 40
0.45
 50
180
 51
270
  0
ARC
  8
_1-9_
  6
CONTINUOUS
 62
    7
 10
213.28288481188258
 20
171.12870264997818
 40
0.45
 50
270
 51
0
  0
LINE
  8
_1-9_
  6
CONTINUOUS
 62
    7
 10
212.83288481188259
 20
172.72870264997817
 11
212.83288481188259
 21
171.12870264997818
  0
ARC
  8
_1-9_
  6
CONTINUOUS
 62
    7
 10
213.28288481188258
 20
172.72870264997817
 40
0.45
 50
90
 51
180
  0
LINE
  8
_1-9_
  6
CONTINUOUS
 62
    7
 10
213.73288481188257
 20
172.72870264997817
 11
213.73288481188257
 21
171.12870264997818
  0
ARC
  8
_1-9_
  6
CONTINUOUS
 62
    7
 10
213.28288481188258
 20
172.72870264997817
 40
0.45
 50
0
 51
90
  0
LINE
  8
_1-9_
  6
CONTINUOUS
 62
    7
 10
216.73288481188257
 20
168.67870264997816
 11
198.65473481124905
 21
168.67870264997816
  0
LINE
  8
_1-9_
  6
CONTINUOUS
 62
    7
 10
218.23288481188257
 20
197.83271617236795
 11
218.23288481188257
 21
170.92870264997816
  0
LINE
  8
_1-9_
  6
CONTINUOUS
 62
    7
 10
218.48288481188257
 20
197.83271617236795
 11
218.48288481188257
 21
170.92870264997816
  0
LINE
  8
_1-9_
  6
CONTINUOUS
 62
    7
 10
193.23288481188257
 20
225.92870264997819
 11
196.23288481188257
 21
225.92870264997819
  0
LINE
  8
_1-9_
  6
CONTINUOUS
 62
    7
 10
191.48288481188257
 20
222.92870264997819
 11
193.23288481188257
 21
222.92870264997819
  0
LINE
  8
_1-9_
  6
CONTINUOUS
 62
    7
 10
193.23288481188257
 20
222.92870264997819
 11
193.23288481188257
 21
225.92870264997819
  0
LINE
  8
_1-9_
  6
CONTINUOUS
 62
    7
 10
191.73288481188257
 20
221.92870264997819
 11
195.48288481188257
 21
221.92870264997819
  0
LINE
  8
_1-9_
  6
CONTINUOUS
 62
    7
 10
195.48288481188257
 20
218.42870264997819
 11
195.48288481188257
 21
221.92870264997819
  0
LINE
  8
_1-9_
  6
CONTINUOUS
 62
    7
 10
194.48288481188257
 20
218.42870264997819
 11
194.48288481188257
 21
219.42870264997819
  0
LINE
  8
_1-9_
  6
CONTINUOUS
 62
    7
 10
191.98288481188257
 20
219.42870264997819
 11
194.48288481188257
 21
219.42870264997819
  0
LINE
  8
_1-9_
  6
CONTINUOUS
 62
    7
 10
191.98288481188257
 20
218.42870264997819
 11
191.98288481188257
 21
219.42870264997819
  0
LINE
  8
_1-9_
  6
CONTINUOUS
 62
    7
 10
191.73288481188257
 20
218.42870264997819
 11
191.98288481188257
 21
218.42870264997819
  0
LINE
  8
_1-9_
  6
CONTINUOUS
 62
    7
 10
194.48288481188257
 20
218.42870264997819
 11
195.48288481188257
 21
218.42870264997819
  0
LINE
  8
_1-9_
  6
CONTINUOUS
 62
    7
 10
191.98288481188257
 20
219.17870264997819
 11
194.48288481188257
 21
219.17870264997819
  0
LINE
  8
_1-9_
  6
CONTINUOUS
 62
    7
 10
196.23288481188257
 20
225.42870264997819
 11
211.31103481251614
 21
225.42870264997819
  0
LINE
  8
_1-9_
  6
CONTINUOUS
 62
    7
 10
197.23288481188257
 20
225.17870264997819
 11
197.23288481188257
 21
225.42870264997819
  0
LINE
  8
_1-9_
  6
CONTINUOUS
 62
    7
 10
196.23288481188257
 20
225.17870264997819
 11
196.23288481188257
 21
225.92870264997819
  0
ARC
  8
_1-9_
  6
CONTINUOUS
 62
    7
 10
196.68288481188255
 20
222.7287026499782
 40
0.45
 50
0
 51
90
  0
ARC
  8
_1-9_
  6
CONTINUOUS
 62
    7
 10
196.68288481188261
 20
222.7287026499782
 40
0.45
 50
90
 51
180
  0
LINE
  8
_1-9_
  6
CONTINUOUS
 62
    7
 10
197.1328848118826
 20
221.1287026499782
 11
197.1328848118826
 21
222.7287026499782
  0
ARC
  8
_1-9_
  6
CONTINUOUS
 62
    7
 10
196.68288481188255
 20
221.1287026499782
 40
0.45
 50
270
 51
0
  0
LINE
  8
_1-9_
  6
CONTINUOUS
 62
    7
 10
196.23288481188257
 20
221.1287026499782
 11
196.23288481188257
 21
222.7287026499782
  0
ARC
  8
_1-9_
  6
CONTINUOUS
 62
    7
 10
196.68288481188261
 20
221.1287026499782
 40
0.45
 50
180
 51
270
  0
LINE
  8
_1-9_
  6
CONTINUOUS
 62
    7
 10
193.23288481188257
 20
225.17870264997819
 11
211.31103481251614
 21
225.17870264997819
  0
LINE
  8
_1-9_
  6
CONTINUOUS
 62
    7
 10
191.73288481188257
 20
196.0246891275884
 11
191.73288481188257
 21
222.92870264997819
  0
LINE
  8
_1-9_
  6
CONTINUOUS
 62
    7
 10
191.48288481188257
 20
196.0246891275884
 11
191.48288481188257
 21
222.92870264997819
  0
LINE
  8
_1-9_
  6
CONTINUOUS
 62
    7
 10
193.23288481188257
 20
167.92870264997816
 11
196.23288481188257
 21
167.92870264997816
  0
LINE
  8
_1-9_
  6
CONTINUOUS
 62
    7
 10
191.48288481188257
 20
170.92870264997816
 11
193.23288481188257
 21
170.92870264997816
  0
LINE
  8
_1-9_
  6
CONTINUOUS
 62
    7
 10
193.23288481188257
 20
170.92870264997816
 11
193.23288481188257
 21
167.92870264997816
  0
LINE
  8
_1-9_
  6
CONTINUOUS
 62
    7
 10
191.73288481188257
 20
171.92870264997816
 11
195.48288481188257
 21
171.92870264997816
  0
LINE
  8
_1-9_
  6
CONTINUOUS
 62
    7
 10
195.48288481188257
 20
175.42870264997816
 11
195.48288481188257
 21
171.92870264997816
  0
LINE
  8
_1-9_
  6
CONTINUOUS
 62
    7
 10
194.48288481188257
 20
175.42870264997816
 11
194.48288481188257
 21
174.42870264997816
  0
LINE
  8
_1-9_
  6
CONTINUOUS
 62
    7
 10
191.98288481188257
 20
174.42870264997816
 11
194.48288481188257
 21
174.42870264997816
  0
LINE
  8
_1-9_
  6
CONTINUOUS
 62
    7
 10
191.98288481188257
 20
175.42870264997816
 11
191.98288481188257
 21
174.42870264997816
  0
LINE
  8
_1-9_
  6
CONTINUOUS
 62
    7
 10
191.73288481188257
 20
175.42870264997816
 11
191.98288481188257
 21
175.42870264997816
  0
LINE
  8
_1-9_
  6
CONTINUOUS
 62
    7
 10
194.48288481188257
 20
175.42870264997816
 11
195.48288481188257
 21
175.42870264997816
  0
LINE
  8
_1-9_
  6
CONTINUOUS
 62
    7
 10
191.98288481188257
 20
174.67870264997816
 11
194.48288481188257
 21
174.67870264997816
  0
LINE
  8
_1-9_
  6
CONTINUOUS
 62
    7
 10
196.23288481188257
 20
168.42870264997816
 11
211.31103481251614
 21
168.42870264997816
  0
LINE
  8
_1-9_
  6
CONTINUOUS
 62
    7
 10
197.23288481188257
 20
168.67870264997816
 11
197.23288481188257
 21
168.42870264997816
  0
LINE
  8
_1-9_
  6
CONTINUOUS
 62
    7
 10
196.23288481188257
 20
168.67870264997816
 11
196.23288481188257
 21
167.92870264997816
  0
ARC
  8
_1-9_
  6
CONTINUOUS
 62
    7
 10
196.68288481188255
 20
171.12870264997818
 40
0.45
 50
270
 51
0
  0
ARC
  8
_1-9_
  6
CONTINUOUS
 62
    7
 10
196.68288481188261
 20
171.12870264997818
 40
0.45
 50
180
 51
270
  0
LINE
  8
_1-9_
  6
CONTINUOUS
 62
    7
 10
197.1328848118826
 20
172.72870264997817
 11
197.1328848118826
 21
171.12870264997818
  0
ARC
  8
_1-9_
  6
CONTINUOUS
 62
    7
 10
196.68288481188255
 20
172.72870264997817
 40
0.45
 50
0
 51
90
  0
LINE
  8
_1-9_
  6
CONTINUOUS
 62
    7
 10
196.23288481188257
 20
172.72870264997817
 11
196.23288481188257
 21
171.12870264997818
  0
ARC
  8
_1-9_
  6
CONTINUOUS
 62
    7
 10
196.68288481188261
 20
172.72870264997817
 40
0.45
 50
90
 51
180
  0
LINE
  8
_1-9_
  6
CONTINUOUS
 62
    7
 10
193.23288481188257
 20
168.67870264997816
 11
211.31103481251614
 21
168.67870264997816
  0
LINE
  8
_1-9_
  6
CONTINUOUS
 62
    7
 10
191.73288481188257
 20
197.83271617236795
 11
191.73288481188257
 21
170.92870264997816
  0
LINE
  8
_1-9_
  6
CONTINUOUS
 62
    7
 10
191.48288481188257
 20
197.83271617236795
 11
191.48288481188257
 21
170.92870264997816
  0
LINE
  8
_1-1_
  6
CONTINUOUS
 62
    7
 10
195.48288481188257
 20
179.42870264997816
 11
195.48288481188257
 21
174.92870264997816
  0
LINE
  8
_1-1_
  6
CONTINUOUS
 62
    7
 10
211.48288481188257
 20
169.55370264997816
 11
211.48288481188257
 21
179.42870264997816
  0
LINE
  8
_1-1_
  6
CONTINUOUS
 62
    7
 10
198.48288481188257
 20
224.30370264997813
 11
198.48288481188257
 21
214.42870264997813
  0
LINE
  8
_1-1_
  6
CONTINUOUS
 62
    7
 10
214.48288481188257
 20
218.92870264997813
 11
214.48288481188257
 21
214.42870264997813
  0
LINE
  8
_1-4_
  6
CONTINUOUS
 62
  150
 10
193.38288481188257
 20
207.17870264997813
 11
193.38288481188257
 21
195.57870264997816
  0
LINE
  8
_1-4_
  6
CONTINUOUS
 62
  150
 10
216.58288481188256
 20
203.67870264997813
 11
216.58288481188256
 21
192.07870264997816
  0
TEXT
  8
_1-7_
 62
    3
 10
209.64712626295812
 20
235.23582420476722
 40
6
 41
1
 50
0
  1
⑤
  0
LINE
  8
_1-f_
  6
CONTINUOUS
 62
   18
 10
170.93115197408269
 20
179.42870264997816
 11
170.93115197408269
 21
214.42870264997813
  0
LINE
  8
_1-f_
  6
CONTINUOUS
 62
   18
 10
170.93115197408269
 20
179.42870264997816
 11
170.15469483877512
 21
182.32648012884536
  0
LINE
  8
_1-f_
  6
CONTINUOUS
 62
   18
 10
170.93115197408269
 20
179.42870264997816
 11
171.7076091093902
 21
182.32648012884536
  0
LINE
  8
_1-f_
  6
CONTINUOUS
 62
   18
 10
170.93115197408269
 20
214.42870264997813
 11
171.7076091093902
 21
211.53092517111093
  0
LINE
  8
_1-f_
  6
CONTINUOUS
 62
   18
 10
170.93115197408269
 20
214.42870264997813
 11
170.15469483877512
 21
211.53092517111093
  0
TEXT
  8
_1-f_
 62
    7
 10
170.43115197408269
 20
194.80370264997816
 40
4
 41
1
 50
90
  1
70
  0
LINE
  8
_1-f_
  6
CONTINUOUS
 62
   18
 10
170.43115197408269
 20
214.42870264997813
 11
192.01905792897349
 21
214.42870264997813
  0
LINE
  8
_1-f_
  6
CONTINUOUS
 62
   18
 10
170.43115197408269
 20
179.42870264997816
 11
192.01905792897349
 21
179.42870264997816
  0
LINE
  8
_1-7_
  6
CONTINUOUS
 62
   18
 10
213.01623714473277
 20
197.93374415776506
 11
229.11337258818008
 21
180.75355475824221
  0
TEXT
  8
_1-7_
 62
    3
 10
228.94341044815638
 20
175.22268469217786
 40
6
 41
1
 50
0
  1
⑧
  0
LINE
  8
_1-7_
  6
CONTINUOUS
 62
   18
 10
197.25818287262708
 20
200.50181523830389
 11
182.38766441589996
 21
188.77877688492606
  0
LINE
  8
_1-7_
  6
CONTINUOUS
 62
   18
 10
211.97576745904714
 20
211.34697456460287
 11
227.66512219959793
 21
224.21651866435593
  0
TEXT
  8
_1-7_
 62
    3
 10
227.77975323978722
 20
223.25363912038079
 40
6
 41
1
 50
0
  1
⑥
  0
TEXT
  8
_1-7_
 62
    3
 10
176.49858385027732
 20
183.60904181456254
 40
6
 41
1
 50
0
  1
⑦
  0
LINE
  8
_1-7_
  6
CONTINUOUS
 62
   18
 10
204.48514901022394
 20
217.46119950618216
 11
194.97379433562505
 21
234.45899489493066
  0
TEXT
  8
_1-7_
 62
    3
 10
190.72130853349693
 20
234.75816382490981
 40
6
 41
1
 50
0
  1
⑨
  0
LINE
  8
_1-f_
  6
CENTER2
 62
   18
 10
204.98288481188257
 20
218.3821283837172
 11
204.98288481188257
 21
216.77576293416205
  0
LINE
  8
_1-f_
  6
CENTER2
 62
   18
 10
203.19872629285902
 20
217.80370264997813
 11
207.05963974178982
 21
217.80370264997813
  0
LINE
  8
_1-f_
  6
CENTER2
 62
   18
 10
201.91213852044543
 20
176.05370264997807
 11
207.9152028248377
 21
176.05370264997807
  0
LINE
  8
_1-f_
  6
CENTER2
 62
   18
 10
204.98288481188257
 20
220.12038780645895
 11
204.98288481188257
 21
215.80856475765301
  0
LINE
  8
_1-f_
  6
CENTER2
 62
   18
 10
204.98288481188257
 20
178.09794690754915
 11
204.98288481188257
 21
173.7702715681226
  0
LINE
  8
_1-f_
  6
CENTER2
 62
   18
 10
201.91213852044543
 20
217.80370264997813
 11
207.9152028248377
 21
217.80370264997813
  0
LINE
  8
_1-f_
  6
CONTINUOUS
 62
   18
 10
164.74478008529297
 20
176.05370264997807
 11
164.74478008529297
 21
217.80370264997813
  0
LINE
  8
_1-f_
  6
CONTINUOUS
 62
   18
 10
164.74478008529297
 20
176.05370264997807
 11
163.9683229499854
 21
178.95148012884527
  0
LINE
  8
_1-f_
  6
CONTINUOUS
 62
   18
 10
164.74478008529297
 20
176.05370264997807
 11
165.52123722060053
 21
178.95148012884527
  0
LINE
  8
_1-f_
  6
CONTINUOUS
 62
   18
 10
164.74478008529297
 20
217.80370264997813
 11
165.52123722060053
 21
214.90592517111093
  0
LINE
  8
_1-f_
  6
CONTINUOUS
 62
   18
 10
164.74478008529297
 20
217.80370264997813
 11
163.9683229499854
 21
214.90592517111093
  0
TEXT
  8
_1-f_
 62
    7
 10
164.24478008529297
 20
192.5537026499781
 40
4
 41
1
 50
90
  1
83.5
  0
LINE
  8
_1-f_
  6
CONTINUOUS
 62
   18
 10
164.24478008529297
 20
176.05370264997807
 11
201.0639741347079
 21
176.05370264997807
  0
LINE
  8
_1-f_
  6
CONTINUOUS
 62
   18
 10
164.24478008529297
 20
217.80370264997813
 11
201.0639741347079
 21
217.80370264997813
  0
LINE
  8
_1-c_
  6
CONTINUOUS
 62
   18
 10
123.56831411401125
 20
194.6787026499781
 11
124.2683141140113
 21
194.6787026499781
  0
LINE
  8
_1-c_
  6
CONTINUOUS
 62
   18
 10
123.56831411401125
 20
199.1787026499781
 11
124.2683141140113
 21
199.1787026499781
  0
TEXT
  8
_1-8_
 62
    7
 10
37.789412013802916
 20
96.112555047843201
 40
5
 41
1.0000000000000004
 50
0
  1
◆型式内容
  0
LINE
  8
_1-8_
  6
CONTINUOUS
 62
    7
 10
63.176949718302751
 20
95.762463047843127
 11
37.695271513802936
 21
95.762463047843127
  0
TEXT
  8
_1-8_
 62
    7
 10
35.806917355317835
 20
261.10692184259522
 40
5
 41
1.0000000000000004
 50
0
  1
◆外形図
  0
LINE
  8
_1-e_
  6
CONTINUOUS
 62
    7
 10
61.288003239299115
 20
265.69945563948635
 11
59.038010868693646
 21
261.19945373213772
  0
LINE
  8
_1-e_
  6
CONTINUOUS
 62
    7
 10
59.038010868693646
 20
261.19945373213772
 11
63.538003239299115
 21
261.19945373213772
  0
LINE
  8
_1-e_
  6
CONTINUOUS
 62
    7
 10
61.288003239299115
 20
265.69945563948635
 11
63.538003239299115
 21
261.19945373213772
  0
TEXT
  8
_1-e_
 62
    7
 10
60.67206696000224
 20
261.43405093825344
 40
3
 41
1
 50
0
  1
2
  0
TEXT
  8
_1-8_
 62
    7
 10
37.789412013802916
 20
72.355939317429587
 40
5
 41
1.0000000000000004
 50
0
  1
◆定格表
  0
TEXT
  8
_1-8_
 62
    7
 10
42.631749326595524
 20
62.747597005210124
 40
4.9999999999999857
 41
1.0000000000000031
 50
0
  1
定格　入力電圧 DC24V / 12V(※AC100V器具調光時)
  0
TEXT
  8
_1-8_
 62
    7
 10
153.63650918410689
 20
55.04338376359361
 40
4
 41
1
 50
0
  1
最大出力電流（A）
  0
TEXT
  8
_1-8_
 62
    7
 10
152.14740055699309
 20
50.495757891806093
 40
4
 41
1
 50
0
  1
（DC24V / DC12V）
  0
LINE
  8
_1-8_
  6
CONTINUOUS
 62
    7
 10
40.946452679991864
 20
60.580787031005499
 11
272.66136621777729
 21
60.580787031005499
  0
LINE
  8
_1-8_
  6
CONTINUOUS
 62
    7
 10
40.946452679991864
 20
48.950902632419527
 11
272.66136621777729
 21
48.950902632419527
  0
TEXT
  8
_1-8_
 62
    7
 10
160.59140313652881
 20
42.19335510208613
 40
4
 41
1
 50
0
  1
6.3 / 1.0
  0
LINE
  8
_1-8_
  6
CONTINUOUS
 62
    7
 10
40.946452679991864
 20
40.164120364338899
 11
272.66136621777729
 21
40.164120364338899
  0
TEXT
  8
_1-8_
 62
    7
 10
41.68656724640698
 20
35.105887020583153
 40
3
 41
1
 50
0
  1
※本製品をAC100V照明のPWM調光器としてご使用の場合（FKK製品専用）
  0
TEXT
  8
_1-8_
 62
    7
 10
41.68656724640698
 20
31.494537063575421
 40
3
 41
1
 50
0
  1
※ディップスイッチ切り替えが必要となります。
  0
TEXT
  8
_1-8_
 62
    7
 10
128.11043113609196
 20
89.101155072075911
 40
5
 41
1.0000000000000004
 50
0
  1
①化粧パネルカラー　B=ﾌﾞﾗｯｸ/G=ｸﾞﾚｰ/W=ﾎﾜｲﾄ
  0
LINE
  8
_1-8_
  6
CONTINUOUS
 62
    7
 10
58.375038480727852
 20
72.005847317429513
 11
37.695271513802936
 21
72.005847317429513
  0
LINE
  8
_1-8_
  6
CONTINUOUS
 62
    7
 10
56.197082364680596
 20
260.75682984259515
 11
35.712776855317855
 21
260.75682984259515
  0
LINE
  8
_1-8_
  6
CONTINUOUS
 62
    7
 10
40.946452679991864
 20
60.580787031005499
 11
40.946452679991864
 21
40.164120364338899
  0
LINE
  8
_1-8_
  6
CONTINUOUS
 62
    7
 10
272.66136621777729
 20
60.580787031005499
 11
272.66136621777729
 21
40.164120364338899
  0
LINE
  8
_1-8_
  6
CONTINUOUS
 62
    7
 10
75.946452679991864
 20
60.580787031005499
 11
75.946452679991864
 21
40.164120364338899
  0
LINE
  8
_1-8_
  6
CONTINUOUS
 62
    7
 10
125.94645267999186
 20
60.580787031005499
 11
125.94645267999186
 21
40.164120364338899
  0
LINE
  8
_1-8_
  6
CONTINUOUS
 62
    7
 10
145.94645267999186
 20
60.580787031005499
 11
145.94645267999186
 21
40.164120364338899
  0
LINE
  8
_1-8_
  6
CONTINUOUS
 62
    7
 10
195.94645267999186
 20
60.580787031005499
 11
195.94645267999186
 21
40.164120364338899
  0
LINE
  8
_1-8_
  6
CONTINUOUS
 62
    7
 10
245.94645267999186
 20
60.580787031005499
 11
245.94645267999186
 21
40.164120364338899
  0
TEXT
  8
_1-8_
 62
    7
 10
53.258599779200324
 20
52.562252589427274
 40
4
 41
1
 50
0
  1
型番
  0
TEXT
  8
_1-8_
 62
    7
 10
91.633237087283177
 20
55.04338376359361
 40
4
 41
1
 50
0
  1
外形寸法
  0
TEXT
  8
_1-8_
 62
    7
 10
93.506218839456707
 20
50.495757891806093
 40
4
 41
1
 50
0
  1
（mm）
  0
TEXT
  8
_1-8_
 62
    7
 10
83.116352009313274
 20
42.19335510208613
 40
4
 41
1
 50
0
  1
W70×H120×D56.5
  0
TEXT
  8
_1-8_
 62
    7
 10
131.45026764009645
 20
55.04338376359361
 40
4
 41
1
 50
0
  1
重量
  0
TEXT
  8
_1-8_
 62
    7
 10
130.21954250395427
 20
50.495757891806093
 40
4
 41
1
 50
0
  1
（g）
  0
TEXT
  8
_1-8_
 62
    7
 10
132.28741653662842
 20
42.19335510208613
 40
4
 41
1
 50
0
  1
216
  0
TEXT
  8
_1-8_
 62
    7
 10
198.93062853624624
 20
55.04338376359361
 40
4
 41
1
 50
0
  1
最大接続電源容量（W）
  0
TEXT
  8
_1-8_
 62
    7
 10
201.39616307336291
 20
50.495757891806093
 40
4
 41
1
 50
0
  1
（DC24V / DC12V）
  0
TEXT
  8
_1-8_
 62
    7
 10
210.40193120176647
 20
42.19335510208613
 40
4
 41
1
 50
0
  1
150 / 12
  0
TEXT
  8
_1-8_
 62
    7
 10
254.7995473491139
 20
52.562252589427274
 40
4
 41
1
 50
0
  1
調光
  0
TEXT
  8
_1-8_
 62
    7
 10
252.08491360223595
 20
42.19335510208613
 40
4
 41
1
 50
0
  1
PWM方式
  0
LINE
  8
_0-0_
  6
CONTINUOUS
 62
    7
 10
307.62840746439229
 20
51.591692424035755
 11
307.62840746439229
 21
21.591684735036579
  0
LINE
  8
_0-0_
  6
CONTINUOUS
 62
    7
 10
322.62840746439229
 20
51.591692424035755
 11
322.62840746439229
 21
41.591690457082478
  0
LINE
  8
_0-0_
  6
CONTINUOUS
 62
   18
 10
357.62840746439229
 20
51.591692424035755
 11
357.62840746439229
 21
41.591690457082478
  0
LINE
  8
_1-e_
  6
CONTINUOUS
 62
    7
 10
307.62840746439229
 20
56.591692424035755
 11
307.62840746439229
 21
51.591692424035755
  0
LINE
  8
_1-e_
  6
CONTINUOUS
 62
    7
 10
352.62840746439229
 20
51.591692424035755
 11
352.62840746439229
 21
56.591692424035755
  0
TEXT
  8
_1-8_
 62
    7
 10
79.910563838107975
 20
88.417679548610948
 40
6.9999999999999857
 41
1.0000000000000024
 50
0
  1
FMC-24R□
  0
LINE
  8
_1-8_
  6
CONTINUOUS
 62
    7
 10
104.35946838211098
 20
88.323986782455122
 11
111.74267273866014
 21
88.323986782455122
  0
TEXT
  8
_1-8_
 62
    7
 10
104.997569079541
 20
80.696853554130925
 40
6
 41
1
 50
0
  1
①
  0
TEXT
  8
_1-8_
 62
    7
 10
318.90231011674779
 20
70.717887316633493
 40
4
 41
1
 50
0
  1
ﾛｰﾀﾘｰﾎﾞﾘｭｰﾑ
  0
TEXT
  8
_1-8_
 62
    7
 10
319.11250172499813
 20
63.990076100430229
 40
4
 41
1
 50
0
  1
ﾊﾟｲﾛｯﾄLED
  0
TEXT
  8
_1-8_
 62
    7
 10
48.745160716750007
 20
42.193355102086144
 40
4
 41
1
 50
0
  1
FMC-24R□
  0
LINE
  8
_1-e_
  6
CONTINUOUS
 62
    7
 10
282.6283902982546
 20
263.59173957130974
 11
402.62839792764913
 21
263.59173957130974
  0
LINE
  8
_1-e_
  6
CONTINUOUS
 62
    7
 10
282.6283902982546
 20
263.59173957130974
 11
402.62839792764913
 21
263.59173957130974
  0
TEXT
  8
_1-f_
 62
    7
 10
260.36770096925329
 20
237.317288488232
 40
4
 41
1
 50
0
  1
□適合電線
  0
TEXT
  8
_1-f_
 62
    7
 10
260.36770096925329
 20
218.54169547295686
 40
4
 41
1
 50
0
  1
□適用工具
  0
TEXT
  8
_1-f_
 62
    7
 10
260.37820919351395
 20
211.27504131027617
 40
4
 41
1
 50
0
  1
□標準剥ぎ線長　11mm
  0
TEXT
  8
_1-f_
 62
    7
 10
260.39305234835876
 20
204.15186411478478
 40
4
 41
1
 50
0
  1
□ディップスイッチ
  0
TEXT
  8
_1-f_
 62
    7
 10
265.90803234203281
 20
166.7932852334851
 40
3
 41
1
 50
0
  1
【SW1:OFF/SW2:OFF】
  0
LINE
  8
_1-f_
  6
CONTINUOUS
 62
    3
 10
289.49363426681583
 20
191.46986274863144
 11
289.49363426681583
 21
171.66986274863143
  0
LINE
  8
_1-f_
  6
CONTINUOUS
 62
    3
 10
289.49363426681583
 20
191.46986274863144
 11
275.49363426681583
 21
191.46986274863144
  0
LINE
  8
_1-f_
  6
CONTINUOUS
 62
    3
 10
275.49363426681583
 20
191.46986274863144
 11
275.49363426681583
 21
171.66986274863143
  0
LINE
  8
_1-f_
  6
CONTINUOUS
 62
    7
 10
278.49363426681583
 20
179.51986274863145
 11
281.49363426681583
 21
179.51986274863145
  0
LINE
  8
_1-f_
  6
CONTINUOUS
 62
    7
 10
281.49363426681583
 20
179.51986274863145
 11
281.49363426681583
 21
186.51986274863145
  0
LINE
  8
_1-f_
  6
CONTINUOUS
 62
    7
 10
281.49363426681583
 20
186.51986274863145
 11
278.49363426681583
 21
186.51986274863145
  0
LINE
  8
_1-f_
  6
CONTINUOUS
 62
    7
 10
278.49363426681583
 20
186.51986274863145
 11
278.49363426681583
 21
179.51986274863145
  0
LINE
  8
_1-f_
  6
CONTINUOUS
 62
    7
 10
283.49363426681583
 20
179.51986274863145
 11
286.49363426681583
 21
179.51986274863145
  0
LINE
  8
_1-f_
  6
CONTINUOUS
 62
    7
 10
286.49363426681583
 20
179.51986274863145
 11
286.49363426681583
 21
186.51986274863145
  0
LINE
  8
_1-f_
  6
CONTINUOUS
 62
    7
 10
286.49363426681583
 20
186.51986274863145
 11
283.49363426681583
 21
186.51986274863145
  0
LINE
  8
_1-f_
  6
CONTINUOUS
 62
    7
 10
283.49363426681583
 20
186.51986274863145
 11
283.49363426681583
 21
179.51986274863145
  0
LINE
  8
_1-f_
  6
CONTINUOUS
 62
    7
 10
278.49363426681583
 20
182.51986274863145
 11
281.49363426681583
 21
182.51986274863145
  0
LINE
  8
_1-f_
  6
CONTINUOUS
 62
    7
 10
283.49363426681583
 20
182.51986274863145
 11
286.49363426681583
 21
182.51986274863145
  0
LINE
  8
_1-f_
  6
CONTINUOUS
 62
    3
 10
275.49363426681583
 20
171.66986274863143
 11
289.49363426681583
 21
171.66986274863143
  0
TEXT
  8
_1-f_
 62
    3
 10
278.6521142278612
 20
171.91514163411608
 40
6
 41
1
 50
0
  1
1
  0
TEXT
  8
_1-f_
 62
    3
 10
283.59802890149154
 20
171.85569554428877
 40
6
 41
1
 50
0
  1
2
  0
TEXT
  8
_1-f_
 62
    7
 10
280.17393412743979
 20
187.12145141193627
 40
4
 41
1
 50
0
  1
ON
  0
LINE
  8
_1-f_
  6
CONTINUOUS
 62
    3
 10
280.81653643046922
 20
182.51986274863173
 11
281.4936342668156
 21
183.19696058497817
  0
LINE
  8
_1-f_
  6
CONTINUOUS
 62
    3
 10
280.10942964928364
 20
182.51986274863196
 11
281.49363426681549
 21
183.90406736616375
  0
LINE
  8
_1-f_
  6
CONTINUOUS
 62
    3
 10
279.40232286809771
 20
182.51986274863173
 11
281.49363426681537
 21
184.6111741473494
  0
LINE
  8
_1-f_
  6
CONTINUOUS
 62
    3
 10
278.69521608691104
 20
182.51986274863173
 11
281.49363426681532
 21
185.31828092853601
  0
LINE
  8
_1-f_
  6
CONTINUOUS
 62
    3
 10
278.49363426681594
 20
183.02538770972336
 11
281.49363426681532
 21
186.02538770972267
  0
LINE
  8
_1-f_
  6
CONTINUOUS
 62
    3
 10
278.49363426681583
 20
183.73249449090985
 11
281.28100252453805
 21
186.51986274863207
  0
LINE
  8
_1-f_
  6
CONTINUOUS
 62
    3
 10
278.49363426681594
 20
184.43960127209663
 11
280.57389574335081
 21
186.51986274863156
  0
LINE
  8
_1-f_
  6
CONTINUOUS
 62
    3
 10
278.49363426681588
 20
185.14670805328324
 11
279.86678896216392
 21
186.51986274863128
  0
LINE
  8
_1-f_
  6
CONTINUOUS
 62
    3
 10
278.49363426681583
 20
185.85381483446985
 11
279.15968218097737
 21
186.51986274863145
  0
LINE
  8
_1-f_
  6
CONTINUOUS
 62
    3
 10
286.47339067996233
 20
182.51986274863151
 11
286.49363426681577
 21
182.54010633548494
  0
LINE
  8
_1-f_
  6
CONTINUOUS
 62
    3
 10
285.76628389877566
 20
182.51986274863151
 11
286.49363426681571
 21
183.24721311667161
  0
LINE
  8
_1-f_
  6
CONTINUOUS
 62
    3
 10
285.059177117589
 20
182.51986274863151
 11
286.49363426681566
 21
183.95431989785822
  0
LINE
  8
_1-f_
  6
CONTINUOUS
 62
    3
 10
284.35207033640233
 20
182.51986274863151
 11
286.4936342668156
 21
184.66142667904483
  0
LINE
  8
_1-f_
  6
CONTINUOUS
 62
    3
 10
283.64496355521561
 20
182.51986274863151
 11
286.49363426681554
 21
185.36853346023144
  0
LINE
  8
_1-f_
  6
CONTINUOUS
 62
    3
 10
283.49363426681577
 20
183.07564024141828
 11
286.49363426681549
 21
186.07564024141805
  0
LINE
  8
_1-f_
  6
CONTINUOUS
 62
    3
 10
283.49363426681571
 20
183.78274702260489
 11
286.23074999284261
 21
186.51986274863185
  0
LINE
  8
_1-f_
  6
CONTINUOUS
 62
    3
 10
283.49363426681566
 20
184.48985380379156
 11
285.52364321165561
 21
186.51986274863145
  0
LINE
  8
_1-f_
  6
CONTINUOUS
 62
    3
 10
280.81653643046922
 20
182.51986274863173
 11
281.4936342668156
 21
183.19696058497817
  0
LINE
  8
_1-f_
  6
CONTINUOUS
 62
    3
 10
283.4936342668156
 20
185.19696058497811
 11
284.81653643046905
 21
186.51986274863156
  0
LINE
  8
_1-f_
  6
CONTINUOUS
 62
    3
 10
280.10942964928364
 20
182.51986274863196
 11
281.49363426681549
 21
183.90406736616375
  0
LINE
  8
_1-f_
  6
CONTINUOUS
 62
    3
 10
283.49363426681549
 20
185.90406736616375
 11
284.10942964928347
 21
186.51986274863179
  0
LINE
  8
_1-f_
  6
CONTINUOUS
 62
    3
 10
279.40232286809771
 20
182.51986274863173
 11
281.49363426681537
 21
184.6111741473494
  0
LINE
  8
_1-f_
  6
CONTINUOUS
 62
    3
 10
278.69521608691104
 20
182.51986274863173
 11
281.49363426681532
 21
185.31828092853601
  0
LINE
  8
_1-f_
  6
CONTINUOUS
 62
    3
 10
278.49363426681594
 20
183.02538770972336
 11
281.49363426681532
 21
186.02538770972267
  0
LINE
  8
_1-f_
  6
CONTINUOUS
 62
    3
 10
278.49363426681583
 20
183.73249449090985
 11
281.28100252453805
 21
186.51986274863207
  0
LINE
  8
_1-f_
  6
CONTINUOUS
 62
    3
 10
278.49363426681594
 20
184.43960127209663
 11
280.57389574335081
 21
186.51986274863156
  0
LINE
  8
_1-f_
  6
CONTINUOUS
 62
    3
 10
278.49363426681588
 20
185.14670805328324
 11
279.86678896216392
 21
186.51986274863128
  0
LINE
  8
_1-f_
  6
CONTINUOUS
 62
    3
 10
278.49363426681583
 20
185.85381483446985
 11
279.15968218097737
 21
186.51986274863145
  0
TEXT
  8
_1-f_
 62
    7
 10
266.13682016750425
 20
176.9451912237402
 40
10
 41
1
 50
0
  1
↓
  0
TEXT
  8
_1-f_
 62
    7
 10
289.08214745262966
 20
176.9451912237402
 40
10
 41
1
 50
0
  1
↓
  0
TEXT
  8
_1-f_
 62
    7
 10
262.04062179326115
 20
160.85332013124605
 40
3
 41
1
 50
0
  1
初期設定（DC24V器具調光）
  0
LINE
  8
_1-f_
  6
CONTINUOUS
 62
    3
 10
264.99363426681583
 20
165.63363400921065
 11
264.99363426681583
 21
195.38642850620118
  0
LINE
  8
_1-f_
  6
CONTINUOUS
 62
    3
 10
264.99363426681583
 20
195.38642850620118
 11
299.99363426681583
 21
195.38642850620118
  0
TEXT
  8
_1-f_
 62
    7
 10
343.27578608189651
 20
187.08326106845873
 40
10
 41
1
 50
180
  1
↓
  0
LINE
  8
_1-f_
  6
CONTINUOUS
 62
    3
 10
334.49363426681583
 20
191.46986274863144
 11
334.49363426681583
 21
171.66986274863143
  0
LINE
  8
_1-f_
  6
CONTINUOUS
 62
    3
 10
334.49363426681583
 20
191.46986274863144
 11
320.49363426681583
 21
191.46986274863144
  0
LINE
  8
_1-f_
  6
CONTINUOUS
 62
    3
 10
320.49363426681583
 20
191.46986274863144
 11
320.49363426681583
 21
171.66986274863143
  0
LINE
  8
_1-f_
  6
CONTINUOUS
 62
    7
 10
323.49363426681583
 20
179.51986274863145
 11
326.49363426681583
 21
179.51986274863145
  0
LINE
  8
_1-f_
  6
CONTINUOUS
 62
    7
 10
326.49363426681583
 20
179.51986274863145
 11
326.49363426681583
 21
186.51986274863145
  0
LINE
  8
_1-f_
  6
CONTINUOUS
 62
    7
 10
326.49363426681583
 20
186.51986274863145
 11
323.49363426681583
 21
186.51986274863145
  0
LINE
  8
_1-f_
  6
CONTINUOUS
 62
    7
 10
323.49363426681583
 20
186.51986274863145
 11
323.49363426681583
 21
179.51986274863145
  0
LINE
  8
_1-f_
  6
CONTINUOUS
 62
    7
 10
328.49363426681583
 20
179.51986274863145
 11
331.49363426681583
 21
179.51986274863145
  0
LINE
  8
_1-f_
  6
CONTINUOUS
 62
    7
 10
331.49363426681583
 20
179.51986274863145
 11
331.49363426681583
 21
186.51986274863145
  0
LINE
  8
_1-f_
  6
CONTINUOUS
 62
    7
 10
331.49363426681583
 20
186.51986274863145
 11
328.49363426681583
 21
186.51986274863145
  0
LINE
  8
_1-f_
  6
CONTINUOUS
 62
    7
 10
328.49363426681583
 20
186.51986274863145
 11
328.49363426681583
 21
179.51986274863145
  0
LINE
  8
_1-f_
  6
CONTINUOUS
 62
    7
 10
323.49363426681583
 20
182.51986274863145
 11
326.49363426681583
 21
182.51986274863145
  0
LINE
  8
_1-f_
  6
CONTINUOUS
 62
    3
 10
320.49363426681583
 20
171.66986274863143
 11
334.49363426681583
 21
171.66986274863143
  0
TEXT
  8
_1-f_
 62
    3
 10
323.6521142278612
 20
171.91514163411608
 40
6
 41
1
 50
0
  1
1
  0
TEXT
  8
_1-f_
 62
    3
 10
328.59802890149154
 20
171.85569554428877
 40
6
 41
1
 50
0
  1
2
  0
TEXT
  8
_1-f_
 62
    7
 10
325.17393412743979
 20
187.12145141193627
 40
4
 41
1
 50
0
  1
ON
  0
LINE
  8
_1-f_
  6
CONTINUOUS
 62
    3
 10
325.81653643046922
 20
182.51986274863173
 11
326.4936342668156
 21
183.19696058497817
  0
LINE
  8
_1-f_
  6
CONTINUOUS
 62
    3
 10
325.10942964928364
 20
182.51986274863196
 11
326.49363426681549
 21
183.90406736616375
  0
LINE
  8
_1-f_
  6
CONTINUOUS
 62
    3
 10
324.40232286809771
 20
182.51986274863173
 11
326.49363426681537
 21
184.6111741473494
  0
LINE
  8
_1-f_
  6
CONTINUOUS
 62
    3
 10
323.69521608691104
 20
182.51986274863173
 11
326.49363426681532
 21
185.31828092853601
  0
LINE
  8
_1-f_
  6
CONTINUOUS
 62
    3
 10
323.49363426681594
 20
183.02538770972336
 11
326.49363426681532
 21
186.02538770972267
  0
LINE
  8
_1-f_
  6
CONTINUOUS
 62
    3
 10
323.49363426681583
 20
183.73249449090985
 11
326.28100252453805
 21
186.51986274863207
  0
LINE
  8
_1-f_
  6
CONTINUOUS
 62
    3
 10
323.49363426681594
 20
184.43960127209663
 11
325.57389574335081
 21
186.51986274863156
  0
LINE
  8
_1-f_
  6
CONTINUOUS
 62
    3
 10
323.49363426681588
 20
185.14670805328324
 11
324.86678896216392
 21
186.51986274863128
  0
LINE
  8
_1-f_
  6
CONTINUOUS
 62
    3
 10
323.49363426681583
 20
185.85381483446985
 11
324.15968218097737
 21
186.51986274863145
  0
LINE
  8
_1-f_
  6
CONTINUOUS
 62
    3
 10
331.47339067996233
 20
182.51986274863151
 11
331.49363426681577
 21
182.54010633548494
  0
LINE
  8
_1-f_
  6
CONTINUOUS
 62
    3
 10
325.81653643046922
 20
182.51986274863173
 11
326.4936342668156
 21
183.19696058497817
  0
LINE
  8
_1-f_
  6
CONTINUOUS
 62
    3
 10
325.10942964928364
 20
182.51986274863196
 11
326.49363426681549
 21
183.90406736616375
  0
LINE
  8
_1-f_
  6
CONTINUOUS
 62
    3
 10
324.40232286809771
 20
182.51986274863173
 11
326.49363426681537
 21
184.6111741473494
  0
LINE
  8
_1-f_
  6
CONTINUOUS
 62
    3
 10
323.69521608691104
 20
182.51986274863173
 11
326.49363426681532
 21
185.31828092853601
  0
LINE
  8
_1-f_
  6
CONTINUOUS
 62
    3
 10
323.49363426681594
 20
183.02538770972336
 11
326.49363426681532
 21
186.02538770972267
  0
LINE
  8
_1-f_
  6
CONTINUOUS
 62
    3
 10
323.49363426681583
 20
183.73249449090985
 11
326.28100252453805
 21
186.51986274863207
  0
LINE
  8
_1-f_
  6
CONTINUOUS
 62
    3
 10
323.49363426681594
 20
184.43960127209663
 11
325.57389574335081
 21
186.51986274863156
  0
LINE
  8
_1-f_
  6
CONTINUOUS
 62
    3
 10
323.49363426681588
 20
185.14670805328324
 11
324.86678896216392
 21
186.51986274863128
  0
LINE
  8
_1-f_
  6
CONTINUOUS
 62
    3
 10
323.49363426681583
 20
185.85381483446985
 11
324.15968218097737
 21
186.51986274863145
  0
TEXT
  8
_1-f_
 62
    7
 10
311.13682016750425
 20
176.9451912237402
 40
10
 41
1
 50
0
  1
↓
  0
TEXT
  8
_1-f_
 62
    7
 10
312.14029043159746
 20
166.7932852334851
 40
3
 41
1
 50
0
  1
【SW1:OFF/SW2:ON】
  0
LINE
  8
_1-f_
  6
CONTINUOUS
 62
    3
 10
330.76628389877566
 20
179.51986274863145
 11
331.49363426681571
 21
180.24721311667155
  0
LINE
  8
_1-f_
  6
CONTINUOUS
 62
    3
 10
330.059177117589
 20
179.51986274863145
 11
331.49363426681566
 21
180.95431989785816
  0
LINE
  8
_1-f_
  6
CONTINUOUS
 62
    3
 10
329.35207033640233
 20
179.51986274863145
 11
331.4936342668156
 21
181.66142667904478
  0
LINE
  8
_1-f_
  6
CONTINUOUS
 62
    3
 10
328.64496355521561
 20
179.51986274863145
 11
331.49363426681554
 21
182.36853346023139
  0
LINE
  8
_1-f_
  6
CONTINUOUS
 62
    3
 10
328.49363426681577
 20
180.07564024141822
 11
331.49363426681549
 21
183.075640241418
  0
LINE
  8
_1-f_
  6
CONTINUOUS
 62
    3
 10
328.49363426681571
 20
180.78274702260483
 11
331.23074999284261
 21
183.51986274863179
  0
LINE
  8
_1-f_
  6
CONTINUOUS
 62
    3
 10
328.49363426681566
 20
181.4898538037915
 11
330.52364321165561
 21
183.51986274863139
  0
LINE
  8
_1-f_
  6
CONTINUOUS
 62
    3
 10
328.4936342668156
 20
182.19696058497805
 11
329.81653643046905
 21
183.51986274863151
  0
LINE
  8
_1-f_
  6
CONTINUOUS
 62
    3
 10
328.49363426681549
 20
182.9040673661637
 11
329.10942964928347
 21
183.51986274863173
  0
LINE
  8
_1-f_
  6
CONTINUOUS
 62
    7
 10
328.49363426681583
 20
183.51986274863173
 11
331.49363426681583
 21
183.51986274863173
  0
TEXT
  8
_1-f_
 62
    7
 10
313.95880833326373
 20
160.87518229048475
 40
3
 41
1
 50
0
  1
固定用マグネット
  0
LINE
  8
_1-f_
  6
CONTINUOUS
 62
    3
 10
309.99363426681583
 20
165.63363400921065
 11
309.99363426681583
 21
195.38642850620118
  0
LINE
  8
_1-f_
  6
CONTINUOUS
 62
    3
 10
309.99363426681583
 20
195.38642850620118
 11
344.99363426681583
 21
195.38642850620118
  0
LINE
  8
_1-f_
  6
CONTINUOUS
 62
    3
 10
379.49363426681583
 20
191.46986274863144
 11
379.49363426681583
 21
171.6698627486314
  0
LINE
  8
_1-f_
  6
CONTINUOUS
 62
    3
 10
379.49363426681583
 20
191.46986274863144
 11
365.49363426681583
 21
191.46986274863144
  0
LINE
  8
_1-f_
  6
CONTINUOUS
 62
    3
 10
365.49363426681583
 20
191.46986274863144
 11
365.49363426681583
 21
171.6698627486314
  0
LINE
  8
_1-f_
  6
CONTINUOUS
 62
    7
 10
368.49363426681583
 20
179.51986274863145
 11
371.49363426681583
 21
179.51986274863145
  0
LINE
  8
_1-f_
  6
CONTINUOUS
 62
    7
 10
371.49363426681583
 20
179.51986274863145
 11
371.49363426681583
 21
186.51986274863145
  0
LINE
  8
_1-f_
  6
CONTINUOUS
 62
    7
 10
371.49363426681583
 20
186.51986274863145
 11
368.49363426681583
 21
186.51986274863145
  0
LINE
  8
_1-f_
  6
CONTINUOUS
 62
    7
 10
368.49363426681583
 20
186.51986274863145
 11
368.49363426681583
 21
179.51986274863145
  0
LINE
  8
_1-f_
  6
CONTINUOUS
 62
    7
 10
373.49363426681583
 20
179.51986274863145
 11
376.49363426681583
 21
179.51986274863145
  0
LINE
  8
_1-f_
  6
CONTINUOUS
 62
    7
 10
376.49363426681583
 20
179.51986274863145
 11
376.49363426681583
 21
186.51986274863145
  0
LINE
  8
_1-f_
  6
CONTINUOUS
 62
    7
 10
376.49363426681583
 20
186.51986274863145
 11
373.49363426681583
 21
186.51986274863145
  0
LINE
  8
_1-f_
  6
CONTINUOUS
 62
    7
 10
373.49363426681583
 20
186.51986274863145
 11
373.49363426681583
 21
179.51986274863145
  0
LINE
  8
_1-f_
  6
CONTINUOUS
 62
    3
 10
365.49363426681583
 20
171.6698627486314
 11
379.49363426681583
 21
171.6698627486314
  0
TEXT
  8
_1-f_
 62
    3
 10
368.6521142278612
 20
171.91514163411605
 40
6
 41
1
 50
0
  1
1
  0
TEXT
  8
_1-f_
 62
    3
 10
373.59802890149154
 20
171.85569554428874
 40
6
 41
1
 50
0
  1
2
  0
TEXT
  8
_1-f_
 62
    7
 10
370.17393412743979
 20
187.12145141193627
 40
4
 41
1
 50
0
  1
ON
  0
LINE
  8
_1-f_
  6
CONTINUOUS
 62
    3
 10
376.47339067996233
 20
182.51986274863151
 11
376.49363426681577
 21
182.54010633548494
  0
TEXT
  8
_1-f_
 62
    7
 10
357.14029043159746
 20
166.7932852334851
 40
3
 41
1
 50
0
  1
【SW1:ON/SW2:OFF】
  0
TEXT
  8
_1-f_
 62
    7
 10
366.71148245173515
 20
187.08326106845873
 40
10
 41
1
 50
180
  1
↓
  0
TEXT
  8
_1-f_
 62
    7
 10
378.8504483661274
 20
176.9451912237402
 40
10
 41
1
 50
0
  1
↓
  0
LINE
  8
_1-f_
  6
CONTINUOUS
 62
    3
 10
370.76628389877566
 20
179.51986274863145
 11
371.49363426681571
 21
180.24721311667155
  0
LINE
  8
_1-f_
  6
CONTINUOUS
 62
    3
 10
370.059177117589
 20
179.51986274863145
 11
371.49363426681566
 21
180.95431989785816
  0
LINE
  8
_1-f_
  6
CONTINUOUS
 62
    3
 10
369.35207033640233
 20
179.51986274863145
 11
371.4936342668156
 21
181.66142667904478
  0
LINE
  8
_1-f_
  6
CONTINUOUS
 62
    3
 10
368.64496355521561
 20
179.51986274863145
 11
371.49363426681554
 21
182.36853346023139
  0
LINE
  8
_1-f_
  6
CONTINUOUS
 62
    3
 10
368.49363426681577
 20
180.07564024141822
 11
371.49363426681549
 21
183.075640241418
  0
LINE
  8
_1-f_
  6
CONTINUOUS
 62
    3
 10
368.49363426681571
 20
180.78274702260483
 11
371.23074999284261
 21
183.51986274863179
  0
LINE
  8
_1-f_
  6
CONTINUOUS
 62
    3
 10
368.49363426681566
 20
181.4898538037915
 11
370.52364321165561
 21
183.51986274863139
  0
LINE
  8
_1-f_
  6
CONTINUOUS
 62
    3
 10
368.4936342668156
 20
182.19696058497805
 11
369.81653643046905
 21
183.51986274863151
  0
LINE
  8
_1-f_
  6
CONTINUOUS
 62
    3
 10
368.49363426681549
 20
182.9040673661637
 11
369.10942964928347
 21
183.51986274863173
  0
LINE
  8
_1-f_
  6
CONTINUOUS
 62
    7
 10
368.49363426681583
 20
183.51986274863173
 11
371.49363426681583
 21
183.51986274863173
  0
LINE
  8
_1-f_
  6
CONTINUOUS
 62
    7
 10
373.49363426681583
 20
182.51986274863145
 11
376.49363426681583
 21
182.51986274863145
  0
LINE
  8
_1-f_
  6
CONTINUOUS
 62
    3
 10
375.81653643046922
 20
182.51986274863173
 11
376.4936342668156
 21
183.19696058497817
  0
LINE
  8
_1-f_
  6
CONTINUOUS
 62
    3
 10
375.10942964928364
 20
182.51986274863196
 11
376.49363426681549
 21
183.90406736616375
  0
LINE
  8
_1-f_
  6
CONTINUOUS
 62
    3
 10
374.40232286809771
 20
182.51986274863173
 11
376.49363426681537
 21
184.6111741473494
  0
LINE
  8
_1-f_
  6
CONTINUOUS
 62
    3
 10
373.69521608691104
 20
182.51986274863173
 11
376.49363426681532
 21
185.31828092853601
  0
LINE
  8
_1-f_
  6
CONTINUOUS
 62
    3
 10
373.49363426681594
 20
183.02538770972336
 11
376.49363426681532
 21
186.02538770972267
  0
LINE
  8
_1-f_
  6
CONTINUOUS
 62
    3
 10
373.49363426681583
 20
183.73249449090985
 11
376.28100252453805
 21
186.51986274863207
  0
LINE
  8
_1-f_
  6
CONTINUOUS
 62
    3
 10
373.49363426681594
 20
184.43960127209663
 11
375.57389574335081
 21
186.51986274863156
  0
LINE
  8
_1-f_
  6
CONTINUOUS
 62
    3
 10
373.49363426681588
 20
185.14670805328324
 11
374.86678896216392
 21
186.51986274863128
  0
LINE
  8
_1-f_
  6
CONTINUOUS
 62
    3
 10
373.49363426681583
 20
185.85381483446985
 11
374.15968218097737
 21
186.51986274863145
  0
LINE
  8
_1-f_
  6
CONTINUOUS
 62
    3
 10
375.81653643046922
 20
182.51986274863173
 11
376.4936342668156
 21
183.19696058497817
  0
LINE
  8
_1-f_
  6
CONTINUOUS
 62
    3
 10
375.10942964928364
 20
182.51986274863196
 11
376.49363426681549
 21
183.90406736616375
  0
LINE
  8
_1-f_
  6
CONTINUOUS
 62
    3
 10
374.40232286809771
 20
182.51986274863173
 11
376.49363426681537
 21
184.6111741473494
  0
LINE
  8
_1-f_
  6
CONTINUOUS
 62
    3
 10
373.69521608691104
 20
182.51986274863173
 11
376.49363426681532
 21
185.31828092853601
  0
LINE
  8
_1-f_
  6
CONTINUOUS
 62
    3
 10
373.49363426681594
 20
183.02538770972336
 11
376.49363426681532
 21
186.02538770972267
  0
LINE
  8
_1-f_
  6
CONTINUOUS
 62
    3
 10
373.49363426681583
 20
183.73249449090985
 11
376.28100252453805
 21
186.51986274863207
  0
LINE
  8
_1-f_
  6
CONTINUOUS
 62
    3
 10
373.49363426681594
 20
184.43960127209663
 11
375.57389574335081
 21
186.51986274863156
  0
LINE
  8
_1-f_
  6
CONTINUOUS
 62
    3
 10
373.49363426681588
 20
185.14670805328324
 11
374.86678896216392
 21
186.51986274863128
  0
LINE
  8
_1-f_
  6
CONTINUOUS
 62
    3
 10
373.49363426681583
 20
185.85381483446985
 11
374.15968218097737
 21
186.51986274863145
  0
TEXT
  8
_1-f_
 62
    7
 10
355.499408933798
 20
161.20238048522867
 40
3
 41
1
 50
0
  1
AC100V照明調光モード
  0
LINE
  8
_1-f_
  6
CONTINUOUS
 62
    3
 10
354.99363426681583
 20
165.63363400921062
 11
354.99363426681583
 21
195.38642850620118
  0
LINE
  8
_1-f_
  6
CONTINUOUS
 62
    3
 10
354.99363426681583
 20
195.38642850620118
 11
389.99363426681583
 21
195.38642850620118
  0
LINE
  8
_1-e_
  6
CONTINUOUS
 62
    7
 10
282.62840555704366
 20
263.5917395713098
 11
402.62841318643819
 21
263.5917395713098
  0
LINE
  8
_1-e_
  6
CONTINUOUS
 62
    7
 10
282.6283902982546
 20
263.59173957130974
 11
402.62839792764913
 21
263.59173957130974
  0
LINE
  8
_1-e_
  6
CONTINUOUS
 62
    7
 10
282.6283902982546
 20
263.59173957130974
 11
402.62839792764913
 21
263.59173957130974
  0
LINE
  8
_1-e_
  6
CONTINUOUS
 62
    7
 10
402.62839792764913
 20
263.59173957130974
 11
282.62840555704366
 21
263.59173957130974
  0
LINE
  8
_1-e_
  6
CONTINUOUS
 62
    7
 10
282.6283902982546
 20
258.59176007530754
 11
402.62839792764913
 21
258.59176007530754
  0
LINE
  8
_1-e_
  6
CONTINUOUS
 62
    7
 10
402.62839792764913
 20
263.59173957130974
 11
282.62840555704366
 21
263.59173957130974
  0
LINE
  8
_1-e_
  6
CONTINUOUS
 62
    7
 10
282.6283902982546
 20
258.59176007530754
 11
402.62839792764913
 21
258.59176007530754
  0
LINE
  8
_1-e_
  6
CONTINUOUS
 62
    7
 10
282.6283902982546
 20
263.59173957130974
 11
282.6283902982546
 21
258.59176007530754
  0
LINE
  8
_1-e_
  6
CONTINUOUS
 62
    7
 10
292.62839792764913
 20
263.59173957130974
 11
292.62839792764913
 21
258.59176007530754
  0
LINE
  8
_1-e_
  6
CONTINUOUS
 62
    7
 10
322.62839792764913
 20
263.59173957130974
 11
322.62839792764913
 21
258.59176007530754
  0
LINE
  8
_1-e_
  6
CONTINUOUS
 62
    7
 10
282.6283902982546
 20
263.59173957130974
 11
282.6283902982546
 21
258.59176007530754
  0
LINE
  8
_1-e_
  6
CONTINUOUS
 62
    7
 10
292.62839792764913
 20
263.59173957130974
 11
292.62839792764913
 21
258.59176007530754
  0
LINE
  8
_1-e_
  6
CONTINUOUS
 62
    7
 10
322.62839792764913
 20
263.59173957130974
 11
322.62839792764913
 21
258.59176007530754
  0
LINE
  8
_1-e_
  6
CONTINUOUS
 62
    7
 10
292.62839792764913
 20
263.59173957130974
 11
292.62839792764913
 21
258.59176007530754
  0
LINE
  8
_1-e_
  6
CONTINUOUS
 62
    7
 10
322.62839792764913
 20
263.59173957130974
 11
322.62839792764913
 21
258.59176007530754
  0
LINE
  8
_1-e_
  6
CONTINUOUS
 62
    7
 10
287.28266249764675
 20
263.42605653442421
 11
285.03267012704128
 21
258.92605462707558
  0
LINE
  8
_1-e_
  6
CONTINUOUS
 62
    7
 10
285.03267012704128
 20
258.92605462707558
 11
289.53266249764675
 21
258.92605462707558
  0
LINE
  8
_1-e_
  6
CONTINUOUS
 62
    7
 10
287.28266249764675
 20
263.42605653442421
 11
289.53266249764675
 21
258.92605462707558
  0
TEXT
  8
_1-e_
 62
    7
 10
305.22476302254909
 20
259.49781289733925
 40
3
 41
1
 50
0
  1
.   .
  0
TEXT
  8
_1-e_
 62
    7
 10
294.20032750245246
 20
259.02478158805388
 40
4
 41
1
 50
0
  1
2019
  0
TEXT
  8
_1-e_
 62
    7
 10
383.53398843536058
 20
258.97023569393979
 40
4
 41
1
 50
0
  1
米澤
  0
LINE
  8
_1-e_
  6
CONTINUOUS
 62
    7
 10
282.6283902982546
 20
263.59173957130974
 11
282.6283902982546
 21
258.59176007530754
  0
LINE
  8
_1-e_
  6
CONTINUOUS
 62
    7
 10
292.62839792764913
 20
263.59173957130974
 11
292.62839792764913
 21
258.59176007530754
  0
LINE
  8
_1-e_
  6
CONTINUOUS
 62
    7
 10
322.62839792764913
 20
263.59173957130974
 11
322.62839792764913
 21
258.59176007530754
  0
TEXT
  8
_1-e_
 62
    7
 10
307.99182034238327
 20
258.88211097246835
 40
4
 41
1
 50
0
  1
7
  0
TEXT
  8
_1-e_
 62
    7
 10
286.66672621834987
 20
259.1606518331913
 40
3
 41
1
 50
0
  1
3
  0
TEXT
  8
_1-e_
 62
    7
 10
315.03023737793415
 20
258.97722471619204
 40
4
 41
1
 50
0
  1
22
  0
TEXT
  8
_1-e_
 62
    7
 10
324.29335915603837
 20
259.12108014687646
 40
4
 41
1
 50
0
  1
仕様図フォーマット変更
  0
LINE
  8
_1-f_
  6
CONTINUOUS
 62
    3
 10
299.99363426681583
 20
165.63363400921065
 11
299.99363426681583
 21
195.38642850620118
  0
LINE
  8
_1-f_
  6
CONTINUOUS
 62
    3
 10
299.99363426681583
 20
165.63363400921065
 11
264.99363426681583
 21
165.63363400921065
  0
TEXT
  8
_1-f_
 62
    7
 10
314.09896744508887
 20
156.91247450014333
 40
3
 41
1
 50
0
  1
振動音軽減モード
  0
LINE
  8
_1-f_
  6
CONTINUOUS
 62
    3
 10
344.99363426681583
 20
165.63363400921065
 11
344.99363426681583
 21
195.38642850620118
  0
LINE
  8
_1-f_
  6
CONTINUOUS
 62
    3
 10
344.99363426681583
 20
165.63363400921065
 11
309.99363426681583
 21
165.63363400921065
  0
TEXT
  8
_1-f_
 62
    7
 10
352.42742078055448
 20
157.23967269488724
 40
3
 41
1
 50
0
  1
調光ドライバー接続モード
  0
LINE
  8
_1-f_
  6
CONTINUOUS
 62
    3
 10
389.99363426681583
 20
165.63363400921062
 11
389.99363426681583
 21
195.38642850620118
  0
LINE
  8
_1-f_
  6
CONTINUOUS
 62
    3
 10
389.99363426681583
 20
165.63363400921062
 11
354.99363426681583
 21
165.63363400921062
  0
TEXT
  8
_1-f_
 62
    7
 10
290.78839026676757
 20
231.55866433681671
 40
4
 41
1
 50
0
  1
撚線0.3～0.8sq
  0
TEXT
  8
_1-f_
 62
    7
 10
290.78839026676757
 20
225.53815084470602
 40
4
 41
1
 50
0
  1
(AWG22～AWG18、素線径φ0.18mm以上）
  0
TEXT
  8
_1-f_
 62
    7
 10
290.78839026676757
 20
237.28921291261795
 40
4
 41
1
 50
0
  1
単線 0.5～1.0φ　（AWG24～AWG18）
  0
TEXT
  8
_1-f_
 62
    7
 10
289.82536361156553
 20
218.53021105886153
 40
4
 41
1
 50
0
  1
マイナスドライバー（軸径φ3mm、刃先幅2.6mm）
  0
TEXT
  8
_1-f_
 62
    7
 10
272.92906276870166
 20
197.44174222086365
 40
3
 41
1
 50
0
  1
切替モード1
  0
TEXT
  8
_1-f_
 62
    7
 10
317.92906276870166
 20
197.44174222086365
 40
3
 41
1
 50
0
  1
切替モード2
  0
TEXT
  8
_1-f_
 62
    7
 10
362.92906276870161
 20
197.44174222086365
 40
3
 41
1
 50
0
  1
切替モード3
  0
TEXT
  8
_1-8_
 62
    7
 10
318.80409295832697
 20
57.775692424035753
 40
4
 41
1
 50
0
  1
化粧ﾌﾟﾚｰﾄ
  0
LINE
  8
_1-e_
  6
CONTINUOUS
 62
    7
 10
282.62837503946553
 20
253.59178057930535
 11
402.62838266886006
 21
253.59178057930535
  0
LINE
  8
_1-e_
  6
CONTINUOUS
 62
    7
 10
282.6283902982546
 20
263.59173957130974
 11
282.6283902982546
 21
253.59178057930535
  0
LINE
  8
_1-e_
  6
CONTINUOUS
 62
    7
 10
292.62839792764913
 20
263.59173957130974
 11
292.62839792764913
 21
253.59178057930535
  0
LINE
  8
_1-e_
  6
CONTINUOUS
 62
    7
 10
322.62839792764913
 20
263.59173957130974
 11
322.62839792764913
 21
253.59178057930535
  0
LINE
  8
_1-1_
  6
CONTINUOUS
 62
    7
 10
270.87840746439235
 20
11.591684735036579
 11
270.87840746439235
 21
21.591684735036579
  0
LINE
  8
_1-1_
  6
CONTINUOUS
 62
    7
 10
307.62840746439229
 20
11.591684735036579
 11
270.87840746439235
 21
11.591684735036579
  0
LINE
  8
_1-1_
  6
CONTINUOUS
 62
    7
 10
307.62840746439229
 20
21.591684735036579
 11
307.62840746439229
 21
11.591684735036579
  0
LINE
  8
_1-1_
  6
CONTINUOUS
 62
    7
 10
307.62840746439229
 20
21.591684735036579
 11
270.87840746439235
 21
21.591684735036579
  0
LINE
  8
_1-1_
  6
CONTINUOUS
 62
    7
 10
295.37840746439229
 20
21.591684735036579
 11
295.37840746439229
 21
11.591684735036579
  0
LINE
  8
_1-1_
  6
CONTINUOUS
 62
    7
 10
283.12840746439229
 20
11.591684735036579
 11
283.12840746439229
 21
21.591684735036579
  0
LINE
  8
_1-1_
  6
CONTINUOUS
 62
    7
 10
307.62840746439229
 20
16.591684735036579
 11
270.87840746439235
 21
16.591684735036579
  0
TEXT
  8
_1-1_
 62
    7
 10
295.95960013158156
 20
17.498651847605685
 40
2.625
 41
0.8333330000000002
 50
0
  1
ネジの等級
  0
TEXT
  8
_1-1_
 62
    7
 10
286.0439923483899
 20
12.933192148869949
 40
2.624999999999992
 41
0.868056000000002
 50
-0.4189999999999932
  1
±0.1
  0
TEXT
  8
_1-1_
 62
    7
 10
274.41633717817239
 20
12.861856841077212
 40
2.6250000000000137
 41
0.8680559999999931
 50
-0.2809999999999717
  1
±30'
  0
TEXT
  8
_1-1_
 62
    7
 10
297.81431813419294
 20
12.861856841077212
 40
2.625
 41
0.6984130000000002
 50
0
  1
JIS  2級
  0
TEXT
  8
_1-1_
 62
    7
 10
283.25663124759932
 20
17.559418961651317
 40
2.625
 41
0.6666669999999994
 50
0
  1
偏心又は片寄り
  0
LINE
  8
_1-1_
  6
CONTINUOUS
 62
    7
 10
193.48966263000724
 20
11.591684735036579
 11
193.48966263000724
 21
21.591684735036579
  0
LINE
  8
_1-1_
  6
CONTINUOUS
 62
    7
 10
252.98966263000721
 20
11.591684735036579
 11
193.48966263000724
 21
11.591684735036579
  0
LINE
  8
_1-1_
  6
CONTINUOUS
 62
    7
 10
252.98966263000721
 20
21.591684735036579
 11
252.98966263000721
 21
11.591684735036579
  0
LINE
  8
_1-1_
  6
CONTINUOUS
 62
    7
 10
252.98966263000721
 20
21.591684735036579
 11
193.48966263000724
 21
21.591684735036579
  0
LINE
  8
_1-1_
  6
CONTINUOUS
 62
    7
 10
252.98966263000721
 20
16.591684735036579
 11
193.48966263000724
 21
16.591684735036579
  0
LINE
  8
_1-1_
  6
CONTINUOUS
 62
    7
 10
242.48966263000724
 20
21.591684735036579
 11
242.48966263000721
 21
11.591684735036579
  0
LINE
  8
_1-1_
  6
CONTINUOUS
 62
    7
 10
231.98966263000724
 20
11.591684735036579
 11
231.98966263000724
 21
21.591684735036579
  0
LINE
  8
_1-1_
  6
CONTINUOUS
 62
    7
 10
221.48966263000724
 20
21.591684735036579
 11
221.48966263000724
 21
11.591684735036579
  0
LINE
  8
_1-1_
  6
CONTINUOUS
 62
    7
 10
210.98966263000727
 20
11.591684735036579
 11
210.98966263000727
 21
21.591684735036579
  0
LINE
  8
_1-1_
  6
CONTINUOUS
 62
    7
 10
200.48966263000724
 20
21.591684735036579
 11
200.48966263000724
 21
11.591684735036579
  0
TEXT
  8
_1-1_
 62
    7
 10
243.47956654046896
 20
16.758548029255933
 40
2.1875
 41
0.8533329999999996
 50
0
  1
1000以下
  0
TEXT
  8
_1-1_
 62
    7
 10
194.79321897192022
 20
17.65023937666524
 40
2.625
 41
0.8333329999999976
 50
0
  1
寸法
  0
TEXT
  8
_1-1_
 62
    7
 10
212.32981547097014
 20
19.136391622347446
 40
2.1874999999999693
 41
0.8750000000000113
 50
-0.2600000000000339
  1
6をこえ
  0
TEXT
  8
_1-1_
 62
    7
 10
213.47118039565407
 20
16.853661772979592
 40
2.1875
 41
1
 50
0
  1
30以下
  0
TEXT
  8
_1-1_
 62
    7
 10
223.20844990936382
 20
16.713963461885498
 40
2.1875
 41
1.0000000000000006
 50
0
  1
120以下
  0
TEXT
  8
_1-1_
 62
    7
 10
222.1146418565417
 20
19.139363926838825
 40
2.1875000000000159
 41
0.9999999999999923
 50
-0.5040000000000631
  1
30をこえ
  0
TEXT
  8
_1-1_
 62
    7
 10
232.43448305055889
 20
19.139363926838825
 40
2.1875000000000461
 41
0.9999999999999792
 50
-0.4469999999999438
  1
120をこえ
  0
TEXT
  8
_1-1_
 62
    7
 10
233.20728221831365
 20
16.82988333704867
 40
2.1875
 41
1.0499999999999998
 50
0
  1
400以下
  0
TEXT
  8
_1-1_
 62
    7
 10
243.12289000150525
 20
19.183948494209289
 40
2.1874999999999618
 41
0.8400000000000138
 50
0.5670000000000476
  1
400をこえ
  0
TEXT
  8
_1-1_
 62
    7
 10
244.69296133778345
 20
12.700122235036559
 40
2.625
 41
0.8680560000000001
 50
0
  1
±0.8
  0
TEXT
  8
_1-1_
 62
    7
 10
234.08271133778345
 20
12.827872235036608
 40
2.625
 41
0.8680559999999999
 50
0
  1
±0.5
  0
TEXT
  8
_1-1_
 62
    7
 10
213.11683633778346
 20
12.700122235036559
 40
2.625
 41
0.8680560000000001
 50
0
  1
±0.2
  0
TEXT
  8
_1-1_
 62
    7
 10
202.99421988366282
 20
17.705061881728255
 40
2.625
 41
0.8333330000000003
 50
0
  1
6以下
  0
TEXT
  8
_1-1_
 62
    7
 10
193.65870686036916
 20
12.912963965525989
 40
2.624999999999964
 41
0.8333330000000124
 50
-0.2329999999999632
  1
寸法差
  0
TEXT
  8
_1-1_
 62
    7
 10
223.64331456925316
 20
12.770293349940487
 40
2.625
 41
0.8680559999999998
 50
0
  1
±0.3
  0
TEXT
  8
_1-1_
 62
    7
 10
202.74206938597876
 20
12.627622734354986
 40
2.6250000000000377
 41
0.8680559999999886
 50
-0.2079999999999047
  1
±0.1
  0
TEXT
  8
_1-1_
 62
    7
 10
274.60729016650805
 20
17.563320111296206
 40
2.6250000000000381
 41
0.833332999999988
 50
-0.3239999999998809
  1
角度
  0
TEXT
  8
_1-e_
 62
    7
 10
324.29335915603837
 20
254.12110065087426
 40
4
 41
1
 50
0
  1
公差 追記
  0
TEXT
  8
_1-e_
 62
    7
 10
315.03023737793415
 20
253.97724522018984
 40
4
 41
1
 50
0
  1
7
  0
TEXT
  8
_1-e_
 62
    7
 10
294.20032750245246
 20
254.02480209205162
 40
4
 41
1
 50
0
  1
2021
  0
TEXT
  8
_1-e_
 62
    7
 10
383.53398843536058
 20
253.97025619793754
 40
4
 41
1
 50
0
  1
藤島
  0
TEXT
  8
_1-e_
 62
    7
 10
189.24253122372789
 20
23.284169697811364
 40
3
 41
1
 50
0
  1
4
  0
LINE
  8
_1-e_
  6
CONTINUOUS
 62
    7
 10
189.85846750302476
 20
27.549574399044274
 11
192.10846750302476
 21
23.049572491695641
  0
LINE
  8
_1-e_
  6
CONTINUOUS
 62
    7
 10
187.6084751324193
 20
23.049572491695641
 11
192.10846750302476
 21
23.049572491695641
  0
LINE
  8
_1-e_
  6
CONTINUOUS
 62
    7
 10
189.85846750302476
 20
27.549574399044274
 11
187.6084751324193
 21
23.049572491695641
  0
TEXT
  8
_1-e_
 62
    7
 10
343.65236109700697
 20
44.133710626303198
 40
4
 41
1
 50
0
  1
吉崎
  0
TEXT
  8
_1-e_
 62
    7
 10
395.16503318938919
 20
268.97019468594419
 40
4
 41
1
 50
0
  1
長
  0
TEXT
  8
_1-e_
 62
    7
 10
395.16503318938919
 20
264.1478391972214
 40
4
 41
1
 50
0
  1
長
  0
TEXT
  8
_1-e_
 62
    7
 10
395.16503318938919
 20
258.97940989835728
 40
4
 41
1
 50
0
  1
長
  0
TEXT
  8
_1-e_
 62
    7
 10
393.55691056910575
 20
253.97025619793754
 40
4
 41
1
 50
0
  1
原田
  0
TEXT
  8
_1-f_
 62
    7
 10
358.69844909397795
 20
24.295754912263916
 40
4
 41
1
 50
-0.0000023087964322
  1
Ｆ４１９２１２０-４
  0
ENDSEC
  0
EOF
