  0
SECTION
  2
HEADER
  9
$ACADVER
  1
AC1009
  9
$INSBASE
 10
0
 20
0
 30
0
  9
$EXTMIN
 10
0
 20
0
  9
$EXTMAX
 10
420
 20
297
  9
$LIMMIN
 10
0
 20
0
  9
$LIMMAX
 10
420
 20
297
  9
$LTSCALE
 40
1
  0
ENDSEC
  0
SECTION
  2
TABLES
  0
TABLE
  2
LTYPE
 70
     9
  0
LTYPE
  2
CONTINUOUS
 70
    64
  3
実線
 72
    65
 73
     0
 40
0.0
  0
LTYPE
  2
DASHED1
 70
    64
  3
--  --  --  --  --  --  --  --  
 72
    65
 73
     2
 40
2.5
 49
1.25
 49
-1.25
  0
LTYPE
  2
DASHED2
 70
    64
  3
----    ----    ----    ----    
 72
    65
 73
     2
 40
5.0
 49
2.5
 49
-2.5
  0
LTYPE
  2
DASHED3
 70
    64
  3
------  ------  ------  ------  
 72
    65
 73
     2
 40
5.0
 49
3.75
 49
-1.25
  0
LTYPE
  2
CENTER1
 70
    64
  3
----- - ----- - ----- - ----- - 
 72
    65
 73
     4
 40
10.0
 49
6.25
 49
-1.25
 49
1.25
 49
-1.25
  0
LTYPE
  2
CENTER2
 70
    64
  3
----------  --  ----------  --  
 72
    65
 73
     4
 40
20.0
 49
12.5
 49
-2.5
 49
2.5
 49
-2.5
  0
LTYPE
  2
PHANTOM1
 70
    64
  3
--- - - --- - - --- - - --- - - 
 72
    65
 73
     6
 40
10.0
 49
3.25
 49
-1.25
 49
1.25
 49
-1.25
 49
1.25
 49
-1.25
  0
LTYPE
  2
PHANTOM2
 70
    64
  3
--------  -  -  --------  -  -  
 72
    65
 73
     6
 40
20.0
 49
10.0
 49
-2.5
 49
1.25
 49
-2.5
 49
1.25
 49
-2.5
  0
LTYPE
  2
DOT
 70
    64
  3
-   -   -   -   -   -   -   -   
 72
    65
 73
     2
 40
2.5
 49
0.625
 49
-1.875
  0
LTYPE
  2
DUMMY
 70
    64
  3
ダミー
 72
    65
 73
     0
 40
0.0
  0
LTYPE
  2
RAND1
 70
    64
  3
ランダム線1
 72
    65
 73
     4
 40
10.0
 49
1.0
 49
-2.0
 49
3.0
 49
-4.0
  0
LTYPE
  2
RAND2
 70
    64
  3
ランダム線2
 72
    65
 73
     4
 40
14.0
 49
2.0
 49
-3.0
 49
4.0
 49
-5.0
  0
LTYPE
  2
RAND3
 70
    64
  3
ランダム線3
 72
    65
 73
     4
 40
18.0
 49
3.0
 49
-4.0
 49
5.0
 49
-6.0
  0
LTYPE
  2
RAND4
 70
    64
  3
ランダム線4
 72
    65
 73
     4
 40
22.0
 49
4.0
 49
-5.0
 49
6.0
 49
-7.0
  0
LTYPE
  2
RAND5
 70
    64
  3
ランダム線5
 72
    65
 73
     4
 40
26.0
 49
5.0
 49
-6.0
 49
7.0
 49
-8.0
  0
LTYPE
  2
LONG1
 70
    64
  3
----------  --  ----------  --  
 72
    65
 73
     4
 40
40.0
 49
32.5
 49
-2.5
 49
2.5
 49
-2.5
  0
LTYPE
  2
LONG2
 70
    64
  3
--------  -  -  --------  -  -  
 72
    65
 73
     6
 40
40.0
 49
30.0
 49
-2.5
 49
1.25
 49
-2.5
 49
1.25
 49
-2.5
  0
LTYPE
  2
LONG3
 70
    64
  3
+++++++++++++++..+++++++++++++++
 72
    65
 73
     2
 40
40.0
 49
37.5
 49
-2.5
  0
LTYPE
  2
LONG4
 70
    64
  3
+++++++++++++++..+++++++++++++++
 72
    65
 73
     2
 40
80.0
 49
75.0
 49
-5.0
  0
LTYPE
  2
LONG5
 70
    64
  3
----------  --  ----------  --  
 72
    65
 73
     4
 40
60.0
 49
37.5
 49
-7.5
 49
7.5
 49
-7.5
  0
LTYPE
  2
dashed
 70
   64
  3
-------   -------------   ------
 72
   65
 73
    2
 40
7.5
 49
6
 49
-1.5
  0
LTYPE
  2
dashed_spaced
 70
   64
  3
----        --------        ----
 72
   65
 73
    2
 40
12
 49
6
 49
-6
  0
LTYPE
  2
long_dashed_dotted
 70
   64
  3
------------- --- --------------
 72
   65
 73
    4
 40
15.25
 49
12
 49
-1.5
 49
0.25
 49
-1.5
  0
LTYPE
  2
long_dashed_double-dotted
 70
   64
  3
----------- --- --- ------------
 72
   65
 73
    6
 40
17
 49
12
 49
-1.5
 49
0.25
 49
-1.5
 49
0.25
 49
-1.5
  0
LTYPE
  2
long_dashed_triplicate-dotted
 70
   64
  3
--------- --- --- --- ----------
 72
   65
 73
    8
 40
18.75
 49
12
 49
-1.5
 49
0.25
 49
-1.5
 49
0.25
 49
-1.5
 49
0.25
 49
-1.5
  0
LTYPE
  2
dotted
 70
   64
  3
   -       -       -       -    
 72
   65
 73
    2
 40
1.75
 49
0.25
 49
-1.5
  0
LTYPE
  2
chain
 70
   64
  3
-------------- -- --------------
 72
   65
 73
    4
 40
18.5
 49
12
 49
-1.5
 49
3.5
 49
-1.5
  0
LTYPE
  2
chain_double_dash
 70
   64
  3
------------ -- -- -------------
 72
   65
 73
    6
 40
23.5
 49
12
 49
-1.5
 49
3.5
 49
-1.5
 49
3.5
 49
-1.5
  0
LTYPE
  2
dashed_dotted
 70
   64
  3
-----------     -     ----------
 72
   65
 73
    4
 40
9.25
 49
6
 49
-1.5
 49
0.25
 49
-1.5
  0
LTYPE
  2
double-dashed_dotted
 70
   64
  3
------   -----------   -   -----
 72
   65
 73
    6
 40
16.75
 49
6
 49
-1.5
 49
6
 49
-1.5
 49
0.25
 49
-1.5
  0
LTYPE
  2
dashed_double-dotted
 70
   64
  3
---------    -    -    ---------
 72
   65
 73
    6
 40
11
 49
6
 49
-1.5
 49
0.25
 49
-1.5
 49
0.25
 49
-1.5
  0
LTYPE
  2
double-dashed_double-dotted
 70
   64
  3
-----   ---------   -   -   ----
 72
   65
 73
    8
 40
18.5
 49
6
 49
-1.5
 49
6
 49
-1.5
 49
0.25
 49
-1.5
 49
0.25
 49
-1.5
  0
LTYPE
  2
dashed_triplicate-dotted
 70
   64
  3
-------    -    -    -    ------
 72
   65
 73
    8
 40
12.75
 49
6
 49
-1.5
 49
0.25
 49
-1.5
 49
0.25
 49
-1.5
 49
0.25
 49
-1.5
  0
LTYPE
  2
double-dashed_triplicate-dotted
 70
   64
  3
-----  ---------  -  -  -  -----
 72
   65
 73
   10
 40
20.25
 49
6
 49
-1.5
 49
6
 49
-1.5
 49
0.25
 49
-1.5
 49
0.25
 49
-1.5
 49
0.25
 49
-1.5
  0
LTYPE
  2
undefined
 70
   64
  3
--------------------------------
 72
   65
 73
    0
 40
0
  0
LTYPE
  2
_
 70
   64
  3
                                
 72
   65
 73
    0
 40
0
  0
LTYPE
  2
__18
 70
   64
  3
                                
 72
   65
 73
    0
 40
0
  0
LTYPE
  2
__19
 70
   64
  3
                                
 72
   65
 73
    0
 40
0
  0
LTYPE
  2
__20
 70
   64
  3
                                
 72
   65
 73
    0
 40
0
  0
LTYPE
  2
__21
 70
   64
  3
                                
 72
   65
 73
    0
 40
0
  0
LTYPE
  2
__22
 70
   64
  3
                                
 72
   65
 73
    0
 40
0
  0
LTYPE
  2
__23
 70
   64
  3
                                
 72
   65
 73
    0
 40
0
  0
LTYPE
  2
__24
 70
   64
  3
                                
 72
   65
 73
    0
 40
0
  0
LTYPE
  2
__25
 70
   64
  3
                                
 72
   65
 73
    0
 40
0
  0
LTYPE
  2
__26
 70
   64
  3
                                
 72
   65
 73
    0
 40
0
  0
LTYPE
  2
__27
 70
   64
  3
                                
 72
   65
 73
    0
 40
0
  0
LTYPE
  2
__28
 70
   64
  3
                                
 72
   65
 73
    0
 40
0
  0
LTYPE
  2
__29
 70
   64
  3
                                
 72
   65
 73
    0
 40
0
  0
LTYPE
  2
__30
 70
   64
  3
                                
 72
   65
 73
    0
 40
0
  0
LTYPE
  2
__31
 70
   64
  3
                                
 72
   65
 73
    0
 40
0
  0
LTYPE
  2
__32
 70
   64
  3
                                
 72
   65
 73
    0
 40
0
  0
ENDTAB
  0
TABLE
  2
STYLE
  5
3
100
AcDbSymbolTable
 70
     1
  0
STYLE
  5
10
100
AcDbSymbolTableRecord
100
AcDbTextStyleTableRecord
  2
STANDARD
 70
     0
 40
0.0
 41
1.0
 50
0.0
 71
     0
 42
0.2
  3
txt
  4
bigfont.shx
  0
STYLE
  5
26
100
AcDbSymbolTableRecord
100
AcDbTextStyleTableRecord
  2
TATEGAKI
 70
    68
 40
0.0
 41
1.0
 50
0.0
 71
     0
 42
1.0
  3
txt
  4
bigfont.shx
  0
ENDTAB
  0
TABLE
  2
LAYER
 70
    2
  0
LAYER
  2
_0-0_
 70
   64
 62
    7
  6
CONTINUOUS
  0
LAYER
  2
ADD_LINE
 70
   64
 62
    7
  6
CONTINUOUS
  0
ENDTAB
  0
ENDSEC
  0
SECTION
  2
BLOCKS
  0
ENDSEC
  0
SECTION
  2
ENTITIES
  0
LINE
  8
_0-0_
  6
CONTINUOUS
 62
    7
 10
140.79299691040165
 20
267.3941150683537
 11
278.77445932028837
 21
230.42209364515924
  0
LINE
  8
_0-0_
  6
CONTINUOUS
 62
    7
 10
145.79299691040165
 20
260.87798820414764
 11
273.77445932028837
 21
226.58545870526444
  0
LINE
  8
_0-0_
  6
CONTINUOUS
 62
    7
 10
145.79299691040165
 20
260.87798820414764
 11
145.79299691040165
 21
67.070090893933369
  0
LINE
  8
_0-0_
  6
CONTINUOUS
 62
    7
 10
145.79299691040165
 20
67.070090893933369
 11
273.77445932028837
 21
32.777561395050157
  0
LINE
  8
_0-0_
  6
CONTINUOUS
 62
    7
 10
273.77445932028837
 20
226.58545870526444
 11
273.77445932028837
 21
32.777561395050157
  0
LINE
  8
_0-0_
  6
CONTINUOUS
 62
    7
 10
140.84790609736979
 20
267.41956414025367
 11
147.74816924066926
 21
272.77741552210978
  0
LINE
  8
_0-0_
  6
CONTINUOUS
 62
    7
 10
148.22031494882236
 20
272.64195340382912
 11
149.22013059461085
 21
273.41828084644141
  0
LINE
  8
_0-0_
  6
CONTINUOUS
 62
    7
 10
149.22013059461085
 20
273.41828084644141
 11
286.54445932028835
 21
236.62233786325007
  0
LINE
  8
_0-0_
  6
CONTINUOUS
 62
    7
 10
285.55362127195758
 20
235.85278827236476
 11
286.54345469746158
 21
236.6213648145208
  0
LINE
  8
_0-0_
  6
CONTINUOUS
 62
    7
 10
278.75910790226686
 20
230.39581568084429
 11
285.73082292212496
 21
235.80914734332237
  0
LINE
  8
_0-0_
  6
CONTINUOUS
 62
    7
 10
147.74816924066926
 20
272.77741552210978
 11
285.73445932028835
 21
235.80410052870923
  0
LINE
  8
_0-0_
  6
CONTINUOUS
 62
    7
 10
285.73445932028835
 20
235.80410052870923
 11
285.73445932028835
 21
31.58175372032089
  0
LINE
  8
_0-0_
  6
CONTINUOUS
 62
    7
 10
285.74155418400801
 20
31.75727363268102
 11
286.54445932028835
 21
32.380705856145738
  0
LINE
  8
_0-0_
  6
CONTINUOUS
 62
    7
 10
286.54445932028835
 20
236.62233786325007
 11
286.54445932028835
 21
32.380705856145738
  0
LINE
  8
_0-0_
  6
CONTINUOUS
 62
    7
 10
264.97281250747153
 20
-0.3954244774444077
 11
263.14670420672076
 21
0.5016675827984329
  0
LINE
  8
_0-0_
  6
CONTINUOUS
 62
    7
 10
263.14670420672076
 20
0.5016675827984329
 11
264.97281250747153
 21
-0.3954244774444077
  0
LINE
  8
_0-0_
  6
CONTINUOUS
 62
  250
 10
264.97281250747153
 20
-0.3954244774444077
 11
263.14670420672076
 21
0.5016675827984329
  0
LINE
  8
_0-0_
  6
CONTINUOUS
 62
  250
 10
263.45326310227091
 20
2.175016023726954
 11
263.00381125500809
 21
2.3942854777327796
  0
LINE
  8
_0-0_
  6
CONTINUOUS
 62
  250
 10
263.00381125500809
 20
2.3942854777327796
 11
263.45326310227091
 21
2.175016023726954
  0
LINE
  8
_0-0_
  6
CONTINUOUS
 62
  250
 10
263.45326310227091
 20
2.175016023726954
 11
263.00381125500809
 21
2.3942854777327796
  0
LINE
  8
_0-0_
  6
CONTINUOUS
 62
  250
 10
264.80625371331104
 20
1.4732446612525791
 11
264.37563339796191
 21
1.6839482708820412
  0
LINE
  8
_0-0_
  6
CONTINUOUS
 62
  250
 10
264.37563339796191
 20
1.6839482708820412
 11
264.80625371331104
 21
1.4732446612525791
  0
LINE
  8
_0-0_
  6
CONTINUOUS
 62
  250
 10
264.80625371331104
 20
1.4732446612525791
 11
264.37563339796191
 21
1.6839482708820412
  0
LINE
  8
_0-0_
  6
CONTINUOUS
 62
  250
 10
265.67343730698235
 20
0.4287131721277717
 11
265.43153261595165
 21
0.5493943598982014
  0
LINE
  8
_0-0_
  6
CONTINUOUS
 62
  250
 10
265.43153261595165
 20
0.5493943598982014
 11
265.67343730698235
 21
0.4287131721277717
  0
LINE
  8
_0-0_
  6
CONTINUOUS
 62
  250
 10
265.67343730698235
 20
0.4287131721277717
 11
265.43153261595165
 21
0.5493943598982014
  0
LINE
  8
_0-0_
  6
CONTINUOUS
 62
  250
 10
263.44737716419382
 20
1.9533337808939848
 11
263.21439291325476
 21
2.0686190651770744
  0
LINE
  8
_0-0_
  6
CONTINUOUS
 62
  250
 10
263.21439291325476
 20
2.0686190651770744
 11
263.44737716419382
 21
1.9533337808939848
  0
LINE
  8
_0-0_
  6
CONTINUOUS
 62
  250
 10
263.44737716419382
 20
1.9533337808939848
 11
263.21439291325476
 21
2.0686190651770744
  0
LINE
  8
_0-0_
  6
CONTINUOUS
 62
  250
 10
264.62056739541407
 20
1.3793611004681452
 11
264.39269963003409
 21
1.4922135814864248
  0
LINE
  8
_0-0_
  6
CONTINUOUS
 62
  250
 10
264.39269963003409
 20
1.4922135814864248
 11
264.62056739541407
 21
1.3793611004681452
  0
LINE
  8
_0-0_
  6
CONTINUOUS
 62
  250
 10
264.62056739541407
 20
1.3793611004681452
 11
264.39269963003409
 21
1.4922135814864248
  0
LINE
  8
_0-0_
  6
CONTINUOUS
 62
  250
 10
263.20434974078978
 20
2.0187256701172771
 11
263.01252614231146
 21
2.112892386044706
  0
LINE
  8
_0-0_
  6
CONTINUOUS
 62
  250
 10
263.01252614231146
 20
2.112892386044706
 11
263.20434974078978
 21
2.0187256701172771
  0
LINE
  8
_0-0_
  6
CONTINUOUS
 62
  250
 10
263.20434974078978
 20
2.0187256701172771
 11
263.01252614231146
 21
2.112892386044706
  0
LINE
  8
_0-0_
  6
CONTINUOUS
 62
  250
 10
263.89142454458539
 20
1.127903957777761
 11
263.6981312632347
 21
1.2205768837579569
  0
LINE
  8
_0-0_
  6
CONTINUOUS
 62
  250
 10
263.6981312632347
 20
1.2205768837579569
 11
263.89142454458539
 21
1.127903957777761
  0
LINE
  8
_0-0_
  6
CONTINUOUS
 62
  250
 10
263.89142454458539
 20
1.127903957777761
 11
263.6981312632347
 21
1.2205768837579569
  0
LINE
  8
_0-0_
  6
CONTINUOUS
 62
  250
 10
264.83086196194392
 20
1.2027857591094744
 11
264.63321790278877
 21
1.3017879953249576
  0
LINE
  8
_0-0_
  6
CONTINUOUS
 62
  250
 10
264.63321790278877
 20
1.3017879953249576
 11
264.83086196194392
 21
1.2027857591094744
  0
LINE
  8
_0-0_
  6
CONTINUOUS
 62
  250
 10
264.83086196194392
 20
1.2027857591094744
 11
264.63321790278877
 21
1.3017879953249576
  0
LINE
  8
_0-0_
  6
CONTINUOUS
 62
  250
 10
263.32109302355855
 20
0.7060451673175123
 11
263.1506628116374
 21
0.7890682401030915
  0
LINE
  8
_0-0_
  6
CONTINUOUS
 62
  250
 10
263.1506628116374
 20
0.7890682401030915
 11
263.32109302355855
 21
0.7060451673175123
  0
LINE
  8
_0-0_
  6
CONTINUOUS
 62
  250
 10
263.32109302355855
 20
0.7060451673175123
 11
263.1506628116374
 21
0.7890682401030915
  0
LINE
  8
_0-0_
  6
CONTINUOUS
 62
  250
 10
264.74269328788017
 20
-0.0578774768267749
 11
263.32891847741575
 21
0.6363968944930036
  0
LINE
  8
_0-0_
  6
CONTINUOUS
 62
  250
 10
263.32891847741575
 20
0.6363968944930036
 11
264.74269328788017
 21
-0.0578774768267749
  0
LINE
  8
_0-0_
  6
CONTINUOUS
 62
  250
 10
264.74269328788017
 20
-0.0578774768267749
 11
263.32891847741575
 21
0.6363968944930036
  0
LINE
  8
_0-0_
  6
CONTINUOUS
 62
  250
 10
264.93040116298556
 20
-0.0575356753329572
 11
264.73400472501129
 21
0.0383706344674124
  0
LINE
  8
_0-0_
  6
CONTINUOUS
 62
  250
 10
264.73400472501129
 20
0.0383706344674124
 11
264.93040116298556
 21
-0.0575356753329572
  0
LINE
  8
_0-0_
  6
CONTINUOUS
 62
  250
 10
264.93040116298556
 20
-0.0575356753329572
 11
264.73400472501129
 21
0.0383706344674124
  0
LINE
  8
_0-0_
  6
CONTINUOUS
 62
  250
 10
266.74518638865987
 20
2.8237782973527885
 11
266.04198514909558
 21
3.1688047925234457
  0
LINE
  8
_0-0_
  6
CONTINUOUS
 62
  250
 10
266.04198514909558
 20
3.1688047925234457
 11
266.74518638865987
 21
2.8237782973527885
  0
LINE
  8
_0-0_
  6
CONTINUOUS
 62
  250
 10
266.74518638865987
 20
2.8237782973527885
 11
266.04198514909558
 21
3.1688047925234457
  0
LINE
  8
_0-0_
  6
CONTINUOUS
 62
  250
 10
266.17658042933101
 20
2.9337706832833135
 11
265.91439711039567
 21
3.0803944697503312
  0
LINE
  8
_0-0_
  6
CONTINUOUS
 62
  250
 10
265.91439711039567
 20
3.0803944697503312
 11
266.17658042933101
 21
2.9337706832833135
  0
LINE
  8
_0-0_
  6
CONTINUOUS
 62
  250
 10
266.17658042933101
 20
2.9337706832833135
 11
265.91439711039567
 21
3.0803944697503312
  0
LINE
  8
_0-0_
  6
CONTINUOUS
 62
  250
 10
266.04346448489173
 20
2.8539269358937247
 11
265.79021236401638
 21
2.9915720244189856
  0
LINE
  8
_0-0_
  6
CONTINUOUS
 62
  250
 10
265.79021236401638
 20
2.9915720244189856
 11
266.04346448489173
 21
2.8539269358937247
  0
LINE
  8
_0-0_
  6
CONTINUOUS
 62
  250
 10
266.04346448489173
 20
2.8539269358937247
 11
265.79021236401638
 21
2.9915720244189856
  0
LINE
  8
_0-0_
  6
CONTINUOUS
 62
  250
 10
264.93820713419427
 20
-0.0768561320497553
 11
264.96429102715632
 21
-0.3925673823135582
  0
LINE
  8
_0-0_
  6
CONTINUOUS
 62
  250
 10
264.96429102715632
 20
-0.3925673823135582
 11
264.93820713419427
 21
-0.0768561320497553
  0
LINE
  8
_0-0_
  6
CONTINUOUS
 62
  250
 10
264.93820713419427
 20
-0.0768561320497553
 11
264.96429102715632
 21
-0.3925673823135582
  0
LINE
  8
_0-0_
  6
CONTINUOUS
 62
  250
 10
264.80832748643422
 20
1.4776825180726689
 11
264.83086196194392
 21
1.2027857591094744
  0
LINE
  8
_0-0_
  6
CONTINUOUS
 62
  250
 10
264.83086196194392
 20
1.2027857591094744
 11
264.80832748643422
 21
1.4776825180726689
  0
LINE
  8
_0-0_
  6
CONTINUOUS
 62
  250
 10
264.80832748643422
 20
1.4776825180726689
 11
264.83086196194392
 21
1.2027857591094744
  0
LINE
  8
_0-0_
  6
CONTINUOUS
 62
  250
 10
263.45316555648469
 20
2.1570151936189177
 11
263.47231265618888
 21
1.9472340964719308
  0
LINE
  8
_0-0_
  6
CONTINUOUS
 62
  250
 10
263.47231265618888
 20
1.9472340964719308
 11
263.45316555648469
 21
2.1570151936189177
  0
LINE
  8
_0-0_
  6
CONTINUOUS
 62
  250
 10
263.45316555648469
 20
2.1570151936189177
 11
263.47231265618888
 21
1.9472340964719308
  0
LINE
  8
_0-0_
  6
CONTINUOUS
 62
  250
 10
264.37229366492971
 20
1.6870989287647831
 11
264.38957813468238
 21
1.4999395535944871
  0
LINE
  8
_0-0_
  6
CONTINUOUS
 62
  250
 10
264.38957813468238
 20
1.4999395535944871
 11
264.37229366492971
 21
1.6870989287647831
  0
LINE
  8
_0-0_
  6
CONTINUOUS
 62
  250
 10
264.37229366492971
 20
1.6870989287647831
 11
264.38957813468238
 21
1.4999395535944871
  0
LINE
  8
_0-0_
  6
CONTINUOUS
 62
  250
 10
264.73400472501129
 20
0.0383706344674124
 11
264.73808801908126
 21
-0.0237895738220856
  0
LINE
  8
_0-0_
  6
CONTINUOUS
 62
  250
 10
264.73808801908126
 20
-0.0237895738220856
 11
264.73400472501129
 21
0.0383706344674124
  0
LINE
  8
_0-0_
  6
CONTINUOUS
 62
  250
 10
264.73400472501129
 20
0.0383706344674124
 11
264.73808801908126
 21
-0.0237895738220856
  0
LINE
  8
_0-0_
  6
CONTINUOUS
 62
  250
 10
264.62056739541407
 20
1.3793611004681452
 11
264.62539657358019
 21
1.3022279712959346
  0
LINE
  8
_0-0_
  6
CONTINUOUS
 62
  250
 10
264.62539657358019
 20
1.3022279712959346
 11
264.62056739541407
 21
1.3793611004681452
  0
LINE
  8
_0-0_
  6
CONTINUOUS
 62
  250
 10
264.62056739541407
 20
1.3793611004681452
 11
264.62539657358019
 21
1.3022279712959346
  0
LINE
  8
_0-0_
  6
CONTINUOUS
 62
  250
 10
265.55726103904431
 20
1.6886127918841964
 11
265.66254468107036
 21
0.4243122655911406
  0
LINE
  8
_0-0_
  6
CONTINUOUS
 62
  250
 10
265.66254468107036
 20
0.4243122655911406
 11
265.55726103904431
 21
1.6886127918841964
  0
LINE
  8
_0-0_
  6
CONTINUOUS
 62
  250
 10
265.55726103904431
 20
1.6886127918841964
 11
265.66254468107036
 21
0.4243122655911406
  0
LINE
  8
_0-0_
  6
CONTINUOUS
 62
  250
 10
265.35717271402427
 20
1.5565233168252917
 11
265.44430216902765
 21
0.5500407394819433
  0
LINE
  8
_0-0_
  6
CONTINUOUS
 62
  250
 10
265.44430216902765
 20
0.5500407394819433
 11
265.35717271402427
 21
1.5565233168252917
  0
LINE
  8
_0-0_
  6
CONTINUOUS
 62
  250
 10
265.35717271402427
 20
1.5565233168252917
 11
265.44430216902765
 21
0.5500407394819433
  0
LINE
  8
_0-0_
  6
CONTINUOUS
 62
  250
 10
263.79608216385202
 20
2.1598297110633666
 11
263.8842633825999
 21
1.1178235214800054
  0
LINE
  8
_0-0_
  6
CONTINUOUS
 62
  250
 10
263.8842633825999
 20
1.1178235214800054
 11
263.79608216385202
 21
2.1598297110633666
  0
LINE
  8
_0-0_
  6
CONTINUOUS
 62
  250
 10
263.79608216385202
 20
2.1598297110633666
 11
263.8842633825999
 21
1.1178235214800054
  0
LINE
  8
_0-0_
  6
CONTINUOUS
 62
  250
 10
263.61831897997104
 20
2.0367730356559548
 11
263.69056455939341
 21
1.2157325950529696
  0
LINE
  8
_0-0_
  6
CONTINUOUS
 62
  250
 10
263.69056455939341
 20
1.2157325950529696
 11
263.61831897997104
 21
2.0367730356559548
  0
LINE
  8
_0-0_
  6
CONTINUOUS
 62
  250
 10
263.61831897997104
 20
2.0367730356559548
 11
263.69056455939341
 21
1.2157325950529696
  0
LINE
  8
_0-0_
  6
CONTINUOUS
 62
  250
 10
263.12322357010572
 20
0.8247306135598648
 11
263.14900244772645
 21
0.5088832719630715
  0
LINE
  8
_0-0_
  6
CONTINUOUS
 62
  250
 10
263.14900244772645
 20
0.5088832719630715
 11
263.12322357010572
 21
0.8247306135598648
  0
LINE
  8
_0-0_
  6
CONTINUOUS
 62
  250
 10
263.12322357010572
 20
0.8247306135598648
 11
263.14900244772645
 21
0.5088832719630715
  0
LINE
  8
_0-0_
  6
CONTINUOUS
 62
  250
 10
262.99250354545632
 20
2.3771168731975081
 11
263.01399341383842
 21
2.1134852022220514
  0
LINE
  8
_0-0_
  6
CONTINUOUS
 62
  250
 10
263.01399341383842
 20
2.1134852022220514
 11
262.99250354545632
 21
2.3771168731975081
  0
LINE
  8
_0-0_
  6
CONTINUOUS
 62
  250
 10
262.99250354545632
 20
2.3771168731975081
 11
263.01399341383842
 21
2.1134852022220514
  0
LINE
  8
_0-0_
  6
CONTINUOUS
 62
  250
 10
263.31660831228118
 20
0.7042332263461332
 11
263.32476611363325
 21
0.6284320911006204
  0
LINE
  8
_0-0_
  6
CONTINUOUS
 62
  250
 10
263.32476611363325
 20
0.6284320911006204
 11
263.31660831228118
 21
0.7042332263461332
  0
LINE
  8
_0-0_
  6
CONTINUOUS
 62
  250
 10
263.31660831228118
 20
0.7042332263461332
 11
263.32476611363325
 21
0.6284320911006204
  0
LINE
  8
_0-0_
  6
CONTINUOUS
 62
  250
 10
263.2037045796888
 20
2.0490264204869391
 11
263.20456939113575
 21
2.0224144127097077
  0
LINE
  8
_0-0_
  6
CONTINUOUS
 62
  250
 10
263.20456939113575
 20
2.0224144127097077
 11
263.2037045796888
 21
2.0490264204869391
  0
LINE
  8
_0-0_
  6
CONTINUOUS
 62
  250
 10
263.2037045796888
 20
2.0490264204869391
 11
263.20456939113575
 21
2.0224144127097077
  0
LINE
  8
_0-0_
  6
CONTINUOUS
 62
  250
 10
266.74923456246836
 20
2.8182138695541425
 11
266.90916749408331
 21
0.9432548533920339
  0
LINE
  8
_0-0_
  6
CONTINUOUS
 62
  250
 10
266.90916749408331
 20
0.9432548533920339
 11
266.74923456246836
 21
2.8182138695541425
  0
LINE
  8
_0-0_
  6
CONTINUOUS
 62
  250
 10
266.74923456246836
 20
2.8182138695541425
 11
266.90916749408331
 21
0.9432548533920339
  0
LINE
  8
_0-0_
  6
CONTINUOUS
 62
  250
 10
264.81559100158569
 20
1.4788300267756256
 11
266.7273333640216
 21
2.7976780743412348
  0
LINE
  8
_0-0_
  6
CONTINUOUS
 62
  250
 10
266.7273333640216
 20
2.7976780743412348
 11
264.81559100158569
 21
1.4788300267756256
  0
LINE
  8
_0-0_
  6
CONTINUOUS
 62
  250
 10
264.81559100158569
 20
1.4788300267756256
 11
266.7273333640216
 21
2.7976780743412348
  0
LINE
  8
_0-0_
  6
CONTINUOUS
 62
  250
 10
264.84051942707913
 20
1.2066876282991927
 11
265.54833430664274
 21
1.6975804369332366
  0
LINE
  8
_0-0_
  6
CONTINUOUS
 62
  250
 10
265.54833430664274
 20
1.6975804369332366
 11
264.84051942707913
 21
1.2066876282991927
  0
LINE
  8
_0-0_
  6
CONTINUOUS
 62
  250
 10
264.84051942707913
 20
1.2066876282991927
 11
265.54833430664274
 21
1.6975804369332366
  0
LINE
  8
_0-0_
  6
CONTINUOUS
 62
  250
 10
264.73505222973495
 20
0.0495809909874935
 11
265.44502171965041
 21
0.5431443177562016
  0
LINE
  8
_0-0_
  6
CONTINUOUS
 62
  250
 10
265.44502171965041
 20
0.5431443177562016
 11
264.73505222973495
 21
0.0495809909874935
  0
LINE
  8
_0-0_
  6
CONTINUOUS
 62
  250
 10
264.73505222973495
 20
0.0495809909874935
 11
265.44502171965041
 21
0.5431443177562016
  0
LINE
  8
_0-0_
  6
CONTINUOUS
 62
  250
 10
263.13048355617042
 20
0.8294509802391871
 11
263.68244897281176
 21
1.2124536852359427
  0
LINE
  8
_0-0_
  6
CONTINUOUS
 62
  250
 10
263.68244897281176
 20
1.2124536852359427
 11
263.13048355617042
 21
0.8294509802391871
  0
LINE
  8
_0-0_
  6
CONTINUOUS
 62
  250
 10
263.13048355617042
 20
0.8294509802391871
 11
263.68244897281176
 21
1.2124536852359427
  0
LINE
  8
_0-0_
  6
CONTINUOUS
 62
  250
 10
264.94516116834575
 20
-0.0758336617871862
 11
265.65027984580718
 21
0.4121698114413163
  0
LINE
  8
_0-0_
  6
CONTINUOUS
 62
  250
 10
265.65027984580718
 20
0.4121698114413163
 11
264.94516116834575
 21
-0.0758336617871862
  0
LINE
  8
_0-0_
  6
CONTINUOUS
 62
  250
 10
264.94516116834575
 20
-0.0758336617871862
 11
265.65027984580718
 21
0.4121698114413163
  0
LINE
  8
_0-0_
  6
CONTINUOUS
 62
  250
 10
262.99520299703187
 20
2.4015817957555612
 11
264.90661789161737
 21
3.7238975358136202
  0
LINE
  8
_0-0_
  6
CONTINUOUS
 62
  250
 10
264.90661789161737
 20
3.7238975358136202
 11
262.99520299703187
 21
2.4015817957555612
  0
LINE
  8
_0-0_
  6
CONTINUOUS
 62
  250
 10
262.99520299703187
 20
2.4015817957555612
 11
264.90661789161737
 21
3.7238975358136202
  0
LINE
  8
_0-0_
  6
CONTINUOUS
 62
  250
 10
263.48430927079954
 20
2.1911594881163126
 11
264.54078807917102
 21
2.9217930441623992
  0
LINE
  8
_0-0_
  6
CONTINUOUS
 62
  250
 10
264.54078807917102
 20
2.9217930441623992
 11
263.48430927079954
 21
2.1911594881163126
  0
LINE
  8
_0-0_
  6
CONTINUOUS
 62
  250
 10
263.48430927079954
 20
2.1911594881163126
 11
264.54078807917102
 21
2.9217930441623992
  0
LINE
  8
_0-0_
  6
CONTINUOUS
 62
  250
 10
263.50284803209962
 20
1.9550711915405543
 11
264.72523950686497
 21
2.8129606412337864
  0
LINE
  8
_0-0_
  6
CONTINUOUS
 62
  250
 10
264.72523950686497
 20
2.8129606412337864
 11
263.50284803209962
 21
1.9550711915405543
  0
LINE
  8
_0-0_
  6
CONTINUOUS
 62
  250
 10
263.50284803209962
 20
1.9550711915405543
 11
264.72523950686497
 21
2.8129606412337864
  0
LINE
  8
_0-0_
  6
CONTINUOUS
 62
  250
 10
263.79389529744532
 20
1.853357750211643
 11
264.98804086138523
 21
2.6890479740187629
  0
LINE
  8
_0-0_
  6
CONTINUOUS
 62
  250
 10
264.98804086138523
 20
2.6890479740187629
 11
263.79389529744532
 21
1.853357750211643
  0
LINE
  8
_0-0_
  6
CONTINUOUS
 62
  250
 10
263.79389529744532
 20
1.853357750211643
 11
264.98804086138523
 21
2.6890479740187629
  0
LINE
  8
_0-0_
  6
CONTINUOUS
 62
  250
 10
263.93322571225752
 20
1.657098168558889
 11
265.81409588562929
 21
2.9742730363697945
  0
LINE
  8
_0-0_
  6
CONTINUOUS
 62
  250
 10
265.81409588562929
 20
2.9742730363697945
 11
263.93322571225752
 21
1.657098168558889
  0
LINE
  8
_0-0_
  6
CONTINUOUS
 62
  250
 10
263.93322571225752
 20
1.657098168558889
 11
265.81409588562929
 21
2.9742730363697945
  0
LINE
  8
_0-0_
  6
CONTINUOUS
 62
  250
 10
263.21951642105842
 20
2.0194534095667223
 11
263.25764602944474
 21
2.0465459079985919
  0
LINE
  8
_0-0_
  6
CONTINUOUS
 62
  250
 10
263.25764602944474
 20
2.0465459079985919
 11
263.21951642105842
 21
2.0194534095667223
  0
LINE
  8
_0-0_
  6
CONTINUOUS
 62
  250
 10
263.21951642105842
 20
2.0194534095667223
 11
263.25764602944474
 21
2.0465459079985919
  0
LINE
  8
_0-0_
  6
CONTINUOUS
 62
  250
 10
263.32846930812343
 20
0.7215996587810025
 11
264.39955223743453
 21
1.4797079369722894
  0
LINE
  8
_0-0_
  6
CONTINUOUS
 62
  250
 10
264.39955223743453
 20
1.4797079369722894
 11
263.32846930812343
 21
0.7215996587810025
  0
LINE
  8
_0-0_
  6
CONTINUOUS
 62
  250
 10
263.32846930812343
 20
0.7215996587810025
 11
264.39955223743453
 21
1.4797079369722894
  0
LINE
  8
_0-0_
  6
CONTINUOUS
 62
  250
 10
263.33869939766828
 20
0.6268743642148706
 11
264.44664802976979
 21
1.4187516288784821
  0
LINE
  8
_0-0_
  6
CONTINUOUS
 62
  250
 10
264.44664802976979
 20
1.4187516288784821
 11
263.33869939766828
 21
0.6268743642148706
  0
LINE
  8
_0-0_
  6
CONTINUOUS
 62
  250
 10
263.33869939766828
 20
0.6268743642148706
 11
264.44664802976979
 21
1.4187516288784821
  0
LINE
  8
_0-0_
  6
CONTINUOUS
 62
  250
 10
264.37977053811727
 20
1.695506921621643
 11
266.17147951927683
 21
2.9317097818457967
  0
LINE
  8
_0-0_
  6
CONTINUOUS
 62
  250
 10
266.17147951927683
 20
2.9317097818457967
 11
264.37977053811727
 21
1.695506921621643
  0
LINE
  8
_0-0_
  6
CONTINUOUS
 62
  250
 10
264.37977053811727
 20
1.695506921621643
 11
266.17147951927683
 21
2.9317097818457967
  0
LINE
  8
_0-0_
  6
CONTINUOUS
 62
  250
 10
264.97562140672227
 20
-0.4023767470524433
 11
266.90055017041726
 21
0.9280989491072944
  0
LINE
  8
_0-0_
  6
CONTINUOUS
 62
  250
 10
266.90055017041726
 20
0.9280989491072944
 11
264.97562140672227
 21
-0.4023767470524433
  0
LINE
  8
_0-0_
  6
CONTINUOUS
 62
  250
 10
264.97562140672227
 20
-0.4023767470524433
 11
266.90055017041726
 21
0.9280989491072944
  0
LINE
  8
_0-0_
  6
CONTINUOUS
 62
  250
 10
269.3761602928239
 20
5.0893144025010031
 11
268.26063902205715
 21
5.6353511682351325
  0
LINE
  8
_0-0_
  6
CONTINUOUS
 62
  250
 10
269.37065830977571
 20
3.2607738535492956
 11
269.17217493451892
 21
3.357636985001875
  0
LINE
  8
_0-0_
  6
CONTINUOUS
 62
  250
 10
269.17217493451892
 20
3.357636985001875
 11
269.37065830977571
 21
3.2607738535492956
  0
LINE
  8
_0-0_
  6
CONTINUOUS
 62
  250
 10
269.37065830977571
 20
3.2607738535492956
 11
269.17217493451892
 21
3.357636985001875
  0
LINE
  8
_0-0_
  6
CONTINUOUS
 62
  250
 10
269.37928625383421
 20
5.0815773775000537
 11
269.52350561868275
 21
3.3620767253644033
  0
LINE
  8
_0-0_
  6
CONTINUOUS
 62
  250
 10
269.52350561868275
 20
3.3620767253644033
 11
269.37928625383421
 21
5.0815773775000537
  0
LINE
  8
_0-0_
  6
CONTINUOUS
 62
  250
 10
269.37928625383421
 20
5.0815773775000537
 11
269.52350561868275
 21
3.3620767253644033
  0
LINE
  8
_0-0_
  6
CONTINUOUS
 62
  250
 10
269.36697363264324
 20
3.4983635920745257
 11
269.38613899881113
 21
3.2598413188653979
  0
LINE
  8
_0-0_
  6
CONTINUOUS
 62
  250
 10
269.38613899881113
 20
3.2598413188653979
 11
269.36697363264324
 21
3.4983635920745257
  0
LINE
  8
_0-0_
  6
CONTINUOUS
 62
  250
 10
269.36697363264324
 20
3.4983635920745257
 11
269.38613899881113
 21
3.2598413188653979
  0
LINE
  8
_0-0_
  6
CONTINUOUS
 62
  250
 10
267.63908752606187
 20
5.2107724407892704
 11
268.25998961280271
 21
5.6422887860490789
  0
LINE
  8
_0-0_
  6
CONTINUOUS
 62
  250
 10
268.25998961280271
 20
5.6422887860490789
 11
267.63908752606187
 21
5.2107724407892704
  0
LINE
  8
_0-0_
  6
CONTINUOUS
 62
  250
 10
267.63908752606187
 20
5.2107724407892704
 11
268.25998961280271
 21
5.6422887860490789
  0
LINE
  8
_0-0_
  6
CONTINUOUS
 62
  250
 10
266.4117081898147
 20
3.0027070501813284
 11
269.38281300127232
 21
5.0677408554737724
  0
LINE
  8
_0-0_
  6
CONTINUOUS
 62
  250
 10
269.38281300127232
 20
5.0677408554737724
 11
266.4117081898147
 21
3.0027070501813284
  0
LINE
  8
_0-0_
  6
CONTINUOUS
 62
  250
 10
266.16117188806271
 20
3.1153879860977156
 11
266.87137178629257
 21
3.6090572610041818
  0
LINE
  8
_0-0_
  6
CONTINUOUS
 62
  250
 10
266.87137178629257
 20
3.6090572610041818
 11
266.16117188806271
 21
3.1153879860977156
  0
LINE
  8
_0-0_
  6
CONTINUOUS
 62
  250
 10
266.16117188806271
 20
3.1153879860977156
 11
266.87137178629257
 21
3.6090572610041818
  0
LINE
  8
_0-0_
  6
CONTINUOUS
 62
  250
 10
266.86257249162009
 20
1.7513102407403096
 11
269.36822401704745
 21
3.4952687820740209
  0
LINE
  8
_0-0_
  6
CONTINUOUS
 62
  250
 10
269.36822401704745
 20
3.4952687820740209
 11
266.86257249162009
 21
1.7513102407403096
  0
LINE
  8
_0-0_
  6
CONTINUOUS
 62
  250
 10
266.86257249162009
 20
1.7513102407403096
 11
269.36822401704745
 21
3.4952687820740209
  0
LINE
  8
_0-0_
  6
CONTINUOUS
 62
  250
 10
269.39227375802432
 20
3.2542199267698209
 11
269.52518405955999
 21
3.3483677242651311
  0
LINE
  8
_0-0_
  6
CONTINUOUS
 62
  250
 10
269.52518405955999
 20
3.3483677242651311
 11
269.39227375802432
 21
3.2542199267698209
  0
LINE
  8
_0-0_
  6
CONTINUOUS
 62
  250
 10
269.39227375802432
 20
3.2542199267698209
 11
269.52518405955999
 21
3.3483677242651311
  0
LINE
  8
_0-0_
  6
CONTINUOUS
 62
  250
 10
263.95903404566297
 20
1.7565096506536122
 11
263.95887489140506
 21
1.7355267878173208
  0
LINE
  8
_0-0_
  6
CONTINUOUS
 62
  250
 10
263.95887489140506
 20
1.7355267878173208
 11
263.95617730781856
 21
1.7154726176385111
  0
LINE
  8
_0-0_
  6
CONTINUOUS
 62
  250
 10
263.95617730781856
 20
1.7154726176385111
 11
263.95109366544631
 21
1.696614415989103
  0
LINE
  8
_0-0_
  6
CONTINUOUS
 62
  250
 10
263.95109366544631
 20
1.696614415989103
 11
263.943784205361
 21
1.6791840672337059
  0
LINE
  8
_0-0_
  6
CONTINUOUS
 62
  250
 10
263.943784205361
 20
1.6791840672337059
 11
263.93441022942267
 21
1.6634267414580961
  0
LINE
  8
_0-0_
  6
CONTINUOUS
 62
  250
 10
263.93441022942267
 20
1.6634267414580961
 11
263.92313133705591
 21
1.6495997780566256
  0
LINE
  8
_0-0_
  6
CONTINUOUS
 62
  250
 10
263.92313133705591
 20
1.6495997780566256
 11
263.91010500611026
 21
1.6379339449785846
  0
LINE
  8
_0-0_
  6
CONTINUOUS
 62
  250
 10
263.91010500611026
 20
1.6379339449785846
 11
263.89547637824683
 21
1.6287064545745977
  0
LINE
  8
_0-0_
  6
CONTINUOUS
 62
  250
 10
263.89547637824683
 20
1.6287064545745977
 11
263.87943014440606
 21
1.6221204981888491
  0
LINE
  8
_0-0_
  6
CONTINUOUS
 62
  250
 10
263.87943014440606
 20
1.6221204981888491
 11
263.86209975170948
 21
1.6184742775426173
  0
LINE
  8
_0-0_
  6
CONTINUOUS
 62
  250
 10
263.86209975170948
 20
1.6184742775426173
 11
263.84487882194833
 21
1.6190122805988665
  0
LINE
  8
_0-0_
  6
CONTINUOUS
 62
  250
 10
263.84487882194833
 20
1.6190122805988665
 11
263.82829171037145
 21
1.6226992184338087
  0
LINE
  8
_0-0_
  6
CONTINUOUS
 62
  250
 10
263.82829171037145
 20
1.6226992184338087
 11
263.81259438769831
 21
1.6292913672577072
  0
LINE
  8
_0-0_
  6
CONTINUOUS
 62
  250
 10
263.81259438769831
 20
1.6292913672577072
 11
263.7980321908957
 21
1.6385792783744648
  0
LINE
  8
_0-0_
  6
CONTINUOUS
 62
  250
 10
263.7980321908957
 20
1.6385792783744648
 11
263.78487002200018
 21
1.6502971222088547
  0
LINE
  8
_0-0_
  6
CONTINUOUS
 62
  250
 10
263.78487002200018
 20
1.6502971222088547
 11
263.77335492041385
 21
1.6642232807569428
  0
LINE
  8
_0-0_
  6
CONTINUOUS
 62
  250
 10
263.77335492041385
 20
1.6642232807569428
 11
263.7637428568562
 21
1.6801140302295323
  0
LINE
  8
_0-0_
  6
CONTINUOUS
 62
  250
 10
263.7637428568562
 20
1.6801140302295323
 11
263.7562880996108
 21
1.6977378161443539
  0
LINE
  8
_0-0_
  6
CONTINUOUS
 62
  250
 10
263.7562880996108
 20
1.6977378161443539
 11
263.75124385617443
 21
1.7168497982972326
  0
LINE
  8
_0-0_
  6
CONTINUOUS
 62
  250
 10
263.75124385617443
 20
1.7168497982972326
 11
263.7488726845001
 21
1.7372217714502938
  0
LINE
  8
_0-0_
  6
CONTINUOUS
 62
  250
 10
263.7488726845001
 20
1.7372217714502938
 11
263.74786294359001
 21
1.75806665552048
  0
LINE
  8
_0-0_
  6
CONTINUOUS
 62
  250
 10
263.74786294359001
 20
1.75806665552048
 11
263.74957972782033
 21
1.7781616996626042
  0
LINE
  8
_0-0_
  6
CONTINUOUS
 62
  250
 10
263.74957972782033
 20
1.7781616996626042
 11
263.75383879126429
 21
1.7971753209692736
  0
LINE
  8
_0-0_
  6
CONTINUOUS
 62
  250
 10
263.75383879126429
 20
1.7971753209692736
 11
263.76043590378532
 21
1.8147935766606622
  0
LINE
  8
_0-0_
  6
CONTINUOUS
 62
  250
 10
263.76043590378532
 20
1.8147935766606622
 11
263.76918788024494
 21
1.8306981695515958
  0
LINE
  8
_0-0_
  6
CONTINUOUS
 62
  250
 10
263.76918788024494
 20
1.8306981695515958
 11
263.77990494827014
 21
1.8445552839057484
  0
LINE
  8
_0-0_
  6
CONTINUOUS
 62
  250
 10
263.77990494827014
 20
1.8445552839057484
 11
263.79239116739399
 21
1.8560543261869782
  0
LINE
  8
_0-0_
  6
CONTINUOUS
 62
  250
 10
263.79239116739399
 20
1.8560543261869782
 11
263.80645336037259
 21
1.86488581927361
  0
LINE
  8
_0-0_
  6
CONTINUOUS
 62
  250
 10
263.80645336037259
 20
1.86488581927361
 11
263.82190069404561
 21
1.8707026617073268
  0
LINE
  8
_0-0_
  6
CONTINUOUS
 62
  250
 10
263.82190069404561
 20
1.8707026617073268
 11
263.83854381517983
 21
1.8732097785032522
  0
LINE
  8
_0-0_
  6
CONTINUOUS
 62
  250
 10
263.83854381517983
 20
1.8732097785032522
 11
263.85629461627678
 21
1.8730787144035048
  0
LINE
  8
_0-0_
  6
CONTINUOUS
 62
  250
 10
263.85629461627678
 20
1.8730787144035048
 11
263.87341374663902
 21
1.8696581546546156
  0
LINE
  8
_0-0_
  6
CONTINUOUS
 62
  250
 10
263.87341374663902
 20
1.8696581546546156
 11
263.88965947080362
 21
1.8632361458714399
  0
LINE
  8
_0-0_
  6
CONTINUOUS
 62
  250
 10
263.88965947080362
 20
1.8632361458714399
 11
263.90480238949561
 21
1.8540542902675554
  0
LINE
  8
_0-0_
  6
CONTINUOUS
 62
  250
 10
263.90480238949561
 20
1.8540542902675554
 11
263.91859630159365
 21
1.8424116873502214
  0
LINE
  8
_0-0_
  6
CONTINUOUS
 62
  250
 10
263.91859630159365
 20
1.8424116873502214
 11
263.93081180782252
 21
1.8285499393336977
  0
LINE
  8
_0-0_
  6
CONTINUOUS
 62
  250
 10
263.93081180782252
 20
1.8285499393336977
 11
263.94119718061421
 21
1.8127659128956566
  0
LINE
  8
_0-0_
  6
CONTINUOUS
 62
  250
 10
263.94119718061421
 20
1.8127659128956566
 11
263.9495240814814
 21
1.7953144959722636
  0
LINE
  8
_0-0_
  6
CONTINUOUS
 62
  250
 10
263.9495240814814
 20
1.7953144959722636
 11
263.95554971417357
 21
1.776470449455843
  0
LINE
  8
_0-0_
  6
CONTINUOUS
 62
  250
 10
263.95554971417357
 20
1.776470449455843
 11
263.95903404566297
 21
1.7565096506536122
  0
LINE
  8
_0-0_
  6
CONTINUOUS
 62
  250
 10
263.95903404566297
 20
1.7565096506536122
 11
263.95887489140506
 21
1.7355267878173208
  0
LINE
  8
_0-0_
  6
CONTINUOUS
 62
  250
 10
263.95887489140506
 20
1.7355267878173208
 11
263.95617730781856
 21
1.7154726176385111
  0
LINE
  8
_0-0_
  6
CONTINUOUS
 62
  250
 10
263.95617730781856
 20
1.7154726176385111
 11
263.95109366544631
 21
1.696614415989103
  0
LINE
  8
_0-0_
  6
CONTINUOUS
 62
  250
 10
263.95109366544631
 20
1.696614415989103
 11
263.943784205361
 21
1.6791840672337059
  0
LINE
  8
_0-0_
  6
CONTINUOUS
 62
  250
 10
263.943784205361
 20
1.6791840672337059
 11
263.93441022942267
 21
1.6634267414580961
  0
LINE
  8
_0-0_
  6
CONTINUOUS
 62
  250
 10
263.93441022942267
 20
1.6634267414580961
 11
263.92313133705591
 21
1.6495997780566256
  0
LINE
  8
_0-0_
  6
CONTINUOUS
 62
  250
 10
263.92313133705591
 20
1.6495997780566256
 11
263.91010500611026
 21
1.6379339449785846
  0
LINE
  8
_0-0_
  6
CONTINUOUS
 62
  250
 10
263.91010500611026
 20
1.6379339449785846
 11
263.89547637824683
 21
1.6287064545745977
  0
LINE
  8
_0-0_
  6
CONTINUOUS
 62
  250
 10
263.89547637824683
 20
1.6287064545745977
 11
263.87943014440606
 21
1.6221204981888491
  0
LINE
  8
_0-0_
  6
CONTINUOUS
 62
  250
 10
263.87943014440606
 20
1.6221204981888491
 11
263.86209975170948
 21
1.6184742775426173
  0
LINE
  8
_0-0_
  6
CONTINUOUS
 62
  250
 10
263.86209975170948
 20
1.6184742775426173
 11
263.84487882194833
 21
1.6190122805988665
  0
LINE
  8
_0-0_
  6
CONTINUOUS
 62
  250
 10
263.84487882194833
 20
1.6190122805988665
 11
263.82829171037145
 21
1.6226992184338087
  0
LINE
  8
_0-0_
  6
CONTINUOUS
 62
  250
 10
263.82829171037145
 20
1.6226992184338087
 11
263.81259438769831
 21
1.6292913672577072
  0
LINE
  8
_0-0_
  6
CONTINUOUS
 62
  250
 10
263.81259438769831
 20
1.6292913672577072
 11
263.7980321908957
 21
1.6385792783744648
  0
LINE
  8
_0-0_
  6
CONTINUOUS
 62
  250
 10
263.7980321908957
 20
1.6385792783744648
 11
263.78487002200018
 21
1.6502971222088547
  0
LINE
  8
_0-0_
  6
CONTINUOUS
 62
  250
 10
263.78487002200018
 20
1.6502971222088547
 11
263.77335492041385
 21
1.6642232807569428
  0
LINE
  8
_0-0_
  6
CONTINUOUS
 62
  250
 10
263.77335492041385
 20
1.6642232807569428
 11
263.7637428568562
 21
1.6801140302295323
  0
LINE
  8
_0-0_
  6
CONTINUOUS
 62
  250
 10
263.7637428568562
 20
1.6801140302295323
 11
263.7562880996108
 21
1.6977378161443539
  0
LINE
  8
_0-0_
  6
CONTINUOUS
 62
  250
 10
263.7562880996108
 20
1.6977378161443539
 11
263.75124385617443
 21
1.7168497982972326
  0
LINE
  8
_0-0_
  6
CONTINUOUS
 62
  250
 10
263.75124385617443
 20
1.7168497982972326
 11
263.7488726845001
 21
1.7372217714502938
  0
LINE
  8
_0-0_
  6
CONTINUOUS
 62
  250
 10
263.7488726845001
 20
1.7372217714502938
 11
263.74786294359001
 21
1.75806665552048
  0
LINE
  8
_0-0_
  6
CONTINUOUS
 62
  250
 10
263.74786294359001
 20
1.75806665552048
 11
263.74957972782033
 21
1.7781616996626042
  0
LINE
  8
_0-0_
  6
CONTINUOUS
 62
  250
 10
263.74957972782033
 20
1.7781616996626042
 11
263.75383879126429
 21
1.7971753209692736
  0
LINE
  8
_0-0_
  6
CONTINUOUS
 62
  250
 10
263.75383879126429
 20
1.7971753209692736
 11
263.76043590378532
 21
1.8147935766606622
  0
LINE
  8
_0-0_
  6
CONTINUOUS
 62
  250
 10
263.76043590378532
 20
1.8147935766606622
 11
263.76918788024494
 21
1.8306981695515958
  0
LINE
  8
_0-0_
  6
CONTINUOUS
 62
  250
 10
263.76918788024494
 20
1.8306981695515958
 11
263.77990494827014
 21
1.8445552839057484
  0
LINE
  8
_0-0_
  6
CONTINUOUS
 62
  250
 10
263.77990494827014
 20
1.8445552839057484
 11
263.79239116739399
 21
1.8560543261869782
  0
LINE
  8
_0-0_
  6
CONTINUOUS
 62
  250
 10
263.79239116739399
 20
1.8560543261869782
 11
263.80645336037259
 21
1.86488581927361
  0
LINE
  8
_0-0_
  6
CONTINUOUS
 62
  250
 10
263.80645336037259
 20
1.86488581927361
 11
263.82190069404561
 21
1.8707026617073268
  0
LINE
  8
_0-0_
  6
CONTINUOUS
 62
  250
 10
263.82190069404561
 20
1.8707026617073268
 11
263.83854381517983
 21
1.8732097785032522
  0
LINE
  8
_0-0_
  6
CONTINUOUS
 62
  250
 10
263.83854381517983
 20
1.8732097785032522
 11
263.85629461627678
 21
1.8730787144035048
  0
LINE
  8
_0-0_
  6
CONTINUOUS
 62
  250
 10
263.85629461627678
 20
1.8730787144035048
 11
263.87341374663902
 21
1.8696581546546156
  0
LINE
  8
_0-0_
  6
CONTINUOUS
 62
  250
 10
263.87341374663902
 20
1.8696581546546156
 11
263.88965947080362
 21
1.8632361458714399
  0
LINE
  8
_0-0_
  6
CONTINUOUS
 62
  250
 10
263.88965947080362
 20
1.8632361458714399
 11
263.90480238949561
 21
1.8540542902675554
  0
LINE
  8
_0-0_
  6
CONTINUOUS
 62
  250
 10
263.90480238949561
 20
1.8540542902675554
 11
263.91859630159365
 21
1.8424116873502214
  0
LINE
  8
_0-0_
  6
CONTINUOUS
 62
  250
 10
263.91859630159365
 20
1.8424116873502214
 11
263.93081180782252
 21
1.8285499393336977
  0
LINE
  8
_0-0_
  6
CONTINUOUS
 62
  250
 10
263.93081180782252
 20
1.8285499393336977
 11
263.94119718061421
 21
1.8127659128956566
  0
LINE
  8
_0-0_
  6
CONTINUOUS
 62
  250
 10
263.94119718061421
 20
1.8127659128956566
 11
263.9495240814814
 21
1.7953144959722636
  0
LINE
  8
_0-0_
  6
CONTINUOUS
 62
  250
 10
263.9495240814814
 20
1.7953144959722636
 11
263.95554971417357
 21
1.776470449455843
  0
LINE
  8
_0-0_
  6
CONTINUOUS
 62
  250
 10
263.95554971417357
 20
1.776470449455843
 11
263.95903404566297
 21
1.7565096506536122
  0
LINE
  8
_0-0_
  6
CONTINUOUS
 62
  250
 10
264.62445587681344
 20
1.3521707356038917
 11
264.61904587387085
 21
1.3474778110048362
  0
LINE
  8
_0-0_
  6
CONTINUOUS
 62
  250
 10
264.61904587387085
 20
1.3474778110048362
 11
264.6135786297732
 21
1.3431731878315247
  0
LINE
  8
_0-0_
  6
CONTINUOUS
 62
  250
 10
264.6135786297732
 20
1.3431731878315247
 11
264.60802480985296
 21
1.3392578712444845
  0
LINE
  8
_0-0_
  6
CONTINUOUS
 62
  250
 10
264.60802480985296
 20
1.3392578712444845
 11
264.60234614812526
 21
1.3357549721908129
  0
LINE
  8
_0-0_
  6
CONTINUOUS
 62
  250
 10
264.60234614812526
 20
1.3357549721908129
 11
264.59651160748751
 21
1.3326776651390162
  0
LINE
  8
_0-0_
  6
CONTINUOUS
 62
  250
 10
264.59651160748751
 20
1.3326776651390162
 11
264.59049737971839
 21
1.3300291880794077
  0
LINE
  8
_0-0_
  6
CONTINUOUS
 62
  250
 10
264.59049737971839
 20
1.3300291880794077
 11
264.58425520672841
 21
1.3278414720222997
  0
LINE
  8
_0-0_
  6
CONTINUOUS
 62
  250
 10
264.58425520672841
 20
1.3278414720222997
 11
264.57776298273143
 21
1.3261055856505948
  0
LINE
  8
_0-0_
  6
CONTINUOUS
 62
  250
 10
264.57776298273143
 20
1.3261055856505948
 11
264.57098180009569
 21
1.3248700949406214
  0
LINE
  8
_0-0_
  6
CONTINUOUS
 62
  250
 10
264.57098180009569
 20
1.3248700949406214
 11
264.56389019468264
 21
1.3241006135455962
  0
LINE
  8
_0-0_
  6
CONTINUOUS
 62
  250
 10
264.56389019468264
 20
1.3241006135455962
 11
264.5463464904422
 21
1.3238782075811173
  0
LINE
  8
_0-0_
  6
CONTINUOUS
 62
  250
 10
264.5463464904422
 20
1.3238782075811173
 11
264.52936535048173
 21
1.3270845192141394
  0
LINE
  8
_0-0_
  6
CONTINUOUS
 62
  250
 10
264.52936535048173
 20
1.3270845192141394
 11
264.51324165315282
 21
1.3334272586787677
  0
LINE
  8
_0-0_
  6
CONTINUOUS
 62
  250
 10
264.51324165315282
 20
1.3334272586787677
 11
264.49826198713771
 21
1.3426107869654231
  0
LINE
  8
_0-0_
  6
CONTINUOUS
 62
  250
 10
264.49826198713771
 20
1.3426107869654231
 11
264.48472229157551
 21
1.3543561000302304
  0
LINE
  8
_0-0_
  6
CONTINUOUS
 62
  250
 10
264.48472229157551
 20
1.3543561000302304
 11
264.47290915514822
 21
1.3683675588630138
  0
LINE
  8
_0-0_
  6
CONTINUOUS
 62
  250
 10
264.47290915514822
 20
1.3683675588630138
 11
264.46312468508904
 21
1.3843429372200831
  0
LINE
  8
_0-0_
  6
CONTINUOUS
 62
  250
 10
264.46312468508904
 20
1.3843429372200831
 11
264.45565100442172
 21
1.4019976489841497
  0
LINE
  8
_0-0_
  6
CONTINUOUS
 62
  250
 10
264.45565100442172
 20
1.4019976489841497
 11
264.45078128906226
 21
1.4210515736969
  0
LINE
  8
_0-0_
  6
CONTINUOUS
 62
  250
 10
264.45078128906226
 20
1.4210515736969
 11
264.44881658545592
 21
1.4411891993918573
  0
LINE
  8
_0-0_
  6
CONTINUOUS
 62
  250
 10
264.44881658545592
 20
1.4411891993918573
 11
264.44776221914117
 21
1.4440932059843874
  0
LINE
  8
_0-0_
  6
CONTINUOUS
 62
  250
 10
264.44776221914117
 20
1.4440932059843874
 11
264.44700909590483
 21
1.446784637143594
  0
LINE
  8
_0-0_
  6
CONTINUOUS
 62
  250
 10
264.44700909590483
 20
1.446784637143594
 11
264.44650343121106
 21
1.4492931910509412
  0
LINE
  8
_0-0_
  6
CONTINUOUS
 62
  250
 10
264.44650343121106
 20
1.4492931910509412
 11
264.44618867730043
 21
1.4516474494725173
  0
LINE
  8
_0-0_
  6
CONTINUOUS
 62
  250
 10
264.44618867730043
 20
1.4516474494725173
 11
264.44601381286009
 21
1.4538782270044237
  0
LINE
  8
_0-0_
  6
CONTINUOUS
 62
  250
 10
264.44601381286009
 20
1.4538782270044237
 11
264.44593334302328
 21
1.4560185710713256
  0
LINE
  8
_0-0_
  6
CONTINUOUS
 62
  250
 10
264.44593334302328
 20
1.4560185710713256
 11
264.44589412490177
 21
1.4580727248246319
  0
LINE
  8
_0-0_
  6
CONTINUOUS
 62
  250
 10
264.44589412490177
 20
1.4580727248246319
 11
264.44583896908836
 21
1.4600947250602587
  0
LINE
  8
_0-0_
  6
CONTINUOUS
 62
  250
 10
264.44583896908836
 20
1.4600947250602587
 11
264.44572131992902
 21
1.4621043334815056
  0
LINE
  8
_0-0_
  6
CONTINUOUS
 62
  250
 10
264.44572131992902
 20
1.4621043334815056
 11
264.445490797758
 21
1.4641069096535944
  0
LINE
  8
_0-0_
  6
CONTINUOUS
 62
  250
 10
264.445490797758
 20
1.4641069096535944
 11
264.62445587681344
 21
1.3521707356038917
  0
LINE
  8
_0-0_
  6
CONTINUOUS
 62
  250
 10
264.62445587681344
 20
1.3521707356038917
 11
264.61904587387085
 21
1.3474778110048362
  0
LINE
  8
_0-0_
  6
CONTINUOUS
 62
  250
 10
264.61904587387085
 20
1.3474778110048362
 11
264.6135786297732
 21
1.3431731878315247
  0
LINE
  8
_0-0_
  6
CONTINUOUS
 62
  250
 10
264.6135786297732
 20
1.3431731878315247
 11
264.60802480985296
 21
1.3392578712444845
  0
LINE
  8
_0-0_
  6
CONTINUOUS
 62
  250
 10
264.60802480985296
 20
1.3392578712444845
 11
264.60234614812526
 21
1.3357549721908129
  0
LINE
  8
_0-0_
  6
CONTINUOUS
 62
  250
 10
264.60234614812526
 20
1.3357549721908129
 11
264.59651160748751
 21
1.3326776651390162
  0
LINE
  8
_0-0_
  6
CONTINUOUS
 62
  250
 10
264.59651160748751
 20
1.3326776651390162
 11
264.59049737971839
 21
1.3300291880794077
  0
LINE
  8
_0-0_
  6
CONTINUOUS
 62
  250
 10
264.59049737971839
 20
1.3300291880794077
 11
264.58425520672841
 21
1.3278414720222997
  0
LINE
  8
_0-0_
  6
CONTINUOUS
 62
  250
 10
264.58425520672841
 20
1.3278414720222997
 11
264.57776298273143
 21
1.3261055856505948
  0
LINE
  8
_0-0_
  6
CONTINUOUS
 62
  250
 10
264.57776298273143
 20
1.3261055856505948
 11
264.57098180009569
 21
1.3248700949406214
  0
LINE
  8
_0-0_
  6
CONTINUOUS
 62
  250
 10
264.57098180009569
 20
1.3248700949406214
 11
264.56389019468264
 21
1.3241006135455962
  0
LINE
  8
_0-0_
  6
CONTINUOUS
 62
  250
 10
264.56389019468264
 20
1.3241006135455962
 11
264.5463464904422
 21
1.3238782075811173
  0
LINE
  8
_0-0_
  6
CONTINUOUS
 62
  250
 10
264.5463464904422
 20
1.3238782075811173
 11
264.52936535048173
 21
1.3270845192141394
  0
LINE
  8
_0-0_
  6
CONTINUOUS
 62
  250
 10
264.52936535048173
 20
1.3270845192141394
 11
264.51324165315282
 21
1.3334272586787677
  0
LINE
  8
_0-0_
  6
CONTINUOUS
 62
  250
 10
264.51324165315282
 20
1.3334272586787677
 11
264.49826198713771
 21
1.3426107869654231
  0
LINE
  8
_0-0_
  6
CONTINUOUS
 62
  250
 10
264.49826198713771
 20
1.3426107869654231
 11
264.48472229157551
 21
1.3543561000302304
  0
LINE
  8
_0-0_
  6
CONTINUOUS
 62
  250
 10
264.48472229157551
 20
1.3543561000302304
 11
264.47290915514822
 21
1.3683675588630138
  0
LINE
  8
_0-0_
  6
CONTINUOUS
 62
  250
 10
264.47290915514822
 20
1.3683675588630138
 11
264.46312468508904
 21
1.3843429372200831
  0
LINE
  8
_0-0_
  6
CONTINUOUS
 62
  250
 10
264.46312468508904
 20
1.3843429372200831
 11
264.45565100442172
 21
1.4019976489841497
  0
LINE
  8
_0-0_
  6
CONTINUOUS
 62
  250
 10
264.45565100442172
 20
1.4019976489841497
 11
264.45078128906226
 21
1.4210515736969
  0
LINE
  8
_0-0_
  6
CONTINUOUS
 62
  250
 10
264.45078128906226
 20
1.4210515736969
 11
264.44881658545592
 21
1.4411891993918573
  0
LINE
  8
_0-0_
  6
CONTINUOUS
 62
  250
 10
264.44881658545592
 20
1.4411891993918573
 11
264.44776221914117
 21
1.4440932059843874
  0
LINE
  8
_0-0_
  6
CONTINUOUS
 62
  250
 10
264.44776221914117
 20
1.4440932059843874
 11
264.44700909590483
 21
1.446784637143594
  0
LINE
  8
_0-0_
  6
CONTINUOUS
 62
  250
 10
264.44700909590483
 20
1.446784637143594
 11
264.44650343121106
 21
1.4492931910509412
  0
LINE
  8
_0-0_
  6
CONTINUOUS
 62
  250
 10
264.44650343121106
 20
1.4492931910509412
 11
264.44618867730043
 21
1.4516474494725173
  0
LINE
  8
_0-0_
  6
CONTINUOUS
 62
  250
 10
264.44618867730043
 20
1.4516474494725173
 11
264.44601381286009
 21
1.4538782270044237
  0
LINE
  8
_0-0_
  6
CONTINUOUS
 62
  250
 10
264.44601381286009
 20
1.4538782270044237
 11
264.44593334302328
 21
1.4560185710713256
  0
LINE
  8
_0-0_
  6
CONTINUOUS
 62
  250
 10
264.44593334302328
 20
1.4560185710713256
 11
264.44589412490177
 21
1.4580727248246319
  0
LINE
  8
_0-0_
  6
CONTINUOUS
 62
  250
 10
264.44589412490177
 20
1.4580727248246319
 11
264.44583896908836
 21
1.4600947250602587
  0
LINE
  8
_0-0_
  6
CONTINUOUS
 62
  250
 10
264.44583896908836
 20
1.4600947250602587
 11
264.44572131992902
 21
1.4621043334815056
  0
LINE
  8
_0-0_
  6
CONTINUOUS
 62
  250
 10
264.44572131992902
 20
1.4621043334815056
 11
264.445490797758
 21
1.4641069096535944
  0
LINE
  8
_0-0_
  6
CONTINUOUS
 62
  250
 10
265.08721134727455
 20
3.6332935433737532
 11
264.91150679419314
 21
3.7195856411447892
  0
LINE
  8
_0-0_
  6
CONTINUOUS
 62
  250
 10
264.91150679419314
 20
3.7195856411447892
 11
265.08721134727455
 21
3.6332935433737532
  0
LINE
  8
_0-0_
  6
CONTINUOUS
 62
  250
 10
265.08721134727455
 20
3.6332935433737532
 11
264.91150679419314
 21
3.7195856411447892
  0
LINE
  8
_0-0_
  6
CONTINUOUS
 62
  250
 10
265.19991211007067
 20
2.5931067540603294
 11
264.39177518108966
 21
2.9874078586671544
  0
LINE
  8
_0-0_
  6
CONTINUOUS
 62
  250
 10
264.39177518108966
 20
2.9874078586671544
 11
265.19991211007067
 21
2.5931067540603294
  0
LINE
  8
_0-0_
  6
CONTINUOUS
 62
  250
 10
265.19991211007067
 20
2.5931067540603294
 11
264.39177518108966
 21
2.9874078586671544
  0
LINE
  8
_0-0_
  6
CONTINUOUS
 62
  250
 10
264.55209752637592
 20
3.0746565645534645
 11
264.40058244682103
 21
3.1473475706919487
  0
LINE
  8
_0-0_
  6
CONTINUOUS
 62
  250
 10
264.40058244682103
 20
3.1473475706919487
 11
264.55209752637592
 21
3.0746565645534645
  0
LINE
  8
_0-0_
  6
CONTINUOUS
 62
  250
 10
264.55209752637592
 20
3.0746565645534645
 11
264.40058244682103
 21
3.1473475706919487
  0
LINE
  8
_0-0_
  6
CONTINUOUS
 62
  250
 10
264.90799962833125
 20
2.9011748014390548
 11
264.70943788414451
 21
2.9962191278787031
  0
LINE
  8
_0-0_
  6
CONTINUOUS
 62
  250
 10
264.70943788414451
 20
2.9962191278787031
 11
264.90799962833125
 21
2.9011748014390548
  0
LINE
  8
_0-0_
  6
CONTINUOUS
 62
  250
 10
264.90799962833125
 20
2.9011748014390548
 11
264.70943788414451
 21
2.9962191278787031
  0
LINE
  8
_0-0_
  6
CONTINUOUS
 62
  250
 10
265.16687861339784
 20
2.7720773960051872
 11
265.07439336098429
 21
2.823695167080956
  0
LINE
  8
_0-0_
  6
CONTINUOUS
 62
  250
 10
265.07439336098429
 20
2.823695167080956
 11
265.16687861339784
 21
2.7720773960051872
  0
LINE
  8
_0-0_
  6
CONTINUOUS
 62
  250
 10
265.16687861339784
 20
2.7720773960051872
 11
265.07439336098429
 21
2.823695167080956
  0
LINE
  8
_0-0_
  6
CONTINUOUS
 62
  250
 10
264.6797938688307
 20
3.1774849229799997
 11
264.52974159514389
 21
3.250779798188546
  0
LINE
  8
_0-0_
  6
CONTINUOUS
 62
  250
 10
264.52974159514389
 20
3.250779798188546
 11
264.6797938688307
 21
3.1774849229799997
  0
LINE
  8
_0-0_
  6
CONTINUOUS
 62
  250
 10
264.6797938688307
 20
3.1774849229799997
 11
264.52974159514389
 21
3.250779798188546
  0
LINE
  8
_0-0_
  6
CONTINUOUS
 62
  250
 10
265.0439187280698
 20
2.9974382318397659
 11
264.91766560968023
 21
3.0587743156609974
  0
LINE
  8
_0-0_
  6
CONTINUOUS
 62
  250
 10
264.91766560968023
 20
3.0587743156609974
 11
265.0439187280698
 21
2.9974382318397659
  0
LINE
  8
_0-0_
  6
CONTINUOUS
 62
  250
 10
265.0439187280698
 20
2.9974382318397659
 11
264.91766560968023
 21
3.0587743156609974
  0
LINE
  8
_0-0_
  6
CONTINUOUS
 62
  250
 10
267.98263223203912
 20
4.7428966904239758
 11
267.86583391660935
 21
4.7990656245068237
  0
LINE
  8
_0-0_
  6
CONTINUOUS
 62
  250
 10
267.86583391660935
 20
4.7990656245068237
 11
267.98263223203912
 21
4.7428966904239758
  0
LINE
  8
_0-0_
  6
CONTINUOUS
 62
  250
 10
267.98263223203912
 20
4.7428966904239758
 11
267.86583391660935
 21
4.7990656245068237
  0
LINE
  8
_0-0_
  6
CONTINUOUS
 62
  250
 10
267.56634586293677
 20
4.949491595503531
 11
267.53007170170605
 21
4.9653972954205301
  0
LINE
  8
_0-0_
  6
CONTINUOUS
 62
  250
 10
267.53007170170605
 20
4.9653972954205301
 11
267.56634586293677
 21
4.949491595503531
  0
LINE
  8
_0-0_
  6
CONTINUOUS
 62
  250
 10
267.56634586293677
 20
4.949491595503531
 11
267.53007170170605
 21
4.9653972954205301
  0
LINE
  8
_0-0_
  6
CONTINUOUS
 62
  250
 10
268.0869634461651
 20
4.9773919923079859
 11
267.32184440752309
 21
5.3504249018464805
  0
LINE
  8
_0-0_
  6
CONTINUOUS
 62
  250
 10
267.32184440752309
 20
5.3504249018464805
 11
268.0869634461651
 21
4.9773919923079859
  0
LINE
  8
_0-0_
  6
CONTINUOUS
 62
  250
 10
268.0869634461651
 20
4.9773919923079859
 11
267.32184440752309
 21
5.3504249018464805
  0
LINE
  8
_0-0_
  6
CONTINUOUS
 62
  250
 10
267.97732032222535
 20
4.9133190195195482
 11
267.21125761695578
 21
5.2895706610842126
  0
LINE
  8
_0-0_
  6
CONTINUOUS
 62
  250
 10
267.21125761695578
 20
5.2895706610842126
 11
267.97732032222535
 21
4.9133190195195482
  0
LINE
  8
_0-0_
  6
CONTINUOUS
 62
  250
 10
267.97732032222535
 20
4.9133190195195482
 11
267.21125761695578
 21
5.2895706610842126
  0
LINE
  8
_0-0_
  6
CONTINUOUS
 62
  250
 10
265.18680980455309
 20
2.7783558351702311
 11
265.20020820425157
 21
2.6192877986340193
  0
LINE
  8
_0-0_
  6
CONTINUOUS
 62
  250
 10
265.20020820425157
 20
2.6192877986340193
 11
265.18680980455309
 21
2.7783558351702311
  0
LINE
  8
_0-0_
  6
CONTINUOUS
 62
  250
 10
265.18680980455309
 20
2.7783558351702311
 11
265.20020820425157
 21
2.6192877986340193
  0
LINE
  8
_0-0_
  6
CONTINUOUS
 62
  250
 10
267.98645665075986
 20
4.9098231968071673
 11
268.00258657945892
 21
4.7437716310527946
  0
LINE
  8
_0-0_
  6
CONTINUOUS
 62
  250
 10
268.00258657945892
 20
4.7437716310527946
 11
267.98645665075986
 21
4.9098231968071673
  0
LINE
  8
_0-0_
  6
CONTINUOUS
 62
  250
 10
267.98645665075986
 20
4.9098231968071673
 11
268.00258657945892
 21
4.7437716310527946
  0
LINE
  8
_0-0_
  6
CONTINUOUS
 62
  250
 10
267.86270706440177
 20
4.9649707770423674
 11
267.87674176614871
 21
4.7998726836960657
  0
LINE
  8
_0-0_
  6
CONTINUOUS
 62
  250
 10
267.87674176614871
 20
4.7998726836960657
 11
267.86270706440177
 21
4.9649707770423674
  0
LINE
  8
_0-0_
  6
CONTINUOUS
 62
  250
 10
267.86270706440177
 20
4.9649707770423674
 11
267.87674176614871
 21
4.7998726836960657
  0
LINE
  8
_0-0_
  6
CONTINUOUS
 62
  250
 10
267.50442786626076
 20
5.1078435752410485
 11
267.51656037831469
 21
4.9806126411818923
  0
LINE
  8
_0-0_
  6
CONTINUOUS
 62
  250
 10
267.51656037831469
 20
4.9806126411818923
 11
267.50442786626076
 21
5.1078435752410485
  0
LINE
  8
_0-0_
  6
CONTINUOUS
 62
  250
 10
267.50442786626076
 20
5.1078435752410485
 11
267.51656037831469
 21
4.9806126411818923
  0
LINE
  8
_0-0_
  6
CONTINUOUS
 62
  250
 10
267.20712259322158
 20
5.2753257240011067
 11
267.21969002344156
 21
5.1096348144774879
  0
LINE
  8
_0-0_
  6
CONTINUOUS
 62
  250
 10
267.21969002344156
 20
5.1096348144774879
 11
267.20712259322158
 21
5.2753257240011067
  0
LINE
  8
_0-0_
  6
CONTINUOUS
 62
  250
 10
267.20712259322158
 20
5.2753257240011067
 11
267.21969002344156
 21
5.1096348144774879
  0
LINE
  8
_0-0_
  6
CONTINUOUS
 62
  250
 10
264.54171068810388
 20
3.235841350409828
 11
264.55334344512153
 21
3.0715728074459037
  0
LINE
  8
_0-0_
  6
CONTINUOUS
 62
  250
 10
264.55334344512153
 20
3.0715728074459037
 11
264.54171068810388
 21
3.235841350409828
  0
LINE
  8
_0-0_
  6
CONTINUOUS
 62
  250
 10
264.54171068810388
 20
3.235841350409828
 11
264.55334344512153
 21
3.0715728074459037
  0
LINE
  8
_0-0_
  6
CONTINUOUS
 62
  250
 10
264.69050217129558
 20
3.1683242223006971
 11
264.70548818253735
 21
2.997323343414422
  0
LINE
  8
_0-0_
  6
CONTINUOUS
 62
  250
 10
264.70548818253735
 20
2.997323343414422
 11
264.69050217129558
 21
3.1683242223006971
  0
LINE
  8
_0-0_
  6
CONTINUOUS
 62
  250
 10
264.69050217129558
 20
3.1683242223006971
 11
264.70548818253735
 21
2.997323343414422
  0
LINE
  8
_0-0_
  6
CONTINUOUS
 62
  250
 10
264.91828633622367
 20
3.0572379635536606
 11
264.93063871612884
 21
2.9103215866382754
  0
LINE
  8
_0-0_
  6
CONTINUOUS
 62
  250
 10
264.93063871612884
 20
2.9103215866382754
 11
264.91828633622367
 21
3.0572379635536606
  0
LINE
  8
_0-0_
  6
CONTINUOUS
 62
  250
 10
264.91828633622367
 20
3.0572379635536606
 11
264.93063871612884
 21
2.9103215866382754
  0
LINE
  8
_0-0_
  6
CONTINUOUS
 62
  250
 10
265.05360041025727
 20
2.9959498882157618
 11
265.06646209785015
 21
2.8339778644800617
  0
LINE
  8
_0-0_
  6
CONTINUOUS
 62
  250
 10
265.06646209785015
 20
2.8339778644800617
 11
265.05360041025727
 21
2.9959498882157618
  0
LINE
  8
_0-0_
  6
CONTINUOUS
 62
  250
 10
265.05360041025727
 20
2.9959498882157618
 11
265.06646209785015
 21
2.8339778644800617
  0
LINE
  8
_0-0_
  6
CONTINUOUS
 62
  250
 10
264.392704497436
 20
3.1441646725346004
 11
264.40819888995026
 21
2.9805691891991444
  0
LINE
  8
_0-0_
  6
CONTINUOUS
 62
  250
 10
264.40819888995026
 20
2.9805691891991444
 11
264.392704497436
 21
3.1441646725346004
  0
LINE
  8
_0-0_
  6
CONTINUOUS
 62
  250
 10
264.392704497436
 20
3.1441646725346004
 11
264.40819888995026
 21
2.9805691891991444
  0
LINE
  8
_0-0_
  6
CONTINUOUS
 62
  250
 10
265.21498931156316
 20
2.5964983403062547
 11
267.35222685310896
 21
4.0846494554456569
  0
LINE
  8
_0-0_
  6
CONTINUOUS
 62
  250
 10
267.35222685310896
 20
4.0846494554456569
 11
265.21498931156316
 21
2.5964983403062547
  0
LINE
  8
_0-0_
  6
CONTINUOUS
 62
  250
 10
265.21498931156316
 20
2.5964983403062547
 11
267.35222685310896
 21
4.0846494554456569
  0
LINE
  8
_0-0_
  6
CONTINUOUS
 62
  250
 10
265.20019973229483
 20
2.7783657200016876
 11
267.9901398320942
 21
4.7189685434568105
  0
LINE
  8
_0-0_
  6
CONTINUOUS
 62
  250
 10
267.9901398320942
 20
4.7189685434568105
 11
265.20019973229483
 21
2.7783657200016876
  0
LINE
  8
_0-0_
  6
CONTINUOUS
 62
  250
 10
265.20019973229483
 20
2.7783657200016876
 11
267.9901398320942
 21
4.7189685434568105
  0
LINE
  8
_0-0_
  6
CONTINUOUS
 62
  250
 10
265.07748541680041
 20
3.0020129163073932
 11
267.87529893821824
 21
4.947583950493339
  0
LINE
  8
_0-0_
  6
CONTINUOUS
 62
  250
 10
267.87529893821824
 20
4.947583950493339
 11
265.07748541680041
 21
3.0020129163073932
  0
LINE
  8
_0-0_
  6
CONTINUOUS
 62
  250
 10
265.07748541680041
 20
3.0020129163073932
 11
267.87529893821824
 21
4.947583950493339
  0
LINE
  8
_0-0_
  6
CONTINUOUS
 62
  250
 10
265.08860575102966
 20
2.8536987611043401
 11
267.87923806929831
 21
4.7936941165882274
  0
LINE
  8
_0-0_
  6
CONTINUOUS
 62
  250
 10
267.87923806929831
 20
4.7936941165882274
 11
265.08860575102966
 21
2.8536987611043401
  0
LINE
  8
_0-0_
  6
CONTINUOUS
 62
  250
 10
264.92130101275086
 20
3.0584559719330571
 11
267.73718425460356
 21
5.0158276446832986
  0
LINE
  8
_0-0_
  6
CONTINUOUS
 62
  250
 10
267.73718425460356
 20
5.0158276446832986
 11
264.92130101275086
 21
3.0584559719330571
  0
LINE
  8
_0-0_
  6
CONTINUOUS
 62
  250
 10
264.92130101275086
 20
3.0584559719330571
 11
267.73718425460356
 21
5.0158276446832986
  0
LINE
  8
_0-0_
  6
CONTINUOUS
 62
  250
 10
264.70847775081495
 20
3.1620996921421067
 11
267.52467670386966
 21
5.1177989214516515
  0
LINE
  8
_0-0_
  6
CONTINUOUS
 62
  250
 10
267.52467670386966
 20
5.1177989214516515
 11
264.70847775081495
 21
3.1620996921421067
  0
LINE
  8
_0-0_
  6
CONTINUOUS
 62
  250
 10
264.70847775081495
 20
3.1620996921421067
 11
267.52467670386966
 21
5.1177989214516515
  0
LINE
  8
_0-0_
  6
CONTINUOUS
 62
  250
 10
267.21147450407858
 20
5.2932582872619776
 11
267.30116504514223
 21
5.3546698904332573
  0
LINE
  8
_0-0_
  6
CONTINUOUS
 62
  250
 10
267.30116504514223
 20
5.3546698904332573
 11
267.21147450407858
 21
5.2932582872619776
  0
LINE
  8
_0-0_
  6
CONTINUOUS
 62
  250
 10
267.21147450407858
 20
5.2932582872619776
 11
267.30116504514223
 21
5.3546698904332573
  0
LINE
  8
_0-0_
  6
CONTINUOUS
 62
  250
 10
264.72186452823769
 20
3.0273012327507729
 11
267.50910842593504
 21
4.965014720800724
  0
LINE
  8
_0-0_
  6
CONTINUOUS
 62
  250
 10
267.50910842593504
 20
4.965014720800724
 11
264.72186452823769
 21
3.0273012327507729
  0
LINE
  8
_0-0_
  6
CONTINUOUS
 62
  250
 10
264.55677090142575
 20
3.2446132129914247
 11
267.37836537378502
 21
5.2051923721712399
  0
LINE
  8
_0-0_
  6
CONTINUOUS
 62
  250
 10
267.37836537378502
 20
5.2051923721712399
 11
264.55677090142575
 21
3.2446132129914247
  0
LINE
  8
_0-0_
  6
CONTINUOUS
 62
  250
 10
264.55677090142575
 20
3.2446132129914247
 11
267.37836537378502
 21
5.2051923721712399
  0
LINE
  8
_0-0_
  6
CONTINUOUS
 62
  250
 10
264.40369819822121
 20
3.1629935512029874
 11
267.3088736681629
 21
5.1870030382390553
  0
LINE
  8
_0-0_
  6
CONTINUOUS
 62
  250
 10
267.3088736681629
 20
5.1870030382390553
 11
264.40369819822121
 21
3.1629935512029874
  0
LINE
  8
_0-0_
  6
CONTINUOUS
 62
  250
 10
264.40369819822121
 20
3.1629935512029874
 11
267.3088736681629
 21
5.1870030382390553
  0
LINE
  8
_0-0_
  6
CONTINUOUS
 62
  250
 10
268.11584385023855
 20
4.6825720239722557
 11
267.3555357870091
 21
4.0895863496127447
  0
LINE
  8
_0-0_
  6
CONTINUOUS
 62
  250
 10
267.3555357870091
 20
4.0895863496127447
 11
268.11584385023855
 21
4.6825720239722557
  0
LINE
  8
_0-0_
  6
CONTINUOUS
 62
  250
 10
268.11584385023855
 20
4.6825720239722557
 11
267.3555357870091
 21
4.0895863496127447
  0
LINE
  8
_0-0_
  6
CONTINUOUS
 62
  250
 10
266.13812453040356
 20
3.24718331723966
 11
266.14556850890995
 21
3.2428880265083251
  0
LINE
  8
_0-0_
  6
CONTINUOUS
 62
  250
 10
266.14556850890995
 20
3.2428880265083251
 11
266.15245513909309
 21
3.237171838785514
  0
LINE
  8
_0-0_
  6
CONTINUOUS
 62
  250
 10
266.15245513909309
 20
3.237171838785514
 11
266.15857611842415
 21
3.2299377372506513
  0
LINE
  8
_0-0_
  6
CONTINUOUS
 62
  250
 10
266.15857611842415
 20
3.2299377372506513
 11
266.16375312068953
 21
3.2210622448922948
  0
LINE
  8
_0-0_
  6
CONTINUOUS
 62
  250
 10
266.16375312068953
 20
3.2210622448922948
 11
266.16779400355881
 21
3.2104163026260153
  0
LINE
  8
_0-0_
  6
CONTINUOUS
 62
  250
 10
266.16779400355881
 20
3.2104163026260153
 11
266.17051150950141
 21
3.1978985392260313
  0
LINE
  8
_0-0_
  6
CONTINUOUS
 62
  250
 10
266.17051150950141
 20
3.1978985392260313
 11
266.17171796184562
 21
3.1833688427150832
  0
LINE
  8
_0-0_
  6
CONTINUOUS
 62
  250
 10
266.17171796184562
 20
3.1833688427150832
 11
266.1712233398373
 21
3.1667247254528377
  0
LINE
  8
_0-0_
  6
CONTINUOUS
 62
  250
 10
266.1712233398373
 20
3.1667247254528377
 11
266.16883996680508
 21
3.1478260754616372
  0
LINE
  8
_0-0_
  6
CONTINUOUS
 62
  250
 10
266.16883996680508
 20
3.1478260754616372
 11
266.16438058521788
 21
3.1265715215163539
  0
LINE
  8
_0-0_
  6
CONTINUOUS
 62
  250
 10
266.16438058521788
 20
3.1265715215163539
 11
266.13812453040356
 21
3.24718331723966
  0
LINE
  8
_0-0_
  6
CONTINUOUS
 62
  250
 10
266.13812453040356
 20
3.24718331723966
 11
266.14556850890995
 21
3.2428880265083251
  0
LINE
  8
_0-0_
  6
CONTINUOUS
 62
  250
 10
266.14556850890995
 20
3.2428880265083251
 11
266.15245513909309
 21
3.237171838785514
  0
LINE
  8
_0-0_
  6
CONTINUOUS
 62
  250
 10
266.15245513909309
 20
3.237171838785514
 11
266.15857611842415
 21
3.2299377372506513
  0
LINE
  8
_0-0_
  6
CONTINUOUS
 62
  250
 10
266.15857611842415
 20
3.2299377372506513
 11
266.16375312068953
 21
3.2210622448922948
  0
LINE
  8
_0-0_
  6
CONTINUOUS
 62
  250
 10
266.16375312068953
 20
3.2210622448922948
 11
266.16779400355881
 21
3.2104163026260153
  0
LINE
  8
_0-0_
  6
CONTINUOUS
 62
  250
 10
266.16779400355881
 20
3.2104163026260153
 11
266.17051150950141
 21
3.1978985392260313
  0
LINE
  8
_0-0_
  6
CONTINUOUS
 62
  250
 10
266.17051150950141
 20
3.1978985392260313
 11
266.17171796184562
 21
3.1833688427150832
  0
LINE
  8
_0-0_
  6
CONTINUOUS
 62
  250
 10
266.17171796184562
 20
3.1833688427150832
 11
266.1712233398373
 21
3.1667247254528377
  0
LINE
  8
_0-0_
  6
CONTINUOUS
 62
  250
 10
266.1712233398373
 20
3.1667247254528377
 11
266.16883996680508
 21
3.1478260754616372
  0
LINE
  8
_0-0_
  6
CONTINUOUS
 62
  250
 10
266.16883996680508
 20
3.1478260754616372
 11
266.16438058521788
 21
3.1265715215163539
  0
LINE
  8
_0-0_
  6
CONTINUOUS
 62
  250
 10
266.77024018578066
 20
3.6778430983118824
 11
266.76735577926695
 21
3.6658648710221087
  0
LINE
  8
_0-0_
  6
CONTINUOUS
 62
  250
 10
266.76735577926695
 20
3.6658648710221087
 11
266.7656521177064
 21
3.6530008392388993
  0
LINE
  8
_0-0_
  6
CONTINUOUS
 62
  250
 10
266.7656521177064
 20
3.6530008392388993
 11
266.76555806472214
 21
3.6398999891470396
  0
LINE
  8
_0-0_
  6
CONTINUOUS
 62
  250
 10
266.76555806472214
 20
3.6398999891470396
 11
266.76750354472597
 21
3.627224592653306
  0
LINE
  8
_0-0_
  6
CONTINUOUS
 62
  250
 10
266.76750354472597
 20
3.627224592653306
 11
266.77192911588116
 21
3.6156026465713182
  0
LINE
  8
_0-0_
  6
CONTINUOUS
 62
  250
 10
266.77192911588116
 20
3.6156026465713182
 11
266.77926023694113
 21
3.6057074757013368
  0
LINE
  8
_0-0_
  6
CONTINUOUS
 62
  250
 10
266.77926023694113
 20
3.6057074757013368
 11
266.78993746606915
 21
3.5981670768564697
  0
LINE
  8
_0-0_
  6
CONTINUOUS
 62
  250
 10
266.78993746606915
 20
3.5981670768564697
 11
266.80439072767683
 21
3.5936437219441757
  0
LINE
  8
_0-0_
  6
CONTINUOUS
 62
  250
 10
266.80439072767683
 20
3.5936437219441757
 11
266.82304441972894
 21
3.5927974500417577
  0
LINE
  8
_0-0_
  6
CONTINUOUS
 62
  250
 10
266.82304441972894
 20
3.5927974500417577
 11
266.84635185571727
 21
3.5962485543142009
  0
LINE
  8
_0-0_
  6
CONTINUOUS
 62
  250
 10
266.84635185571727
 20
3.5962485543142009
 11
266.77024018578066
 21
3.6778430983118824
  0
LINE
  8
_0-0_
  6
CONTINUOUS
 62
  250
 10
266.77024018578066
 20
3.6778430983118824
 11
266.76735577926695
 21
3.6658648710221087
  0
LINE
  8
_0-0_
  6
CONTINUOUS
 62
  250
 10
266.76735577926695
 20
3.6658648710221087
 11
266.7656521177064
 21
3.6530008392388993
  0
LINE
  8
_0-0_
  6
CONTINUOUS
 62
  250
 10
266.7656521177064
 20
3.6530008392388993
 11
266.76555806472214
 21
3.6398999891470396
  0
LINE
  8
_0-0_
  6
CONTINUOUS
 62
  250
 10
266.76555806472214
 20
3.6398999891470396
 11
266.76750354472597
 21
3.627224592653306
  0
LINE
  8
_0-0_
  6
CONTINUOUS
 62
  250
 10
266.76750354472597
 20
3.627224592653306
 11
266.77192911588116
 21
3.6156026465713182
  0
LINE
  8
_0-0_
  6
CONTINUOUS
 62
  250
 10
266.77192911588116
 20
3.6156026465713182
 11
266.77926023694113
 21
3.6057074757013368
  0
LINE
  8
_0-0_
  6
CONTINUOUS
 62
  250
 10
266.77926023694113
 20
3.6057074757013368
 11
266.78993746606915
 21
3.5981670768564697
  0
LINE
  8
_0-0_
  6
CONTINUOUS
 62
  250
 10
266.78993746606915
 20
3.5981670768564697
 11
266.80439072767683
 21
3.5936437219441757
  0
LINE
  8
_0-0_
  6
CONTINUOUS
 62
  250
 10
266.80439072767683
 20
3.5936437219441757
 11
266.82304441972894
 21
3.5927974500417577
  0
LINE
  8
_0-0_
  6
CONTINUOUS
 62
  250
 10
266.82304441972894
 20
3.5927974500417577
 11
266.84635185571727
 21
3.5962485543142009
  0
LINE
  8
_0-0_
  6
CONTINUOUS
 62
  250
 10
269.38281300127232
 20
5.0677408554737724
 11
266.4117081898147
 21
3.0027070501813284
  0
LINE
  8
_0-0_
  6
CONTINUOUS
 62
  250
 10
269.38281300127232
 20
5.0677408554737724
 11
266.4117081898147
 21
3.0027070501813284
  0
LINE
  8
_0-0_
  6
CONTINUOUS
 62
    7
 10
300.68926442379711
 20
30.389195563000513
 11
300.68926442379711
 21
30.389195563000513
  0
LINE
  8
_0-0_
  6
CONTINUOUS
 62
    7
 10
300.68926442379711
 20
30.389195563000513
 11
302.67779192116473
 21
32.070590977362443
  0
LINE
  8
_0-0_
  6
CONTINUOUS
 62
    7
 10
302.67779192116473
 20
32.070590977362443
 11
304.37127641361502
 21
33.984640011192901
  0
LINE
  8
_0-0_
  6
CONTINUOUS
 62
    7
 10
304.37127641361502
 20
33.984640011192901
 11
305.71826223178937
 21
36.073185253154492
  0
LINE
  8
_0-0_
  6
CONTINUOUS
 62
    7
 10
305.71826223178937
 20
36.073185253154492
 11
306.67782189321019
 21
38.272767312925104
  0
LINE
  8
_0-0_
  6
CONTINUOUS
 62
    7
 10
306.67782189321019
 20
38.272767312925104
 11
307.220799663126
 21
40.516553002660828
  0
LINE
  8
_0-0_
  6
CONTINUOUS
 62
    7
 10
307.220799663126
 20
40.516553002660828
 11
307.33069743675776
 21
42.736366029589384
  0
LINE
  8
_0-0_
  6
CONTINUOUS
 62
    7
 10
307.33069743675776
 20
42.736366029589384
 11
307.00417602586469
 21
44.864758498167149
  0
LINE
  8
_0-0_
  6
CONTINUOUS
 62
    7
 10
307.00417602586469
 20
44.864758498167149
 11
306.25115661828897
 21
46.837060280254946
  0
LINE
  8
_0-0_
  6
CONTINUOUS
 62
    7
 10
306.25115661828897
 20
46.837060280254946
 11
305.0945193276836
 21
48.593343984236881
  0
LINE
  8
_0-0_
  6
CONTINUOUS
 62
    7
 10
305.0945193276836
 20
48.593343984236881
 11
303.56940799283683
 21
50.080245818489907
  0
LINE
  8
_0-0_
  6
CONTINUOUS
 62
    7
 10
303.56940799283683
 20
50.080245818489907
 11
301.72216234991453
 21
51.25258702318888
  0
LINE
  8
_0-0_
  6
CONTINUOUS
 62
    7
 10
301.72216234991453
 20
51.25258702318888
 11
299.60891002302537
 21
52.074746604062291
  0
LINE
  8
_0-0_
  6
CONTINUOUS
 62
    7
 10
299.60891002302537
 20
52.074746604062291
 11
297.2938611147647
 21
52.521743658278126
  0
LINE
  8
_0-0_
  6
CONTINUOUS
 62
    7
 10
297.2938611147647
 20
52.521743658278126
 11
294.84735721473868
 21
52.579996406535457
  0
LINE
  8
_0-0_
  6
CONTINUOUS
 62
    7
 10
294.84735721473868
 20
52.579996406535457
 11
292.34373410595896
 21
52.24773486855581
  0
LINE
  8
_0-0_
  6
CONTINUOUS
 62
    7
 10
292.34373410595896
 20
52.24773486855581
 11
289.85906310969136
 21
51.535054643038229
  0
LINE
  8
_0-0_
  6
CONTINUOUS
 62
    7
 10
289.85906310969136
 20
51.535054643038229
 11
287.46883969685325
 21
50.463610158001487
  0
LINE
  8
_0-0_
  6
CONTINUOUS
 62
    7
 10
287.46883969685325
 20
50.463610158001487
 11
286.72234064896082
 21
50.041945162624557
  0
LINE
  8
_0-0_
  6
CONTINUOUS
 62
    7
 10
268.55007183661985
 20
5.4649303296576761
 11
300.62580617930593
 21
30.370794642802167
  0
LINE
  8
_0-0_
  6
CONTINUOUS
 62
    7
 10
300.8727030888067
 20
30.151813473997365
 11
300.8727030888067
 21
30.151813473997365
  0
LINE
  8
_0-0_
  6
CONTINUOUS
 62
    7
 10
300.8727030888067
 20
30.151813473997365
 11
302.89966470783457
 21
31.868669045578482
  0
LINE
  8
_0-0_
  6
CONTINUOUS
 62
    7
 10
302.89966470783457
 20
31.868669045578482
 11
304.62484182959514
 21
33.824313532347951
  0
LINE
  8
_0-0_
  6
CONTINUOUS
 62
    7
 10
304.62484182959514
 20
33.824313532347951
 11
305.99581582022552
 21
35.959325666179147
  0
LINE
  8
_0-0_
  6
CONTINUOUS
 62
    7
 10
305.99581582022552
 20
35.959325666179147
 11
306.97093032876671
 21
38.208834183753872
  0
LINE
  8
_0-0_
  6
CONTINUOUS
 62
    7
 10
306.97093032876671
 20
38.208834183753872
 11
307.52055699430844
 21
40.50448890707186
  0
LINE
  8
_0-0_
  6
CONTINUOUS
 62
    7
 10
307.52055699430844
 20
40.50448890707186
 11
307.62799568874271
 21
42.77653752902242
  0
LINE
  8
_0-0_
  6
CONTINUOUS
 62
    7
 10
307.62799568874271
 20
42.77653752902242
 11
307.28998194170578
 21
44.955945001939682
  0
LINE
  8
_0-0_
  6
CONTINUOUS
 62
    7
 10
307.28998194170578
 20
44.955945001939682
 11
306.51678612985808
 21
46.976491132592436
  0
LINE
  8
_0-0_
  6
CONTINUOUS
 62
    7
 10
306.51678612985808
 20
46.976491132592436
 11
305.33190141668672
 21
48.776782649246471
  0
LINE
  8
_0-0_
  6
CONTINUOUS
 62
    7
 10
305.33190141668672
 20
48.776782649246471
 11
303.77132992462077
 21
50.302118605159734
  0
LINE
  8
_0-0_
  6
CONTINUOUS
 62
    7
 10
303.77132992462077
 20
50.302118605159734
 11
301.88248882875945
 21
51.506152439169014
  0
LINE
  8
_0-0_
  6
CONTINUOUS
 62
    7
 10
301.88248882875945
 20
51.506152439169014
 11
299.72276961000074
 21
52.352300192498475
  0
LINE
  8
_0-0_
  6
CONTINUOUS
 62
    7
 10
299.72276961000074
 20
52.352300192498475
 11
297.35779424393593
 21
52.814852093834617
  0
LINE
  8
_0-0_
  6
CONTINUOUS
 62
    7
 10
297.35779424393593
 20
52.814852093834617
 11
294.85942131032766
 21
52.879753737717905
  0
LINE
  8
_0-0_
  6
CONTINUOUS
 62
    7
 10
294.85942131032766
 20
52.879753737717905
 11
292.30356260652593
 21
52.545033120540751
  0
LINE
  8
_0-0_
  6
CONTINUOUS
 62
    7
 10
292.30356260652593
 20
52.545033120540751
 11
289.76787660591884
 21
51.820860558879282
  0
LINE
  8
_0-0_
  6
CONTINUOUS
 62
    7
 10
289.76787660591884
 20
51.820860558879282
 11
287.32940884451574
 21
50.729239669570589
  0
LINE
  8
_0-0_
  6
CONTINUOUS
 62
    7
 10
287.32940884451574
 20
50.729239669570589
 11
286.56802999182139
 21
50.299215878200968
  0
LINE
  8
_0-0_
  6
CONTINUOUS
 62
    7
 10
301.05614175381629
 20
29.914431384994217
 11
301.05614175381629
 21
29.914431384994217
  0
LINE
  8
_0-0_
  6
CONTINUOUS
 62
    7
 10
301.05614175381629
 20
29.914431384994217
 11
303.12153749450437
 21
31.666747113794514
  0
LINE
  8
_0-0_
  6
CONTINUOUS
 62
    7
 10
303.12153749450437
 20
31.666747113794514
 11
304.87840724557526
 21
33.663987053503
  0
LINE
  8
_0-0_
  6
CONTINUOUS
 62
    7
 10
304.87840724557526
 20
33.663987053503
 11
306.27336940866172
 21
35.845466079203796
  0
LINE
  8
_0-0_
  6
CONTINUOUS
 62
    7
 10
306.27336940866172
 20
35.845466079203796
 11
307.26403876432323
 21
38.14490105458264
  0
LINE
  8
_0-0_
  6
CONTINUOUS
 62
    7
 10
307.26403876432323
 20
38.14490105458264
 11
307.82031432549087
 21
40.492424811482891
  0
LINE
  8
_0-0_
  6
CONTINUOUS
 62
    7
 10
307.82031432549087
 20
40.492424811482891
 11
307.92529394072767
 21
42.816709028455463
  0
LINE
  8
_0-0_
  6
CONTINUOUS
 62
    7
 10
307.92529394072767
 20
42.816709028455463
 11
307.5757878575468
 21
45.047131505712208
  0
LINE
  8
_0-0_
  6
CONTINUOUS
 62
    7
 10
307.5757878575468
 20
45.047131505712208
 11
306.78241564142718
 21
47.115921984929926
  0
LINE
  8
_0-0_
  6
CONTINUOUS
 62
    7
 10
306.78241564142718
 20
47.115921984929926
 11
305.5692835056899
 21
48.960221314256067
  0
LINE
  8
_0-0_
  6
CONTINUOUS
 62
    7
 10
305.5692835056899
 20
48.960221314256067
 11
303.97325185640477
 21
50.523991391829554
  0
LINE
  8
_0-0_
  6
CONTINUOUS
 62
    7
 10
303.97325185640477
 20
50.523991391829554
 11
302.04281530760443
 21
51.759717855149148
  0
LINE
  8
_0-0_
  6
CONTINUOUS
 62
    7
 10
302.04281530760443
 20
51.759717855149148
 11
299.83662919697605
 21
52.62985378093466
  0
LINE
  8
_0-0_
  6
CONTINUOUS
 62
    7
 10
299.83662919697605
 20
52.62985378093466
 11
297.42172737310716
 21
53.107960529391114
  0
LINE
  8
_0-0_
  6
CONTINUOUS
 62
    7
 10
297.42172737310716
 20
53.107960529391114
 11
294.87148540591664
 21
53.179511068900347
  0
LINE
  8
_0-0_
  6
CONTINUOUS
 62
    7
 10
294.87148540591664
 20
53.179511068900347
 11
292.2633911070929
 21
52.842331372525692
  0
LINE
  8
_0-0_
  6
CONTINUOUS
 62
    7
 10
292.2633911070929
 20
52.842331372525692
 11
289.67669010214627
 21
52.106666474720335
  0
LINE
  8
_0-0_
  6
CONTINUOUS
 62
    7
 10
289.67669010214627
 20
52.106666474720335
 11
287.18997799217829
 21
50.994869181139691
  0
LINE
  8
_0-0_
  6
CONTINUOUS
 62
    7
 10
287.18997799217829
 20
50.994869181139691
 11
286.41371933468196
 21
50.556486593777379
  0
LINE
  8
_0-0_
  6
CONTINUOUS
 62
    7
 10
268.73406096391767
 20
5.2279746354104475
 11
300.80979530660375
 21
30.133838948554953
  0
LINE
  8
_0-0_
  6
CONTINUOUS
 62
    7
 10
268.91805009121549
 20
4.9910189411632189
 11
300.99378443390162
 21
29.896883254307738
  0
LINE
  8
_0-0_
  6
CONTINUOUS
 62
    7
 10
146.29299691040165
 20
260.70679567189904
 11
146.29299691040165
 21
67.355403150783886
  0
LINE
  8
_0-0_
  6
CONTINUOUS
 62
    7
 10
146.29299691040165
 20
67.355403150783886
 11
273.87928103355495
 21
33.16876135469721
  0
LINE
  8
_0-0_
  6
CONTINUOUS
 62
    7
 10
146.29329756658066
 20
67.357337034059441
 11
145.79740836631225
 21
67.071035270796273
  0
LINE
  8
_0-0_
  6
CONTINUOUS
 62
    7
 10
278.77445932028837
 20
230.42209364515924
 11
278.77445932028837
 21
26.177518426203264
  0
LINE
  8
_0-0_
  6
CONTINUOUS
 62
    7
 10
278.77550680160607
 20
26.178331764638187
 11
285.73445932028835
 21
31.58175372032089
  0
LINE
  8
_0-0_
  6
CONTINUOUS
 62
    7
 10
140.79299691040165
 20
267.3941150683537
 11
140.79299691040165
 21
63.150633859605762
  0
LINE
  8
_0-0_
  6
CONTINUOUS
 62
    7
 10
140.79299691040165
 20
63.150633859605762
 11
278.77550680160607
 21
26.178331764638187
  0
ENDSEC
  0
EOF
