  0
SECTION
  2
HEADER
  9
$ACADVER
  1
AC1009
  9
$INSBASE
 10
0
 20
0
 30
0
  9
$EXTMIN
 10
0
 20
0
  9
$EXTMAX
 10
840
 20
594
  9
$LIMMIN
 10
0
 20
0
  9
$LIMMAX
 10
840
 20
594
  9
$LTSCALE
 40
2
  0
ENDSEC
  0
SECTION
  2
TABLES
  0
TABLE
  2
LTYPE
 70
     9
  0
LTYPE
  2
CONTINUOUS
 70
    64
  3
実線
 72
    65
 73
     0
 40
0.0
  0
LTYPE
  2
DASHED1
 70
    64
  3
--  --  --  --  --  --  --  --  
 72
    65
 73
     2
 40
2.5
 49
1.25
 49
-1.25
  0
LTYPE
  2
DASHED2
 70
    64
  3
----    ----    ----    ----    
 72
    65
 73
     2
 40
5.0
 49
2.5
 49
-2.5
  0
LTYPE
  2
DASHED3
 70
    64
  3
------  ------  ------  ------  
 72
    65
 73
     2
 40
5.0
 49
3.75
 49
-1.25
  0
LTYPE
  2
CENTER1
 70
    64
  3
----- - ----- - ----- - ----- - 
 72
    65
 73
     4
 40
10.0
 49
6.25
 49
-1.25
 49
1.25
 49
-1.25
  0
LTYPE
  2
CENTER2
 70
    64
  3
----------  --  ----------  --  
 72
    65
 73
     4
 40
20.0
 49
12.5
 49
-2.5
 49
2.5
 49
-2.5
  0
LTYPE
  2
PHANTOM1
 70
    64
  3
--- - - --- - - --- - - --- - - 
 72
    65
 73
     6
 40
10.0
 49
3.25
 49
-1.25
 49
1.25
 49
-1.25
 49
1.25
 49
-1.25
  0
LTYPE
  2
PHANTOM2
 70
    64
  3
--------  -  -  --------  -  -  
 72
    65
 73
     6
 40
20.0
 49
10.0
 49
-2.5
 49
1.25
 49
-2.5
 49
1.25
 49
-2.5
  0
LTYPE
  2
DOT
 70
    64
  3
-   -   -   -   -   -   -   -   
 72
    65
 73
     2
 40
2.5
 49
0.625
 49
-1.875
  0
LTYPE
  2
DUMMY
 70
    64
  3
ダミー
 72
    65
 73
     0
 40
0.0
  0
LTYPE
  2
RAND1
 70
    64
  3
ランダム線1
 72
    65
 73
     4
 40
10.0
 49
1.0
 49
-2.0
 49
3.0
 49
-4.0
  0
LTYPE
  2
RAND2
 70
    64
  3
ランダム線2
 72
    65
 73
     4
 40
14.0
 49
2.0
 49
-3.0
 49
4.0
 49
-5.0
  0
LTYPE
  2
RAND3
 70
    64
  3
ランダム線3
 72
    65
 73
     4
 40
18.0
 49
3.0
 49
-4.0
 49
5.0
 49
-6.0
  0
LTYPE
  2
RAND4
 70
    64
  3
ランダム線4
 72
    65
 73
     4
 40
22.0
 49
4.0
 49
-5.0
 49
6.0
 49
-7.0
  0
LTYPE
  2
RAND5
 70
    64
  3
ランダム線5
 72
    65
 73
     4
 40
26.0
 49
5.0
 49
-6.0
 49
7.0
 49
-8.0
  0
LTYPE
  2
LONG1
 70
    64
  3
----------  --  ----------  --  
 72
    65
 73
     4
 40
40.0
 49
32.5
 49
-2.5
 49
2.5
 49
-2.5
  0
LTYPE
  2
LONG2
 70
    64
  3
--------  -  -  --------  -  -  
 72
    65
 73
     6
 40
40.0
 49
30.0
 49
-2.5
 49
1.25
 49
-2.5
 49
1.25
 49
-2.5
  0
LTYPE
  2
LONG3
 70
    64
  3
+++++++++++++++..+++++++++++++++
 72
    65
 73
     2
 40
40.0
 49
37.5
 49
-2.5
  0
LTYPE
  2
LONG4
 70
    64
  3
+++++++++++++++..+++++++++++++++
 72
    65
 73
     2
 40
80.0
 49
75.0
 49
-5.0
  0
LTYPE
  2
LONG5
 70
    64
  3
----------  --  ----------  --  
 72
    65
 73
     4
 40
60.0
 49
37.5
 49
-7.5
 49
7.5
 49
-7.5
  0
LTYPE
  2
dashed
 70
   64
  3
-------   -------------   ------
 72
   65
 73
    2
 40
7.5
 49
6
 49
-1.5
  0
LTYPE
  2
dashed_spaced
 70
   64
  3
----        --------        ----
 72
   65
 73
    2
 40
12
 49
6
 49
-6
  0
LTYPE
  2
long_dashed_dotted
 70
   64
  3
------------- --- --------------
 72
   65
 73
    4
 40
15.25
 49
12
 49
-1.5
 49
0.25
 49
-1.5
  0
LTYPE
  2
long_dashed_double-dotted
 70
   64
  3
----------- --- --- ------------
 72
   65
 73
    6
 40
17
 49
12
 49
-1.5
 49
0.25
 49
-1.5
 49
0.25
 49
-1.5
  0
LTYPE
  2
long_dashed_triplicate-dotted
 70
   64
  3
--------- --- --- --- ----------
 72
   65
 73
    8
 40
18.75
 49
12
 49
-1.5
 49
0.25
 49
-1.5
 49
0.25
 49
-1.5
 49
0.25
 49
-1.5
  0
LTYPE
  2
dotted
 70
   64
  3
   -       -       -       -    
 72
   65
 73
    2
 40
1.75
 49
0.25
 49
-1.5
  0
LTYPE
  2
chain
 70
   64
  3
-------------- -- --------------
 72
   65
 73
    4
 40
18.5
 49
12
 49
-1.5
 49
3.5
 49
-1.5
  0
LTYPE
  2
chain_double_dash
 70
   64
  3
------------ -- -- -------------
 72
   65
 73
    6
 40
23.5
 49
12
 49
-1.5
 49
3.5
 49
-1.5
 49
3.5
 49
-1.5
  0
LTYPE
  2
dashed_dotted
 70
   64
  3
-----------     -     ----------
 72
   65
 73
    4
 40
9.25
 49
6
 49
-1.5
 49
0.25
 49
-1.5
  0
LTYPE
  2
double-dashed_dotted
 70
   64
  3
------   -----------   -   -----
 72
   65
 73
    6
 40
16.75
 49
6
 49
-1.5
 49
6
 49
-1.5
 49
0.25
 49
-1.5
  0
LTYPE
  2
dashed_double-dotted
 70
   64
  3
---------    -    -    ---------
 72
   65
 73
    6
 40
11
 49
6
 49
-1.5
 49
0.25
 49
-1.5
 49
0.25
 49
-1.5
  0
LTYPE
  2
double-dashed_double-dotted
 70
   64
  3
-----   ---------   -   -   ----
 72
   65
 73
    8
 40
18.5
 49
6
 49
-1.5
 49
6
 49
-1.5
 49
0.25
 49
-1.5
 49
0.25
 49
-1.5
  0
LTYPE
  2
dashed_triplicate-dotted
 70
   64
  3
-------    -    -    -    ------
 72
   65
 73
    8
 40
12.75
 49
6
 49
-1.5
 49
0.25
 49
-1.5
 49
0.25
 49
-1.5
 49
0.25
 49
-1.5
  0
LTYPE
  2
double-dashed_triplicate-dotted
 70
   64
  3
-----  ---------  -  -  -  -----
 72
   65
 73
   10
 40
20.25
 49
6
 49
-1.5
 49
6
 49
-1.5
 49
0.25
 49
-1.5
 49
0.25
 49
-1.5
 49
0.25
 49
-1.5
  0
LTYPE
  2
undefined
 70
   64
  3
--------------------------------
 72
   65
 73
    0
 40
0
  0
LTYPE
  2
_
 70
   64
  3
                                
 72
   65
 73
    0
 40
0
  0
LTYPE
  2
__18
 70
   64
  3
                                
 72
   65
 73
    0
 40
0
  0
LTYPE
  2
__19
 70
   64
  3
                                
 72
   65
 73
    0
 40
0
  0
LTYPE
  2
__20
 70
   64
  3
                                
 72
   65
 73
    0
 40
0
  0
LTYPE
  2
__21
 70
   64
  3
                                
 72
   65
 73
    0
 40
0
  0
LTYPE
  2
__22
 70
   64
  3
                                
 72
   65
 73
    0
 40
0
  0
LTYPE
  2
__23
 70
   64
  3
                                
 72
   65
 73
    0
 40
0
  0
LTYPE
  2
__24
 70
   64
  3
                                
 72
   65
 73
    0
 40
0
  0
LTYPE
  2
__25
 70
   64
  3
                                
 72
   65
 73
    0
 40
0
  0
LTYPE
  2
__26
 70
   64
  3
                                
 72
   65
 73
    0
 40
0
  0
LTYPE
  2
__27
 70
   64
  3
                                
 72
   65
 73
    0
 40
0
  0
LTYPE
  2
__28
 70
   64
  3
                                
 72
   65
 73
    0
 40
0
  0
LTYPE
  2
__29
 70
   64
  3
                                
 72
   65
 73
    0
 40
0
  0
LTYPE
  2
__30
 70
   64
  3
                                
 72
   65
 73
    0
 40
0
  0
LTYPE
  2
__31
 70
   64
  3
                                
 72
   65
 73
    0
 40
0
  0
LTYPE
  2
__32
 70
   64
  3
                                
 72
   65
 73
    0
 40
0
  0
ENDTAB
  0
TABLE
  2
STYLE
  5
3
100
AcDbSymbolTable
 70
     1
  0
STYLE
  5
10
100
AcDbSymbolTableRecord
100
AcDbTextStyleTableRecord
  2
STANDARD
 70
     0
 40
0.0
 41
1.0
 50
0.0
 71
     0
 42
0.2
  3
txt
  4
bigfont.shx
  0
STYLE
  5
26
100
AcDbSymbolTableRecord
100
AcDbTextStyleTableRecord
  2
TATEGAKI
 70
    68
 40
0.0
 41
1.0
 50
0.0
 71
     0
 42
1.0
  3
txt
  4
bigfont.shx
  0
ENDTAB
  0
TABLE
  2
LAYER
 70
    6
  0
LAYER
  2
_0-0_1
 70
   64
 62
    7
  6
CONTINUOUS
  0
LAYER
  2
_1-0_
 70
   64
 62
    7
  6
CONTINUOUS
  0
LAYER
  2
_1-6_23
 70
   64
 62
    7
  6
CONTINUOUS
  0
LAYER
  2
_2-0_
 70
   64
 62
    7
  6
CONTINUOUS
  0
LAYER
  2
_5-0_
 70
   64
 62
    7
  6
CONTINUOUS
  0
LAYER
  2
ADD_LINE
 70
   64
 62
    7
  6
CONTINUOUS
  0
ENDTAB
  0
ENDSEC
  0
SECTION
  2
BLOCKS
  0
ENDSEC
  0
SECTION
  2
ENTITIES
  0
TEXT
  8
_1-0_
 62
    7
 10
421.14359722681672
 20
159.07370970212045
 40
4
 41
1
 50
0
  1
注記 2)
  0
LINE
  8
_1-6_23
  6
CONTINUOUS
 62
    7
 10
818.24613889818374
 20
96.813026878876087
 11
628.2461548981837
 21
96.813026878876087
  0
LINE
  8
_1-6_23
  6
CONTINUOUS
 62
    7
 10
818.24613889818374
 20
106.81302687887609
 11
628.2461548981837
 21
106.81302687887609
  0
LINE
  8
_1-6_23
  6
CONTINUOUS
 62
    7
 10
818.24613889818374
 20
116.81302687887609
 11
628.2461548981837
 21
116.81302687887609
  0
TEXT
  8
_0-0_1
 62
    7
 10
63.953847392080775
 20
515.04673914601426
 40
9.9999999999999716
 41
1.0000000000000013
 50
0
  1
◆外形図
  0
LINE
  8
_0-0_1
  6
CONTINUOUS
 62
    7
 10
588.14017489818366
 20
519.70761887887602
 11
592.64017489818366
 21
510.70761487887603
  0
LINE
  8
_0-0_1
  6
CONTINUOUS
 62
    7
 10
578.29442489818371
 20
520.01924487887607
 11
578.29442489818371
 21
510.01928487887614
  0
LINE
  8
_0-0_1
  6
CONTINUOUS
 62
    7
 10
598.29444089818367
 20
520.01924487887607
 11
598.29444089818367
 21
510.01928487887614
  0
LINE
  8
_0-0_1
  6
CONTINUOUS
 62
    7
 10
658.29444089818367
 20
520.01924487887607
 11
658.29444089818367
 21
510.01928487887614
  0
LINE
  8
_0-0_1
  6
CONTINUOUS
 62
    7
 10
578.29442489818371
 20
530.81302887887614
 11
578.29442489818371
 21
520.01924487887607
  0
LINE
  8
_0-0_1
  6
CONTINUOUS
 62
    7
 10
598.29444089818367
 20
530.81302887887614
 11
598.29444089818367
 21
520.01924487887607
  0
LINE
  8
_0-0_1
  6
CONTINUOUS
 62
    7
 10
778.29444089818367
 20
530.81302887887614
 11
778.29444089818367
 21
510.01928487887614
  0
LINE
  8
_0-0_1
  6
CONTINUOUS
 62
    7
 10
798.29444089818355
 20
530.81302887887614
 11
798.29444089818355
 21
510.01928487887614
  0
LINE
  8
_0-0_1
  6
CONTINUOUS
 62
    7
 10
818.24613889818374
 20
520.01924487887607
 11
578.29445689818363
 21
520.01924487887607
  0
LINE
  8
_0-0_1
  6
CONTINUOUS
 62
    7
 10
578.29442489818371
 20
510.01928487887614
 11
818.24613889818374
 21
510.01928487887614
  0
TEXT
  8
_0-0_1
 62
    7
 10
581.92572491889473
 20
522.33613221977896
 40
6
 41
1
 50
0
  1
Ｎｏ
  0
TEXT
  8
_0-0_1
 62
    7
 10
612.62840636708427
 20
522.43485466816537
 40
6
 41
1.0000000000000007
 50
0
  1
年　月　日
  0
TEXT
  8
_0-0_1
 62
    7
 10
694.07442628591548
 20
522.2867709955857
 40
6
 41
1.0000000000000011
 50
0
  1
訂　正　記　事
  0
TEXT
  8
_0-0_1
 62
    7
 10
780.90081964180854
 20
521.01571947261004
 40
8.0000000000000284
 41
0.9999999999999973
 50
0
  1
担当
  0
TEXT
  8
_0-0_1
 62
    7
 10
800.250419525555
 20
521.11444192099657
 40
8
 41
1.0000000000000009
 50
0
  1
検印
  0
TEXT
  8
_0-0_1
 62
    7
 10
586.18730158730159
 20
510.7492063492063
 40
8
 41
1
 50
0
  1
1
  0
LINE
  8
_0-0_1
  6
CONTINUOUS
 62
    7
 10
58.246204898183635
 20
530.81302887887614
 11
818.24613889818374
 21
530.81302887887614
  0
LINE
  8
_0-0_1
  6
CONTINUOUS
 62
    7
 10
58.252538898183673
 20
16.813014878876174
 11
58.246204898183635
 21
530.81302887887614
  0
LINE
  8
_0-0_1
  6
CONTINUOUS
 62
    7
 10
818.24613889818374
 20
16.813014878876174
 11
58.246204898183635
 21
16.813014878876174
  0
LINE
  8
_0-0_1
  6
CONTINUOUS
 62
    7
 10
818.24613889818374
 20
530.81302887887614
 11
818.24613889818374
 21
16.813014878876174
  0
LINE
  8
_0-0_1
  6
CONTINUOUS
 62
    7
 10
728.24613889818374
 20
56.813022878876097
 11
728.24613889818374
 21
16.813014878876174
  0
LINE
  8
_0-0_1
  6
CONTINUOUS
 62
    7
 10
728.24613889818374
 20
76.813026878876087
 11
728.24613889818374
 21
56.813022878876097
  0
LINE
  8
_0-0_1
  6
CONTINUOUS
 62
    7
 10
718.2461548981837
 20
56.813022878876097
 11
718.2461548981837
 21
16.813014878876174
  0
LINE
  8
_0-0_1
  6
CONTINUOUS
 62
    7
 10
648.29209689818367
 20
49.37143087887614
 11
648.29209689818367
 21
43.371436878876125
  0
LINE
  8
_0-0_1
  6
CONTINUOUS
 62
    7
 10
648.29209689818367
 20
49.37143087887614
 11
662.29209289818368
 21
52.371428878876088
  0
LINE
  8
_0-0_1
  6
CONTINUOUS
 62
    7
 10
662.29209289818368
 20
52.371428878876088
 11
662.29209289818368
 21
40.371426878876093
  0
LINE
  8
_0-0_1
  6
CONTINUOUS
 62
    7
 10
648.29209689818367
 20
43.371436878876125
 11
662.29209289818368
 21
40.371426878876093
  0
LINE
  8
_0-0_1
  6
CENTER1
 62
    7
 10
666.29205689818377
 20
46.371432878876135
 11
630.2920868981837
 21
46.371432878876135
  0
LINE
  8
_0-0_1
  6
CENTER1
 62
    7
 10
638.29206489818375
 20
54.37143487887613
 11
638.29206489818375
 21
38.371428878876088
  0
LINE
  8
_0-0_1
  6
CONTINUOUS
 62
    7
 10
718.2461548981837
 20
76.813026878876087
 11
718.2461548981837
 21
16.813014878876174
  0
LINE
  8
_0-0_1
  6
CONTINUOUS
 62
    7
 10
778.2461548981837
 20
76.813026878876087
 11
778.2461548981837
 21
56.813022878876097
  0
LINE
  8
_0-0_1
  6
CONTINUOUS
 62
    7
 10
788.24623889818372
 20
76.813026878876087
 11
788.24623889818372
 21
56.813022878876097
  0
LINE
  8
_0-0_1
  6
CONTINUOUS
 62
    7
 10
668.24618889818362
 20
56.813022878876097
 11
668.24618889818362
 21
36.813016878876169
  0
LINE
  8
_0-0_1
  6
CONTINUOUS
 62
    7
 10
678.24617289818366
 20
56.813022878876097
 11
678.24617289818366
 21
36.813016878876169
  0
LINE
  8
_0-0_1
  6
CONTINUOUS
 62
    7
 10
698.24623889818372
 20
76.813026878876087
 11
698.24623889818372
 21
56.813022878876097
  0
LINE
  8
_0-0_1
  6
CONTINUOUS
 62
    7
 10
688.2461548981837
 20
76.813026878876087
 11
688.2461548981837
 21
56.813022878876097
  0
LINE
  8
_0-0_1
  6
CONTINUOUS
 62
    7
 10
668.24618889818362
 20
76.813026878876087
 11
668.24618889818362
 21
56.813022878876097
  0
LINE
  8
_0-0_1
  6
CONTINUOUS
 62
    7
 10
658.2461548981837
 20
76.813026878876087
 11
658.2461548981837
 21
56.813022878876097
  0
LINE
  8
_0-0_1
  6
CONTINUOUS
 62
    7
 10
638.24613889818374
 20
76.813026878876087
 11
638.24613889818374
 21
56.813022878876097
  0
LINE
  8
_0-0_1
  6
CONTINUOUS
 62
    7
 10
818.24613889818374
 20
76.813026878876087
 11
628.2461548981837
 21
76.813026878876087
  0
LINE
  8
_0-0_1
  6
CONTINUOUS
 62
    7
 10
818.24613889818374
 20
56.813022878876097
 11
628.2461548981837
 21
56.813022878876097
  0
LINE
  8
_0-0_1
  6
CONTINUOUS
 62
    7
 10
818.24613889818374
 20
36.813016878876169
 11
628.2461548981837
 21
36.813016878876169
  0
CIRCLE
  8
_0-0_1
  6
CONTINUOUS
 62
    7
 10
638.29206489818375
 20
46.371432878876135
 40
6
  0
CIRCLE
  8
_0-0_1
  6
CONTINUOUS
 62
    7
 10
638.29206489818375
 20
46.371432878876135
 40
3
  0
LINE
  8
_0-0_1
  6
CONTINUOUS
 62
    7
 10
818.24613889818374
 20
86.813026878876087
 11
628.2461548981837
 21
86.813026878876087
  0
LINE
  8
_0-0_1
  6
CONTINUOUS
 62
    7
 10
668.24618889818362
 20
76.813026878876087
 11
668.24618889818362
 21
86.813026878876087
  0
TEXT
  8
_0-0_1
 62
    7
 10
639.72501689818364
 20
77.604776878876123
 40
8
 41
1.0000000000000009
 50
0
  1
出図
  0
LINE
  8
_0-0_1
  6
CONTINUOUS
 62
    7
 10
728.2461548981837
 20
76.813026878876087
 11
728.2461548981837
 21
86.813026878876087
  0
TEXT
  8
_0-0_1
 62
    7
 10
691.57108889818369
 20
78.605196878876143
 40
6
 41
2
 50
0
  1
.   .
  0
LINE
  8
_0-0_1
  6
CONTINUOUS
 62
    7
 10
798.24613889818363
 20
86.813026878876087
 11
798.24613889818363
 21
76.813026878876087
  0
TEXT
  8
_0-0_1
 62
    7
 10
632.96866889818375
 20
72.802968878876129
 40
6
 41
1
 50
0
  1
設計
  7
TATEGAKI
  0
TEXT
  8
_0-0_1
 62
    7
 10
662.87419089818377
 20
72.802968878876129
 40
6
 41
1
 50
0
  1
製図
  7
TATEGAKI
  0
TEXT
  8
_0-0_1
 62
    7
 10
692.60065489818362
 20
72.802968878876129
 40
6
 41
1
 50
0
  1
検図
  7
TATEGAKI
  0
TEXT
  8
_0-0_1
 62
    7
 10
723.30341689818374
 20
72.965028878876126
 40
5.9999999999999822
 41
1.0000000000000029
 50
0
  1
作図
  7
TATEGAKI
  0
TEXT
  8
_0-0_1
 62
    7
 10
783.29835889818378
 20
72.840602878876098
 40
6
 41
1
 50
0
  1
尺度
  7
TATEGAKI
  0
TEXT
  8
_0-0_1
 62
    7
 10
673.51938089818373
 20
53.368536878876171
 40
6
 41
1
 50
0
  1
材質
  7
TATEGAKI
  0
TEXT
  8
_0-0_1
 62
    7
 10
723.27120889818366
 20
53.368536878876171
 40
6
 41
1
 50
0
  1
品名
  7
TATEGAKI
  0
TEXT
  8
_0-0_1
 62
    7
 10
723.69572689818369
 20
33.065162878876151
 40
6
 41
1
 50
0
  1
図番
  7
TATEGAKI
  0
TEXT
  8
_0-0_1
 62
    7
 10
695.22081778077472
 20
42.37764287887606
 40
8.0000000000000568
 41
0.9999999999999964
 50
0
  1
-
  0
TEXT
  8
_0-0_1
 62
    7
 10
641.53094567047697
 20
21.576153643551322
 40
8
 41
0.9999999999999994
 50
0
  1
ＦＫＫ株式会社
  0
LINE
  8
_0-0_1
  6
CONTINUOUS
 62
    7
 10
628.2461548981837
 20
86.425776182987988
 11
628.2461548981837
 21
16.813014878876174
  0
TEXT
  8
_0-0_1
 62
    7
 10
617.42990388038447
 20
511.74724101103595
 40
6
 41
1
 50
0
  1
.　　.
  0
TEXT
  8
_1-0_
 62
    7
 10
805.75413008234091
 20
87.88736318868331
 40
8
 41
1
 50
0
  1
1
  0
TEXT
  8
_1-0_
 62
    7
 10
805.78517064671473
 20
97.69618153083502
 40
8
 41
1
 50
0
  1
1
  0
LINE
  8
_0-0_1
  6
CONTINUOUS
 62
    7
 10
658.29444089818367
 20
530.81302887887614
 11
658.29444089818367
 21
510.9530562791989
  0
TEXT
  8
_1-0_
 62
    7
 10
632.30519121054999
 20
107.90919184722145
 40
7
 41
1
 50
0
  1
③
  0
TEXT
  8
_1-0_
 62
    7
 10
632.30519121054999
 20
97.98758578438202
 40
7
 41
1
 50
0
  1
②
  0
TEXT
  8
_1-0_
 62
    7
 10
632.30519121054999
 20
87.917896048962916
 40
7
 41
1
 50
0
  1
①
  0
TEXT
  8
_1-0_
 62
    7
 10
632.30519121054999
 20
117.97888158264055
 40
7
 41
1
 50
0
  1
④
  0
LINE
  8
_1-6_23
  6
CONTINUOUS
 62
    7
 10
818.24613889818374
 20
126.81302687887609
 11
628.2461548981837
 21
126.81302687887609
  0
LINE
  8
_1-0_
  6
CONTINUOUS
 62
    7
 10
74.72867713211275
 20
34.497308010056031
 11
148.58646402893351
 21
34.497308010056031
  0
LINE
  8
_1-0_
  6
CONTINUOUS
 62
    7
 10
74.72867713211275
 20
167.38903774760789
 11
74.72867713211275
 21
34.497308010056031
  0
LINE
  8
_1-0_
  6
CONTINUOUS
 62
    7
 10
130.62379025989839
 20
167.38903774760789
 11
130.62379025989839
 21
34.497308010056031
  0
TEXT
  8
_1-0_
 62
    7
 10
75.032091052639942
 20
168.89888495736923
 40
6
 41
1
 50
0
  1
◆ 代表特性　定格入力DC24V　LXD使用
  0
TEXT
  8
_1-0_
 62
    7
 10
85.816223177309155
 20
156.38607172365647
 40
8
 41
1
 50
0
  1
型番
  0
TEXT
  8
_1-0_
 62
    7
 10
307.6605962723695
 20
24.300938702936833
 40
7
 41
1
 50
0
  1
注記 2) 消費電力・面照度はLED２列仕様のスペックです。
  0
TEXT
  8
_1-0_
 62
    7
 10
142.62180714658933
 20
143.7393385225574
 40
8
 41
1
 50
0
  1
B0
  0
TEXT
  8
_1-0_
 62
    7
 10
142.62180714658933
 20
132.39426770995513
 40
8
 41
1
 50
0
  1
B1
  0
TEXT
  8
_1-0_
 62
    7
 10
142.62180714658933
 20
120.27066952152407
 40
8
 41
1
 50
0
  1
B2
  0
TEXT
  8
_1-0_
 62
    7
 10
142.62180714658933
 20
108.86300621993408
 40
8
 41
1
 50
0
  1
B3
  0
TEXT
  8
_1-0_
 62
    7
 10
142.62180714658933
 20
96.299496708691208
 40
8
 41
1
 50
0
  1
B4
  0
TEXT
  8
_1-0_
 62
    7
 10
142.62180714658933
 20
84.289015245724102
 40
8
 41
1
 50
0
  1
A0
  0
TEXT
  8
_1-0_
 62
    7
 10
142.62180714658933
 20
72.334316758436501
 40
8
 41
1
 50
0
  1
A1
  0
TEXT
  8
_1-0_
 62
    7
 10
142.62180714658933
 20
60.198486475887023
 40
8
 41
1
 50
0
  1
A2
  0
TEXT
  8
_1-0_
 62
    7
 10
142.62180714658933
 20
48.06265619333746
 40
8
 41
1
 50
0
  1
A3
  0
TEXT
  8
_1-0_
 62
    7
 10
142.62180714658933
 20
36.107957706049888
 40
8
 41
1
 50
0
  1
A4
  0
TEXT
  8
_1-0_
 62
    7
 10
134.05994145457839
 20
156.38607172365647
 40
8
 41
1
 50
0
  1
サイズ
  0
LINE
  8
_1-0_
  6
CONTINUOUS
 62
    7
 10
163.07032004158316
 20
167.38903774760789
 11
163.07032004158316
 21
34.497308010056031
  0
TEXT
  8
_0-0_1
 62
    7
 10
64.00822186560606
 20
191.93032173808416
 40
10
 41
1.0000000000000013
 50
0
  1
◆型式内容
  0
LINE
  8
_0-0_1
  6
CONTINUOUS
 62
    7
 10
64.5684695864432
 20
191.11300449017705
 11
115.37110116539054
 21
191.11300449017705
  0
LINE
  8
_1-0_
  6
CONTINUOUS
 62
    7
 10
130.66057829148491
 20
186.65910708359078
 11
146.71851745701326
 21
186.65910708359078
  0
LINE
  8
_1-0_
  6
CONTINUOUS
 62
    7
 10
153.20330237315608
 20
186.65910708359078
 11
163.48107469308053
 21
186.65910708359078
  0
TEXT
  8
_1-0_
 62
    7
 10
136.13351028232699
 20
179.00381984681752
 40
6
 41
1
 50
0
  1
①
  0
TEXT
  8
_1-0_
 62
    7
 10
156.07829574052926
 20
179.84191508491278
 40
6
 41
1
 50
0
  1
②
  0
TEXT
  8
_1-0_
 62
    7
 10
131.64852986886996
 20
187.23155103508319
 40
10
 41
1
 50
0
  1
LDP-B1-□□
  0
TEXT
  8
_1-0_
 62
    7
 10
206.03581404171319
 20
191.61268402944268
 40
6
 41
1
 50
0
  1
①　型番
  0
TEXT
  8
_1-0_
 62
    7
 10
206.05711151089298
 20
184.46740678215201
 40
6
 41
1
 50
0
  1
②　サイズ
  0
TEXT
  8
_1-0_
 62
    7
 10
205.9460627073334
 20
177.26171599745857
 40
6
 41
1
 50
0
  1
③　LED 発光色
  0
LINE
  8
_1-0_
  6
CONTINUOUS
 62
    7
 10
169.10937858256301
 20
186.65910708359078
 11
192.13807462555803
 21
186.65910708359078
  0
TEXT
  8
_1-0_
 62
    7
 10
177.74550995791176
 20
179.84191508491278
 40
6
 41
1
 50
0
  1
③
  0
TEXT
  8
_1-0_
 62
    7
 10
104.86394528026767
 20
156.6173114142488
 40
4
 41
1
 50
0
  1
□□：発光色
  0
TEXT
  8
_1-0_
 62
    7
 10
104.86394528026767
 20
161.53889842501928
 40
4
 41
1
 50
0
  1
注記 1)
  0
TEXT
  8
_1-0_
 62
    7
 10
640.76165881401164
 20
62.434607519379654
 40
8
 41
1
 50
0
  1
森田
  0
TEXT
  8
_1-0_
 62
    7
 10
670.69544307887463
 20
62.01595319399695
 40
8
 41
1
 50
0
  1
森田
  0
TEXT
  8
_0-0_1
 62
    7
 10
802.30668468415456
 20
63.037782337899785
 40
6
 41
1
 50
0
  1
-
  0
TEXT
  8
_1-0_
 62
    7
 10
744.80183212537963
 20
20.759317731825774
 40
12
 41
1
 50
0
  1
F5207080
  0
TEXT
  8
_1-0_
 62
    7
 10
746.7648347668628
 20
41.864137618832075
 40
10
 41
1
 50
0
  1
LDP仕様図
  0
TEXT
  8
_1-0_
 62
    7
 10
80.445115511577569
 20
143.7393385225574
 40
8
 41
1
 50
0
  1
LDP-B0-□□
  0
TEXT
  8
_1-0_
 62
    7
 10
80.445115511577569
 20
132.39426770995513
 40
8
 41
1
 50
0
  1
LDP-B1-□□
  0
TEXT
  8
_1-0_
 62
    7
 10
80.445115511577569
 20
120.27066952152407
 40
8
 41
1
 50
0
  1
LDP-B2-□□
  0
TEXT
  8
_1-0_
 62
    7
 10
80.445115511577569
 20
108.86300621993408
 40
8
 41
1
 50
0
  1
LDP-B3-□□
  0
TEXT
  8
_1-0_
 62
    7
 10
80.445115511577569
 20
96.299496708691208
 40
8
 41
1
 50
0
  1
LDP-B4-□□
  0
TEXT
  8
_1-0_
 62
    7
 10
80.445115511577569
 20
84.289015245724073
 40
8
 41
1
 50
0
  1
LDP-A0-□□
  0
TEXT
  8
_1-0_
 62
    7
 10
80.445115511577569
 20
72.334316758436529
 40
8
 41
1
 50
0
  1
LDP-A1-□□
  0
TEXT
  8
_1-0_
 62
    7
 10
80.445115511577569
 20
60.198486475887023
 40
8
 41
1
 50
0
  1
LDP-A2-□□
  0
TEXT
  8
_1-0_
 62
    7
 10
80.445115511577569
 20
48.062656193337432
 40
8
 41
1
 50
0
  1
LDP-A3-□□
  0
TEXT
  8
_1-0_
 62
    7
 10
80.445115511577569
 20
36.107957706049888
 40
8
 41
1
 50
0
  1
LDP-A4-□□
  0
TEXT
  8
_1-0_
 62
    7
 10
632.30519121054999
 20
128.74328486325552
 40
7
 41
1
 50
0
  1
⑤
  0
LINE
  8
_1-0_
  6
CONTINUOUS
 62
    7
 10
818.24613889818374
 20
136.81302687887609
 11
628.2461548981837
 21
136.81302687887609
  0
LINE
  8
_1-0_
  6
CONTINUOUS
 62
    7
 10
818.24613889818374
 20
146.81302687887609
 11
628.2461548981837
 21
146.81302687887609
  0
TEXT
  8
_1-0_
 62
    7
 10
632.30519121054999
 20
138.82835420843566
 40
7
 41
1
 50
0
  1
⑥
  0
TEXT
  8
_1-0_
 62
    7
 10
632.30519121054999
 20
148.57941733675372
 40
7
 41
1
 50
0
  1
⑦
  0
TEXT
  8
_1-0_
 62
    7
 10
632.30519121054999
 20
158.42117281704975
 40
7
 41
1
 50
0
  1
⑧
  0
LINE
  8
_1-0_
  6
CONTINUOUS
 62
    7
 10
818.24613889818374
 20
166.81302687887609
 11
628.2461548981837
 21
166.81302687887609
  0
TEXT
  8
_1-0_
 62
    7
 10
632.30519121054999
 20
168.56204002803912
 40
7
 41
1
 50
0
  1
⑨
  0
LINE
  8
_1-0_
  6
CONTINUOUS
 62
    7
 10
818.24613889818374
 20
176.81302687887609
 11
628.2461548981837
 21
176.81302687887609
  0
LINE
  8
_1-0_
  6
CONTINUOUS
 62
    7
 10
818.24613889818374
 20
186.81302687887609
 11
628.2461548981837
 21
186.81302687887609
  0
LINE
  8
_1-0_
  6
CONTINUOUS
 62
    7
 10
58.250197536428061
 20
211.81301095214616
 11
818.24613889818352
 21
211.81301095214616
  0
LINE
  8
_1-6_23
  6
CONTINUOUS
 62
    7
 10
628.2461548981837
 20
206.81301095214616
 11
628.2461548981837
 21
87.311010257945725
  0
TEXT
  8
_1-0_
 62
    7
 10
632.30519121054999
 20
178.66976772273352
 40
7
 41
1
 50
0
  1
⑩
  0
TEXT
  8
_1-0_
 62
    7
 10
632.30519121054999
 20
188.55062407034126
 40
7
 41
1
 50
0
  1
⑪
  0
LINE
  8
_1-0_
  6
CONTINUOUS
 62
    7
 10
644.30940688159262
 20
206.81301095214616
 11
644.30940688159262
 21
86.813026878876087
  0
LINE
  8
_1-0_
  6
CONTINUOUS
 62
    7
 10
736.25799447713916
 20
87.073472447832046
 11
736.25799447713916
 21
206.81301095214616
  0
LINE
  8
_1-0_
  6
CONTINUOUS
 62
    7
 10
798.24613889818363
 20
206.81301095214616
 11
798.24613889818363
 21
86.813026878876087
  0
TEXT
  8
_1-0_
 62
    7
 10
680.50568089162823
 20
97.614700049353502
 40
7
 41
1
 50
0
  1
箱体
  0
TEXT
  8
_1-0_
 62
    7
 10
805.87829233983643
 20
107.89076537858227
 40
8
 41
1
 50
0
  1
1
  0
TEXT
  8
_1-0_
 62
    7
 10
805.87829233983643
 20
128.28518733413358
 40
8
 41
1
 50
0
  1
1
  0
TEXT
  8
_1-0_
 62
    7
 10
806.06453572607984
 20
117.66931431826058
 40
8
 41
1
 50
0
  1
1
  0
TEXT
  8
_1-0_
 62
    7
 10
805.87829233983643
 20
148.31605627725969
 40
8
 41
1
 50
0
  1
1
  0
TEXT
  8
_1-0_
 62
    7
 10
806.06453572607984
 20
137.70018326138671
 40
8
 41
1
 50
0
  1
1
  0
TEXT
  8
_1-0_
 62
    7
 10
675.98077693584764
 20
128.4407430465381
 40
7
 41
1
 50
0
  1
導光板
  0
TEXT
  8
_1-0_
 62
    7
 10
675.98077693584764
 20
138.06513489307736
 40
7
 41
1
 50
0
  1
反射板
  0
TEXT
  8
_1-0_
 62
    7
 10
666.39694991283955
 20
148.24883067218315
 40
7
 41
1
 50
0
  1
アルミベース
  0
TEXT
  8
_1-0_
 62
    7
 10
805.87829233983643
 20
177.55994115521673
 40
8
 41
1
 50
0
  1
2
  0
TEXT
  8
_1-0_
 62
    7
 10
656.28602118490824
 20
177.8442408085611
 40
7
 41
1
 50
0
  1
マグネットキャッチ
  0
TEXT
  8
_1-0_
 62
    7
 10
678.97388106796382
 20
187.9101921441864
 40
7
 41
1
 50
0
  1
蝶番
  0
TEXT
  8
_1-0_
 62
    7
 10
805.87829233983643
 20
187.47690007130331
 40
8
 41
1
 50
0
  1
2
  0
TEXT
  8
_1-0_
 62
    7
 10
664.90312728681238
 20
87.83692227157573
 40
7
 41
1
 50
0
  1
額縁(フレーム)
  0
TEXT
  8
_1-0_
 62
    7
 10
662.64278020569202
 20
118.29987583554873
 40
7
 41
1
 50
0
  1
乳半アクリル板
  0
TEXT
  8
_1-0_
 62
    7
 10
662.64278020569202
 20
108.50973065998426
 40
7
 41
1
 50
0
  1
透明アクリル板
  0
TEXT
  8
_5-0_
 62
    7
 10
83.291541203660017
 20
284.48750548731954
 40
10
 41
1
 50
0
  1
A-A 断面
  0
TEXT
  8
_5-0_
 62
    7
 10
443.90916591200596
 20
235.62094368102896
 40
6
 41
1
 50
0
  1
額縁　90°開いた時
  0
LINE
  8
_1-0_
  6
CONTINUOUS
 62
    4
 10
474.00123627161202
 20
464.17363396615701
 11
482.06937791611819
 21
473.02891138085897
  0
LINE
  8
_0-0_1
  6
CONTINUOUS
 62
    7
 10
588.14017489818366
 20
519.77337511557471
 11
583.64019089818362
 21
510.77337111557466
  0
LINE
  8
_0-0_1
  6
CONTINUOUS
 62
    7
 10
583.64019089818362
 20
510.77337111557466
 11
592.64017489818366
 21
510.77337111557466
  0
TEXT
  8
_1-0_
 62
    7
 10
259.94917380359664
 20
132.39426770995513
 40
8
 41
1
 50
0
  1
708×1010
  0
TEXT
  8
_1-0_
 62
    7
 10
255.75295484058458
 20
143.7393385225574
 40
8
 41
1
 50
0
  1
1010×1436
  0
TEXT
  8
_1-0_
 62
    7
 10
260.56067456902667
 20
120.27066952152407
 40
8
 41
1
 50
0
  1
495×708
  0
TEXT
  8
_1-0_
 62
    7
 10
260.56067456902667
 20
108.86300621993408
 40
8
 41
1
 50
0
  1
344×495
  0
TEXT
  8
_1-0_
 62
    7
 10
260.56067456902667
 20
96.299496708691208
 40
8
 41
1
 50
0
  1
237×344
  0
TEXT
  8
_1-0_
 62
    7
 10
259.94917380359664
 20
84.289015245724102
 40
8
 41
1
 50
0
  1
821×1169
  0
TEXT
  8
_1-0_
 62
    7
 10
260.56067456902667
 20
72.334316758436501
 40
8
 41
1
 50
0
  1
574×821
  0
TEXT
  8
_1-0_
 62
    7
 10
260.56067456902667
 20
60.198486475886995
 40
8
 41
1
 50
0
  1
400×574
  0
TEXT
  8
_1-0_
 62
    7
 10
260.56067456902667
 20
48.062656193337403
 40
8
 41
1
 50
0
  1
277×400
  0
TEXT
  8
_1-0_
 62
    7
 10
260.56067456902667
 20
36.107957706049888
 40
8
 41
1
 50
0
  1
190×277
  0
TEXT
  8
_1-0_
 62
    7
 10
300.98712123445659
 20
143.7393385225574
 40
6
 41
1
 50
0
  1
[mm]
  0
TEXT
  8
_1-0_
 62
    7
 10
300.98712123445659
 20
133.03442832819368
 40
6
 41
1
 50
0
  1
[mm]
  0
TEXT
  8
_1-0_
 62
    7
 10
300.98712123445659
 20
121.27532479030469
 40
6
 41
1
 50
0
  1
[mm]
  0
TEXT
  8
_1-0_
 62
    7
 10
300.98712123445659
 20
108.9896942283311
 40
6
 41
1
 50
0
  1
[mm]
  0
TEXT
  8
_1-0_
 62
    7
 10
300.98712123445659
 20
97.230590690442085
 40
6
 41
1
 50
0
  1
[mm]
  0
TEXT
  8
_1-0_
 62
    7
 10
300.98712123445659
 20
84.944960128468495
 40
6
 41
1
 50
0
  1
[mm]
  0
TEXT
  8
_1-0_
 62
    7
 10
300.98712123445659
 20
73.185856590579505
 40
6
 41
1
 50
0
  1
[mm]
  0
TEXT
  8
_1-0_
 62
    7
 10
300.98712123445659
 20
61.251244044662315
 40
6
 41
1
 50
0
  1
[mm]
  0
TEXT
  8
_1-0_
 62
    7
 10
300.98712123445659
 20
49.141122490716924
 40
6
 41
1
 50
0
  1
[mm]
  0
TEXT
  8
_1-0_
 62
    7
 10
300.98712123445659
 20
37.206509944799677
 40
6
 41
1
 50
0
  1
[mm]
  0
TEXT
  8
_1-0_
 62
    7
 10
257.53829792692056
 20
156.4288568643845
 40
8
 41
1
 50
0
  1
画面寸法 W×H
  0
LINE
  8
_1-0_
  6
CONTINUOUS
 62
    7
 10
249.56653900305827
 20
167.38903774760789
 11
249.56653900305827
 21
34.497308010056031
  0
LINE
  8
_1-0_
  6
CONTINUOUS
 62
    7
 10
317.76001399343374
 20
167.38903774760789
 11
317.76001399343374
 21
34.497308010056031
  0
TEXT
  8
_1-0_
 62
    7
 10
320.20376424666568
 20
156.67489116640581
 40
8
 41
0.75
 50
0
  1
消費電力
  0
TEXT
  8
_1-0_
 62
    7
 10
327.6588009140973
 20
143.7393385225574
 40
8
 41
1
 50
0
  1
80
  0
TEXT
  8
_1-0_
 62
    7
 10
327.6588009140973
 20
132.39426770995513
 40
8
 41
1
 50
0
  1
56
  0
TEXT
  8
_1-0_
 62
    7
 10
327.6588009140973
 20
120.27066952152407
 40
8
 41
1
 50
0
  1
27
  0
TEXT
  8
_1-0_
 62
    7
 10
327.6588009140973
 20
108.86300621993408
 40
8
 41
1
 50
0
  1
19
  0
TEXT
  8
_1-0_
 62
    7
 10
327.6588009140973
 20
96.299496708691208
 40
8
 41
1
 50
0
  1
13
  0
TEXT
  8
_1-0_
 62
    7
 10
327.6588009140973
 20
84.289015245724102
 40
8
 41
1
 50
0
  1
64
  0
TEXT
  8
_1-0_
 62
    7
 10
327.65880091409724
 20
72.334316758436472
 40
8
 41
1
 50
0
  1
45
  0
TEXT
  8
_1-0_
 62
    7
 10
327.65880091409724
 20
60.198486475886995
 40
8
 41
1
 50
0
  1
21
  0
TEXT
  8
_1-0_
 62
    7
 10
327.65880091409724
 20
48.062656193337403
 40
8
 41
1
 50
0
  1
16
  0
TEXT
  8
_1-0_
 62
    7
 10
327.6588009140973
 20
36.107957706049888
 40
8
 41
1
 50
0
  1
11
  0
TEXT
  8
_1-0_
 62
    7
 10
339.21554216490836
 20
143.7393385225574
 40
6
 41
1
 50
0
  1
[W]
  0
TEXT
  8
_1-0_
 62
    7
 10
339.21554216490836
 20
132.9836716004603
 40
6
 41
1
 50
0
  1
[W]
  0
TEXT
  8
_1-0_
 62
    7
 10
339.21554216490836
 20
121.2483567138666
 40
6
 41
1
 50
0
  1
[W]
  0
TEXT
  8
_1-0_
 62
    7
 10
339.21554216490836
 20
109.20822845359515
 40
6
 41
1
 50
0
  1
[W]
  0
TEXT
  8
_1-0_
 62
    7
 10
339.21554216490836
 20
97.015693506484808
 40
6
 41
1
 50
0
  1
[W]
  0
TEXT
  8
_1-0_
 62
    7
 10
339.21554216490836
 20
84.975565246213364
 40
6
 41
1
 50
0
  1
[W]
  0
TEXT
  8
_1-0_
 62
    7
 10
339.21554216490836
 20
73.545063733297411
 40
6
 41
1
 50
0
  1
[W]
  0
TEXT
  8
_1-0_
 62
    7
 10
339.21554216490836
 20
61.352528786187094
 40
6
 41
1
 50
0
  1
[W]
  0
TEXT
  8
_1-0_
 62
    7
 10
339.21554216490836
 20
49.464807212754494
 40
6
 41
1
 50
0
  1
[W]
  0
TEXT
  8
_1-0_
 62
    7
 10
339.21554216490836
 20
36.662645518288627
 40
6
 41
1
 50
0
  1
[W]
  0
TEXT
  8
_1-0_
 62
    7
 10
345.44124212102849
 20
159.07370970212045
 40
4
 41
0.75
 50
0
  1
注記 2)
  0
LINE
  8
_1-0_
  6
CONTINUOUS
 62
    7
 10
356.62692671020341
 20
167.38903774760789
 11
356.62692671020341
 21
34.497308010056031
  0
TEXT
  8
_1-0_
 62
    7
 10
364.30953516332875
 20
143.7393385225574
 40
8
 41
1
 50
0
  1
36
  0
TEXT
  8
_1-0_
 62
    7
 10
364.30953516332875
 20
132.39426770995513
 40
8
 41
1
 50
0
  1
16
  0
TEXT
  8
_1-0_
 62
    7
 10
369.09276241442228
 20
120.27066952152407
 40
8
 41
1
 50
0
  1
8
  0
TEXT
  8
_1-0_
 62
    7
 10
369.09276241442228
 20
108.86300621993408
 40
8
 41
1
 50
0
  1
5
  0
TEXT
  8
_1-0_
 62
    7
 10
369.09276241442222
 20
96.299496708691208
 40
8
 41
1
 50
0
  1
3
  0
TEXT
  8
_1-0_
 62
    7
 10
364.82739188283057
 20
84.289015245724102
 40
8
 41
1
 50
0
  1
22
  0
TEXT
  8
_1-0_
 62
    7
 10
364.82739188283057
 20
72.334316758436472
 40
8
 41
1
 50
0
  1
10
  0
TEXT
  8
_1-0_
 62
    7
 10
369.71040010278404
 20
60.198486475886995
 40
8
 41
1
 50
0
  1
5
  0
TEXT
  8
_1-0_
 62
    7
 10
369.71040010278404
 20
48.062656193337403
 40
8
 41
1
 50
0
  1
3
  0
TEXT
  8
_1-0_
 62
    7
 10
369.09276241442222
 20
36.107957706049888
 40
8
 41
1
 50
0
  1
2
  0
TEXT
  8
_1-0_
 62
    7
 10
376.02310141714594
 20
143.7393385225574
 40
6
 41
1
 50
0
  1
[kg]
  0
TEXT
  8
_1-0_
 62
    7
 10
376.02310141714594
 20
133.11181453616061
 40
6
 41
1
 50
0
  1
[kg]
  0
TEXT
  8
_1-0_
 62
    7
 10
376.02310141714594
 20
121.12552147372776
 40
6
 41
1
 50
0
  1
[kg]
  0
TEXT
  8
_1-0_
 62
    7
 10
376.02310141714594
 20
109.45465717609576
 40
6
 41
1
 50
0
  1
[kg]
  0
TEXT
  8
_1-0_
 62
    7
 10
376.02310141714594
 20
97.468364113662943
 40
6
 41
1
 50
0
  1
[kg]
  0
TEXT
  8
_1-0_
 62
    7
 10
376.02310141714594
 20
85.324356668829665
 40
6
 41
1
 50
0
  1
[kg]
  0
TEXT
  8
_1-0_
 62
    7
 10
376.02310141714594
 20
73.338063606396815
 40
6
 41
1
 50
0
  1
[kg]
  0
TEXT
  8
_1-0_
 62
    7
 10
376.02310141714594
 20
61.194056161563537
 40
6
 41
1
 50
0
  1
[kg]
  0
TEXT
  8
_1-0_
 62
    7
 10
376.02310141714594
 20
48.892334334329831
 40
6
 41
1
 50
0
  1
[kg]
  0
TEXT
  8
_1-0_
 62
    7
 10
376.02310141714594
 20
36.906041271896925
 40
6
 41
1
 50
0
  1
[kg]
  0
LINE
  8
_1-0_
  6
CONTINUOUS
 62
    7
 10
392.79354486126016
 20
167.38903774760789
 11
392.79354486126016
 21
34.497308010056031
  0
LINE
  8
_1-0_
  6
CONTINUOUS
 62
    7
 10
437.93312656997563
 20
167.38903774760789
 11
437.93312656997563
 21
34.497308010056031
  0
TEXT
  8
_1-0_
 62
    7
 10
394.93908142479478
 20
157.04249824053238
 40
8
 41
1
 50
0
  1
面照度
  0
TEXT
  8
_1-0_
 62
    7
 10
447.2438737209352
 20
143.7393385225574
 40
8
 41
1
 50
0
  1
5
  0
TEXT
  8
_1-0_
 62
    7
 10
447.2438737209352
 20
132.39426770995513
 40
8
 41
1
 50
0
  1
3
  0
TEXT
  8
_1-0_
 62
    7
 10
447.2438737209352
 20
120.27066952152407
 40
8
 41
1
 50
0
  1
3
  0
TEXT
  8
_1-0_
 62
    7
 10
447.2438737209352
 20
108.86300621993408
 40
8
 41
1
 50
0
  1
3
  0
TEXT
  8
_1-0_
 62
    7
 10
447.2438737209352
 20
96.299496708691208
 40
8
 41
1
 50
0
  1
3
  0
TEXT
  8
_1-0_
 62
    7
 10
447.2438737209352
 20
84.289015245724102
 40
8
 41
1
 50
0
  1
5
  0
TEXT
  8
_1-0_
 62
    7
 10
447.2438737209352
 20
72.334316758436501
 40
8
 41
1
 50
0
  1
3
  0
TEXT
  8
_1-0_
 62
    7
 10
447.2438737209352
 20
60.198486475887023
 40
8
 41
1
 50
0
  1
3
  0
TEXT
  8
_1-0_
 62
    7
 10
447.2438737209352
 20
48.062656193337432
 40
8
 41
1
 50
0
  1
3
  0
TEXT
  8
_1-0_
 62
    7
 10
447.2438737209352
 20
36.107957706049888
 40
8
 41
1
 50
0
  1
3
  0
TEXT
  8
_1-0_
 62
    7
 10
455.86801121751586
 20
143.7393385225574
 40
6
 41
1
 50
0
  1
[mm]
  0
TEXT
  8
_1-0_
 62
    7
 10
455.86801121751586
 20
133.03442832819368
 40
6
 41
1
 50
0
  1
[mm]
  0
TEXT
  8
_1-0_
 62
    7
 10
455.86801121751586
 20
121.27532479030469
 40
6
 41
1
 50
0
  1
[mm]
  0
TEXT
  8
_1-0_
 62
    7
 10
455.86801121751586
 20
108.9896942283311
 40
6
 41
1
 50
0
  1
[mm]
  0
TEXT
  8
_1-0_
 62
    7
 10
455.86801121751586
 20
97.230590690442085
 40
6
 41
1
 50
0
  1
[mm]
  0
TEXT
  8
_1-0_
 62
    7
 10
455.86801121751586
 20
84.944960128468495
 40
6
 41
1
 50
0
  1
[mm]
  0
TEXT
  8
_1-0_
 62
    7
 10
455.86801121751586
 20
73.185856590579505
 40
6
 41
1
 50
0
  1
[mm]
  0
TEXT
  8
_1-0_
 62
    7
 10
455.86801121751586
 20
61.251244044662315
 40
6
 41
1
 50
0
  1
[mm]
  0
TEXT
  8
_1-0_
 62
    7
 10
455.86801121751586
 20
49.141122490716924
 40
6
 41
1
 50
0
  1
[mm]
  0
TEXT
  8
_1-0_
 62
    7
 10
455.86801121751586
 20
37.206509944799677
 40
6
 41
1
 50
0
  1
[mm]
  0
TEXT
  8
_1-0_
 62
    7
 10
440.50663535075074
 20
156.3040587612673
 40
8
 41
0.75
 50
0
  1
導光板厚み
  0
TEXT
  8
_1-0_
 62
    7
 10
367.85451284920202
 20
157.04249824053238
 40
8
 41
1
 50
0
  1
重量
  0
TEXT
  8
_1-0_
 62
    7
 10
401.01397407428954
 20
143.7393385225574
 40
8
 41
1
 50
0
  1
4500
  0
TEXT
  8
_1-0_
 62
    7
 10
401.01397407428954
 20
132.39426770995513
 40
8
 41
1
 50
0
  1
5200
  0
TEXT
  8
_1-0_
 62
    7
 10
401.01397407428954
 20
120.27066952152407
 40
8
 41
1
 50
0
  1
5500
  0
TEXT
  8
_1-0_
 62
    7
 10
401.01397407428954
 20
108.86300621993408
 40
8
 41
1
 50
0
  1
7500
  0
TEXT
  8
_1-0_
 62
    7
 10
398.42621791589852
 20
96.299496708691208
 40
8
 41
1
 50
0
  1
13300
  0
TEXT
  8
_1-0_
 62
    7
 10
401.01397407428959
 20
84.289015245724102
 40
8
 41
1
 50
0
  1
4700
  0
TEXT
  8
_1-0_
 62
    7
 10
401.01397407428959
 20
72.334316758436501
 40
8
 41
1
 50
0
  1
7000
  0
TEXT
  8
_1-0_
 62
    7
 10
401.01397407428959
 20
60.198486475887023
 40
8
 41
1
 50
0
  1
7000
  0
TEXT
  8
_1-0_
 62
    7
 10
401.01397407428959
 20
48.062656193337432
 40
8
 41
1
 50
0
  1
9300
  0
TEXT
  8
_1-0_
 62
    7
 10
398.42621791589852
 20
36.107957706049888
 40
8
 41
1
 50
0
  1
14600
  0
TEXT
  8
_1-0_
 62
    7
 10
419.08552955728135
 20
143.7393385225574
 40
6
 41
1
 50
0
  1
[lx]
  0
TEXT
  8
_1-0_
 62
    7
 10
419.08552955728135
 20
133.12149186974077
 40
6
 41
1
 50
0
  1
[lx]
  0
TEXT
  8
_1-0_
 62
    7
 10
419.08552955728135
 20
121.10695145523621
 40
6
 41
1
 50
0
  1
[lx]
  0
TEXT
  8
_1-0_
 62
    7
 10
419.08552955728135
 20
109.45648802298936
 40
6
 41
1
 50
0
  1
[lx]
  0
TEXT
  8
_1-0_
 62
    7
 10
419.08552955728135
 20
96.835152638055263
 40
6
 41
1
 50
0
  1
[lx]
  0
TEXT
  8
_1-0_
 62
    7
 10
419.08552955728135
 20
84.820612223550683
 40
6
 41
1
 50
0
  1
[lx]
  0
TEXT
  8
_1-0_
 62
    7
 10
419.08552955728135
 20
72.806071809046131
 40
6
 41
1
 50
0
  1
[lx]
  0
TEXT
  8
_1-0_
 62
    7
 10
419.08552955728135
 20
60.791531394541551
 40
6
 41
1
 50
0
  1
[lx]
  0
TEXT
  8
_1-0_
 62
    7
 10
419.08552955728135
 20
48.655631985951089
 40
6
 41
1
 50
0
  1
[lx]
  0
TEXT
  8
_1-0_
 62
    7
 10
419.08552955728135
 20
36.398373583274747
 40
6
 41
1
 50
0
  1
[lx]
  0
LINE
  8
_1-0_
  6
CONTINUOUS
 62
    7
 10
74.72867713211275
 20
167.38903774760789
 11
472.70639328629591
 21
167.38903774760789
  0
LINE
  8
_1-0_
  6
CONTINUOUS
 62
    7
 10
148.58646402893351
 20
34.497308010056031
 11
472.70639328629591
 21
34.497308010056031
  0
LINE
  8
_1-0_
  6
CONTINUOUS
 62
    7
 10
472.70639328629591
 20
167.38903774760789
 11
472.70639328629591
 21
34.497308010056031
  0
LINE
  8
_1-0_
  6
CONTINUOUS
 62
    7
 10
74.72867713211275
 20
154.49730801005606
 11
472.70639328629591
 21
154.49730801005606
  0
LINE
  8
_1-0_
  6
CONTINUOUS
 62
    7
 10
74.72867713211275
 20
142.49730801005606
 11
472.70639328629591
 21
142.49730801005606
  0
LINE
  8
_1-0_
  6
CONTINUOUS
 62
    7
 10
74.72867713211275
 20
130.49730801005606
 11
472.70639328629591
 21
130.49730801005606
  0
LINE
  8
_1-0_
  6
CONTINUOUS
 62
    7
 10
74.72867713211275
 20
118.49730801005606
 11
472.70639328629591
 21
118.49730801005606
  0
LINE
  8
_1-0_
  6
CONTINUOUS
 62
    7
 10
74.72867713211275
 20
106.49730801005606
 11
472.70639328629591
 21
106.49730801005606
  0
LINE
  8
_1-0_
  6
CONTINUOUS
 62
    7
 10
74.72867713211275
 20
94.497308010056059
 11
472.70639328629591
 21
94.497308010056059
  0
LINE
  8
_1-0_
  6
CONTINUOUS
 62
    7
 10
74.72867713211275
 20
82.497308010056059
 11
472.70639328629591
 21
82.497308010056059
  0
LINE
  8
_1-0_
  6
CONTINUOUS
 62
    7
 10
74.72867713211275
 20
70.497308010056059
 11
472.70639328629591
 21
70.497308010056059
  0
LINE
  8
_1-0_
  6
CONTINUOUS
 62
    7
 10
74.72867713211275
 20
58.497308010056059
 11
472.70639328629591
 21
58.497308010056059
  0
LINE
  8
_1-0_
  6
CONTINUOUS
 62
    7
 10
74.72867713211275
 20
46.497308010056059
 11
472.70639328629591
 21
46.497308010056059
  0
TEXT
  8
_1-0_
 62
    7
 10
480.05033187971719
 20
152.49356881477749
 40
6
 41
0.9999999999999994
 50
0
  1
※別途、点灯用に電源トランスが必要となります。
  0
TEXT
  8
_1-0_
 62
    7
 10
480.05033187971719
 20
129.97239500035678
 40
6
 41
0.9999999999999991
 50
0
  1
※本体を埋め込んでご使用の場合には、正面の額縁
  0
TEXT
  8
_1-0_
 62
    7
 10
480.05033187971713
 20
144.42249494101148
 40
6
 41
0.9999999999999991
 50
0
  1
※標準規格サイズ以外の別注サイズでの製作も可能
  0
TEXT
  8
_2-0_
 62
    7
 10
486.18789052625277
 20
137.24608299005413
 40
6
 41
0.9999999999999991
 50
0
  1
です。
  0
TEXT
  8
_1-0_
 62
    7
 10
480.05033187971719
 20
122.34651300451523
 40
6
 41
0.9999999999999991
 50
0
  1
　(フレーム)の蝶番が開閉できるようにして、取り
  0
TEXT
  8
_2-0_
 62
    7
 10
486.17130456632231
 20
114.82996528414012
 40
6
 41
0.9999999999999991
 50
0
  1
付けてください。
  0
TEXT
  8
_1-0_
 62
    7
 10
173.44959223757968
 20
132.39426770995513
 40
8
 41
1
 50
0
  1
758×1060×23
  0
TEXT
  8
_1-0_
 62
    7
 10
173.67503464227133
 20
120.27066952152407
 40
8
 41
1
 50
0
  1
545× 758×22
  0
TEXT
  8
_1-0_
 62
    7
 10
173.67503464227133
 20
108.86300621993408
 40
8
 41
1
 50
0
  1
394× 545×22
  0
TEXT
  8
_1-0_
 62
    7
 10
169.55902968155476
 20
143.7393385225574
 40
8
 41
1
 50
0
  1
1070×1490×23
  0
TEXT
  8
_1-0_
 62
    7
 10
173.67503464227133
 20
96.299496708691208
 40
8
 41
1
 50
0
  1
287× 394×22
  0
TEXT
  8
_1-0_
 62
    7
 10
173.44959223757968
 20
84.289015245724102
 40
8
 41
1
 50
0
  1
881×1229×23
  0
TEXT
  8
_1-0_
 62
    7
 10
173.67503464227133
 20
72.334316758436501
 40
8
 41
1
 50
0
  1
624× 871×22
  0
TEXT
  8
_1-0_
 62
    7
 10
173.67503464227133
 20
60.198486475886995
 40
8
 41
1
 50
0
  1
450× 624×22
  0
TEXT
  8
_1-0_
 62
    7
 10
173.67503464227133
 20
48.062656193337403
 40
8
 41
1
 50
0
  1
327× 450×22
  0
TEXT
  8
_1-0_
 62
    7
 10
173.67503464227133
 20
36.107957706049888
 40
8
 41
1
 50
0
  1
240× 327×22
  0
TEXT
  8
_1-0_
 62
    7
 10
229.36576158490988
 20
143.7393385225574
 40
6
 41
1
 50
0
  1
[mm]
  0
TEXT
  8
_1-0_
 62
    7
 10
229.36576158490988
 20
133.03442832819368
 40
6
 41
1
 50
0
  1
[mm]
  0
TEXT
  8
_1-0_
 62
    7
 10
229.36576158490988
 20
121.27532479030469
 40
6
 41
1
 50
0
  1
[mm]
  0
TEXT
  8
_1-0_
 62
    7
 10
229.36576158490988
 20
108.9896942283311
 40
6
 41
1
 50
0
  1
[mm]
  0
TEXT
  8
_1-0_
 62
    7
 10
229.36576158490988
 20
97.230590690442085
 40
6
 41
1
 50
0
  1
[mm]
  0
TEXT
  8
_1-0_
 62
    7
 10
229.36576158490988
 20
84.944960128468495
 40
6
 41
1
 50
0
  1
[mm]
  0
TEXT
  8
_1-0_
 62
    7
 10
229.36576158490988
 20
73.185856590579505
 40
6
 41
1
 50
0
  1
[mm]
  0
TEXT
  8
_1-0_
 62
    7
 10
229.36576158490988
 20
61.251244044662315
 40
6
 41
1
 50
0
  1
[mm]
  0
TEXT
  8
_1-0_
 62
    7
 10
229.36576158490988
 20
49.141122490716924
 40
6
 41
1
 50
0
  1
[mm]
  0
TEXT
  8
_1-0_
 62
    7
 10
229.36576158490988
 20
37.206509944799677
 40
6
 41
1
 50
0
  1
[mm]
  0
TEXT
  8
_1-0_
 62
    7
 10
172.77582709310116
 20
156.681476545066
 40
8
 41
1
 50
0
  1
外形寸法 W×H×D
  0
TEXT
  8
_1-0_
 62
    7
 10
673.73791470604442
 20
158.24405824868114
 40
7
 41
1
 50
0
  1
LED基板
  0
TEXT
  8
_1-0_
 62
    7
 10
801.78569771708771
 20
158.94478990580012
 40
6
 41
1
 50
0
  1
一式
  0
TEXT
  8
_1-0_
 62
    7
 10
806.06453572607984
 20
167.83809637136537
 40
8
 41
1
 50
0
  1
1
  0
TEXT
  8
_1-0_
 62
    7
 10
651.56400517255884
 20
168.37592894184823
 40
6.9999999999998579
 41
1.0000000000000202
 50
0
  1
電源接続配線（入力側）
  0
LINE
  8
_0-0_1
  6
CONTINUOUS
 62
    7
 10
103.07751563907476
 20
512.187150776782
 11
63.510081428548517
 21
512.187150776782
  0
LINE
  8
_1-0_
  6
CONTINUOUS
 62
    7
 10
818.24613889818374
 20
156.81302687887609
 11
628.2461548981837
 21
156.81302687887609
  0
TEXT
  8
_1-0_
 62
    7
 10
480.05033187971719
 20
106.86112145846573
 40
6
 41
0.9999999999999994
 50
0
  1
※各部材の仕様(材質･厚み･数量)については、製品
  0
TEXT
  8
_1-0_
 62
    7
 10
480.05033187971719
 20
98.819547633846042
 40
6
 41
0.9999999999999991
 50
0
  1
　のサイズによって変わります。
  0
TEXT
  8
_1-0_
 62
    7
 10
480.05033187971719
 20
81.961687630863736
 40
6
 41
0.9999999999999991
 50
0
  1
※額縁の仕上げは以下よりご指定ください。
  0
TEXT
  8
_1-0_
 62
    7
 10
480.05033187971719
 20
74.27876525335185
 40
6
 41
0.9999999999999991
 50
0
  1
　・塗装仕上げ(DIC,日塗工,他ご支給サンプル)
  0
TEXT
  8
_1-0_
 62
    7
 10
480.05033187971719
 20
66.337889841380871
 40
6
 41
0.9999999999999991
 50
0
  1
　・メッキ仕上げ(クローム,ニッケルサテン 他)
  0
TEXT
  8
_1-0_
 62
    7
 10
480.05033187971719
 20
58.564501896092025
 40
6
 41
0.9999999999999991
 50
0
  1
　・SUS 鏡面,HL 仕上げ
  0
TEXT
  8
_1-0_
 62
    7
 10
480.05033187971719
 20
90.937375375243732
 40
6
 41
0.9999999999999991
 50
0
  1
　(詳細についてはお問い合わせ下さい。)
  0
TEXT
  8
_1-0_
 62
    7
 10
480.05033187971719
 20
161.42741971873187
 40
6
 41
0.9999999999999994
 50
0
  1
※本製品は入力電圧DC24V専用です。
  0
TEXT
  8
_1-0_
 62
    7
 10
74.497021761917438
 20
24.300938702936833
 40
7
 41
1
 50
0
  1
注記 1) 発光色  D:6500K / N:5000K / W:4000K / WW:3500K / L:3000K
  0
TEXT
  8
_1-0_
 62
    7
 10
738.74487805946933
 20
188.36773538671486
 40
6
 41
1
 50
0
  1
B-100-4
  0
TEXT
  8
_1-0_
 62
    7
 10
738.74487805946933
 20
178.30178405108956
 40
6
 41
1
 50
0
  1
MC-YS001
  0
TEXT
  8
_1-0_
 62
    7
 10
738.74487805946933
 20
172.30799080730023
 40
3.9999999999999716
 41
0.8000000000000047
 50
0
  1
日本圧着端子SMR-02V-N相当（PA66)
  0
TEXT
  8
_1-0_
 62
    7
 10
738.74487805946933
 20
167.68483358476917
 40
3.9999999999999432
 41
1.0000000000000142
 50
0
  1
リード線：AWG22
  0
TEXT
  8
_1-0_
 62
    7
 10
738.74487805946933
 20
158.70160149120954
 40
6
 41
1
 50
0
  1
FR-4
  0
TEXT
  8
_1-0_
 62
    7
 10
738.74487805946933
 20
149.20644680416231
 40
5
 41
0.8
 50
0
  1
t=1.0/1.5 アルミニウム
  0
TEXT
  8
_1-0_
 62
    7
 10
738.74487805946933
 20
138.85165044497927
 40
5
 41
1
 50
0
  1
t=1.0 MC-PET
  0
TEXT
  8
_1-0_
 62
    7
 10
738.74487805946933
 20
128.89828628906653
 40
5
 41
1
 50
0
  1
t=5 透明アクリル
  0
TEXT
  8
_1-0_
 62
    7
 10
738.74487805946933
 20
99.596808782995254
 40
5
 41
0.8
 50
0
  1
t=1.0/1.2 スチール または SUS
  0
TEXT
  8
_1-0_
 62
    7
 10
738.74487805946933
 20
89.412408404115922
 40
5
 41
0.8
 50
0
  1
t=1.0/1.2 スチール または SUS
  0
TEXT
  8
_1-0_
 62
    7
 10
738.74487805946933
 20
119.2471826266503
 40
5
 41
0.8
 50
0
  1
t=2 カナセ #7332 片面マット
  0
TEXT
  8
_1-0_
 62
    7
 10
738.74487805946933
 20
112.23184157542821
 40
4
 41
1
 50
0
  1
t=1 デラグラスA999 または
  0
TEXT
  8
_1-0_
 62
    7
 10
738.74487805946933
 20
107.21446018854022
 40
4
 41
1
 50
0
  1
t=2 カナセ #1300(B0,B1,A0)
  0
LINE
  8
_1-0_
  6
CONTINUOUS
 62
    7
 10
818.24613889818374
 20
196.81302687887609
 11
628.2461548981837
 21
196.81302687887609
  0
LINE
  8
_1-0_
  6
CONTINUOUS
 62
    7
 10
628.2461548981837
 20
206.81301095214616
 11
818.24613889818352
 21
206.81301095214616
  0
TEXT
  8
_1-0_
 62
    7
 10
632.30519121054999
 20
198.43148041794899
 40
7
 41
1
 50
0
  1
⑫
  0
TEXT
  8
_1-0_
 62
    7
 10
805.87829233983643
 20
198.07733973446258
 40
8
 41
1
 50
0
  1
2
  0
TEXT
  8
_1-0_
 62
    7
 10
662.45230773462549
 20
198.74247752500185
 40
7
 41
1
 50
0
  1
導光板止め金具
  0
TEXT
  8
_1-0_
 62
    7
 10
738.74487805946933
 20
199.31193801363764
 40
5
 41
0.8
 50
0
  1
t=1.0 スチール または SUS
  0
LINE
  8
_5-0_
  6
CONTINUOUS
 62
    7
 10
725.07691037101597
 20
478.97299535441908
 11
753.57691037101597
 21
478.97299535441908
  0
LINE
  8
_5-0_
  6
CONTINUOUS
 62
    7
 10
729.57691037101608
 20
468.47299535441874
 11
758.07691037101597
 21
468.47299535441874
  0
LINE
  8
_5-0_
  6
CONTINUOUS
 62
    7
 10
729.57691037101608
 20
447.47299535441914
 11
731.07691037101608
 21
447.47299535441914
  0
LINE
  8
_5-0_
  6
CONTINUOUS
 62
    7
 10
731.07691037101608
 20
468.47299535441908
 11
731.07691037101608
 21
447.47299535441914
  0
LINE
  8
_5-0_
  6
CONTINUOUS
 62
    7
 10
729.57691037101608
 20
469.97299535441908
 11
729.57691037101608
 21
447.47299535441914
  0
LINE
  8
_5-0_
  6
CONTINUOUS
 62
    7
 10
729.57691037101608
 20
469.97299535441908
 11
750.57691037101597
 21
469.97299535441908
  0
LINE
  8
_5-0_
  6
CONTINUOUS
 62
    7
 10
731.07691037101608
 20
468.47299535441908
 11
750.57691037101597
 21
468.47299535441908
  0
LINE
  8
_5-0_
  6
CONTINUOUS
 62
    7
 10
750.57691037101597
 20
469.97299535441908
 11
750.57691037101597
 21
468.47299535441908
  0
LINE
  8
_5-0_
  6
CENTER2
 62
    2
 10
740.07691037101597
 20
472.2888819934588
 11
740.07691037101597
 21
464.4643832995061
  0
LINE
  8
_5-0_
  6
CONTINUOUS
 62
    7
 10
736.0733003561005
 20
469.97299535441908
 11
744.08052038593144
 21
469.97299535441908
  0
LINE
  8
_5-0_
  6
CONTINUOUS
 62
    7
 10
735.72690200252384
 20
469.37300522494826
 11
736.0733003561005
 21
469.97299535441908
  0
LINE
  8
_5-0_
  6
CONTINUOUS
 62
    7
 10
735.72690200252384
 20
469.37300522494826
 11
744.4269187395081
 21
469.37300522494826
  0
LINE
  8
_5-0_
  6
CONTINUOUS
 62
    7
 10
744.4269187395081
 20
469.37300522494826
 11
744.08052038593144
 21
469.97299535441908
  0
LINE
  8
_5-0_
  6
CONTINUOUS
 62
    7
 10
744.4269187395081
 20
469.37300522494826
 11
742.47691040677876
 21
467.42299707103285
  0
LINE
  8
_5-0_
  6
CONTINUOUS
 62
    7
 10
743.07691037101597
 20
468.02299703527007
 11
737.07691037101597
 21
468.02299703527007
  0
LINE
  8
_5-0_
  6
CONTINUOUS
 62
    7
 10
735.72690200252384
 20
469.37300522494826
 11
737.67691033525318
 21
467.42299707103285
  0
LINE
  8
_5-0_
  6
CONTINUOUS
 62
    2
 10
743.07691037101597
 20
468.02299703527007
 11
743.07691037101597
 21
460.97299535441908
  0
LINE
  8
_5-0_
  6
CONTINUOUS
 62
    7
 10
742.47691040677876
 20
467.42299707103285
 11
742.47691040677876
 21
460.97299535441908
  0
LINE
  8
_5-0_
  6
CONTINUOUS
 62
    7
 10
737.67691033525318
 20
467.42299707103285
 11
737.67691033525318
 21
460.97299535441908
  0
LINE
  8
_5-0_
  6
CONTINUOUS
 62
    2
 10
737.07691037101597
 20
468.02299703527007
 11
737.07691037101597
 21
460.97299535441908
  0
LINE
  8
_5-0_
  6
CONTINUOUS
 62
    7
 10
737.07691037101597
 20
460.97299535441908
 11
743.07691037101597
 21
460.97299535441908
  0
LINE
  8
_5-0_
  6
CENTER2
 62
    2
 10
740.07691037101597
 20
472.22298534083876
 11
740.07691037101597
 21
459.77380330729994
  0
LINE
  8
_5-0_
  6
CONTINUOUS
 62
    7
 10
729.57691037101631
 20
371.2279396755689
 11
729.57691037101631
 21
466.97299535441908
  0
LINE
  8
_5-0_
  6
CONTINUOUS
 62
    7
 10
726.57691037101631
 20
466.97299535441908
 11
729.57691037101631
 21
466.97299535441908
  0
LINE
  8
_5-0_
  6
CONTINUOUS
 62
    7
 10
726.57691037101631
 20
371.2279396755689
 11
726.57691037101631
 21
466.97299535441908
  0
LINE
  8
_5-0_
  6
CONTINUOUS
 62
    7
 10
725.07691037101597
 20
441.47299535441914
 11
726.57691037101631
 21
441.47299535441914
  0
LINE
  8
_5-0_
  6
CONTINUOUS
 62
    7
 10
725.07691037101597
 20
441.47299535441914
 11
725.07691037101597
 21
478.97299535441908
  0
LINE
  8
_5-0_
  6
CONTINUOUS
 62
    7
 10
753.57691037101597
 20
477.47299535441908
 11
753.57691037101597
 21
478.97299535441908
  0
LINE
  8
_5-0_
  6
CONTINUOUS
 62
    7
 10
726.57691037101631
 20
441.47299535441914
 11
726.57691037101631
 21
477.47299535441908
  0
LINE
  8
_5-0_
  6
CONTINUOUS
 62
    7
 10
726.57691037101631
 20
477.47299535441908
 11
753.57691037101597
 21
477.47299535441908
  0
LINE
  8
_5-0_
  6
CONTINUOUS
 62
    7
 10
729.57691037101608
 20
466.97299535441908
 11
729.57691037101608
 21
468.47299535441874
  0
LINE
  8
_5-0_
  6
CONTINUOUS
 62
    7
 10
758.07691037101597
 20
378.4729953544188
 11
758.07691037101597
 21
468.47299535441874
  0
LINE
  8
_5-0_
  6
CONTINUOUS
 62
    7
 10
756.57691037101608
 20
466.97299535441908
 11
729.57691037101608
 21
466.97299535441908
  0
LINE
  8
_5-0_
  6
CONTINUOUS
 62
    7
 10
756.57691037101608
 20
459.47299535441908
 11
732.57691037101608
 21
459.47299535441908
  0
LINE
  8
_5-0_
  6
CONTINUOUS
 62
    7
 10
732.57691037101608
 20
459.47299535441908
 11
732.57691037101608
 21
466.97299535441908
  0
LINE
  8
_5-0_
  6
CONTINUOUS
 62
    4
 10
710.28030020152437
 20
441.47299535441914
 11
710.28030020152437
 21
478.97299535441908
  0
LINE
  8
_5-0_
  6
CONTINUOUS
 62
    4
 10
709.53030020152437
 20
441.47299535441914
 11
722.48369003203288
 21
441.47299535441914
  0
LINE
  8
_5-0_
  6
CONTINUOUS
 62
    4
 10
709.53030020152437
 20
478.97299535441908
 11
722.48369003203288
 21
478.97299535441908
  0
LINE
  8
_5-0_
  6
CONTINUOUS
 62
    4
 10
730.11080867610076
 20
458.30350382899502
 11
698.36574276032218
 21
476.63152618091226
  0
LINE
  8
_5-0_
  6
CONTINUOUS
 62
    7
 10
744.57691037101597
 20
408.47299535441948
 11
744.57691037101597
 21
393.47299535441914
  0
LINE
  8
_5-0_
  6
CONTINUOUS
 62
    7
 10
744.57691037101597
 20
371.2279396755689
 11
744.57691037101597
 21
456.4729953544188
  0
LINE
  8
_5-0_
  6
CONTINUOUS
 62
    7
 10
743.07691037101597
 20
371.2279396755689
 11
743.07691037101597
 21
454.9729953544188
  0
LINE
  8
_5-0_
  6
CONTINUOUS
 62
    7
 10
731.07691037101597
 20
371.2279396755689
 11
731.07691037101597
 21
451.9729953544188
  0
LINE
  8
_5-0_
  6
CONTINUOUS
 62
    7
 10
741.57691037101597
 20
371.2279396755689
 11
741.57691037101597
 21
450.4729953544188
  0
LINE
  8
_5-0_
  6
CONTINUOUS
 62
    7
 10
744.57691037101597
 20
378.4729953544188
 11
758.07691037101597
 21
378.4729953544188
  0
LINE
  8
_5-0_
  6
CONTINUOUS
 62
    7
 10
744.57691037101597
 20
379.9729953544188
 11
756.57691037101608
 21
379.9729953544188
  0
LINE
  8
_5-0_
  6
CONTINUOUS
 62
    7
 10
756.57691037101608
 20
379.9729953544188
 11
756.57691037101608
 21
466.97299535441908
  0
LINE
  8
_5-0_
  6
CONTINUOUS
 62
    7
 10
741.57691037101597
 20
436.14429374199068
 11
737.07691037101597
 21
431.64429374199068
  0
LINE
  8
_5-0_
  6
CONTINUOUS
 62
    7
 10
741.57691037101597
 20
426.05080826562721
 11
737.07691037101597
 21
421.55080826562721
  0
LINE
  8
_5-0_
  6
CONTINUOUS
 62
    7
 10
737.07691037101597
 20
450.4729953544188
 11
743.07691037101597
 21
450.4729953544188
  0
LINE
  8
_5-0_
  6
CONTINUOUS
 62
    7
 10
734.07691037101597
 20
371.2279396755689
 11
734.07691037101597
 21
451.9729953544188
  0
LINE
  8
_5-0_
  6
CONTINUOUS
 62
    7
 10
734.07691037101597
 20
451.9729953544188
 11
737.07691037101597
 21
451.9729953544188
  0
LINE
  8
_5-0_
  6
CONTINUOUS
 62
    7
 10
737.07691037101597
 20
371.2279396755689
 11
737.07691037101597
 21
451.9729953544188
  0
LINE
  8
_5-0_
  6
CONTINUOUS
 62
    7
 10
732.57691037101597
 20
456.4729953544188
 11
744.57691037101597
 21
456.4729953544188
  0
LINE
  8
_5-0_
  6
CONTINUOUS
 62
    7
 10
732.57691037101597
 20
454.9729953544188
 11
732.57691037101597
 21
456.4729953544188
  0
LINE
  8
_5-0_
  6
CONTINUOUS
 62
    7
 10
732.57691037101597
 20
454.9729953544188
 11
743.07691037101597
 21
454.9729953544188
  0
LINE
  8
_5-0_
  6
CONTINUOUS
 62
    7
 10
729.57691037101608
 20
244.76874001910119
 11
729.57691037101608
 21
267.26874001910119
  0
LINE
  8
_5-0_
  6
CONTINUOUS
 62
    7
 10
729.57691037101608
 20
244.76874001910119
 11
750.57691037101597
 21
244.76874001910119
  0
LINE
  8
_5-0_
  6
CENTER2
 62
    2
 10
740.07691037101597
 20
242.45285338006147
 11
740.07691037101597
 21
250.27735207401417
  0
LINE
  8
_5-0_
  6
CONTINUOUS
 62
    7
 10
736.0733003561005
 20
244.76874001910119
 11
744.08052038593144
 21
244.76874001910119
  0
LINE
  8
_5-0_
  6
CONTINUOUS
 62
    7
 10
735.72690200252384
 20
245.36873014857201
 11
736.0733003561005
 21
244.76874001910119
  0
LINE
  8
_5-0_
  6
CONTINUOUS
 62
    7
 10
735.72690200252384
 20
245.36873014857201
 11
744.4269187395081
 21
245.36873014857201
  0
LINE
  8
_5-0_
  6
CONTINUOUS
 62
    7
 10
744.4269187395081
 20
245.36873014857201
 11
744.08052038593144
 21
244.76874001910119
  0
LINE
  8
_5-0_
  6
CONTINUOUS
 62
    7
 10
744.4269187395081
 20
245.36873014857201
 11
742.47691040677876
 21
247.31873830248742
  0
LINE
  8
_5-0_
  6
CONTINUOUS
 62
    7
 10
743.07691037101597
 20
246.7187383382502
 11
737.07691037101597
 21
246.7187383382502
  0
LINE
  8
_5-0_
  6
CONTINUOUS
 62
    7
 10
735.72690200252384
 20
245.36873014857201
 11
737.67691033525318
 21
247.31873830248742
  0
LINE
  8
_5-0_
  6
CONTINUOUS
 62
    2
 10
743.07691037101597
 20
246.7187383382502
 11
743.07691037101597
 21
253.76874001910119
  0
LINE
  8
_5-0_
  6
CONTINUOUS
 62
    7
 10
742.47691040677876
 20
247.31873830248742
 11
742.47691040677876
 21
253.76874001910119
  0
LINE
  8
_5-0_
  6
CONTINUOUS
 62
    7
 10
737.67691033525318
 20
247.31873830248742
 11
737.67691033525318
 21
253.76874001910119
  0
LINE
  8
_5-0_
  6
CONTINUOUS
 62
    2
 10
737.07691037101597
 20
246.7187383382502
 11
737.07691037101597
 21
253.76874001910119
  0
LINE
  8
_5-0_
  6
CONTINUOUS
 62
    7
 10
737.07691037101597
 20
253.76874001910119
 11
743.07691037101597
 21
253.76874001910119
  0
LINE
  8
_5-0_
  6
CENTER2
 62
    2
 10
740.07691037101597
 20
242.51875003268151
 11
740.07691037101597
 21
254.96793206622033
  0
LINE
  8
_5-0_
  6
CONTINUOUS
 62
    7
 10
725.07691037101597
 20
273.26874001910119
 11
726.57691037101631
 21
273.26874001910119
  0
LINE
  8
_5-0_
  6
CONTINUOUS
 62
    7
 10
725.07691037101597
 20
273.26874001910119
 11
725.07691037101597
 21
235.76874001910119
  0
LINE
  8
_5-0_
  6
CONTINUOUS
 62
    7
 10
726.57691037101631
 20
273.26874001910119
 11
726.57691037101631
 21
237.26874001910119
  0
LINE
  8
_5-0_
  6
CONTINUOUS
 62
    7
 10
729.57691037101608
 20
247.76874001910119
 11
729.57691037101608
 21
246.26874001910153
  0
LINE
  8
_5-0_
  6
CONTINUOUS
 62
    7
 10
758.07691037101597
 20
336.26874001910153
 11
758.07691037101597
 21
246.26874001910153
  0
LINE
  8
_5-0_
  6
CONTINUOUS
 62
    7
 10
726.57691037101631
 20
238.76874001910119
 11
729.57691037101631
 21
238.76874001910119
  0
LINE
  8
_5-0_
  6
CONTINUOUS
 62
    7
 10
732.57691037101608
 20
255.26874001910119
 11
732.57691037101608
 21
247.76874001910119
  0
LINE
  8
_5-0_
  6
CONTINUOUS
 62
    4
 10
710.28030020152437
 20
235.76874001910119
 11
710.28030020152437
 21
273.26874001910119
  0
LINE
  8
_5-0_
  6
CONTINUOUS
 62
    4
 10
709.53030020152437
 20
235.76874001910119
 11
722.48369003203288
 21
235.76874001910119
  0
LINE
  8
_5-0_
  6
CONTINUOUS
 62
    4
 10
709.53030020152437
 20
273.26874001910119
 11
722.48369003203288
 21
273.26874001910119
  0
LINE
  8
_5-0_
  6
CONTINUOUS
 62
    7
 10
744.57691037101597
 20
306.26874001910085
 11
744.57691037101597
 21
321.26874001910124
  0
LINE
  8
_5-0_
  6
CONTINUOUS
 62
    7
 10
732.57691037101597
 20
255.26874001910119
 11
744.57691037101597
 21
255.26874001910119
  0
LINE
  8
_5-0_
  6
CONTINUOUS
 62
    7
 10
744.57691037101597
 20
336.26874001910153
 11
758.07691037101597
 21
336.26874001910153
  0
LINE
  8
_5-0_
  6
CONTINUOUS
 62
    7
 10
744.57691037101597
 20
334.76874001910153
 11
756.57691037101608
 21
334.76874001910153
  0
LINE
  8
_5-0_
  6
CONTINUOUS
 62
    7
 10
756.57691037101608
 20
334.76874001910153
 11
756.57691037101608
 21
247.76874001910119
  0
LINE
  8
_5-0_
  6
CONTINUOUS
 62
    7
 10
741.57691037101597
 20
294.99434781957319
 11
737.07691037101597
 21
290.49434781957319
  0
LINE
  8
_5-0_
  6
CONTINUOUS
 62
    7
 10
741.57691037101597
 20
287.08323758134236
 11
737.07691037101597
 21
282.58323758134236
  0
LINE
  8
_5-0_
  6
CONTINUOUS
 62
    7
 10
743.07691037101597
 20
256.76874001910119
 11
732.57691037101597
 21
256.76874001910119
  0
LINE
  8
_5-0_
  6
CONTINUOUS
 62
    7
 10
732.57691037101597
 20
256.76874001910119
 11
732.57691037101597
 21
255.26874001910119
  0
LINE
  8
_5-0_
  6
CONTINUOUS
 62
    7
 10
756.57691037101608
 20
255.26874001910119
 11
732.57691037101597
 21
255.26874001910119
  0
LINE
  8
_5-0_
  6
CONTINUOUS
 62
    7
 10
750.57691037101597
 20
244.76874001910119
 11
750.57691037101597
 21
246.26874001910153
  0
LINE
  8
_5-0_
  6
CONTINUOUS
 62
    7
 10
756.57691037101608
 20
247.76874001910119
 11
731.07691037101608
 21
247.76874001910119
  0
LINE
  8
_5-0_
  6
CONTINUOUS
 62
    7
 10
731.07691037101608
 20
246.26874001910119
 11
750.57691037101597
 21
246.26874001910119
  0
LINE
  8
_5-0_
  6
CONTINUOUS
 62
    7
 10
731.07691037101608
 20
246.26874001910153
 11
758.07691037101597
 21
246.26874001910153
  0
LINE
  8
_5-0_
  6
CONTINUOUS
 62
    7
 10
731.07691037101608
 20
246.26874001910119
 11
731.07691037101608
 21
263.20793814691837
  0
LINE
  8
_5-0_
  6
CONTINUOUS
 62
    7
 10
731.07691037101608
 20
263.20793814691837
 11
729.57691037101631
 21
263.20793814691837
  0
LINE
  8
_5-0_
  6
CONTINUOUS
 62
    7
 10
729.57691037101631
 20
360.71974106568075
 11
729.57691037101631
 21
238.76874001910119
  0
LINE
  8
_5-0_
  6
CONTINUOUS
 62
    7
 10
726.57691037101631
 20
360.71974106568075
 11
726.57691037101631
 21
238.76874001910119
  0
LINE
  8
_5-0_
  6
CONTINUOUS
 62
    7
 10
744.57691037101597
 20
360.71974106568075
 11
744.57691037101597
 21
255.26874001910119
  0
LINE
  8
_5-0_
  6
CONTINUOUS
 62
    7
 10
743.07691037101597
 20
360.71974106568075
 11
743.07691037101597
 21
256.76874001910119
  0
LINE
  8
_5-0_
  6
CONTINUOUS
 62
    7
 10
741.57691037101597
 20
360.71974106568075
 11
741.57691037101597
 21
256.76874001910119
  0
LINE
  8
_5-0_
  6
CONTINUOUS
 62
    7
 10
737.07691037101597
 20
360.71974106568075
 11
737.07691037101597
 21
256.76874001910119
  0
LINE
  8
_5-0_
  6
CONTINUOUS
 62
    7
 10
734.07691037101597
 20
360.71974106568075
 11
734.07691037101597
 21
256.76874001910119
  0
LINE
  8
_5-0_
  6
CONTINUOUS
 62
    7
 10
726.57691037101631
 20
237.26874001910119
 11
753.6073777569768
 21
237.26874001910119
  0
LINE
  8
_5-0_
  6
CONTINUOUS
 62
    7
 10
725.07691037101597
 20
235.76874001910119
 11
753.6073777569768
 21
235.76874001910119
  0
LINE
  8
_5-0_
  6
CONTINUOUS
 62
    7
 10
753.6073777569768
 20
237.26874001910119
 11
753.6073777569768
 21
235.76874001910119
  0
LINE
  8
_5-0_
  6
CONTINUOUS
 62
    4
 10
700.01294031571501
 20
235.22970746450031
 11
730.14710879950792
 21
253.18636950621254
  0
TEXT
  8
_5-0_
 62
    7
 10
709.23717648056891
 20
451.90241694644283
 40
6
 41
1
 50
90
  1
25/30
  0
TEXT
  8
_5-0_
 62
    7
 10
709.23717648056891
 20
246.85942240703179
 40
6
 41
1
 50
90
  1
25/30
  0
LINE
  8
_5-0_
  6
CONTINUOUS
 62
    4
 10
710.21602998194498
 20
478.95234857816979
 11
709.43957284663747
 21
476.05457109930256
  0
LINE
  8
_5-0_
  6
CONTINUOUS
 62
    4
 10
710.21602998194498
 20
478.95234857816979
 11
710.99248711725249
 21
476.05457109930256
  0
LINE
  8
_5-0_
  6
CONTINUOUS
 62
    4
 10
710.25205717094877
 20
441.24105347247564
 11
709.47560003564115
 21
444.13883095134281
  0
LINE
  8
_5-0_
  6
CONTINUOUS
 62
    4
 10
710.25205717094877
 20
441.24105347247564
 11
711.02851430625628
 21
444.13883095134281
  0
LINE
  8
_5-0_
  6
CONTINUOUS
 62
    4
 10
710.21602998194498
 20
273.54786214586528
 11
709.43957284663747
 21
270.65008466699805
  0
LINE
  8
_5-0_
  6
CONTINUOUS
 62
    4
 10
710.21602998194498
 20
273.54786214586528
 11
710.99248711725249
 21
270.65008466699805
  0
LINE
  8
_5-0_
  6
CONTINUOUS
 62
    4
 10
710.25205717094877
 20
235.83656704017113
 11
709.47560003564115
 21
238.7343445190383
  0
LINE
  8
_5-0_
  6
CONTINUOUS
 62
    4
 10
710.25205717094877
 20
235.83656704017113
 11
711.02851430625628
 21
238.7343445190383
  0
TEXT
  8
_5-0_
 62
    7
 10
701.42550990377208
 20
491.42448585847188
 40
10
 41
1
 50
0
  1
B-B 断面
  0
TEXT
  8
_5-0_
 62
    7
 10
691.23077645117257
 20
231.19329876405462
 40
7
 41
1
 50
0
  1
⑫
  0
TEXT
  8
_5-0_
 62
    7
 10
691.23077645117257
 20
473.79076188180647
 40
7
 41
1
 50
0
  1
⑫
  0
LINE
  8
_5-0_
  6
CONTINUOUS
 62
    4
 10
698.63251682215673
 20
413.96382974061271
 11
727.37049771578586
 21
397.26141349474273
  0
LINE
  8
_5-0_
  6
CONTINUOUS
 62
    4
 10
699.67237110239489
 20
354.31296973946576
 11
735.31888599162949
 21
337.81372570502003
  0
LINE
  8
_5-0_
  6
CONTINUOUS
 62
    4
 10
699.67237110239489
 20
342.09130749172817
 11
738.17060718276821
 21
324.57359160330429
  0
LINE
  8
_5-0_
  6
CONTINUOUS
 62
    4
 10
699.06128799000794
 20
323.14773100773493
 11
742.04080022788526
 21
302.77829392817227
  0
TEXT
  8
_5-0_
 62
    7
 10
690.46186471088765
 20
411.18159267022406
 40
7
 41
1
 50
0
  1
③
  0
TEXT
  8
_5-0_
 62
    7
 10
690.46186471088765
 20
351.70390683366401
 40
7
 41
1
 50
0
  1
④
  0
TEXT
  8
_5-0_
 62
    7
 10
690.46186471088765
 20
339.06988762526163
 40
7
 41
1
 50
0
  1
⑤
  0
TEXT
  8
_5-0_
 62
    7
 10
690.46186471088765
 20
321.36828701206383
 40
7
 41
1
 50
0
  1
⑥
  0
LINE
  8
_5-0_
  6
CONTINUOUS
 62
    4
 10
725.7868708240419
 20
265.10411525116973
 11
699.80718374966295
 21
283.39750437454893
  0
TEXT
  8
_5-0_
 62
    7
 10
691.23077645117257
 20
280.63043711218904
 40
7
 41
1
 50
0
  1
①
  0
LINE
  8
_5-0_
  6
CONTINUOUS
 62
    4
 10
725.40506405639985
 20
449.01260021573097
 11
699.22186667741437
 21
428.32319871537197
  0
TEXT
  8
_5-0_
 62
    7
 10
691.23077645117257
 20
425.05029904299874
 40
7
 41
1
 50
0
  1
①
  0
TEXT
  8
_5-0_
 62
    7
 10
773.19766646044491
 20
437.39669752846117
 40
7
 41
1
 50
0
  1
②
  0
LINE
  8
_5-0_
  6
CONTINUOUS
 62
    4
 10
772.10274753734257
 20
439.09851935183235
 11
757.46707985635021
 21
430.58941023497641
  0
TEXT
  8
_5-0_
 62
    7
 10
773.19766646044491
 20
295.89021291514581
 40
7
 41
1
 50
0
  1
②
  0
LINE
  8
_5-0_
  6
CONTINUOUS
 62
    4
 10
772.10274753734257
 20
297.59203473851699
 11
757.46707985635021
 21
289.08292562166105
  0
TEXT
  8
_5-0_
 62
    7
 10
773.19766646044491
 20
350.0953411678791
 40
7
 41
1
 50
0
  1
⑦
  0
LINE
  8
_5-0_
  6
CONTINUOUS
 62
    4
 10
772.06716877007739
 20
352.96688068941501
 11
744.06965843510216
 21
338.96812552192739
  0
LINE
  8
_5-0_
  6
CONTINUOUS
 62
    7
 10
413.44316024439411
 20
263.29237293166079
 11
413.44316024439411
 21
234.79237293166079
  0
LINE
  8
_5-0_
  6
CONTINUOUS
 62
    7
 10
399.94313163416479
 20
261.79237293166079
 11
399.94313163416479
 21
258.79237293166079
  0
LINE
  8
_5-0_
  6
CONTINUOUS
 62
    7
 10
399.94313163416479
 20
261.79237293166079
 11
315.43592297589828
 21
261.79237293166079
  0
LINE
  8
_5-0_
  6
CONTINUOUS
 62
    7
 10
375.94316024439411
 20
263.29237293166079
 11
375.94316024439411
 21
261.79237293166079
  0
LINE
  8
_5-0_
  6
CONTINUOUS
 62
    7
 10
413.44316024439411
 20
263.29237293166079
 11
375.94316024439411
 21
263.29237293166079
  0
LINE
  8
_5-0_
  6
CONTINUOUS
 62
    7
 10
411.94316024439411
 20
261.79237293166079
 11
375.94316024439411
 21
261.79237293166079
  0
LINE
  8
_5-0_
  6
CONTINUOUS
 62
    7
 10
411.94316024439411
 20
234.79237293166079
 11
411.94316024439411
 21
261.79237293166079
  0
LINE
  8
_5-0_
  6
CONTINUOUS
 62
    7
 10
172.27366871897084
 20
263.29237293166079
 11
172.27366871897084
 21
234.79237293166079
  0
LINE
  8
_5-0_
  6
CONTINUOUS
 62
    7
 10
181.42364010874087
 20
261.79237293166079
 11
181.42364010874087
 21
259.54237293166079
  0
LINE
  8
_5-0_
  6
CONTINUOUS
 62
    7
 10
181.42364010874087
 20
261.79237293166079
 11
183.22364010874088
 21
261.79237293166079
  0
LINE
  8
_5-0_
  6
CONTINUOUS
 62
    7
 10
183.22364010874088
 20
261.79237293166079
 11
183.22364010874088
 21
259.54237293166079
  0
LINE
  8
_5-0_
  6
CONTINUOUS
 62
    7
 10
177.82364010874107
 20
261.79237293166079
 11
177.82364010874107
 21
259.54237293166079
  0
LINE
  8
_5-0_
  6
CONTINUOUS
 62
    7
 10
177.82364010874107
 20
261.79237293166079
 11
179.62364010874148
 21
261.79237293166079
  0
LINE
  8
_5-0_
  6
CONTINUOUS
 62
    7
 10
179.62364010874148
 20
261.79237293166079
 11
179.62364010874148
 21
259.54237293166079
  0
LINE
  8
_5-0_
  6
CONTINUOUS
 62
    7
 10
188.77364010874095
 20
261.79237293166079
 11
188.77364010874095
 21
258.79237293166079
  0
LINE
  8
_5-0_
  6
CONTINUOUS
 62
    7
 10
296.28558026128462
 20
261.79237293166079
 11
188.77364010874095
 21
261.79237293166079
  0
LINE
  8
_5-0_
  6
CONTINUOUS
 62
    7
 10
209.77366871897078
 20
263.29237293166079
 11
172.27366871897084
 21
263.29237293166079
  0
LINE
  8
_5-0_
  6
CONTINUOUS
 62
    7
 10
209.77366871897078
 20
263.29237293166079
 11
209.77366871897078
 21
261.79237293166079
  0
LINE
  8
_5-0_
  6
CONTINUOUS
 62
    7
 10
173.7736687189705
 20
261.79237293166079
 11
173.7736687189705
 21
234.79237293166079
  0
LINE
  8
_5-0_
  6
CONTINUOUS
 62
    7
 10
209.77366871897078
 20
261.79237293166079
 11
173.7736687189705
 21
261.79237293166079
  0
LINE
  8
_5-0_
  6
CONTINUOUS
 62
    4
 10
375.94316024439411
 20
270.10064423594054
 11
375.94316024439411
 21
264.87866041914066
  0
LINE
  8
_5-0_
  6
CONTINUOUS
 62
    4
 10
413.44316024439411
 20
270.10064423594054
 11
413.44316024439411
 21
264.87866041914066
  0
LINE
  8
_5-0_
  6
CONTINUOUS
 62
    4
 10
172.27366871897084
 20
270.10064423594054
 11
172.27366871897084
 21
264.87866041914066
  0
LINE
  8
_5-0_
  6
CONTINUOUS
 62
    4
 10
209.77366871897078
 20
270.10064423594054
 11
209.77366871897078
 21
264.87866041914066
  0
LINE
  8
_5-0_
  6
CONTINUOUS
 62
    4
 10
156.72115272731628
 20
263.29237293166079
 11
170.51591184509618
 21
263.29237293166079
  0
LINE
  8
_5-0_
  6
CONTINUOUS
 62
    4
 10
142.35832204208344
 20
230.29237293166096
 11
142.35832204208344
 21
263.29237293166079
  0
LINE
  8
_5-0_
  6
CONTINUOUS
 62
    4
 10
141.60832204208344
 20
263.29237293166079
 11
170.51591184509618
 21
263.29237293166079
  0
LINE
  8
_5-0_
  6
PHANTOM2
 62
    4
 10
434.06816024439411
 20
232.91737293166113
 11
434.06816024439411
 21
270.41737293166113
  0
LINE
  8
_5-0_
  6
PHANTOM2
 62
    4
 10
432.56816024439411
 20
234.41737293166113
 11
432.56816024439411
 21
270.41737293166113
  0
LINE
  8
_5-0_
  6
PHANTOM2
 62
    4
 10
434.06816024439411
 20
270.41737293166113
 11
432.56816024439411
 21
270.41737293166113
  0
LINE
  8
_5-0_
  6
CONTINUOUS
 62
    4
 10
375.94316024439411
 20
269.35064423594054
 11
413.44316024439411
 21
269.35064423594054
  0
LINE
  8
_5-0_
  6
CONTINUOUS
 62
    4
 10
172.27366871897084
 20
269.35064423594054
 11
209.77366871897078
 21
269.35064423594054
  0
LINE
  8
_5-0_
  6
CONTINUOUS
 62
    7
 10
410.59320373194328
 20
260.29237293166096
 11
411.94318885462377
 21
260.29237293166096
  0
LINE
  8
_5-0_
  6
CONTINUOUS
 62
    7
 10
410.59320373194328
 20
241.54242228430684
 11
411.94318885462377
 21
241.54242228430684
  0
LINE
  8
_5-0_
  6
CONTINUOUS
 62
    7
 10
410.59320373194328
 20
240.49233727616246
 11
410.59320373194328
 21
260.29237293166096
  0
LINE
  8
_5-0_
  6
CENTER2
 62
    2
 10
408.56816024439428
 20
242.79456685942603
 11
408.56816024439428
 21
232.68684815329487
  0
LINE
  8
_5-0_
  6
CENTER2
 62
    2
 10
414.17007751123981
 20
237.79237293166096
 11
402.56495017664508
 21
237.79237293166096
  0
LINE
  8
_5-0_
  6
CONTINUOUS
 62
    7
 10
406.54311675684528
 20
260.29237293166096
 11
405.19313163416462
 21
260.29237293166096
  0
LINE
  8
_5-0_
  6
CONTINUOUS
 62
    7
 10
407.35313529627416
 20
239.41241090458789
 11
406.54311675684528
 21
240.49233727616246
  0
LINE
  8
_5-0_
  6
CONTINUOUS
 62
    7
 10
406.54311675684528
 20
260.29237293166096
 11
406.54311675684528
 21
237.79237293166096
  0
CIRCLE
  8
_5-0_
  6
CONTINUOUS
 62
    7
 10
408.56816024439428
 20
237.79237293166096
 40
2.0250000357627869
  0
CIRCLE
  8
_5-0_
  6
CONTINUOUS
 62
    7
 10
408.56816024439428
 20
237.79237293166096
 40
1.8000000715255737
  0
ARC
  8
_5-0_
  6
CONTINUOUS
 62
    7
 10
408.56816024439428
 20
237.79237293166096
 40
3.375
 50
180
 51
126.87091064453119
  0
LINE
  8
_5-0_
  6
CONTINUOUS
 62
    7
 10
411.94318885462377
 20
237.79237293166096
 11
411.94318885462377
 21
260.29237293166096
  0
LINE
  8
_5-0_
  6
CONTINUOUS
 62
    7
 10
405.19313163416462
 20
260.29237293166096
 11
405.19313163416462
 21
237.79237293166096
  0
LINE
  8
_5-0_
  6
CENTER2
 62
    2
 10
408.55938878673965
 20
252.04237293166113
 11
403.29473739477464
 21
252.04237293166113
  0
LINE
  8
_5-0_
  6
CONTINUOUS
 62
    7
 10
399.94313163416479
 20
258.79237293166079
 11
315.43592297589828
 21
258.79237293166079
  0
LINE
  8
_5-0_
  6
CONTINUOUS
 62
    7
 10
411.94316024439411
 20
234.79237293166079
 11
413.44316024439411
 21
234.79237293166079
  0
LINE
  8
_5-0_
  6
CONTINUOUS
 62
    7
 10
403.69313163416479
 20
258.79237293166113
 11
405.19313163416462
 21
258.79237293166113
  0
LINE
  8
_5-0_
  6
CONTINUOUS
 62
    7
 10
403.69313163416479
 20
258.79237293166113
 11
403.69313163416479
 21
231.79237293166096
  0
LINE
  8
_5-0_
  6
CONTINUOUS
 62
    7
 10
176.02364010874135
 20
259.54237293166079
 11
176.02364010874135
 21
241.54237293166096
  0
LINE
  8
_5-0_
  6
CONTINUOUS
 62
    7
 10
185.02364010874095
 20
259.54237293166079
 11
185.02364010874095
 21
241.54237293166096
  0
LINE
  8
_5-0_
  6
CONTINUOUS
 62
    7
 10
176.02364010874135
 20
241.54237293166096
 11
185.02364010874095
 21
241.54237293166096
  0
LINE
  8
_5-0_
  6
CONTINUOUS
 62
    7
 10
176.02364010874135
 20
259.54237293166079
 11
185.02364010874095
 21
259.54237293166079
  0
LINE
  8
_5-0_
  6
CONTINUOUS
 62
    7
 10
182.02364010874135
 20
259.54237293166079
 11
182.02364010874135
 21
241.54237293166096
  0
LINE
  8
_5-0_
  6
CONTINUOUS
 62
    7
 10
176.02364010874135
 20
243.04237293166096
 11
182.02364010874135
 21
243.04237293166096
  0
LINE
  8
_5-0_
  6
CONTINUOUS
 62
    7
 10
176.02364010874135
 20
258.04237293166079
 11
182.02364010874135
 21
258.04237293166079
  0
LINE
  8
_5-0_
  6
CENTER2
 62
    2
 10
174.15789061949567
 20
250.54237293166082
 11
186.37817386919227
 21
250.54237293166082
  0
LINE
  8
_5-0_
  6
CONTINUOUS
 62
    7
 10
296.28558026128462
 20
258.79237293166079
 11
188.77364010874095
 21
258.79237293166079
  0
LINE
  8
_5-0_
  6
CONTINUOUS
 62
    7
 10
172.27366871897084
 20
234.79237293166079
 11
173.7736687189705
 21
234.79237293166079
  0
LINE
  8
_5-0_
  6
CONTINUOUS
 62
    7
 10
186.52364010874095
 20
258.79237293166113
 11
185.02364010874095
 21
258.79237293166113
  0
LINE
  8
_5-0_
  6
CONTINUOUS
 62
    7
 10
186.52364010874095
 20
231.79237293166096
 11
186.52364010874095
 21
258.79237293166113
  0
LINE
  8
_5-0_
  6
CONTINUOUS
 62
    4
 10
156.72115272731628
 20
234.79237293166079
 11
170.51591184509618
 21
234.79237293166079
  0
LINE
  8
_5-0_
  6
CONTINUOUS
 62
    7
 10
296.28558026128462
 20
246.79237293166099
 11
195.52364010874095
 21
246.79237293166099
  0
LINE
  8
_5-0_
  6
CONTINUOUS
 62
    7
 10
296.28558026128462
 20
245.29237293166096
 11
189.52364010874129
 21
245.29237293166096
  0
LINE
  8
_5-0_
  6
CONTINUOUS
 62
    7
 10
189.52364010874129
 20
245.29237293166096
 11
191.77364010874129
 21
245.29237293166096
  0
LINE
  8
_5-0_
  6
CONTINUOUS
 62
    7
 10
191.77364010874129
 20
246.79237293166082
 11
194.77364010874129
 21
246.79237293166082
  0
LINE
  8
_5-0_
  6
CONTINUOUS
 62
    7
 10
342.19318885462377
 20
243.79237293166096
 11
327.19318885462343
 21
243.79237293166096
  0
LINE
  8
_5-0_
  6
CONTINUOUS
 62
    7
 10
245.02364010874095
 20
243.79237293166096
 11
260.02364010874123
 21
243.79237293166096
  0
LINE
  8
_5-0_
  6
CONTINUOUS
 62
    7
 10
400.69313163416433
 20
245.29237293166096
 11
398.44313163416433
 21
245.29237293166096
  0
LINE
  8
_5-0_
  6
CONTINUOUS
 62
    7
 10
398.44313163416433
 20
246.79237293166082
 11
395.44313163416433
 21
246.79237293166082
  0
LINE
  8
_5-0_
  6
CONTINUOUS
 62
    7
 10
188.02364010874095
 20
243.79237293166096
 11
296.28558026128462
 21
243.79237293166096
  0
LINE
  8
_5-0_
  6
CONTINUOUS
 62
    7
 10
403.69313163416479
 20
231.79237293166096
 11
316.69313163416462
 21
231.79237293166096
  0
LINE
  8
_5-0_
  6
CONTINUOUS
 62
    7
 10
315.19313163416462
 20
243.79237293166096
 11
315.19313163416462
 21
230.29237293166096
  0
LINE
  8
_5-0_
  6
CONTINUOUS
 62
    7
 10
316.69313163416462
 20
243.79237293166096
 11
316.69313163416462
 21
231.79237293166096
  0
LINE
  8
_5-0_
  6
CONTINUOUS
 62
    7
 10
308.28701488487195
 20
246.79237293166099
 11
394.69313163416467
 21
246.79237293166099
  0
LINE
  8
_5-0_
  6
CONTINUOUS
 62
    7
 10
308.28701488487195
 20
245.29237293166096
 11
400.69313163416433
 21
245.29237293166096
  0
LINE
  8
_5-0_
  6
CONTINUOUS
 62
    7
 10
402.19313163416467
 20
243.79237293166096
 11
308.04422354313829
 21
243.79237293166096
  0
LINE
  8
_5-0_
  6
CONTINUOUS
 62
    7
 10
273.52364010874089
 20
231.79237293166096
 11
186.52364010874095
 21
231.79237293166096
  0
LINE
  8
_5-0_
  6
CONTINUOUS
 62
    7
 10
273.52364010874089
 20
243.79237293166096
 11
273.52364010874089
 21
231.79237293166096
  0
LINE
  8
_5-0_
  6
CONTINUOUS
 62
    7
 10
275.02364010874089
 20
243.79237293166096
 11
275.02364010874089
 21
230.29237293166096
  0
LINE
  8
_5-0_
  6
CONTINUOUS
 62
    7
 10
275.02364010874089
 20
230.29237293166096
 11
185.02364010874095
 21
230.29237293166096
  0
LINE
  8
_5-0_
  6
CONTINUOUS
 62
    7
 10
185.02364010874095
 20
258.79237293166113
 11
185.02364010874095
 21
230.29237293166096
  0
LINE
  8
_5-0_
  6
CONTINUOUS
 62
    7
 10
405.19313163416462
 20
258.79237293166113
 11
405.19313163416462
 21
230.29237293166096
  0
LINE
  8
_5-0_
  6
CONTINUOUS
 62
    7
 10
405.19313163416462
 20
230.29237293166096
 11
315.19313163416462
 21
230.29237293166096
  0
LINE
  8
_5-0_
  6
CONTINUOUS
 62
    7
 10
315.43592297589828
 20
251.29237293166099
 11
396.94313163416467
 21
251.29237293166099
  0
LINE
  8
_5-0_
  6
CONTINUOUS
 62
    7
 10
360.05283207132101
 20
251.29237293166099
 11
352.55283207132095
 21
246.79237293166099
  0
LINE
  8
_5-0_
  6
CONTINUOUS
 62
    7
 10
368.29020228513474
 20
251.29237293166099
 11
360.79020228513474
 21
246.79237293166099
  0
LINE
  8
_5-0_
  6
CONTINUOUS
 62
    7
 10
394.69313163416467
 20
251.29237293166099
 11
394.69313163416467
 21
245.29237293166096
  0
LINE
  8
_5-0_
  6
CONTINUOUS
 62
    7
 10
395.44313163416433
 20
251.29237293166099
 11
395.44313163416433
 21
246.79237293166082
  0
LINE
  8
_5-0_
  6
CONTINUOUS
 62
    7
 10
398.44313163416433
 20
252.79237293166079
 11
398.44313163416433
 21
245.29237293166096
  0
LINE
  8
_5-0_
  6
CONTINUOUS
 62
    7
 10
398.44313163416433
 20
251.29237293166099
 11
395.44313163416433
 21
251.29237293166099
  0
LINE
  8
_5-0_
  6
CONTINUOUS
 62
    7
 10
400.69313163416433
 20
252.79237293166079
 11
398.44313163416433
 21
252.79237293166079
  0
LINE
  8
_5-0_
  6
CONTINUOUS
 62
    7
 10
239.70940364138761
 20
251.29237293166099
 11
232.20940364138761
 21
246.79237293166099
  0
LINE
  8
_5-0_
  6
CONTINUOUS
 62
    7
 10
247.94677385520134
 20
251.29237293166099
 11
240.44677385520134
 21
246.79237293166099
  0
LINE
  8
_5-0_
  6
CONTINUOUS
 62
    7
 10
195.52364010874095
 20
251.29237293166099
 11
195.52364010874095
 21
245.29237293166096
  0
LINE
  8
_5-0_
  6
CONTINUOUS
 62
    7
 10
296.28558026128462
 20
251.29237293166099
 11
193.27364010874095
 21
251.29237293166099
  0
LINE
  8
_5-0_
  6
CONTINUOUS
 62
    7
 10
194.77364010874129
 20
251.29237293166099
 11
194.77364010874129
 21
246.79237293166082
  0
LINE
  8
_5-0_
  6
CONTINUOUS
 62
    7
 10
191.77364010874129
 20
252.79237293166079
 11
191.77364010874129
 21
245.29237293166096
  0
LINE
  8
_5-0_
  6
CONTINUOUS
 62
    7
 10
191.77364010874129
 20
251.29237293166099
 11
194.77364010874129
 21
251.29237293166099
  0
LINE
  8
_5-0_
  6
CONTINUOUS
 62
    7
 10
189.52364010874129
 20
252.79237293166079
 11
191.77364010874129
 21
252.79237293166079
  0
LINE
  8
_5-0_
  6
CONTINUOUS
 62
    7
 10
296.28558026128462
 20
254.29237293166096
 11
193.27364010874095
 21
254.29237293166096
  0
LINE
  8
_5-0_
  6
CONTINUOUS
 62
    7
 10
315.43592297589828
 20
254.29237293166096
 11
396.94313163416467
 21
254.29237293166096
  0
LINE
  8
_5-0_
  6
CONTINUOUS
 62
    7
 10
396.94313163416467
 20
254.29237293166096
 11
396.94313163416467
 21
251.29237293166099
  0
LINE
  8
_5-0_
  6
CONTINUOUS
 62
    7
 10
193.27364010874095
 20
254.29237293166096
 11
193.27364010874095
 21
251.29237293166099
  0
LINE
  8
_5-0_
  6
CONTINUOUS
 62
    7
 10
400.69313163416433
 20
255.79237293166079
 11
400.69313163416433
 21
245.29237293166096
  0
LINE
  8
_5-0_
  6
CONTINUOUS
 62
    7
 10
402.19313163416467
 20
255.79237293166079
 11
400.69313163416433
 21
255.79237293166079
  0
LINE
  8
_5-0_
  6
CONTINUOUS
 62
    7
 10
402.19313163416467
 20
255.79237293166079
 11
402.19313163416467
 21
243.79237293166096
  0
LINE
  8
_5-0_
  6
CONTINUOUS
 62
    7
 10
188.02364010874095
 20
255.79237293166079
 11
188.02364010874095
 21
243.79237293166096
  0
LINE
  8
_5-0_
  6
CONTINUOUS
 62
    7
 10
188.02364010874095
 20
255.79237293166079
 11
189.52364010874129
 21
255.79237293166079
  0
LINE
  8
_5-0_
  6
CONTINUOUS
 62
    7
 10
189.52364010874129
 20
255.79237293166079
 11
189.52364010874129
 21
245.29237293166096
  0
LINE
  8
_5-0_
  6
PHANTOM2
 62
    4
 10
434.06816024439411
 20
232.91737293166113
 11
414.32986134057558
 21
232.91737293166113
  0
LINE
  8
_5-0_
  6
PHANTOM2
 62
    4
 10
414.32986134057558
 20
234.41737293166113
 11
432.56816024439411
 21
234.41737293166113
  0
LINE
  8
_5-0_
  6
CONTINUOUS
 62
    4
 10
411.61057426903864
 20
239.16570780124931
 11
438.7358250572301
 21
254.25312539941501
  0
TEXT
  8
_5-0_
 62
    7
 10
140.45780721253226
 20
244.59191388090409
 40
6
 41
1
 50
90
  1
D
  0
TEXT
  8
_5-0_
 62
    7
 10
181.6196588108894
 20
270.80947682729283
 40
6
 41
1
 50
0
  1
25/30
  0
TEXT
  8
_5-0_
 62
    7
 10
385.60353220669691
 20
270.04239954570005
 40
6
 41
1
 50
0
  1
25/30
  0
LINE
  8
_5-0_
  6
CONTINUOUS
 62
    4
 10
157.47115272731628
 20
234.77842600223141
 11
157.47115272731628
 21
263.29237293166079
  0
TEXT
  8
_5-0_
 62
    7
 10
156.28888089816297
 20
246.12264607129708
 40
6
 41
1
 50
90
  1
20
  0
LINE
  8
_5-0_
  6
CONTINUOUS
 62
    4
 10
141.60832204208344
 20
230.29237293166096
 11
183.806622546271
 21
230.29237293166096
  0
LINE
  8
_5-0_
  6
CONTINUOUS
 62
    4
 10
172.23244708817634
 20
269.3460086944628
 11
175.13022456704357
 21
270.12246582977036
  0
LINE
  8
_5-0_
  6
CONTINUOUS
 62
    4
 10
172.23244708817634
 20
269.3460086944628
 11
175.13022456704357
 21
268.56955155915523
  0
LINE
  8
_5-0_
  6
CONTINUOUS
 62
    4
 10
209.98611445577222
 20
269.34283999595027
 11
207.08833697690505
 21
270.11929713125789
  0
LINE
  8
_5-0_
  6
CONTINUOUS
 62
    4
 10
209.98611445577222
 20
269.34283999595027
 11
207.08833697690505
 21
268.56638286064276
  0
LINE
  8
_5-0_
  6
CONTINUOUS
 62
    4
 10
157.48701227044205
 20
234.74255810141096
 11
156.71055513513448
 21
237.64033558027813
  0
LINE
  8
_5-0_
  6
CONTINUOUS
 62
    4
 10
157.48701227044205
 20
234.74255810141096
 11
158.26346940574962
 21
237.64033558027813
  0
LINE
  8
_5-0_
  6
CONTINUOUS
 62
    4
 10
157.45098508143832
 20
263.26302038618303
 11
156.67452794613075
 21
260.36524290731586
  0
LINE
  8
_5-0_
  6
CONTINUOUS
 62
    4
 10
157.45098508143832
 20
263.26302038618303
 11
158.22744221674589
 21
260.36524290731586
  0
LINE
  8
_5-0_
  6
CONTINUOUS
 62
    4
 10
142.31288681019947
 20
263.26302038618303
 11
141.53642967489191
 21
260.36524290731586
  0
LINE
  8
_5-0_
  6
CONTINUOUS
 62
    4
 10
142.31288681019947
 20
263.26302038618303
 11
143.08934394550704
 21
260.36524290731586
  0
LINE
  8
_5-0_
  6
CONTINUOUS
 62
    4
 10
142.34891399920321
 20
230.18512080983703
 11
141.57245686389564
 21
233.0828982887042
  0
LINE
  8
_5-0_
  6
CONTINUOUS
 62
    4
 10
142.34891399920321
 20
230.18512080983703
 11
143.12537113451077
 21
233.0828982887042
  0
LINE
  8
_5-0_
  6
CONTINUOUS
 62
    4
 10
375.89939344663617
 20
269.3460086944628
 11
378.79717092550339
 21
270.12246582977036
  0
LINE
  8
_5-0_
  6
CONTINUOUS
 62
    4
 10
375.89939344663617
 20
269.3460086944628
 11
378.79717092550339
 21
268.56955155915523
  0
LINE
  8
_5-0_
  6
CONTINUOUS
 62
    4
 10
413.65306081423205
 20
269.34283999595027
 11
410.75528333536488
 21
270.11929713125789
  0
LINE
  8
_5-0_
  6
CONTINUOUS
 62
    4
 10
413.65306081423205
 20
269.34283999595027
 11
410.75528333536488
 21
268.56638286064276
  0
LINE
  8
_5-0_
  6
CONTINUOUS
 62
    4
 10
251.6294655120565
 20
253.19044315098967
 11
240.65807641473128
 21
274.64531536930241
  0
LINE
  8
_5-0_
  6
CONTINUOUS
 62
    4
 10
340.92215982619331
 20
274.80190413639303
 11
331.05244304952856
 21
260.41352184752026
  0
LINE
  8
_5-0_
  6
CONTINUOUS
 62
    4
 10
256.68083400044554
 20
275.21218652780721
 11
267.55853603827597
 21
249.90970570067975
  0
LINE
  8
_5-0_
  6
CONTINUOUS
 62
    4
 10
271.34208457317357
 20
275.21218652780721
 11
286.23980692933276
 21
246.36262894921327
  0
TEXT
  8
_5-0_
 62
    7
 10
236.67449099372027
 20
275.84269798836419
 40
7
 41
1
 50
0
  1
④
  0
TEXT
  8
_5-0_
 62
    7
 10
338.04604789092446
 20
275.84269798836419
 40
7
 41
1
 50
0
  1
③
  0
TEXT
  8
_5-0_
 62
    7
 10
253.05643744956691
 20
275.87798198914328
 40
7
 41
1
 50
0
  1
⑤
  0
TEXT
  8
_5-0_
 62
    7
 10
267.45230976744153
 20
276.10379959412955
 40
7
 41
1
 50
0
  1
⑥
  0
TEXT
  8
_5-0_
 62
    7
 10
439.85104514365003
 20
251.15845633737297
 40
7
 41
1
 50
0
  1
⑪
  0
TEXT
  8
_5-0_
 62
    7
 10
150.39421158013448
 20
278.92677404958414
 40
7
 41
1
 50
0
  1
⑩
  0
LINE
  8
_5-0_
  6
CONTINUOUS
 62
    4
 10
179.33675627606794
 20
254.78850718843114
 11
157.46751347302148
 21
278.71603166705842
  0
LINE
  8
_5-0_
  6
CONTINUOUS
 62
    4
 10
172.90178208190721
 20
279.37509988589568
 11
191.07543326169082
 21
251.04558481152708
  0
TEXT
  8
_5-0_
 62
    7
 10
211.08482997038988
 20
279.3825161041384
 40
7
 41
1
 50
0
  1
①
  0
LINE
  8
_5-0_
  6
CONTINUOUS
 62
    4
 10
212.49480198743683
 20
278.71913038546825
 11
200.60436564275497
 21
262.548136956701
  0
TEXT
  8
_5-0_
 62
    7
 10
357.37731839313437
 20
279.3825161041384
 40
7
 41
1
 50
0
  1
①
  0
LINE
  8
_5-0_
  6
CONTINUOUS
 62
    4
 10
362.28370601001706
 20
279.1945827345757
 11
377.66021062126811
 21
262.78672720427733
  0
TEXT
  8
_5-0_
 62
    7
 10
292.97152469769384
 20
216.15688333217309
 40
7
 41
1
 50
0
  1
⑦
  0
LINE
  8
_5-0_
  6
CONTINUOUS
 62
    4
 10
282.42817423564611
 20
244.14512417758328
 11
294.43390736067431
 21
223.96527488232311
  0
TEXT
  8
_5-0_
 62
    7
 10
245.97626842439851
 20
216.19175748296846
 40
7
 41
1
 50
0
  1
②
  0
TEXT
  8
_5-0_
 62
    7
 10
352.23977863741402
 20
216.19175748296846
 40
7
 41
1
 50
0
  1
②
  0
LINE
  8
_5-0_
  6
CONTINUOUS
 62
    4
 10
346.79933907622279
 20
230.86218540095632
 11
352.54676450841714
 21
223.45439262168361
  0
LINE
  8
_5-0_
  6
CONTINUOUS
 62
    4
 10
241.87867052100043
 20
230.99069517661155
 11
247.4915355637421
 21
223.50687511962266
  0
TEXT
  8
_5-0_
 62
    7
 10
411.03441953938693
 20
279.3825161041384
 40
7
 41
1
 50
0
  1
⑧
  0
LINE
  8
_5-0_
  6
CONTINUOUS
 62
    4
 10
399.41903467702116
 20
250.64588618750128
 11
412.99090492298137
 21
278.83836210751866
  0
TEXT
  8
_5-0_
 62
    7
 10
166.92600186600322
 20
279.3825161041384
 40
7
 41
1
 50
0
  1
⑧
  0
LINE
  8
_2-0_
  6
CONTINUOUS
 62
    7
 10
485.39266459094085
 20
320.26312633938596
 11
611.72599792427422
 21
320.26312633938596
  0
TEXT
  8
_2-0_
 62
    7
 10
524.34717915732449
 20
507.81377464241905
 40
6
 41
1
 50
0
  1
開口部
  0
LINE
  8
_2-0_
  6
CONTINUOUS
 62
    7
 10
611.72599792427422
 20
320.26312633938596
 11
611.72599792427422
 21
496.92979300605259
  0
LINE
  8
_2-0_
  6
CONTINUOUS
 62
    7
 10
486.30933443652191
 20
404.34644981808469
 11
486.30933443652191
 21
412.84646952735386
  0
LINE
  8
_2-0_
  6
CONTINUOUS
 62
    7
 10
486.15933672534015
 20
404.34644981808469
 11
486.15933672534015
 21
412.84646952735386
  0
LINE
  8
_2-0_
  6
CONTINUOUS
 62
    7
 10
485.55932807869317
 20
404.34644981808469
 11
486.30933443652191
 21
404.34644981808469
  0
LINE
  8
_2-0_
  6
CONTINUOUS
 62
    7
 10
485.55932807869317
 20
412.84646952735386
 11
486.30933443652191
 21
412.84646952735386
  0
LINE
  8
_2-0_
  6
CONTINUOUS
 62
    7
 10
485.55932807869317
 20
404.34644981808469
 11
485.55932807869317
 21
412.84646952735386
  0
LINE
  8
_2-0_
  6
CENTER2
 62
    2
 10
485.28608830716803
 20
408.59645967271922
 11
486.65591557767584
 21
408.59645967271922
  0
LINE
  8
_2-0_
  6
CONTINUOUS
 62
    7
 10
485.7093257898747
 20
404.34644981808469
 11
485.7093257898747
 21
412.84646952735386
  0
LINE
  8
_2-0_
  6
CONTINUOUS
 62
    7
 10
485.7093257898747
 20
406.04646027671299
 11
486.15933672534015
 21
406.04646027671299
  0
LINE
  8
_2-0_
  6
CONTINUOUS
 62
    7
 10
485.7093257898747
 20
407.74647089428697
 11
486.15933672534015
 21
407.74647089428697
  0
LINE
  8
_2-0_
  6
CONTINUOUS
 62
    7
 10
485.7093257898747
 20
409.44644845115147
 11
486.15933672534015
 21
409.44644845115147
  0
LINE
  8
_2-0_
  6
CONTINUOUS
 62
    7
 10
485.7093257898747
 20
411.14645906872545
 11
486.15933672534015
 21
411.14645906872545
  0
LINE
  8
_2-0_
  6
CONTINUOUS
 62
    7
 10
486.30933443652191
 20
479.34644981808469
 11
486.30933443652191
 21
487.84646952735386
  0
LINE
  8
_2-0_
  6
CONTINUOUS
 62
    7
 10
486.15933672534015
 20
479.34644981808469
 11
486.15933672534015
 21
487.84646952735386
  0
LINE
  8
_2-0_
  6
CONTINUOUS
 62
    7
 10
485.55932807869317
 20
479.34644981808469
 11
486.30933443652191
 21
479.34644981808469
  0
LINE
  8
_2-0_
  6
CONTINUOUS
 62
    7
 10
485.55932807869317
 20
487.84646952735386
 11
486.30933443652191
 21
487.84646952735386
  0
LINE
  8
_2-0_
  6
CONTINUOUS
 62
    7
 10
485.55932807869317
 20
479.34644981808469
 11
485.55932807869317
 21
487.84646952735386
  0
LINE
  8
_2-0_
  6
CENTER2
 62
    2
 10
485.28608830716803
 20
483.59645967271922
 11
486.65591557767584
 21
483.59645967271922
  0
LINE
  8
_2-0_
  6
CONTINUOUS
 62
    7
 10
485.7093257898747
 20
479.34644981808469
 11
485.7093257898747
 21
487.84646952735386
  0
LINE
  8
_2-0_
  6
CONTINUOUS
 62
    7
 10
485.7093257898747
 20
481.04646027671299
 11
486.15933672534015
 21
481.04646027671299
  0
LINE
  8
_2-0_
  6
CONTINUOUS
 62
    7
 10
485.7093257898747
 20
482.74647089428697
 11
486.15933672534015
 21
482.74647089428697
  0
LINE
  8
_2-0_
  6
CONTINUOUS
 62
    7
 10
485.7093257898747
 20
484.44644845115147
 11
486.15933672534015
 21
484.44644845115147
  0
LINE
  8
_2-0_
  6
CONTINUOUS
 62
    7
 10
485.7093257898747
 20
486.14645906872545
 11
486.15933672534015
 21
486.14645906872545
  0
LINE
  8
_2-0_
  6
CONTINUOUS
 62
    7
 10
486.30933443652191
 20
329.34644981808469
 11
486.30933443652191
 21
337.84646952735386
  0
LINE
  8
_2-0_
  6
CONTINUOUS
 62
    7
 10
486.15933672534015
 20
329.34644981808469
 11
486.15933672534015
 21
337.84646952735386
  0
LINE
  8
_2-0_
  6
CONTINUOUS
 62
    7
 10
485.55932807869317
 20
329.34644981808469
 11
486.30933443652191
 21
329.34644981808469
  0
LINE
  8
_2-0_
  6
CONTINUOUS
 62
    7
 10
485.55932807869317
 20
337.84646952735386
 11
486.30933443652191
 21
337.84646952735386
  0
LINE
  8
_2-0_
  6
CONTINUOUS
 62
    7
 10
485.55932807869317
 20
329.34644981808469
 11
485.55932807869317
 21
337.84646952735386
  0
LINE
  8
_2-0_
  6
CENTER2
 62
    2
 10
485.28608830716803
 20
333.59645967271922
 11
486.65591557767584
 21
333.59645967271922
  0
LINE
  8
_2-0_
  6
CONTINUOUS
 62
    7
 10
485.7093257898747
 20
329.34644981808469
 11
485.7093257898747
 21
337.84646952735386
  0
LINE
  8
_2-0_
  6
CONTINUOUS
 62
    7
 10
485.7093257898747
 20
331.04646027671299
 11
486.15933672534015
 21
331.04646027671299
  0
LINE
  8
_2-0_
  6
CONTINUOUS
 62
    7
 10
485.7093257898747
 20
332.74647089428697
 11
486.15933672534015
 21
332.74647089428697
  0
LINE
  8
_2-0_
  6
CONTINUOUS
 62
    7
 10
485.7093257898747
 20
334.44644845115147
 11
486.15933672534015
 21
334.44644845115147
  0
LINE
  8
_2-0_
  6
CONTINUOUS
 62
    7
 10
485.7093257898747
 20
336.14645906872545
 11
486.15933672534015
 21
336.14645906872545
  0
LINE
  8
_2-0_
  6
CONTINUOUS
 62
    7
 10
611.72599792427422
 20
496.92979300605259
 11
485.39266459094085
 21
496.92979300605259
  0
CIRCLE
  8
_2-0_
  6
CONTINUOUS
 62
    7
 10
548.30933443652179
 20
408.59645967271922
 40
0.4166666666666666
  0
LINE
  8
_2-0_
  6
CENTER2
 62
    2
 10
548.30933443652179
 20
409.43364240802055
 11
548.30933443652179
 21
407.87502740713671
  0
LINE
  8
_2-0_
  6
CENTER2
 62
    2
 10
547.46418766551778
 20
408.59645967271922
 11
549.19327618212321
 21
408.59645967271922
  0
CIRCLE
  8
_2-0_
  6
CONTINUOUS
 62
    7
 10
548.30933443652179
 20
491.09645967271922
 40
0.4166666666666666
  0
LINE
  8
_2-0_
  6
CENTER2
 62
    2
 10
548.30933443652179
 20
491.93364240802043
 11
548.30933443652179
 21
490.37502740713671
  0
LINE
  8
_2-0_
  6
CENTER2
 62
    2
 10
549.15448120752581
 20
491.09645967271922
 11
547.42539269092049
 21
491.09645967271922
  0
CIRCLE
  8
_2-0_
  6
CONTINUOUS
 62
    7
 10
548.30933443652179
 20
326.09645967271922
 40
0.4166666666666666
  0
LINE
  8
_2-0_
  6
CENTER2
 62
    2
 10
548.30933443652179
 20
325.25927693741801
 11
548.30933443652179
 21
326.81789193830184
  0
LINE
  8
_2-0_
  6
CENTER2
 62
    2
 10
549.15448120752581
 20
326.09645967271922
 11
547.42539269092049
 21
326.09645967271922
  0
CIRCLE
  8
_2-0_
  6
CONTINUOUS
 62
    7
 10
605.30933443652202
 20
408.59645967271922
 40
0.4166666666666666
  0
LINE
  8
_2-0_
  6
CENTER2
 62
    2
 10
605.30933443652202
 20
409.43364240802055
 11
605.30933443652202
 21
407.87502740713671
  0
LINE
  8
_2-0_
  6
CENTER2
 62
    2
 10
606.15448120752603
 20
408.59645967271922
 11
604.42539269092049
 21
408.59645967271922
  0
CIRCLE
  8
_2-0_
  6
CONTINUOUS
 62
    7
 10
605.30933443652202
 20
491.09645967271922
 40
0.4166666666666666
  0
LINE
  8
_2-0_
  6
CENTER2
 62
    2
 10
605.30933443652202
 20
491.93364240802043
 11
605.30933443652202
 21
490.37502740713671
  0
LINE
  8
_2-0_
  6
CENTER2
 62
    2
 10
606.15448120752603
 20
491.09645967271922
 11
604.42539269092049
 21
491.09645967271922
  0
CIRCLE
  8
_2-0_
  6
CONTINUOUS
 62
    7
 10
605.30933443652202
 20
326.09645967271922
 40
0.4166666666666666
  0
LINE
  8
_2-0_
  6
CENTER2
 62
    2
 10
605.30933443652202
 20
325.25927693741801
 11
605.30933443652202
 21
326.81789193830184
  0
LINE
  8
_2-0_
  6
CENTER2
 62
    2
 10
606.15448120752603
 20
326.09645967271922
 11
604.42539269092049
 21
326.09645967271922
  0
LINE
  8
_2-0_
  6
CONTINUOUS
 62
    7
 10
610.30933443652202
 20
496.09645967271922
 11
610.30933443652202
 21
321.09645967271922
  0
CIRCLE
  8
_2-0_
  6
CONTINUOUS
 62
    7
 10
491.30933443652191
 20
408.59645967271922
 40
0.4166666666666666
  0
LINE
  8
_2-0_
  6
CENTER2
 62
    2
 10
491.30933443652191
 20
409.43364240802055
 11
491.30933443652191
 21
407.87502740713671
  0
LINE
  8
_2-0_
  6
CENTER2
 62
    2
 10
490.46418766551778
 20
408.59645967271922
 11
492.19327618212321
 21
408.59645967271922
  0
CIRCLE
  8
_2-0_
  6
CONTINUOUS
 62
    7
 10
491.30933443652191
 20
491.09645967271922
 40
0.4166666666666666
  0
LINE
  8
_2-0_
  6
CENTER2
 62
    2
 10
491.30933443652191
 20
491.93364240802043
 11
491.30933443652191
 21
490.37502740713671
  0
LINE
  8
_2-0_
  6
CENTER2
 62
    2
 10
490.46418766551778
 20
491.09645967271922
 11
492.19327618212321
 21
491.09645967271922
  0
CIRCLE
  8
_2-0_
  6
CONTINUOUS
 62
    7
 10
491.30933443652191
 20
326.09645967271922
 40
0.4166666666666666
  0
LINE
  8
_2-0_
  6
CENTER2
 62
    2
 10
491.30933443652191
 20
325.25927693741801
 11
491.30933443652191
 21
326.81789193830184
  0
LINE
  8
_2-0_
  6
CENTER2
 62
    2
 10
490.46418766551778
 20
326.09645967271922
 11
492.19327618212321
 21
326.09645967271922
  0
LINE
  8
_2-0_
  6
CONTINUOUS
 62
    7
 10
610.30933443652202
 20
496.09645967271922
 11
486.30933443652191
 21
496.09645967271922
  0
LINE
  8
_2-0_
  6
CONTINUOUS
 62
    7
 10
596.97600110318854
 20
415.26312633938596
 11
554.97600110318854
 21
415.26312633938596
  0
LINE
  8
_2-0_
  6
CONTINUOUS
 62
    7
 10
596.97600110318854
 20
482.42979300605248
 11
596.97600110318854
 21
415.26312633938596
  0
LINE
  8
_2-0_
  6
CONTINUOUS
 62
    7
 10
596.97600110318854
 20
401.92979300605259
 11
554.97600110318854
 21
401.92979300605259
  0
LINE
  8
_2-0_
  6
CONTINUOUS
 62
    7
 10
596.97600110318854
 20
401.92979300605259
 11
596.97600110318854
 21
334.76312633938585
  0
LINE
  8
_2-0_
  6
CONTINUOUS
 62
    7
 10
541.64266776985528
 20
415.26312633938596
 11
499.64266776985517
 21
415.26312633938596
  0
LINE
  8
_2-0_
  6
CONTINUOUS
 62
    7
 10
541.64266776985528
 20
401.92979300605259
 11
499.64266776985517
 21
401.92979300605259
  0
LINE
  8
_2-0_
  6
CONTINUOUS
 62
    7
 10
499.64266776985517
 20
401.92979300605259
 11
499.64266776985517
 21
334.76312633938585
  0
LINE
  8
_2-0_
  6
CONTINUOUS
 62
    7
 10
554.97600110318854
 20
401.92979300605259
 11
554.97600110318854
 21
334.76312633938585
  0
LINE
  8
_2-0_
  6
CONTINUOUS
 62
    7
 10
554.97600110318854
 20
334.76312633938585
 11
596.97600110318854
 21
334.76312633938585
  0
LINE
  8
_2-0_
  6
CONTINUOUS
 62
    7
 10
541.64266776985528
 20
401.92979300605259
 11
541.64266776985528
 21
334.76312633938585
  0
LINE
  8
_2-0_
  6
CONTINUOUS
 62
    7
 10
499.64266776985517
 20
334.76312633938585
 11
541.64266776985528
 21
334.76312633938585
  0
LINE
  8
_2-0_
  6
CONTINUOUS
 62
    7
 10
596.97600110318854
 20
482.42979300605248
 11
554.97600110318854
 21
482.42979300605248
  0
LINE
  8
_2-0_
  6
CONTINUOUS
 62
    7
 10
554.97600110318854
 20
482.42979300605248
 11
554.97600110318854
 21
415.26312633938596
  0
LINE
  8
_2-0_
  6
CONTINUOUS
 62
    7
 10
541.64266776985528
 20
482.42979300605248
 11
541.64266776985528
 21
415.26312633938596
  0
LINE
  8
_2-0_
  6
CONTINUOUS
 62
    7
 10
541.64266776985528
 20
482.42979300605248
 11
499.64266776985517
 21
482.42979300605248
  0
LINE
  8
_2-0_
  6
CONTINUOUS
 62
    7
 10
611.55933125760748
 20
496.76312633938585
 11
485.55933125760748
 21
496.76312633938585
  0
LINE
  8
_2-0_
  6
CONTINUOUS
 62
    7
 10
611.55933125760748
 20
320.42979300605259
 11
611.55933125760748
 21
496.76312633938585
  0
TEXT
  8
_2-0_
 62
    7
 10
459.07577805676021
 20
405.55487536298534
 40
6
 41
1
 50
0
  1
蝶番側
  0
LINE
  8
_2-0_
  6
CONTINUOUS
 62
    4
 10
492.67259286595356
 20
492.68318184138604
 11
500.83428791742358
 21
506.39482952785568
  0
LINE
  8
_2-0_
  6
CONTINUOUS
 62
    4
 10
530.04388394422222
 20
505.69022771971038
 11
513.29145822063185
 21
469.35398037558491
  0
LINE
  8
_2-0_
  6
CONTINUOUS
 62
    7
 10
341.45853958392405
 20
320.65379305391582
 11
223.45853958392411
 21
320.65379305391582
  0
LINE
  8
_2-0_
  6
CONTINUOUS
 62
    7
 10
345.62520625059068
 20
316.48712638724908
 11
219.29187291725736
 21
316.48712638724908
  0
LINE
  8
_2-0_
  6
CONTINUOUS
 62
    7
 10
341.45853958392405
 20
488.98712638724908
 11
341.45853958392405
 21
320.65379305391582
  0
LINE
  8
_2-0_
  6
CONTINUOUS
 62
    7
 10
345.62520625059068
 20
493.15379305391582
 11
345.62520625059068
 21
316.48712638724908
  0
LINE
  8
_2-0_
  6
CONTINUOUS
 62
    7
 10
223.45853958392411
 20
320.65379305391582
 11
223.45853958392411
 21
488.98712638724908
  0
LINE
  8
_2-0_
  6
CONTINUOUS
 62
    7
 10
219.29187291725736
 20
316.48712638724908
 11
219.29187291725736
 21
493.15379305391582
  0
LINE
  8
_2-0_
  6
CONTINUOUS
 62
    7
 10
223.45853958392411
 20
488.98712638724908
 11
341.45853958392405
 21
488.98712638724908
  0
LINE
  8
_2-0_
  6
CONTINUOUS
 62
    7
 10
219.29187291725736
 20
493.15379305391582
 11
345.62520625059068
 21
493.15379305391582
  0
LINE
  8
_2-0_
  6
CONTINUOUS
 62
    4
 10
213.31389241303816
 20
316.48712638724908
 11
219.02877480333348
 21
316.48712638724908
  0
LINE
  8
_2-0_
  6
CONTINUOUS
 62
    4
 10
213.31389241303816
 20
320.65379305391582
 11
219.02877480333348
 21
320.65379305391582
  0
LINE
  8
_2-0_
  6
CONTINUOUS
 62
    4
 10
213.31389241303816
 20
488.98712638724908
 11
219.02877480333348
 21
488.98712638724908
  0
LINE
  8
_2-0_
  6
CONTINUOUS
 62
    4
 10
213.31389241303816
 20
493.15379305391582
 11
219.02877480333348
 21
493.15379305391582
  0
LINE
  8
_2-0_
  6
CONTINUOUS
 62
    4
 10
219.29187291725736
 20
500.81245977295532
 11
219.29187291725736
 21
493.7730688688041
  0
LINE
  8
_2-0_
  6
CONTINUOUS
 62
    4
 10
223.45853958392411
 20
500.81245977295532
 11
223.45853958392411
 21
493.7730688688041
  0
LINE
  8
_2-0_
  6
CONTINUOUS
 62
    4
 10
341.45853958392405
 20
500.81245977295532
 11
341.45853958392405
 21
493.7730688688041
  0
LINE
  8
_2-0_
  6
CONTINUOUS
 62
    4
 10
345.62520625059068
 20
500.81245977295532
 11
345.62520625059068
 21
493.7730688688041
  0
LINE
  8
_2-0_
  6
CONTINUOUS
 62
    4
 10
219.29187291725736
 20
509.47649470562351
 11
219.29187291725736
 21
493.7730688688041
  0
LINE
  8
_2-0_
  6
CONTINUOUS
 62
    4
 10
345.62520625059068
 20
509.47649470562351
 11
345.62520625059068
 21
493.7730688688041
  0
LINE
  8
_2-0_
  6
PHANTOM2
 62
    7
 10
345.62520625059068
 20
404.82045972058245
 11
219.29187291725736
 21
493.15379305391582
  0
LINE
  8
_2-0_
  6
PHANTOM2
 62
    7
 10
345.62520625059068
 20
404.82045972058245
 11
219.29187291725736
 21
316.48712638724908
  0
LINE
  8
_2-0_
  6
CONTINUOUS
 62
    4
 10
219.29187291725736
 20
508.80982803895677
 11
345.62520625059068
 21
508.80982803895677
  0
LINE
  8
_2-0_
  6
CONTINUOUS
 62
    4
 10
204.71842658957382
 20
316.48712638724908
 11
204.71842658957382
 21
493.15379305391582
  0
LINE
  8
_2-0_
  6
CONTINUOUS
 62
    4
 10
204.05175992290708
 20
316.48712638724908
 11
213.98055907970479
 21
316.48712638724908
  0
LINE
  8
_2-0_
  6
CONTINUOUS
 62
    4
 10
204.05175992290708
 20
493.15379305391582
 11
213.98055907970479
 21
493.15379305391582
  0
LINE
  8
_2-0_
  6
CENTER2
 62
    2
 10
282.70853640500962
 20
299.16205817708186
 11
282.70853640500962
 21
292.67241162812309
  0
LINE
  8
_2-0_
  6
CONTINUOUS
 62
    7
 10
345.62520625059068
 20
298.35037772981798
 11
345.62520625059068
 21
295.18371106315135
  0
LINE
  8
_2-0_
  6
CONTINUOUS
 62
    7
 10
219.29187291725736
 20
298.35037772981798
 11
219.29187291725736
 21
295.18371106315135
  0
LINE
  8
_2-0_
  6
CONTINUOUS
 62
    7
 10
345.62520625059068
 20
298.35037772981798
 11
219.29187291725736
 21
298.35037772981798
  0
LINE
  8
_2-0_
  6
CONTINUOUS
 62
    7
 10
219.29187291725736
 20
295.18371106315135
 11
345.62520625059068
 21
295.18371106315135
  0
LINE
  8
_2-0_
  6
CONTINUOUS
 62
    7
 10
344.70853640500962
 20
294.68371106315135
 11
220.70853640500968
 21
294.68371106315135
  0
LINE
  8
_2-0_
  6
CONTINUOUS
 62
    7
 10
344.70853640500962
 20
295.18371106315135
 11
344.70853640500962
 21
294.68371106315135
  0
LINE
  8
_2-0_
  6
CONTINUOUS
 62
    7
 10
220.70853640500968
 20
295.18371106315135
 11
220.70853640500968
 21
294.68371106315135
  0
TEXT
  8
_2-0_
 62
    7
 10
204.73943241655911
 20
501.11950027731837
 40
5
 41
1
 50
0
  1
25/30
  0
TEXT
  8
_2-0_
 62
    7
 10
347.02909145389407
 20
501.11950027731837
 40
5
 41
1
 50
0
  1
25/30
  0
TEXT
  8
_2-0_
 62
    7
 10
212.33082018137486
 20
479.85721902500757
 40
5
 41
1
 50
90
  1
25/30
  0
TEXT
  8
_2-0_
 62
    7
 10
212.33082018137486
 20
317.99497953977254
 40
5
 41
1
 50
90
  1
25/30
  0
ARC
  8
_2-0_
  6
CONTINUOUS
 62
    2
 10
358.80069013016271
 20
471.83876747021623
 40
0.9510669290017177
 50
125.61355861205558
 51
219.33880051066703
  0
ARC
  8
_2-0_
  6
CONTINUOUS
 62
    2
 10
356.80458813266375
 20
470.20271833441177
 40
1.6298398804715497
 50
325.43308755011049
 51
39.33880051066707
  0
ARC
  8
_2-0_
  6
CONTINUOUS
 62
    2
 10
356.80458813266375
 20
470.20271833441177
 40
1.3465065471382163
 50
325.43308755011049
 51
39.33880051066707
  0
ARC
  8
_2-0_
  6
CONTINUOUS
 62
    2
 10
358.80069013016271
 20
471.83876747021623
 40
1.234400262335051
 50
125.61355861205558
 51
219.33880051066703
  0
LINE
  8
_2-0_
  6
CONTINUOUS
 62
    7
 10
357.90706454668691
 20
471.7326142168057
 11
362.04081928787275
 21
471.7326142168057
  0
LINE
  8
_2-0_
  6
CONTINUOUS
 62
    7
 10
362.1741044052402
 20
471.2326142168057
 11
358.13836067996124
 21
471.2326142168057
  0
LINE
  8
_2-0_
  6
CONTINUOUS
 62
    7
 10
359.85003550784961
 20
471.7326142168057
 11
362.26314172335333
 21
471.7326142168057
  0
LINE
  8
_2-0_
  6
CONTINUOUS
 62
    7
 10
362.28241640112617
 20
471.2326142168057
 11
359.85003550784961
 21
471.2326142168057
  0
LINE
  8
_2-0_
  6
CONTINUOUS
 62
    7
 10
359.85003550784961
 20
470.7326142168057
 11
362.26314172335333
 21
470.7326142168057
  0
LINE
  8
_2-0_
  6
CONTINUOUS
 62
    7
 10
358.38893149100841
 20
470.7326142168057
 11
362.30169107889901
 21
470.7326142168057
  0
LINE
  8
_2-0_
  6
CONTINUOUS
 62
    7
 10
367.60112421989732
 20
469.8684288304097
 11
367.60112421989732
 21
472.535323180148
  0
LINE
  8
_2-0_
  6
CONTINUOUS
 62
    7
 10
366.17827222372523
 20
471.96439047268086
 11
367.60112421989732
 21
471.96439047268086
  0
LINE
  8
_2-0_
  6
CONTINUOUS
 62
    7
 10
366.17827222372523
 20
470.43926622356844
 11
367.60112421989732
 21
470.43926622356844
  0
LINE
  8
_2-0_
  6
CONTINUOUS
 62
    7
 10
362.32719290611158
 20
470.20927279733837
 11
362.32719290611158
 21
472.19447921321932
  0
LINE
  8
_2-0_
  6
CONTINUOUS
 62
    7
 10
362.32719290611158
 20
470.20927279733837
 11
365.55625104694207
 21
470.20927279733837
  0
LINE
  8
_2-0_
  6
CONTINUOUS
 62
    7
 10
362.32719290611158
 20
472.19447921321932
 11
365.55625104694207
 21
472.19447921321932
  0
LINE
  8
_2-0_
  6
CONTINUOUS
 62
    7
 10
362.46349236715969
 20
470.20927279733837
 11
362.46349236715969
 21
472.19447921321932
  0
LINE
  8
_2-0_
  6
CONTINUOUS
 62
    7
 10
363.56265697191964
 20
471.76842425455857
 11
366.74910961688397
 21
471.76842425455857
  0
LINE
  8
_2-0_
  6
CONTINUOUS
 62
    7
 10
366.17827222372523
 20
471.76842425455857
 11
366.17827222372523
 21
471.96439047268086
  0
LINE
  8
_2-0_
  6
CONTINUOUS
 62
    7
 10
363.56265697191964
 20
471.48724704470408
 11
366.74910961688397
 21
471.48724704470408
  0
LINE
  8
_2-0_
  6
CONTINUOUS
 62
    7
 10
363.56265697191964
 20
470.63523244169073
 11
366.74910961688397
 21
470.63523244169073
  0
LINE
  8
_2-0_
  6
CONTINUOUS
 62
    7
 10
366.17827222372523
 20
470.43926622356844
 11
366.17827222372523
 21
470.63532775599924
  0
LINE
  8
_2-0_
  6
CONTINUOUS
 62
    7
 10
363.56265697191964
 20
470.91640965154522
 11
366.74910961688397
 21
470.91640965154522
  0
LINE
  8
_2-0_
  6
CONTINUOUS
 62
    7
 10
366.74910961688397
 20
470.63523244169073
 11
366.74910961688397
 21
471.76842425455857
  0
LINE
  8
_2-0_
  6
CONTINUOUS
 62
    7
 10
363.56265697191964
 20
470.63523244169073
 11
363.56265697191964
 21
471.76842425455857
  0
ARC
  8
_2-0_
  6
CONTINUOUS
 62
    7
 10
365.84308079235257
 20
472.24410672188912
 40
0.29
 50
95.507226689381454
 51
175.21037983412214
  0
LINE
  8
_2-0_
  6
CONTINUOUS
 62
    7
 10
365.55634636125046
 20
471.76842425455857
 11
365.55634636125046
 21
472.26589798710711
  0
LINE
  8
_2-0_
  6
CONTINUOUS
 62
    7
 10
365.81832063069476
 20
472.5352278658396
 11
367.60112421989732
 21
472.5352278658396
  0
ARC
  8
_2-0_
  6
CONTINUOUS
 62
    7
 10
365.84308079235257
 20
470.15918285126338
 40
0.29
 50
184.78962016587786
 51
264.49277331061853
  0
LINE
  8
_2-0_
  6
CONTINUOUS
 62
    7
 10
365.55634636125046
 20
470.13753228883161
 11
365.55634636125046
 21
470.63523244169073
  0
LINE
  8
_2-0_
  6
CONTINUOUS
 62
    7
 10
365.82166974772406
 20
469.8684288304097
 11
367.60112421989732
 21
469.8684288304097
  0
LINE
  8
_2-0_
  6
CONTINUOUS
 62
    7
 10
357.56392427043215
 20
471.7455231771919
 11
345.6400171081068
 21
471.7455231771919
  0
LINE
  8
_2-0_
  6
CONTINUOUS
 62
    7
 10
357.73274061253994
 20
471.2455231771919
 11
345.69213069205659
 21
471.2455231771919
  0
LINE
  8
_2-0_
  6
CONTINUOUS
 62
    7
 10
358.03872023261033
 20
470.7455231771919
 11
345.6400171081068
 21
470.7455231771919
  0
LINE
  8
_2-0_
  6
CONTINUOUS
 62
    4
 10
349.67892013090557
 20
471.01184104389233
 11
358.89535492180141
 21
461.02737002042181
  0
TEXT
  8
_2-0_
 62
    7
 10
185.00911427593536
 20
463.45200437382925
 40
7
 41
1
 50
0
  1
①
  0
LINE
  8
_2-0_
  6
CONTINUOUS
 62
    4
 10
194.03520280066408
 20
464.80735606116957
 11
220.53988145683741
 21
450.08253458551769
  0
LINE
  8
_2-0_
  6
CONTINUOUS
 62
    4
 10
204.69983419181301
 20
493.16787849048569
 11
203.92337705650544
 21
490.27010101161841
  0
LINE
  8
_2-0_
  6
CONTINUOUS
 62
    4
 10
204.69983419181301
 20
493.16787849048569
 11
205.47629132712058
 21
490.27010101161841
  0
LINE
  8
_2-0_
  6
CONTINUOUS
 62
    4
 10
204.69983419181301
 20
316.39911708985079
 11
203.92337705650544
 21
319.29689456871802
  0
LINE
  8
_2-0_
  6
CONTINUOUS
 62
    4
 10
204.69983419181301
 20
316.39911708985079
 11
205.47629132712058
 21
319.29689456871802
  0
LINE
  8
_2-0_
  6
CONTINUOUS
 62
    4
 10
213.97967052045155
 20
320.60471747268679
 11
213.20321338514398
 21
323.50249495155401
  0
LINE
  8
_2-0_
  6
CONTINUOUS
 62
    4
 10
213.97967052045155
 20
320.60471747268679
 11
214.75612765575912
 21
323.50249495155401
  0
LINE
  8
_2-0_
  6
CONTINUOUS
 62
    4
 10
213.98306644768778
 20
316.50022891522968
 11
213.20660931238021
 21
313.60245143636246
  0
LINE
  8
_2-0_
  6
CONTINUOUS
 62
    4
 10
213.98306644768778
 20
316.50022891522968
 11
214.75952358299534
 21
313.60245143636246
  0
LINE
  8
_2-0_
  6
CONTINUOUS
 62
    4
 10
213.98055907970479
 20
311.12586297300356
 11
213.98055907970479
 21
325.76440510423851
  0
LINE
  8
_2-0_
  6
CONTINUOUS
 62
    4
 10
219.28085032144671
 20
508.81067453306957
 11
222.1786278003139
 21
509.58713166837708
  0
LINE
  8
_2-0_
  6
CONTINUOUS
 62
    4
 10
219.28085032144671
 20
508.81067453306957
 11
222.1786278003139
 21
508.03421739776195
  0
LINE
  8
_2-0_
  6
CONTINUOUS
 62
    4
 10
345.68290884599037
 20
508.81067453306957
 11
342.7851313671232
 21
509.58713166837708
  0
LINE
  8
_2-0_
  6
CONTINUOUS
 62
    4
 10
345.68290884599037
 20
508.81067453306957
 11
342.7851313671232
 21
508.03421739776195
  0
LINE
  8
_2-0_
  6
CONTINUOUS
 62
    4
 10
327.33008573755421
 20
500.14579310628858
 11
359.04822379074903
 21
500.14579310628858
  0
LINE
  8
_2-0_
  6
CONTINUOUS
 62
    4
 10
341.45692525373977
 20
500.19359548529064
 11
338.55914777487254
 21
500.97005262059827
  0
LINE
  8
_2-0_
  6
CONTINUOUS
 62
    4
 10
341.45692525373977
 20
500.19359548529064
 11
338.55914777487254
 21
499.41713834998313
  0
LINE
  8
_2-0_
  6
CONTINUOUS
 62
    4
 10
223.46057977735006
 20
500.12550617779982
 11
226.35835725621726
 21
500.90196331310744
  0
LINE
  8
_2-0_
  6
CONTINUOUS
 62
    4
 10
223.46057977735006
 20
500.12550617779982
 11
226.35835725621726
 21
499.34904904249231
  0
LINE
  8
_2-0_
  6
CONTINUOUS
 62
    4
 10
345.50584659696267
 20
500.20449844344785
 11
348.40362407582984
 21
500.98095557875536
  0
LINE
  8
_2-0_
  6
CONTINUOUS
 62
    4
 10
345.50584659696267
 20
500.20449844344785
 11
348.40362407582984
 21
499.42804130814022
  0
LINE
  8
_2-0_
  6
CONTINUOUS
 62
    4
 10
219.45666016884718
 20
500.11705369973822
 11
216.55888268998001
 21
500.89351083504584
  0
LINE
  8
_2-0_
  6
CONTINUOUS
 62
    4
 10
219.45666016884718
 20
500.11705369973822
 11
216.55888268998001
 21
499.34059656443071
  0
LINE
  8
_2-0_
  6
CONTINUOUS
 62
    4
 10
203.99786337224441
 20
500.14579310628858
 11
234.02880549922602
 21
500.14579310628858
  0
LINE
  8
_2-0_
  6
CONTINUOUS
 62
    4
 10
213.98055907970479
 20
482.89205254660442
 11
213.98055907970479
 21
497.36955665480514
  0
LINE
  8
_2-0_
  6
CONTINUOUS
 62
    4
 10
213.93604505483137
 20
489.03197613674001
 11
213.1595879195238
 21
486.13419865787273
  0
LINE
  8
_2-0_
  6
CONTINUOUS
 62
    4
 10
213.93604505483137
 20
489.03197613674001
 11
214.71250219013893
 21
486.13419865787273
  0
LINE
  8
_2-0_
  6
CONTINUOUS
 62
    4
 10
213.99337583897989
 20
493.12361447971966
 11
213.21691870367232
 21
496.02139195858683
  0
LINE
  8
_2-0_
  6
CONTINUOUS
 62
    4
 10
213.99337583897989
 20
493.12361447971966
 11
214.76983297428745
 21
496.02139195858683
  0
LINE
  8
_2-0_
  6
CONTINUOUS
 62
    4
 10
192.51859727312745
 20
445.6858551675615
 11
232.47864181029286
 21
423.15880456445689
  0
TEXT
  8
_2-0_
 62
    7
 10
211.3755922611173
 20
410.08616893899415
 40
5
 41
1
 50
0
  1
A
  0
TEXT
  8
_2-0_
 62
    7
 10
350.97173399466692
 20
410.08616893899415
 40
5
 41
1
 50
0
  1
A
  0
LINE
  8
_2-0_
  6
CONTINUOUS
 62
    7
 10
352.2721372728235
 20
404.82045972058245
 11
352.2721372728235
 21
409.75079862836378
  0
LINE
  8
_2-0_
  6
CONTINUOUS
 62
    7
 10
212.44660465629107
 20
404.82045972058245
 11
212.44660465629107
 21
409.75079862836378
  0
LINE
  8
_2-0_
  6
CONTINUOUS
 62
    7
 10
212.44660465629107
 20
404.82045972058245
 11
352.2721372728235
 21
404.82045972058245
  0
LINE
  8
_2-0_
  6
CONTINUOUS
 62
    7
 10
284.31752365119371
 20
306.24834789683314
 11
290.05968338286141
 21
306.24834789683314
  0
LINE
  8
_2-0_
  6
CONTINUOUS
 62
    7
 10
284.31752365119371
 20
499.59187688959366
 11
284.31752365119371
 21
306.24834789683314
  0
LINE
  8
_2-0_
  6
CONTINUOUS
 62
    7
 10
284.31752365119371
 20
499.59187688959366
 11
290.05968338286141
 21
499.59187688959366
  0
TEXT
  8
_2-0_
 62
    7
 10
290.96800558846451
 20
497.07651345493673
 40
5
 41
1
 50
0
  1
B
  0
TEXT
  8
_2-0_
 62
    7
 10
290.96800558846451
 20
303.73444655413198
 40
5
 41
1
 50
0
  1
B
  0
TEXT
  8
_2-0_
 62
    7
 10
283.40748394903318
 20
511.83198467101488
 40
10
 41
1
 50
0
  1
W
  0
TEXT
  8
_2-0_
 62
    7
 10
201.5154955151686
 20
407.44662217380824
 40
10
 41
1
 50
90
  1
H
  0
LINE
  8
_2-0_
  6
CONTINUOUS
 62
    7
 10
419.57560967929294
 20
316.48712638724908
 11
422.74227634595968
 21
316.48712638724908
  0
LINE
  8
_2-0_
  6
CENTER2
 62
    2
 10
417.58549668494277
 20
404.82045972058245
 11
424.36515770189192
 21
404.82045972058245
  0
LINE
  8
_2-0_
  6
CONTINUOUS
 62
    7
 10
419.57560967929294
 20
493.15379305391582
 11
422.74227634595968
 21
493.15379305391582
  0
LINE
  8
_2-0_
  6
CONTINUOUS
 62
    7
 10
422.74227634595968
 20
316.48712638724908
 11
422.74227634595968
 21
493.15379305391582
  0
LINE
  8
_2-0_
  6
CONTINUOUS
 62
    7
 10
419.57560967929294
 20
316.48712638724908
 11
419.57560967929294
 21
493.15379305391582
  0
LINE
  8
_2-0_
  6
CONTINUOUS
 62
    7
 10
423.24227634595968
 20
317.65379305391582
 11
423.24227634595968
 21
491.98712638724908
  0
LINE
  8
_2-0_
  6
CONTINUOUS
 62
    7
 10
422.74227634595968
 20
491.98712638724908
 11
423.24227634595968
 21
491.98712638724908
  0
LINE
  8
_2-0_
  6
CONTINUOUS
 62
    7
 10
422.74227634595968
 20
317.65379305391582
 11
423.24227634595968
 21
317.65379305391582
  0
LINE
  8
_2-0_
  6
CONTINUOUS
 62
    4
 10
419.57560967929294
 20
500.81245977295532
 11
419.57560967929294
 21
493.7730688688041
  0
LINE
  8
_2-0_
  6
CONTINUOUS
 62
    4
 10
423.24227634595968
 20
500.81245977295532
 11
423.24227634595968
 21
493.7730688688041
  0
LINE
  8
_2-0_
  6
CONTINUOUS
 62
    4
 10
419.57560967929294
 20
509.47649470562351
 11
419.57560967929294
 21
493.7730688688041
  0
LINE
  8
_2-0_
  6
CONTINUOUS
 62
    4
 10
423.24227634595968
 20
509.47649470562351
 11
423.24227634595968
 21
493.7730688688041
  0
LINE
  8
_2-0_
  6
CONTINUOUS
 62
    4
 10
411.09695394820949
 20
508.80982803895677
 11
430.03707818287751
 21
508.80982803895677
  0
LINE
  8
_2-0_
  6
CONTINUOUS
 62
    4
 10
419.64385748202511
 20
508.80280592336305
 11
416.74608000315789
 21
509.57926305867068
  0
LINE
  8
_2-0_
  6
CONTINUOUS
 62
    4
 10
419.64385748202511
 20
508.80280592336305
 11
416.74608000315789
 21
508.02634878805554
  0
LINE
  8
_2-0_
  6
CONTINUOUS
 62
    4
 10
423.2243693697506
 20
508.80825740244165
 11
426.12214684861783
 21
509.58471453774928
  0
LINE
  8
_2-0_
  6
CONTINUOUS
 62
    4
 10
423.2243693697506
 20
508.80825740244165
 11
426.12214684861783
 21
508.03180026713414
  0
TEXT
  8
_2-0_
 62
    7
 10
419.95494278849787
 20
510.81521914402776
 40
6
 41
1
 50
0
  1
D
  0
ARC
  8
_2-0_
  6
CONTINUOUS
 62
    2
 10
471.3771750560249
 20
471.83876747021623
 40
0.9510669290017177
 50
320.661199489333
 51
54.386441387944423
  0
ARC
  8
_2-0_
  6
CONTINUOUS
 62
    2
 10
473.37327705352385
 20
470.20271833441177
 40
1.6298398804715497
 50
140.66119948933292
 51
214.56691244988951
  0
ARC
  8
_2-0_
  6
CONTINUOUS
 62
    2
 10
473.37327705352385
 20
470.20271833441177
 40
1.3465065471382163
 50
140.66119948933292
 51
214.56691244988951
  0
ARC
  8
_2-0_
  6
CONTINUOUS
 62
    2
 10
471.3771750560249
 20
471.83876747021623
 40
1.234400262335051
 50
320.661199489333
 51
54.386441387944423
  0
LINE
  8
_2-0_
  6
CONTINUOUS
 62
    7
 10
472.27080063950069
 20
471.7326142168057
 11
468.13704589831485
 21
471.7326142168057
  0
LINE
  8
_2-0_
  6
CONTINUOUS
 62
    7
 10
468.0037607809474
 20
471.2326142168057
 11
472.03950450622636
 21
471.2326142168057
  0
LINE
  8
_2-0_
  6
CONTINUOUS
 62
    7
 10
470.32782967833799
 20
471.7326142168057
 11
467.91472346283427
 21
471.7326142168057
  0
LINE
  8
_2-0_
  6
CONTINUOUS
 62
    7
 10
467.89544878506143
 20
471.2326142168057
 11
470.32782967833799
 21
471.2326142168057
  0
LINE
  8
_2-0_
  6
CONTINUOUS
 62
    7
 10
470.32782967833799
 20
470.7326142168057
 11
467.91472346283427
 21
470.7326142168057
  0
LINE
  8
_2-0_
  6
CONTINUOUS
 62
    7
 10
471.7889336951792
 20
470.7326142168057
 11
467.87617410728859
 21
470.7326142168057
  0
LINE
  8
_2-0_
  6
CONTINUOUS
 62
    7
 10
462.57674096629029
 20
469.8684288304097
 11
462.57674096629029
 21
472.535323180148
  0
LINE
  8
_2-0_
  6
CONTINUOUS
 62
    7
 10
463.99959296246237
 20
471.96439047268086
 11
462.57674096629029
 21
471.96439047268086
  0
LINE
  8
_2-0_
  6
CONTINUOUS
 62
    7
 10
463.99959296246237
 20
470.43926622356844
 11
462.57674096629029
 21
470.43926622356844
  0
LINE
  8
_2-0_
  6
CONTINUOUS
 62
    7
 10
467.85067228007603
 20
470.20927279733837
 11
467.85067228007603
 21
472.19447921321932
  0
LINE
  8
_2-0_
  6
CONTINUOUS
 62
    7
 10
467.85067228007603
 20
470.20927279733837
 11
464.62161413924554
 21
470.20927279733837
  0
LINE
  8
_2-0_
  6
CONTINUOUS
 62
    7
 10
467.85067228007603
 20
472.19447921321932
 11
464.62161413924554
 21
472.19447921321932
  0
LINE
  8
_2-0_
  6
CONTINUOUS
 62
    7
 10
467.71437281902791
 20
470.20927279733837
 11
467.71437281902791
 21
472.19447921321932
  0
LINE
  8
_2-0_
  6
CONTINUOUS
 62
    7
 10
466.61520821426797
 20
471.76842425455857
 11
463.42875556930363
 21
471.76842425455857
  0
LINE
  8
_2-0_
  6
CONTINUOUS
 62
    7
 10
463.99959296246237
 20
471.76842425455857
 11
463.99959296246237
 21
471.96439047268086
  0
LINE
  8
_2-0_
  6
CONTINUOUS
 62
    7
 10
466.61520821426797
 20
471.48724704470408
 11
463.42875556930363
 21
471.48724704470408
  0
LINE
  8
_2-0_
  6
CONTINUOUS
 62
    7
 10
466.61520821426797
 20
470.63523244169073
 11
463.42875556930363
 21
470.63523244169073
  0
LINE
  8
_2-0_
  6
CONTINUOUS
 62
    7
 10
463.99959296246237
 20
470.43926622356844
 11
463.99959296246237
 21
470.63532775599924
  0
LINE
  8
_2-0_
  6
CONTINUOUS
 62
    7
 10
466.61520821426797
 20
470.91640965154522
 11
463.42875556930363
 21
470.91640965154522
  0
LINE
  8
_2-0_
  6
CONTINUOUS
 62
    7
 10
463.42875556930363
 20
470.63523244169073
 11
463.42875556930363
 21
471.76842425455857
  0
LINE
  8
_2-0_
  6
CONTINUOUS
 62
    7
 10
466.61520821426797
 20
470.63523244169073
 11
466.61520821426797
 21
471.76842425455857
  0
ARC
  8
_2-0_
  6
CONTINUOUS
 62
    7
 10
464.33478439383504
 20
472.24410672188912
 40
0.29
 50
4.7896201658778788
 51
84.492773310618546
  0
LINE
  8
_2-0_
  6
CONTINUOUS
 62
    7
 10
464.62151882493714
 20
471.76842425455857
 11
464.62151882493714
 21
472.26589798710711
  0
LINE
  8
_2-0_
  6
CONTINUOUS
 62
    7
 10
464.35954455549285
 20
472.5352278658396
 11
462.57674096629029
 21
472.5352278658396
  0
ARC
  8
_2-0_
  6
CONTINUOUS
 62
    7
 10
464.33478439383504
 20
470.15918285126338
 40
0.29
 50
275.50722668938147
 51
355.21037983412214
  0
LINE
  8
_2-0_
  6
CONTINUOUS
 62
    7
 10
464.62151882493714
 20
470.13753228883161
 11
464.62151882493714
 21
470.63523244169073
  0
LINE
  8
_2-0_
  6
CONTINUOUS
 62
    7
 10
464.35619543846354
 20
469.8684288304097
 11
462.57674096629029
 21
469.8684288304097
  0
LINE
  8
_2-0_
  6
CONTINUOUS
 62
    7
 10
472.61394091575545
 20
471.7455231771919
 11
500.22633013544373
 21
471.7455231771919
  0
LINE
  8
_2-0_
  6
CONTINUOUS
 62
    7
 10
472.44512457364766
 20
471.2455231771919
 11
500.27297955698702
 21
471.2455231771919
  0
ARC
  8
_2-0_
  6
CONTINUOUS
 62
    7
 10
500.2543509491573
 20
471.49205205519809
 40
0.25
 50
271.39718102729529
 51
93.9909130984299
  0
LINE
  8
_2-0_
  6
CONTINUOUS
 62
    7
 10
472.13914495357727
 20
470.7455231771919
 11
500.250987880769
 21
470.7455231771919
  0
LINE
  8
_2-0_
  6
CONTINUOUS
 62
    7
 10
485.39266459094085
 20
496.92979300605259
 11
485.39266459094085
 21
471.7455231771919
  0
LINE
  8
_2-0_
  6
CONTINUOUS
 62
    7
 10
485.55933125760748
 20
496.76312633938585
 11
485.55933125760748
 21
471.7455231771919
  0
LINE
  8
_2-0_
  6
CONTINUOUS
 62
    7
 10
486.30933443652191
 20
496.09645967271922
 11
486.30933443652191
 21
471.7455231771919
  0
LINE
  8
_2-0_
  6
CONTINUOUS
 62
    7
 10
499.64266776985517
 20
482.42979300605248
 11
499.64266776985517
 21
471.7455231771919
  0
LINE
  8
_2-0_
  6
CONTINUOUS
 62
    7
 10
485.39266459094085
 20
470.7455231771919
 11
485.39266459094085
 21
320.26312633938596
  0
LINE
  8
_2-0_
  6
CONTINUOUS
 62
    7
 10
485.55933125760748
 20
470.7455231771919
 11
485.55933125760748
 21
320.42979300605259
  0
LINE
  8
_2-0_
  6
CONTINUOUS
 62
    7
 10
486.30933443652191
 20
470.7455231771919
 11
486.30933443652191
 21
321.09645967271922
  0
LINE
  8
_2-0_
  6
CONTINUOUS
 62
    7
 10
499.64266776985517
 20
470.7455231771919
 11
499.64266776985517
 21
415.26312633938596
  0
ARC
  8
_2-0_
  6
CONTINUOUS
 62
    7
 10
500.2543509491573
 20
470.99437623871529
 40
0.25
 50
271.39718102729529
 51
93.9909130984299
  0
TEXT
  8
_2-0_
 62
    7
 10
184.52377427486817
 20
443.48357378355593
 40
7
 41
1
 50
0
  1
③
  0
TEXT
  8
_2-0_
 62
    7
 10
359.46846510602927
 20
454.09930547986107
 40
7
 41
1
 50
0
  1
⑨
  0
TEXT
  8
_2-0_
 62
    7
 10
468.53339684612268
 20
454.09930547986107
 40
7
 41
1
 50
0
  1
⑨
  0
TEXT
  8
_2-0_
 62
    7
 10
536.81131456271476
 20
283.20150889597352
 40
8
 41
1
 50
0
  1
背面図
  0
LINE
  8
_2-0_
  6
CONTINUOUS
 62
    7
 10
486.30933443652191
 20
321.09645967271922
 11
610.30933443652202
 21
321.09645967271922
  0
LINE
  8
_2-0_
  6
CONTINUOUS
 62
    7
 10
485.55933125760748
 20
320.42979300605259
 11
611.55933125760748
 21
320.42979300605259
  0
TEXT
  8
_2-0_
 62
    7
 10
468.5128689907005
 20
433.17268194840972
 40
7
 41
1
 50
0
  1
②
  0
LINE
  8
_2-0_
  6
CONTINUOUS
 62
    4
 10
475.84519331198328
 20
438.34795478749845
 11
490.61794759713547
 21
447.68351478714328
  0
LINE
  8
_2-0_
  6
CONTINUOUS
 62
    4
 10
605.24287346309404
 20
302.2575769253429
 11
599.44731850535959
 21
300.70466265472783
  0
LINE
  8
_2-0_
  6
CONTINUOUS
 62
    4
 10
605.24287346309404
 20
302.2575769253429
 11
599.44731850535959
 21
303.81049119595804
  0
LINE
  8
_2-0_
  6
CONTINUOUS
 62
    4
 10
611.69677940471797
 20
302.2575769253429
 11
617.49233436245231
 21
303.81049119595804
  0
LINE
  8
_2-0_
  6
CONTINUOUS
 62
    4
 10
611.69677940471797
 20
302.2575769253429
 11
617.49233436245231
 21
300.70466265472783
  0
TEXT
  8
_2-0_
 62
    7
 10
618.39694961533883
 20
303.91706810089153
 40
6
 41
1
 50
0
  1
38.5
  0
LINE
  8
_2-0_
  6
CONTINUOUS
 62
    4
 10
491.22738172271045
 20
302.2575769253429
 11
497.02293668044484
 21
303.81049119595804
  0
LINE
  8
_2-0_
  6
CONTINUOUS
 62
    4
 10
491.22738172271045
 20
302.2575769253429
 11
497.02293668044484
 21
300.70466265472783
  0
LINE
  8
_2-0_
  6
CONTINUOUS
 62
    4
 10
485.35352695218455
 20
302.2575769253429
 11
479.55797199445016
 21
300.70466265472783
  0
LINE
  8
_2-0_
  6
CONTINUOUS
 62
    4
 10
485.35352695218455
 20
302.2575769253429
 11
479.55797199445016
 21
303.81049119595804
  0
TEXT
  8
_2-0_
 62
    7
 10
466.39443633262329
 20
303.45186215502849
 40
6
 41
1
 50
0
  1
35.5
  0
LINE
  8
_2-0_
  6
CONTINUOUS
 62
    4
 10
548.40248000643078
 20
302.2575769253429
 11
542.60692504869644
 21
300.70466265472783
  0
LINE
  8
_2-0_
  6
CONTINUOUS
 62
    4
 10
548.40248000643078
 20
302.2575769253429
 11
542.60692504869644
 21
303.81049119595804
  0
LINE
  8
_2-0_
  6
CONTINUOUS
 62
    4
 10
548.34696990882935
 20
302.2575769253429
 11
554.1425248665638
 21
303.81049119595804
  0
LINE
  8
_2-0_
  6
CONTINUOUS
 62
    4
 10
548.34696990882935
 20
302.2575769253429
 11
554.1425248665638
 21
300.70466265472783
  0
LINE
  8
_2-0_
  6
CONTINUOUS
 62
    4
 10
465.14253326271825
 20
302.2575769253429
 11
631.00758569435391
 21
302.2575769253429
  0
TEXT
  8
_2-0_
 62
    7
 10
513.03240550336352
 20
303.45186215502849
 40
6
 41
1
 50
0
  1
1/2
  0
TEXT
  8
_2-0_
 62
    7
 10
571.98390925079639
 20
303.45186215502849
 40
6
 41
1
 50
0
  1
1/2
  0
LINE
  8
_2-0_
  6
CONTINUOUS
 62
    4
 10
611.72599792427422
 20
301.2575769253429
 11
611.72599792427422
 21
318.88082120030799
  0
LINE
  8
_2-0_
  6
CONTINUOUS
 62
    4
 10
605.30933443652202
 20
301.2575769253429
 11
605.30933443652202
 21
318.56423597340876
  0
LINE
  8
_2-0_
  6
CONTINUOUS
 62
    4
 10
548.30933443652191
 20
318.08935813305993
 11
548.30933443652191
 21
301.04594551277631
  0
LINE
  8
_2-0_
  6
CONTINUOUS
 62
    4
 10
491.30933443652191
 20
301.2575769253429
 11
491.30933443652191
 21
317.93106551961034
  0
LINE
  8
_2-0_
  6
CONTINUOUS
 62
    4
 10
485.39266459094085
 20
301.2575769253429
 11
485.39266459094085
 21
317.93106551961034
  0
LINE
  8
_2-0_
  6
CONTINUOUS
 62
    4
 10
622.03199032904899
 20
408.59645967271922
 11
622.03199032904899
 21
491.09645967271922
  0
LINE
  8
_2-0_
  6
CONTINUOUS
 62
    4
 10
622.03199032904899
 20
408.59645967271922
 11
623.58490459966413
 21
414.39201463045367
  0
LINE
  8
_2-0_
  6
CONTINUOUS
 62
    4
 10
622.03199032904899
 20
491.09645967271922
 11
623.58490459966413
 21
485.30090471498488
  0
LINE
  8
_2-0_
  6
CONTINUOUS
 62
    4
 10
622.03199032904899
 20
491.09645967271922
 11
620.47907605843386
 21
485.30090471498488
  0
LINE
  8
_2-0_
  6
CONTINUOUS
 62
    4
 10
622.03199032904899
 20
408.59645967271922
 11
623.58490459966413
 21
402.80090471498482
  0
LINE
  8
_2-0_
  6
CONTINUOUS
 62
    4
 10
622.03199032904899
 20
326.09645967271922
 11
623.58490459966413
 21
331.89201463045367
  0
LINE
  8
_2-0_
  6
CONTINUOUS
 62
    4
 10
622.03199032904899
 20
408.59645967271922
 11
620.47907605843386
 21
414.39201463045367
  0
LINE
  8
_2-0_
  6
CONTINUOUS
 62
    4
 10
622.03199032904899
 20
408.59645967271922
 11
622.03199032904899
 21
326.09645967271922
  0
LINE
  8
_2-0_
  6
CONTINUOUS
 62
    4
 10
622.03199032904899
 20
408.59645967271922
 11
620.47907605843386
 21
402.80090471498482
  0
LINE
  8
_2-0_
  6
CONTINUOUS
 62
    4
 10
622.03199032904899
 20
326.09645967271922
 11
620.47907605843386
 21
331.89201463045367
  0
LINE
  8
_2-0_
  6
CONTINUOUS
 62
    4
 10
622.03199032904899
 20
507.23374833040612
 11
622.03199032904899
 21
491.09645967271922
  0
LINE
  8
_2-0_
  6
CONTINUOUS
 62
    4
 10
622.03199032904899
 20
496.9107430737148
 11
620.47907605843386
 21
502.70629803144914
  0
LINE
  8
_2-0_
  6
CONTINUOUS
 62
    4
 10
622.03199032904899
 20
496.9107430737148
 11
623.58490459966413
 21
502.70629803144914
  0
LINE
  8
_2-0_
  6
CONTINUOUS
 62
    4
 10
622.03199032904899
 20
320.27004770532142
 11
623.58490459966413
 21
314.47449274758702
  0
LINE
  8
_2-0_
  6
CONTINUOUS
 62
    4
 10
622.03199032904899
 20
320.27004770532142
 11
620.47907605843386
 21
314.47449274758702
  0
LINE
  8
_2-0_
  6
CONTINUOUS
 62
    4
 10
622.03199032904899
 20
326.09645967271922
 11
622.03199032904899
 21
312.23253143542428
  0
TEXT
  8
_2-0_
 62
    7
 10
619.47350330601421
 20
491.43858312267503
 40
6
 41
0.8333333333333333
 50
90
  1
35
  0
LINE
  8
_2-0_
  6
CONTINUOUS
 62
    4
 10
623.03199032904899
 20
496.92979300605259
 11
613.17737867426706
 21
496.92979300605259
  0
LINE
  8
_2-0_
  6
CONTINUOUS
 62
    4
 10
623.03199032904899
 20
491.09645967271922
 11
613.32511401259512
 21
491.09645967271922
  0
LINE
  8
_2-0_
  6
CONTINUOUS
 62
    4
 10
623.03199032904899
 20
408.59645967271922
 11
612.53195336639419
 21
408.59645967271922
  0
LINE
  8
_2-0_
  6
CONTINUOUS
 62
    4
 10
623.03199032904899
 20
326.09645967271922
 11
612.50405963619153
 21
326.09645967271922
  0
LINE
  8
_2-0_
  6
CONTINUOUS
 62
    4
 10
623.03199032904899
 20
320.19978304037187
 11
612.3033542660678
 21
320.19978304037187
  0
TEXT
  8
_2-0_
 62
    7
 10
619.47350330601421
 20
320.70186832789364
 40
6
 41
0.8333333333333333
 50
90
  1
35
  0
TEXT
  8
_2-0_
 62
    7
 10
619.66121212149471
 20
443.34645967271922
 40
6
 41
1
 50
90
  1
1/2
  0
TEXT
  8
_2-0_
 62
    7
 10
619.66121212149471
 20
360.84645967271922
 40
6
 41
1
 50
90
  1
1/2
  0
TEXT
  8
_0-0_1
 62
    7
 10
732.99305212032993
 20
61.945408162915385
 40
6
 41
1
 50
0
  1
2020年07月22日
  0
TEXT
  8
_2-0_
 62
    7
 10
487.18383110195674
 20
507.39910598856193
 40
6
 41
1
 50
0
  1
取付穴φ4
  0
ENDSEC
  0
EOF
