  0
SECTION
  2
HEADER
  9
$ACADVER
  1
AC1009
  9
$INSBASE
 10
0
 20
0
 30
0
  9
$EXTMIN
 10
0
 20
0
  9
$EXTMAX
 10
420
 20
297
  9
$LIMMIN
 10
0
 20
0
  9
$LIMMAX
 10
420
 20
297
  9
$LTSCALE
 40
1
  0
ENDSEC
  0
SECTION
  2
TABLES
  0
TABLE
  2
LTYPE
 70
     9
  0
LTYPE
  2
CONTINUOUS
 70
    64
  3
実線
 72
    65
 73
     0
 40
0.0
  0
LTYPE
  2
DASHED1
 70
    64
  3
--  --  --  --  --  --  --  --  
 72
    65
 73
     2
 40
2.5
 49
1.25
 49
-1.25
  0
LTYPE
  2
DASHED2
 70
    64
  3
----    ----    ----    ----    
 72
    65
 73
     2
 40
5.0
 49
2.5
 49
-2.5
  0
LTYPE
  2
DASHED3
 70
    64
  3
------  ------  ------  ------  
 72
    65
 73
     2
 40
5.0
 49
3.75
 49
-1.25
  0
LTYPE
  2
CENTER1
 70
    64
  3
----- - ----- - ----- - ----- - 
 72
    65
 73
     4
 40
10.0
 49
6.25
 49
-1.25
 49
1.25
 49
-1.25
  0
LTYPE
  2
CENTER2
 70
    64
  3
----------  --  ----------  --  
 72
    65
 73
     4
 40
20.0
 49
12.5
 49
-2.5
 49
2.5
 49
-2.5
  0
LTYPE
  2
PHANTOM1
 70
    64
  3
--- - - --- - - --- - - --- - - 
 72
    65
 73
     6
 40
10.0
 49
3.25
 49
-1.25
 49
1.25
 49
-1.25
 49
1.25
 49
-1.25
  0
LTYPE
  2
PHANTOM2
 70
    64
  3
--------  -  -  --------  -  -  
 72
    65
 73
     6
 40
20.0
 49
10.0
 49
-2.5
 49
1.25
 49
-2.5
 49
1.25
 49
-2.5
  0
LTYPE
  2
DOT
 70
    64
  3
-   -   -   -   -   -   -   -   
 72
    65
 73
     2
 40
2.5
 49
0.625
 49
-1.875
  0
LTYPE
  2
DUMMY
 70
    64
  3
ダミー
 72
    65
 73
     0
 40
0.0
  0
LTYPE
  2
RAND1
 70
    64
  3
ランダム線1
 72
    65
 73
     4
 40
10.0
 49
1.0
 49
-2.0
 49
3.0
 49
-4.0
  0
LTYPE
  2
RAND2
 70
    64
  3
ランダム線2
 72
    65
 73
     4
 40
14.0
 49
2.0
 49
-3.0
 49
4.0
 49
-5.0
  0
LTYPE
  2
RAND3
 70
    64
  3
ランダム線3
 72
    65
 73
     4
 40
18.0
 49
3.0
 49
-4.0
 49
5.0
 49
-6.0
  0
LTYPE
  2
RAND4
 70
    64
  3
ランダム線4
 72
    65
 73
     4
 40
22.0
 49
4.0
 49
-5.0
 49
6.0
 49
-7.0
  0
LTYPE
  2
RAND5
 70
    64
  3
ランダム線5
 72
    65
 73
     4
 40
26.0
 49
5.0
 49
-6.0
 49
7.0
 49
-8.0
  0
LTYPE
  2
LONG1
 70
    64
  3
----------  --  ----------  --  
 72
    65
 73
     4
 40
40.0
 49
32.5
 49
-2.5
 49
2.5
 49
-2.5
  0
LTYPE
  2
LONG2
 70
    64
  3
--------  -  -  --------  -  -  
 72
    65
 73
     6
 40
40.0
 49
30.0
 49
-2.5
 49
1.25
 49
-2.5
 49
1.25
 49
-2.5
  0
LTYPE
  2
LONG3
 70
    64
  3
+++++++++++++++..+++++++++++++++
 72
    65
 73
     2
 40
40.0
 49
37.5
 49
-2.5
  0
LTYPE
  2
LONG4
 70
    64
  3
+++++++++++++++..+++++++++++++++
 72
    65
 73
     2
 40
80.0
 49
75.0
 49
-5.0
  0
LTYPE
  2
LONG5
 70
    64
  3
----------  --  ----------  --  
 72
    65
 73
     4
 40
60.0
 49
37.5
 49
-7.5
 49
7.5
 49
-7.5
  0
LTYPE
  2
dashed
 70
   64
  3
-------   -------------   ------
 72
   65
 73
    2
 40
7.5
 49
6
 49
-1.5
  0
LTYPE
  2
dashed_spaced
 70
   64
  3
----        --------        ----
 72
   65
 73
    2
 40
12
 49
6
 49
-6
  0
LTYPE
  2
long_dashed_dotted
 70
   64
  3
------------- --- --------------
 72
   65
 73
    4
 40
15.25
 49
12
 49
-1.5
 49
0.25
 49
-1.5
  0
LTYPE
  2
long_dashed_double-dotted
 70
   64
  3
----------- --- --- ------------
 72
   65
 73
    6
 40
17
 49
12
 49
-1.5
 49
0.25
 49
-1.5
 49
0.25
 49
-1.5
  0
LTYPE
  2
long_dashed_triplicate-dotted
 70
   64
  3
--------- --- --- --- ----------
 72
   65
 73
    8
 40
18.75
 49
12
 49
-1.5
 49
0.25
 49
-1.5
 49
0.25
 49
-1.5
 49
0.25
 49
-1.5
  0
LTYPE
  2
dotted
 70
   64
  3
   -       -       -       -    
 72
   65
 73
    2
 40
1.75
 49
0.25
 49
-1.5
  0
LTYPE
  2
chain
 70
   64
  3
-------------- -- --------------
 72
   65
 73
    4
 40
18.5
 49
12
 49
-1.5
 49
3.5
 49
-1.5
  0
LTYPE
  2
chain_double_dash
 70
   64
  3
------------ -- -- -------------
 72
   65
 73
    6
 40
23.5
 49
12
 49
-1.5
 49
3.5
 49
-1.5
 49
3.5
 49
-1.5
  0
LTYPE
  2
dashed_dotted
 70
   64
  3
-----------     -     ----------
 72
   65
 73
    4
 40
9.25
 49
6
 49
-1.5
 49
0.25
 49
-1.5
  0
LTYPE
  2
double-dashed_dotted
 70
   64
  3
------   -----------   -   -----
 72
   65
 73
    6
 40
16.75
 49
6
 49
-1.5
 49
6
 49
-1.5
 49
0.25
 49
-1.5
  0
LTYPE
  2
dashed_double-dotted
 70
   64
  3
---------    -    -    ---------
 72
   65
 73
    6
 40
11
 49
6
 49
-1.5
 49
0.25
 49
-1.5
 49
0.25
 49
-1.5
  0
LTYPE
  2
double-dashed_double-dotted
 70
   64
  3
-----   ---------   -   -   ----
 72
   65
 73
    8
 40
18.5
 49
6
 49
-1.5
 49
6
 49
-1.5
 49
0.25
 49
-1.5
 49
0.25
 49
-1.5
  0
LTYPE
  2
dashed_triplicate-dotted
 70
   64
  3
-------    -    -    -    ------
 72
   65
 73
    8
 40
12.75
 49
6
 49
-1.5
 49
0.25
 49
-1.5
 49
0.25
 49
-1.5
 49
0.25
 49
-1.5
  0
LTYPE
  2
double-dashed_triplicate-dotted
 70
   64
  3
-----  ---------  -  -  -  -----
 72
   65
 73
   10
 40
20.25
 49
6
 49
-1.5
 49
6
 49
-1.5
 49
0.25
 49
-1.5
 49
0.25
 49
-1.5
 49
0.25
 49
-1.5
  0
LTYPE
  2
undefined
 70
   64
  3
--------------------------------
 72
   65
 73
    0
 40
0
  0
LTYPE
  2
SLD-破線
 70
   64
  3
------     -----------     -----
 72
   65
 73
    2
 40
1.905
 49
1.27
 49
-0.635
  0
LTYPE
  2
SLD-2点鎖線
 70
   64
  3
---------   ---   ---   --------
 72
   65
 73
    6
 40
12.699999999999998
 49
6.3499999999999996
 49
-1.27
 49
1.27
 49
-1.27
 49
1.27
 49
-1.27
  0
LTYPE
  2
SLD-1点鎖線_中心線_
 70
   64
  3
--------------- - --------------
 72
   65
 73
    4
 40
34.290000000000006
 49
30.48
 49
-1.27
 49
1.27
 49
-1.27
  0
LTYPE
  2
SLD-点線
 70
   64
  3
-               -               
 72
   65
 73
    2
 40
0.645
 49
0.01
 49
-0.635
  0
LTYPE
  2
_
 70
   64
  3
                                
 72
   65
 73
    0
 40
0
  0
LTYPE
  2
__22
 70
   64
  3
                                
 72
   65
 73
    0
 40
0
  0
LTYPE
  2
__23
 70
   64
  3
                                
 72
   65
 73
    0
 40
0
  0
LTYPE
  2
__24
 70
   64
  3
                                
 72
   65
 73
    0
 40
0
  0
LTYPE
  2
__25
 70
   64
  3
                                
 72
   65
 73
    0
 40
0
  0
LTYPE
  2
__26
 70
   64
  3
                                
 72
   65
 73
    0
 40
0
  0
LTYPE
  2
__27
 70
   64
  3
                                
 72
   65
 73
    0
 40
0
  0
LTYPE
  2
__28
 70
   64
  3
                                
 72
   65
 73
    0
 40
0
  0
LTYPE
  2
__29
 70
   64
  3
                                
 72
   65
 73
    0
 40
0
  0
LTYPE
  2
__30
 70
   64
  3
                                
 72
   65
 73
    0
 40
0
  0
LTYPE
  2
__31
 70
   64
  3
                                
 72
   65
 73
    0
 40
0
  0
LTYPE
  2
__32
 70
   64
  3
                                
 72
   65
 73
    0
 40
0
  0
ENDTAB
  0
TABLE
  2
STYLE
  5
3
100
AcDbSymbolTable
 70
     1
  0
STYLE
  5
10
100
AcDbSymbolTableRecord
100
AcDbTextStyleTableRecord
  2
STANDARD
 70
     0
 40
0.0
 41
1.0
 50
0.0
 71
     0
 42
0.2
  3
txt
  4
bigfont.shx
  0
STYLE
  5
26
100
AcDbSymbolTableRecord
100
AcDbTextStyleTableRecord
  2
TATEGAKI
 70
    68
 40
0.0
 41
1.0
 50
0.0
 71
     0
 42
1.0
  3
txt
  4
bigfont.shx
  0
ENDTAB
  0
TABLE
  2
LAYER
 70
    2
  0
LAYER
  2
_0-0_0
 70
   64
 62
    7
  6
CONTINUOUS
  0
LAYER
  2
ADD_LINE
 70
   64
 62
    7
  6
CONTINUOUS
  0
ENDTAB
  0
ENDSEC
  0
SECTION
  2
BLOCKS
  0
ENDSEC
  0
SECTION
  2
ENTITIES
  0
LINE
  8
_0-0_0
  6
CONTINUOUS
 62
    7
 10
166.83118792849999
 20
149.5069835333
 11
166.90648261480001
 21
150.01886293429999
  0
ARC
  8
_0-0_0
  6
CONTINUOUS
 62
    7
 10
165.0657972857
 20
152.83124707639999
 40
1.8325324692551079
 50
268.53994251990002
 51
283.3641049085
  0
ARC
  8
_0-0_0
  6
CONTINUOUS
 62
    7
 10
255.36748933440001
 20
202.22943365649999
 40
2.8574351785647458
 50
1.7590973892000001
 51
58.241854412099997
  0
LINE
  8
_0-0_0
  6
CONTINUOUS
 62
    7
 10
258.22357788760002
 20
197.66229226230001
 11
258.22357788760002
 21
202.3171489675
  0
LINE
  8
_0-0_0
  6
CONTINUOUS
 62
    7
 10
256.87145693799999
 20
204.65904622790001
 11
249.3761252777
 21
208.98494084340001
  0
LINE
  8
_0-0_0
  6
CONTINUOUS
 62
    7
 10
257.02149675530001
 20
196.79528089819999
 11
258.07354004600001
 21
197.40246262310001
  0
LINE
  8
_0-0_0
  6
CONTINUOUS
 62
    7
 10
257.02149708450003
 20
196.5441777039
 11
257.02149708450003
 21
196.79528125530001
  0
ARC
  8
_0-0_0
  6
CONTINUOUS
 62
    7
 10
256.72149724000002
 20
196.54417772459999
 40
0.3000000000000114
 50
324.90670204840001
 51
0
  0
LINE
  8
_0-0_0
  6
CONTINUOUS
 62
    7
 10
256.68339374869998
 20
195.96812773120001
 11
256.96696136750001
 21
196.37170439779999
  0
ARC
  8
_0-0_0
  6
CONTINUOUS
 62
    7
 10
256.43792941219999
 20
196.1406011784
 40
0.3000000000000512
 50
299.99118658999993
 51
324.90670204829996
  0
ARC
  8
_0-0_0
  6
CONTINUOUS
 62
    7
 10
257.92357876800003
 20
197.6622926961
 40
0.300000000000023
 50
299.99118658999993
 51
359.99999999999994
  0
LINE
  8
_0-0_0
  6
CONTINUOUS
 62
    7
 10
255.7888947191
 20
194.9636266768
 11
255.71537398710001
 21
195.1350572444
  0
LINE
  8
_0-0_0
  6
CONTINUOUS
 62
    7
 10
246.91453595620001
 20
208.28792451379999
 11
246.73858405889999
 21
208.18929255309999
  0
LINE
  8
_0-0_0
  6
CONTINUOUS
 62
    7
 10
246.73858405889999
 20
208.18929255309999
 11
246.73373058589999
 21
208.1828929298
  0
LINE
  8
_0-0_0
  6
CONTINUOUS
 62
    7
 10
248.22643300729999
 20
209.0690251995
 11
246.88292845399999
 21
208.2936280088
  0
ARC
  8
_0-0_0
  6
CONTINUOUS
 62
    7
 10
255.51941571200001
 20
194.83179232009999
 40
0.3000000000000396
 50
0
 51
26.0687814552
  0
LINE
  8
_0-0_0
  6
CONTINUOUS
 62
    7
 10
255.81941562290001
 20
194.1507339785
 11
255.81941562290001
 21
194.8317921725
  0
LINE
  8
_0-0_0
  6
CONTINUOUS
 62
    7
 10
255.5194164955
 20
193.8045386961
 11
255.52795386650001
 21
193.80928239720001
  0
LINE
  8
_0-0_0
  6
CONTINUOUS
 62
    7
 10
255.52795386650001
 20
193.80928239720001
 11
255.66937498249999
 21
193.8909029141
  0
ARC
  8
_0-0_0
  6
CONTINUOUS
 62
    7
 10
255.51941571200001
 20
194.1507340089
 40
0.3000000000000114
 50
299.99118658999993
 51
359.99999999999994
  0
ARC
  8
_0-0_0
  6
CONTINUOUS
 62
    7
 10
248.75442020060001
 20
208.13165972159999
 40
1.055748964324873
 50
53.922723816199991
 51
120.73725817839998
  0
ARC
  8
_0-0_0
  6
CONTINUOUS
 62
    7
 10
171.57528033329999
 20
153.8691599876
 40
2.8574931021636072
 50
1.7597856558
 51
58.241295026499998
  0
LINE
  8
_0-0_0
  6
CONTINUOUS
 62
    7
 10
174.4314257289
 20
148.87771527620001
 11
174.4314257289
 21
153.95691138629999
  0
LINE
  8
_0-0_0
  6
CONTINUOUS
 62
    7
 10
173.07930214519999
 20
156.29880712630001
 11
165.58397048480001
 21
160.62470174180001
  0
ARC
  8
_0-0_0
  6
CONTINUOUS
 62
    7
 10
172.78792231310001
 20
148.5266580725
 40
0.300000000000023
 50
240.00881341000007
 51
299.99118659000004
  0
ARC
  8
_0-0_0
  6
CONTINUOUS
 62
    7
 10
169.7914099939
 20
151.6547019914
 40
0.6115936013196545
 50
3.3556845853000001
 51
56.638981725200011
  0
LINE
  8
_0-0_0
  6
CONTINUOUS
 62
    7
 10
170.55199707880001
 20
149.4707319478
 11
172.6379620795
 21
148.26682728099999
  0
LINE
  8
_0-0_0
  6
CONTINUOUS
 62
    7
 10
172.93788069990001
 20
148.26682633089999
 11
173.98992925900001
 21
148.87401109640001
  0
LINE
  8
_0-0_0
  6
CONTINUOUS
 62
    7
 10
170.4019549567
 20
151.69050117489999
 11
170.4019549567
 21
149.73056139689999
  0
LINE
  8
_0-0_0
  6
CONTINUOUS
 62
    7
 10
166.09722426920001
 20
154.49170728679999
 11
170.12773303110001
 21
152.16551854150001
  0
ARC
  8
_0-0_0
  6
CONTINUOUS
 62
    7
 10
174.13142519740001
 20
148.87771490040001
 40
0.3000000000000114
 50
324.90670204840001
 51
0
  0
LINE
  8
_0-0_0
  6
CONTINUOUS
 62
    7
 10
174.09332766150001
 20
148.30166834409999
 11
174.37689528019999
 21
148.7052450107
  0
ARC
  8
_0-0_0
  6
CONTINUOUS
 62
    7
 10
170.70195730859999
 20
149.73056274140001
 40
0.3000000000000396
 50
180
 51
240.00881341000002
  0
ARC
  8
_0-0_0
  6
CONTINUOUS
 62
    7
 10
173.70643601340001
 20
148.39251769859999
 40
0.3000000000000088
 50
233.38879275879992
 51
299.99118658999993
  0
LINE
  8
_0-0_0
  6
CONTINUOUS
 62
    7
 10
173.0161946481
 20
148.28968955459999
 11
173.0293301415
 21
148.30170876189999
  0
LINE
  8
_0-0_0
  6
CONTINUOUS
 62
    7
 10
173.0293301415
 20
148.30170876189999
 11
173.16080723549999
 21
148.31804408100001
  0
LINE
  8
_0-0_0
  6
CONTINUOUS
 62
    7
 10
173.16080723549999
 20
148.31804408100001
 11
173.36385955630001
 21
148.25340349999999
  0
LINE
  8
_0-0_0
  6
CONTINUOUS
 62
    7
 10
173.36385955630001
 20
148.25340349999999
 11
173.52752120209999
 21
148.15170734989999
  0
LINE
  8
_0-0_0
  6
CONTINUOUS
 62
    7
 10
173.8563935549
 20
148.1326856387
 11
173.9978173051
 21
148.2143076758
  0
ARC
  8
_0-0_0
  6
CONTINUOUS
 62
    7
 10
173.84785736960001
 20
148.47413835410001
 40
0.3000000000000088
 50
299.99118658999993
 51
324.90670204829996
  0
ARC
  8
_0-0_0
  6
CONTINUOUS
 62
    7
 10
174.21817671950001
 20
147.92016588289999
 40
1.194662950203812
 50
162.91921604859999
 51
211.43215942640001
  0
ARC
  8
_0-0_0
  6
CONTINUOUS
 62
    7
 10
163.6195809715
 20
159.0168435125
 40
1.038334694517991
 50
121.36301751160001
 51
186.74115718069999
  0
LINE
  8
_0-0_0
  6
CONTINUOUS
 62
    7
 10
164.4342782144
 20
160.70878609799999
 11
163.0907736611
 21
159.93338890730001
  0
ARC
  8
_0-0_0
  6
CONTINUOUS
 62
    7
 10
165.7312589446
 20
154.03661634420001
 40
0.5839849183158267
 50
51.195197216399997
 51
112.6920737316
  0
LINE
  8
_0-0_0
  6
CONTINUOUS
 62
    7
 10
170.4019556975
 20
151.31089230800001
 11
169.77354684479999
 21
151.6735754547
  0
LINE
  8
_0-0_0
  6
CONTINUOUS
 62
    7
 10
168.173120536
 20
152.59725380079999
 11
167.98733064230001
 21
152.70448154429999
  0
ARC
  8
_0-0_0
  6
CONTINUOUS
 62
    7
 10
164.963072307
 20
159.78153248539999
 40
1.0471145792972021
 50
53.6325827557
 51
118.34752395859999
  0
ARC
  8
_0-0_0
  6
CONTINUOUS
 62
    7
 10
172.9293436694
 20
147.16532949590001
 40
0.3000000000000114
 50
0
 51
26.0687814552
  0
LINE
  8
_0-0_0
  6
CONTINUOUS
 62
    7
 10
173.22934426730001
 20
146.4842715508
 11
173.22934426730001
 21
147.1653297448
  0
ARC
  8
_0-0_0
  6
CONTINUOUS
 62
    7
 10
172.78792231310001
 20
146.40265052909999
 40
0.3000000000000371
 50
240.00881341000007
 51
299.99118659000004
  0
LINE
  8
_0-0_0
  6
CONTINUOUS
 62
    7
 10
172.93787987670001
 20
146.14281844920001
 11
173.07930362690001
 21
146.2244404864
  0
LINE
  8
_0-0_0
  6
CONTINUOUS
 62
    7
 10
167.90888449120001
 20
148.8721833077
 11
172.637961421
 21
146.14281930440001
  0
ARC
  8
_0-0_0
  6
CONTINUOUS
 62
    7
 10
172.9293436694
 20
146.48427118469999
 40
0.3000000000000114
 50
299.99118658999993
 51
359.99999999999994
  0
LINE
  8
_0-0_0
  6
CONTINUOUS
 62
    7
 10
162.58842471520001
 20
158.8949594982
 11
162.58842471520001
 21
153.8157633882
  0
LINE
  8
_0-0_0
  6
CONTINUOUS
 62
    7
 10
166.8278540469
 20
153.9424133567
 11
166.77920143719999
 21
154.0385728279
  0
LINE
  8
_0-0_0
  6
CONTINUOUS
 62
    7
 10
166.77920143719999
 20
154.0385728279
 11
166.75763706800001
 21
154.11055378040001
  0
LINE
  8
_0-0_0
  6
CONTINUOUS
 62
    7
 10
166.70680368820001
 20
148.1784081541
 11
167.90888449120001
 21
148.8721833077
  0
LINE
  8
_0-0_0
  6
CONTINUOUS
 62
    7
 10
166.28040303399999
 20
148.42450324070001
 11
166.70680368820001
 21
148.1784081541
  0
ARC
  8
_0-0_0
  6
CONTINUOUS
 62
    7
 10
162.43331890190001
 20
151.491617711
 40
1.456503486862774
 50
25.036235791900001
 51
64.608373887700012
  0
ARC
  8
_0-0_0
  6
CONTINUOUS
 62
    7
 10
165.45930532369999
 20
147.0067325277
 40
1.637573346098818
 50
59.969483491700004
 51
79.383908658700008
  0
LINE
  8
_0-0_0
  6
CONTINUOUS
 62
    7
 10
162.608736862
 20
153.7072516245
 11
162.89230481000001
 21
152.97635539340001
  0
ARC
  8
_0-0_0
  6
CONTINUOUS
 62
    7
 10
162.8884273765
 20
153.81576455940001
 40
0.2999999999999827
 50
180
 51
201.20489840229999
  0
ARC
  8
_0-0_0
  6
CONTINUOUS
 62
    7
 10
163.1719952043
 20
153.0848683975
 40
0.3000000000000011
 50
201.20489840229996
 51
247.64159032559996
  0
LINE
  8
_0-0_0
  6
CONTINUOUS
 62
    7
 10
163.79050683540001
 20
150.28230470829999
 11
163.79050683540001
 21
150.06784901009999
  0
LINE
  8
_0-0_0
  6
CONTINUOUS
 62
    7
 10
174.98849116240001
 20
150.7570396086
 11
256.30577247399998
 21
197.6889173845
  0
LINE
  8
_0-0_0
  6
CONTINUOUS
 62
    7
 10
246.175822874
 20
208.130430475
 11
164.85854156240001
 21
161.19855269909999
  0
LINE
  8
_0-0_0
  6
CONTINUOUS
 62
    7
 10
134.97121712809999
 20
127.17460271349999
 11
140.41593667949999
 21
130.3169964137
  0
LINE
  8
_0-0_0
  6
CONTINUOUS
 62
    7
 10
134.8834263128
 20
139.49144884570001
 11
129.43870676130001
 21
136.34905514549999
  0
ARC
  8
_0-0_0
  6
CONTINUOUS
 62
    7
 10
140.26597946480001
 20
136.2116554731
 40
0.2999999999999827
 50
0
 51
60.008813410000023
  0
LINE
  8
_0-0_0
  6
CONTINUOUS
 62
    7
 10
140.56597723760001
 20
130.5768275257
 11
140.56597723760001
 21
136.2116543814
  0
LINE
  8
_0-0_0
  6
CONTINUOUS
 62
    7
 10
140.41593511549999
 20
136.47148364040001
 11
135.18334493309999
 21
139.4914478956
  0
ARC
  8
_0-0_0
  6
CONTINUOUS
 62
    7
 10
140.26597946480001
 20
130.5768287425
 40
0.2999999999999842
 50
299.99118658999993
 51
359.99999999999994
  0
ARC
  8
_0-0_0
  6
CONTINUOUS
 62
    7
 10
135.03338928400001
 20
139.23161972739999
 40
0.300000000000023
 50
60.008813410000009
 51
119.99118659
  0
LINE
  8
_0-0_0
  6
CONTINUOUS
 62
    7
 10
140.56597861649999
 20
132.24049213730001
 11
146.95667364600001
 21
135.9288510346
  0
LINE
  8
_0-0_0
  6
CONTINUOUS
 62
    7
 10
142.4848221638
 20
141.63333738419999
 11
136.97849445649999
 21
138.45538683320001
  0
LINE
  8
_0-0_0
  6
CONTINUOUS
 62
    7
 10
134.75908273760001
 20
129.9084583069
 11
134.97995329720001
 21
130.035932688
  0
LINE
  8
_0-0_0
  6
CONTINUOUS
 62
    7
 10
168.7764004828
 20
152.9454340007
 11
147.0188485823
 21
140.3881675744
  0
LINE
  8
_0-0_0
  6
CONTINUOUS
 62
    7
 10
147.0188462774
 20
138.5408093776
 11
170.11839598130001
 21
151.87260338120001
  0
LINE
  8
_0-0_0
  6
CONTINUOUS
 62
    7
 10
170.11839598130001
 20
151.87260338120001
 11
170.3088807211
 21
151.97158467450001
  0
LINE
  8
_0-0_0
  6
CONTINUOUS
 62
    7
 10
258.1791151027
 20
202.69642385340001
 11
281.57447773130002
 21
216.19894486359999
  0
LINE
  8
_0-0_0
  6
CONTINUOUS
 62
    7
 10
281.06322032449998
 20
217.751231977
 11
257.47449849169999
 21
204.13711463199999
  0
LINE
  8
_0-0_0
  6
CONTINUOUS
 62
    7
 10
166.99018395100001
 20
153.9763402804
 11
145.521074545
 21
141.58554705239999
  0
LINE
  8
_0-0_0
  6
CONTINUOUS
 62
    7
 10
147.01884496029999
 20
140.60262098679999
 11
168.33217961419999
 21
152.90350956590001
  0
LINE
  8
_0-0_0
  6
CONTINUOUS
 62
    7
 10
168.33217961419999
 20
152.90350956590001
 11
168.57707025549999
 21
153.06047379789999
  0
LINE
  8
_0-0_0
  6
CONTINUOUS
 62
    7
 10
257.34296772639999
 20
204.2756577863
 11
279.78825082740002
 21
217.22984496710001
  0
LINE
  8
_0-0_0
  6
CONTINUOUS
 62
    7
 10
279.27700379269999
 20
218.78213825660001
 11
255.8389279674
 21
205.25496553030001
  0
LINE
  8
_0-0_0
  6
CONTINUOUS
 62
    7
 10
174.25811459510001
 20
148.12239154209999
 11
256.28249885259999
 21
195.46237038199999
  0
LINE
  8
_0-0_0
  6
CONTINUOUS
 62
    7
 10
173.4328606974
 20
146.10192461150001
 11
255.45724495479999
 21
193.44190345140001
  0
LINE
  8
_0-0_0
  6
CONTINUOUS
 62
    7
 10
164.2032179956
 20
150.52049940660001
 11
164.27761146380001
 21
150.34897929249999
  0
LINE
  8
_0-0_0
  6
CONTINUOUS
 62
    7
 10
165.263364018
 20
149.07054518570001
 11
165.43401693690001
 21
148.9328503982
  0
LINE
  8
_0-0_0
  6
CONTINUOUS
 62
    7
 10
165.43401693690001
 20
148.9328503982
 11
165.97521309410001
 21
148.74482794420001
  0
LINE
  8
_0-0_0
  6
CONTINUOUS
 62
    7
 10
165.97521309410001
 20
148.74482794420001
 11
166.43401710149999
 21
148.83408273820001
  0
LINE
  8
_0-0_0
  6
CONTINUOUS
 62
    7
 10
166.43401710149999
 20
148.83408273820001
 11
166.74058010670001
 21
149.18702648460001
  0
LINE
  8
_0-0_0
  6
CONTINUOUS
 62
    7
 10
166.74058010670001
 20
149.18702648460001
 11
166.84823073109999
 21
149.74992680209999
  0
LINE
  8
_0-0_0
  6
CONTINUOUS
 62
    7
 10
166.84823073109999
 20
149.74992680209999
 11
166.81442270240001
 21
149.965731121
  0
LINE
  8
_0-0_0
  6
CONTINUOUS
 62
    7
 10
166.20055352450001
 20
151.458796138
 11
166.089204185
 21
151.6089871543
  0
LINE
  8
_0-0_0
  6
CONTINUOUS
 62
    7
 10
165.02184183189999
 20
151.0097472507
 11
165.1622853385
 21
151.0367863155
  0
LINE
  8
_0-0_0
  6
CONTINUOUS
 62
    7
 10
165.1622853385
 20
151.0367863155
 11
165.22663007610001
 21
151.1111565157
  0
LINE
  8
_0-0_0
  6
CONTINUOUS
 62
    7
 10
164.7622656481
 20
150.831335301
 11
164.7520295615
 21
150.83724300910001
  0
LINE
  8
_0-0_0
  6
CONTINUOUS
 62
    7
 10
164.9088464603
 20
150.7132937854
 11
164.7622656481
 21
150.831335301
  0
LINE
  8
_0-0_0
  6
CONTINUOUS
 62
    7
 10
165.5400831032
 20
151.28072740389999
 11
165.56913940390001
 21
151.09437860290001
  0
LINE
  8
_0-0_0
  6
CONTINUOUS
 62
    7
 10
165.5400831032
 20
151.2920644049
 11
165.5400831032
 21
151.28072740389999
  0
ARC
  8
_0-0_0
  6
CONTINUOUS
 62
    7
 10
253.72209504509999
 20
201.27978514829999
 40
3.0732816600676078
 50
2.6023060020999997
 51
57.397687859400001
  0
ARC
  8
_0-0_0
  6
CONTINUOUS
 62
    7
 10
256.58007709970002
 20
201.82884053679999
 40
0.4611992194265974
 50
242.61562689489998
 51
297.38411646280002
  0
ARC
  8
_0-0_0
  6
CONTINUOUS
 62
    7
 10
253.75835205269999
 20
201.30071775139999
 40
2.612286842099885
 50
2.6022837010000002
 51
57.397717863899999
  0
ARC
  8
_0-0_0
  6
CONTINUOUS
 62
    7
 10
255.62637476559999
 20
203.4804621598
 40
0.4609864649462138
 50
122.6021876799
 51
177.39811889000001
  0
ARC
  8
_0-0_0
  6
CONTINUOUS
 62
    7
 10
255.0655995983
 20
202.055182339
 40
3.0732816600673889
 50
2.6023060020999997
 51
57.397687859400001
  0
LINE
  8
_0-0_0
  6
CONTINUOUS
 62
    7
 10
256.79220736270003
 20
201.4193219517
 11
258.1357119159
 21
202.1947191424
  0
LINE
  8
_0-0_0
  6
CONTINUOUS
 62
    7
 10
255.37799389770001
 20
203.86881182869999
 11
256.721498451
 21
204.64420901939999
  0
LINE
  8
_0-0_0
  6
CONTINUOUS
 62
    7
 10
247.67053188049999
 20
207.82728361810001
 11
255.16586354079999
 21
203.50138900260001
  0
LINE
  8
_0-0_0
  6
CONTINUOUS
 62
    7
 10
256.79220736270003
 20
196.34012584160001
 11
256.79220736270003
 21
201.4193219517
  0
ARC
  8
_0-0_0
  6
CONTINUOUS
 62
    7
 10
248.13104310520001
 20
207.8063567753
 40
0.4609864649461419
 50
122.6021876799
 51
177.39811889000001
  0
LINE
  8
_0-0_0
  6
CONTINUOUS
 62
    7
 10
255.37799389770001
 20
203.86881182869999
 11
247.88266223740001
 21
208.19470644419999
  0
LINE
  8
_0-0_0
  6
CONTINUOUS
 62
    7
 10
256.93362847869997
 20
196.84608576330001
 11
256.93362847869997
 21
196.4217463585
  0
LINE
  8
_0-0_0
  6
CONTINUOUS
 62
    7
 10
256.79220736270003
 20
196.34012584160001
 11
256.93362847869997
 21
196.4217463585
  0
LINE
  8
_0-0_0
  6
CONTINUOUS
 62
    7
 10
258.1357119159
 20
202.1947191424
 11
258.1357119159
 21
197.53986243719999
  0
LINE
  8
_0-0_0
  6
CONTINUOUS
 62
    7
 10
256.93362847869997
 20
196.84608576330001
 11
258.1357119159
 21
197.53986243719999
  0
LINE
  8
_0-0_0
  6
CONTINUOUS
 62
    7
 10
247.88266223740001
 20
208.19470644419999
 11
249.22616679070001
 21
208.9701036349
  0
LINE
  8
_0-0_0
  6
CONTINUOUS
 62
    7
 10
249.22616679070001
 20
208.9701036349
 11
256.721498451
 21
204.64420901939999
  0
ARC
  8
_0-0_0
  6
CONTINUOUS
 62
    7
 10
224.22157430830001
 20
140.1683877124
 40
65.440354097457799
 50
59.919345490900007
 51
60.008211799600005
  0
ARC
  8
_0-0_0
  6
CONTINUOUS
 62
    7
 10
256.6081717468
 20
196.33257149510001
 40
0.1841905970811363
 50
327.65705613570003
 51
2.350573894600049
  0
ARC
  8
_0-0_0
  6
CONTINUOUS
 62
    7
 10
256.7495928628
 20
196.414192012
 40
0.1841905970804056
 50
327.65705613570003
 51
2.3505738947000392
  0
LINE
  8
_0-0_0
  6
CONTINUOUS
 62
    7
 10
256.76378721589998
 20
196.2340321536
 11
256.90520833189998
 21
196.3156526704
  0
LINE
  8
_0-0_0
  6
CONTINUOUS
 62
    7
 10
256.90520833189998
 20
196.3156526704
 11
256.62164038380001
 21
195.91207620579999
  0
LINE
  8
_0-0_0
  6
CONTINUOUS
 62
    7
 10
255.5446690432
 20
194.80552537930001
 11
255.68609015920001
 21
194.88714589610001
  0
ARC
  8
_0-0_0
  6
CONTINUOUS
 62
    7
 10
255.1749941244
 20
194.6163014542
 40
0.4152893442216665
 50
1.5783720111999997
 51
27.106351184000005
  0
LINE
  8
_0-0_0
  6
CONTINUOUS
 62
    7
 10
255.59012590099999
 20
193.9466821163
 11
255.59012590099999
 21
194.6277403103
  0
ARC
  8
_0-0_0
  6
CONTINUOUS
 62
    7
 10
255.3164152404
 20
194.69792197109999
 40
0.4152893442212429
 50
1.5783720112999997
 51
27.106351183999998
  0
LINE
  8
_0-0_0
  6
CONTINUOUS
 62
    7
 10
255.59012590099999
 20
194.6277403103
 11
255.731547017
 21
194.7093608271
  0
LINE
  8
_0-0_0
  6
CONTINUOUS
 62
    7
 10
255.731547017
 20
194.7093608271
 11
255.731547017
 21
194.0283026331
  0
LINE
  8
_0-0_0
  6
CONTINUOUS
 62
    7
 10
255.59012590099999
 20
193.9466821163
 11
255.731547017
 21
194.0283026331
  0
ARC
  8
_0-0_0
  6
CONTINUOUS
 62
    7
 10
169.9299402522
 20
152.91954604680001
 40
3.073281660067201
 50
2.6023060020999997
 51
57.397687859400001
  0
ARC
  8
_0-0_0
  6
CONTINUOUS
 62
    7
 10
172.78792787579999
 20
153.4685792999
 40
0.4611770030862574
 50
242.61415507429999
 51
297.38476701439998
  0
ARC
  8
_0-0_0
  6
CONTINUOUS
 62
    7
 10
169.9662025282
 20
152.94048169039999
 40
2.612286842099913
 50
2.6022837010000002
 51
57.397717863899999
  0
ARC
  8
_0-0_0
  6
CONTINUOUS
 62
    7
 10
171.8342036011
 20
155.12023894009999
 40
0.4609642644581056
 50
122.60153701989999
 51
177.39959125659999
  0
ARC
  8
_0-0_0
  6
CONTINUOUS
 62
    7
 10
171.27344480549999
 20
153.69494323750001
 40
3.0732816600673729
 50
2.6023060020999997
 51
57.397687859400001
  0
LINE
  8
_0-0_0
  6
CONTINUOUS
 62
    7
 10
174.3435571231
 20
153.83448004089999
 11
173.0000525698
 21
153.05908285020001
  0
LINE
  8
_0-0_0
  6
CONTINUOUS
 62
    7
 10
172.9293436582
 20
156.28396991790001
 11
171.5858391049
 21
155.5085727272
  0
LINE
  8
_0-0_0
  6
CONTINUOUS
 62
    7
 10
162.6763008943
 20
153.69333641360001
 11
162.95986818380001
 21
152.96244055069999
  0
LINE
  8
_0-0_0
  6
CONTINUOUS
 62
    7
 10
162.6763008943
 20
158.77253252369999
 11
162.6763008943
 21
153.69333641360001
  0
ARC
  8
_0-0_0
  6
CONTINUOUS
 62
    7
 10
163.40923357419999
 20
158.89150863649999
 40
0.7425265171541596
 50
50.814907940600001
 51
189.22033161549999
  0
LINE
  8
_0-0_0
  6
CONTINUOUS
 62
    7
 10
171.3737140163
 20
155.1411529417
 11
163.878382356
 21
159.4670475572
  0
LINE
  8
_0-0_0
  6
CONTINUOUS
 62
    7
 10
172.575795478
 20
148.4042301357
 11
172.575795478
 21
153.05908684100001
  0
LINE
  8
_0-0_0
  6
CONTINUOUS
 62
    7
 10
170.48983047729999
 20
149.6081348024
 11
172.575795478
 21
148.4042301357
  0
LINE
  8
_0-0_0
  6
CONTINUOUS
 62
    7
 10
170.48983047729999
 20
151.56807458040001
 11
170.48983047729999
 21
149.6081348024
  0
ARC
  8
_0-0_0
  6
CONTINUOUS
 62
    7
 10
169.56879724949999
 20
151.52621364800001
 40
0.9219840260833779
 50
2.6023005802000001
 51
57.397704194400006
  0
LINE
  8
_0-0_0
  6
CONTINUOUS
 62
    7
 10
166.03505766769999
 20
154.62911014150001
 11
170.06556642960001
 21
152.3029213961
  0
ARC
  8
_0-0_0
  6
CONTINUOUS
 62
    7
 10
164.70607751279999
 20
151.82740914030001
 40
0.7436666419379619
 50
105.32772591379999
 51
134.6545995301
  0
LINE
  8
_0-0_0
  6
CONTINUOUS
 62
    7
 10
173.0000525698
 20
153.05908285020001
 11
173.0000525698
 21
148.40422614490001
  0
ARC
  8
_0-0_0
  6
CONTINUOUS
 62
    7
 10
172.78792787579999
 20
148.81372259470001
 40
0.4611770030861481
 50
242.61415507429999
 51
297.38476701439998
  0
LINE
  8
_0-0_0
  6
CONTINUOUS
 62
    7
 10
164.09050744449999
 20
159.83446734270001
 11
171.5858391049
 21
155.5085727272
  0
ARC
  8
_0-0_0
  6
CONTINUOUS
 62
    7
 10
164.33887194069999
 20
159.4461335556
 40
0.4609642644579465
 50
122.60153701989999
 51
177.39959125659999
  0
LINE
  8
_0-0_0
  6
CONTINUOUS
 62
    7
 10
174.3435571231
 20
148.7552839308
 11
174.3435571231
 21
153.83448004089999
  0
LINE
  8
_0-0_0
  6
CONTINUOUS
 62
    7
 10
174.3435571231
 20
148.7552839308
 11
174.20213337289999
 21
148.67366189360001
  0
LINE
  8
_0-0_0
  6
CONTINUOUS
 62
    7
 10
174.20213337289999
 20
149.09800129850001
 11
174.20213337289999
 21
148.67366189360001
  0
LINE
  8
_0-0_0
  6
CONTINUOUS
 62
    7
 10
174.20213337289999
 20
149.09800129850001
 11
173.0000525698
 21
148.40422614490001
  0
LINE
  8
_0-0_0
  6
CONTINUOUS
 62
    7
 10
165.43401199780001
 20
160.60986453340001
 11
164.09050744449999
 21
159.83446734270001
  0
LINE
  8
_0-0_0
  6
CONTINUOUS
 62
    7
 10
172.9293436582
 20
156.28396991790001
 11
165.43401199780001
 21
160.60986453340001
  0
LINE
  8
_0-0_0
  6
CONTINUOUS
 62
    7
 10
173.98992391950287
 20
148.87400811424587
 11
174.04201958514332
 21
148.90933715854638
  0
LINE
  8
_0-0_0
  6
CONTINUOUS
 62
    7
 10
174.04201958514332
 20
148.90933715854638
 11
174.09253477872528
 21
148.95411871214711
  0
LINE
  8
_0-0_0
  6
CONTINUOUS
 62
    7
 10
174.09253477872528
 20
148.95411871214711
 11
174.13993462165371
 21
149.0069921102025
  0
LINE
  8
_0-0_0
  6
CONTINUOUS
 62
    7
 10
174.13993462165371
 20
149.0069921102025
 11
174.18277889368667
 21
149.06635082126783
  0
LINE
  8
_0-0_0
  6
CONTINUOUS
 62
    7
 10
174.18277889368667
 20
149.06635082126783
 11
174.20213587554645
 21
149.09800266112416
  0
ARC
  8
_0-0_0
  6
CONTINUOUS
 62
    7
 10
173.99000867890001
 20
149.08315834339999
 40
0.4611770030863843
 50
242.61415507429999
 51
297.38476701439998
  0
LINE
  8
_0-0_0
  6
CONTINUOUS
 62
    7
 10
172.57579481939999
 20
146.280222159
 11
172.57579481939999
 21
146.96128035300001
  0
LINE
  8
_0-0_0
  6
CONTINUOUS
 62
    7
 10
167.90889008889999
 20
148.97370377659999
 11
172.57579481939999
 21
146.280222159
  0
LINE
  8
_0-0_0
  6
CONTINUOUS
 62
    7
 10
167.90889008889999
 20
150.59739758020001
 11
167.90889008889999
 21
148.97370377659999
  0
LINE
  8
_0-0_0
  6
CONTINUOUS
 62
    7
 10
167.69675808560001
 20
152.3627009276
 11
167.72923618359999
 21
152.34106794530001
  0
LINE
  8
_0-0_0
  6
CONTINUOUS
 62
    7
 10
170.40196183020001
 20
150.80140559829999
 11
169.3321647969
 21
151.4188338104
  0
LINE
  8
_0-0_0
  6
CONTINUOUS
 62
    7
 10
167.7317383235
 20
152.3425122516
 11
167.69675808560001
 21
152.3627009276
  0
LINE
  8
_0-0_0
  6
CONTINUOUS
 62
    7
 10
173.4943084976
 20
148.27008930100001
 11
173.77787628109999
 21
148.67366588440001
  0
ARC
  8
_0-0_0
  6
CONTINUOUS
 62
    7
 10
174.04137459859999
 20
148.8652871054
 40
0.3258067765812555
 50
216.02539378149999
 51
293.96556101570002
  0
ARC
  8
_0-0_0
  6
CONTINUOUS
 62
    7
 10
174.01809775699999
 20
148.66610754710001
 40
0.1841905970809936
 50
327.65705613570003
 51
2.350573894600049
  0
LINE
  8
_0-0_0
  6
CONTINUOUS
 62
    7
 10
174.17371322610001
 20
148.56756820550001
 11
173.89014527809999
 21
148.1639917409
  0
ARC
  8
_0-0_0
  6
CONTINUOUS
 62
    7
 10
173.7578066568
 20
148.46171047000001
 40
0.3258066179608368
 50
216.025402762
 51
293.96557219959999
  0
ARC
  8
_0-0_0
  6
CONTINUOUS
 62
    7
 10
174.1595215072
 20
148.7477295843
 40
0.1841905970805995
 50
327.65705613570003
 51
2.350573894600049
  0
LINE
  8
_0-0_0
  6
CONTINUOUS
 62
    7
 10
174.31513697630001
 20
148.6491902427
 11
174.17371322610001
 21
148.56756820550001
  0
LINE
  8
_0-0_0
  6
CONTINUOUS
 62
    7
 10
174.03156902820001
 20
148.24561377800001
 11
174.31513697630001
 21
148.6491902427
  0
LINE
  8
_0-0_0
  6
CONTINUOUS
 62
    7
 10
174.03156902820001
 20
148.24561377800001
 11
173.89014527809999
 21
148.1639917409
  0
LINE
  8
_0-0_0
  6
CONTINUOUS
 62
    7
 10
173.53028313780001
 20
148.14975316900001
 11
173.52752120209999
 21
148.15170734989999
  0
ARC
  8
_0-0_0
  6
CONTINUOUS
 62
    7
 10
171.718950514
 20
149.27941618649999
 40
2.4714238621024922
 50
290.28564552009999
 51
299.99819595730003
  0
LINE
  8
_0-0_0
  6
CONTINUOUS
 62
    7
 10
166.52974346049999
 20
151.68916404999999
 11
167.69675808560001
 21
152.3627009276
  0
LINE
  8
_0-0_0
  6
CONTINUOUS
 62
    7
 10
166.42843527829999
 20
151.80477265479999
 11
166.44710238089999
 21
151.77888113149999
  0
LINE
  8
_0-0_0
  6
CONTINUOUS
 62
    7
 10
166.44710238089999
 20
151.77888113149999
 11
166.52974346049999
 21
151.68916404999999
  0
LINE
  8
_0-0_0
  6
CONTINUOUS
 62
    7
 10
173.0960188036
 20
147.22068346840001
 11
172.9545950534
 21
147.13906143119999
  0
LINE
  8
_0-0_0
  6
CONTINUOUS
 62
    7
 10
166.55198843540001
 20
151.6616252675
 11
166.52974346049999
 21
151.68916404999999
  0
LINE
  8
_0-0_0
  6
CONTINUOUS
 62
    7
 10
166.29043102049999
 20
151.5717045506
 11
166.21380607419999
 21
151.68090052010001
  0
ARC
  8
_0-0_0
  6
CONTINUOUS
 62
    7
 10
172.78792721729999
 20
147.37077335340001
 40
0.4611774838395211
 50
242.6141860148
 51
297.3847360739
  0
ARC
  8
_0-0_0
  6
CONTINUOUS
 62
    7
 10
172.5849201346
 20
146.9498375062
 40
0.4152893442213306
 50
1.5783720111999997
 51
27.106351184000005
  0
LINE
  8
_0-0_0
  6
CONTINUOUS
 62
    7
 10
173.00005191119999
 20
146.96127636220001
 11
173.00005191119999
 21
146.28021816820001
  0
ARC
  8
_0-0_0
  6
CONTINUOUS
 62
    7
 10
172.78792721729999
 20
146.68971515940001
 40
0.4611774838393192
 50
242.6141860148
 51
297.3847360739
  0
ARC
  8
_0-0_0
  6
CONTINUOUS
 62
    7
 10
172.7263438848
 20
147.0314595433
 40
0.4152893442200655
 50
1.5783720111999997
 51
27.106351184000005
  0
LINE
  8
_0-0_0
  6
CONTINUOUS
 62
    7
 10
173.14147566139999
 20
147.0428983994
 11
173.00005191119999
 21
146.96127636220001
  0
LINE
  8
_0-0_0
  6
CONTINUOUS
 62
    7
 10
173.14147566139999
 20
146.3618402054
 11
173.14147566139999
 21
147.0428983994
  0
LINE
  8
_0-0_0
  6
CONTINUOUS
 62
    7
 10
173.14147566139999
 20
146.3618402054
 11
173.00005191119999
 21
146.28021816820001
  0
LINE
  8
_0-0_0
  6
CONTINUOUS
 62
    7
 10
167.90888449120001
 20
148.8721833077
 11
167.9088825156
 21
148.87218200199999
  0
LINE
  8
_0-0_0
  6
CONTINUOUS
 62
    7
 10
167.9088825156
 20
148.87218200199999
 11
167.9088904182
 21
148.87886013529999
  0
LINE
  8
_0-0_0
  6
CONTINUOUS
 62
    7
 10
167.9088904182
 20
148.87886013529999
 11
167.90888482049999
 21
148.8985850661
  0
LINE
  8
_0-0_0
  6
CONTINUOUS
 62
    7
 10
167.90888482049999
 20
148.8985850661
 11
167.90888119850001
 21
148.93060793820001
  0
LINE
  8
_0-0_0
  6
CONTINUOUS
 62
    7
 10
167.90888119850001
 20
148.93060793820001
 11
167.90889008889999
 21
148.97370377659999
  0
ARC
  8
_0-0_0
  6
CONTINUOUS
 62
    7
 10
164.4741418401
 20
150.3015566414
 40
2.691426569146703
 50
326.05233151390001
 51
357.12226896520002
  0
ARC
  8
_0-0_0
  6
CONTINUOUS
 62
    7
 10
166.15455131690001
 20
149.31602262199999
 40
0.7568008520287522
 50
274.82717293949997
 51
316.86350723999999
  0
ARC
  8
_0-0_0
  6
CONTINUOUS
 62
    7
 10
166.1541166449
 20
149.90461683570001
 40
1.3442408561164281
 50
237.6091146066
 51
272.73402475199998
  0
ARC
  8
_0-0_0
  6
CONTINUOUS
 62
    7
 10
166.65555100669999
 20
150.86237366180001
 40
2.4232566581904198
 50
230.6769943036
 51
239.72918411059999
  0
LINE
  8
_0-0_0
  6
CONTINUOUS
 62
    7
 10
164.08428683310001
 20
150.45185889730001
 11
164.10432568389999
 21
150.4010695696
  0
LINE
  8
_0-0_0
  6
CONTINUOUS
 62
    7
 10
164.10432568389999
 20
150.4010695696
 11
164.15621438139999
 21
150.27891597390001
  0
LINE
  8
_0-0_0
  6
CONTINUOUS
 62
    7
 10
166.3259664114
 20
151.5233106213
 11
166.29043102049999
 21
151.5717045506
  0
LINE
  8
_0-0_0
  6
CONTINUOUS
 62
    7
 10
166.70680928580001
 20
148.27992862310001
 11
167.90889008889999
 21
148.97370377659999
  0
LINE
  8
_0-0_0
  6
CONTINUOUS
 62
    7
 10
166.70680928580001
 20
148.79856859949999
 11
166.70680928580001
 21
148.27992862310001
  0
LINE
  8
_0-0_0
  6
CONTINUOUS
 62
    7
 10
166.2182364324
 20
148.56190609539999
 11
166.70680928580001
 21
148.27992862310001
  0
LINE
  8
_0-0_0
  6
CONTINUOUS
 62
    7
 10
166.70680368820001
 20
148.1784081541
 11
166.70680171250001
 21
148.1784068485
  0
LINE
  8
_0-0_0
  6
CONTINUOUS
 62
    7
 10
166.70680171250001
 20
148.1784068485
 11
166.70679907830001
 21
148.18507890059999
  0
LINE
  8
_0-0_0
  6
CONTINUOUS
 62
    7
 10
166.70679907830001
 20
148.18507890059999
 11
166.7068040174
 21
148.20480991260001
  0
LINE
  8
_0-0_0
  6
CONTINUOUS
 62
    7
 10
166.7068040174
 20
148.20480991260001
 11
166.70680039539999
 21
148.23683278460001
  0
LINE
  8
_0-0_0
  6
CONTINUOUS
 62
    7
 10
166.70680039539999
 20
148.23683278460001
 11
166.70680928580001
 21
148.27992862310001
  0
LINE
  8
_0-0_0
  6
CONTINUOUS
 62
    7
 10
173.6364494028
 20
156.61049539019999
 11
165.8582746873
 21
161.09963151459999
  0
ARC
  8
_0-0_0
  6
CONTINUOUS
 62
    7
 10
171.9805536794
 20
154.02147029389999
 40
3.0732786395108289
 50
2.6022843222000005
 51
57.397721094399998
  0
LINE
  8
_0-0_0
  6
CONTINUOUS
 62
    7
 10
175.05066303230001
 20
150.8944394227
 11
175.05066303230001
 21
154.16100579850001
  0
ARC
  8
_0-0_0
  6
CONTINUOUS
 62
    7
 10
174.9188677317
 20
150.8733042266
 40
0.1334792035898894
 50
286.05889833259999
 51
9.1106000431000265
  0
LINE
  8
_0-0_0
  6
CONTINUOUS
 62
    7
 10
165.8582746873
 20
161.09963151459999
 11
165.58237549
 21
161.2274825575
  0
LINE
  8
_0-0_0
  6
CONTINUOUS
 62
    7
 10
165.58237549
 20
161.2274825575
 11
165.31707885930001
 21
161.28765415890001
  0
LINE
  8
_0-0_0
  6
CONTINUOUS
 62
    7
 10
165.31707885930001
 20
161.28765415890001
 11
165.07257972279999
 21
161.27783393990001
  0
LINE
  8
_0-0_0
  6
CONTINUOUS
 62
    7
 10
165.07257972279999
 20
161.27783393990001
 11
164.85827485190001
 21
161.19839936490001
  0
LINE
  8
_0-0_0
  6
CONTINUOUS
 62
    7
 10
164.85827485190001
 20
161.19839936490001
 11
164.68239934580001
 21
161.05240279949999
  0
LINE
  8
_0-0_0
  6
CONTINUOUS
 62
    7
 10
164.68239934580001
 20
161.05240279949999
 11
164.55171184669999
 21
160.8454554283
  0
LINE
  8
_0-0_0
  6
CONTINUOUS
 62
    7
 10
164.55171184669999
 20
160.8454554283
 11
164.5129057945
 21
160.7462094741
  0
LINE
  8
_0-0_0
  6
CONTINUOUS
 62
    7
 10
254.9537307144
 20
203.54237316609999
 11
173.6364494028
 21
156.61049539019999
  0
ARC
  8
_0-0_0
  6
CONTINUOUS
 62
    7
 10
253.297834991
 20
200.9533480698
 40
3.0732786395109049
 50
2.6022843222000005
 51
57.397721094399998
  0
LINE
  8
_0-0_0
  6
CONTINUOUS
 62
    7
 10
256.36794434389998
 20
201.09288357439999
 11
175.05066303230001
 21
154.16100579850001
  0
LINE
  8
_0-0_0
  6
CONTINUOUS
 62
    7
 10
256.36794434389998
 20
197.82631719860001
 11
256.36794434389998
 21
201.09288357439999
  0
LINE
  8
_0-0_0
  6
CONTINUOUS
 62
    7
 10
256.36794434389998
 20
197.82631719860001
 11
175.05066303230001
 21
150.8944394227
  0
LINE
  8
_0-0_0
  6
CONTINUOUS
 62
    7
 10
247.17555599880001
 20
208.0315092905
 11
165.8582746873
 21
161.09963151459999
  0
LINE
  8
_0-0_0
  6
CONTINUOUS
 62
    7
 10
254.9537307144
 20
203.54237316609999
 11
247.17555599880001
 21
208.0315092905
  0
ARC
  8
_0-0_0
  6
CONTINUOUS
 62
    7
 10
256.2206411464
 20
197.8102042953
 40
0.1481818398547969
 50
305.06503097350003
 51
6.2425355189000458
  0
ARC
  8
_0-0_0
  6
CONTINUOUS
 62
    7
 10
246.5898770272
 20
207.21371876360001
 40
1.005883295270078
 50
54.390808425099998
 51
114.3074208349
  0
LINE
  8
_0-0_0
  6
CONTINUOUS
 62
    7
 10
134.82125707700001
 20
133.31425273170001
 11
140.2659766285
 21
136.4566464319
  0
ARC
  8
_0-0_0
  6
CONTINUOUS
 62
    7
 10
140.0175913322
 20
136.0682920747
 40
0.4609928005951032
 50
2.6023518070999998
 51
57.397662596700009
  0
LINE
  8
_0-0_0
  6
CONTINUOUS
 62
    7
 10
140.47810871409999
 20
136.0892229884
 11
135.0333891626
 21
132.94682928820001
  0
ARC
  8
_0-0_0
  6
CONTINUOUS
 62
    7
 10
134.57287178070001
 20
132.92589837450001
 40
0.4609928005951579
 50
2.6023518070999998
 51
57.397662596700009
  0
LINE
  8
_0-0_0
  6
CONTINUOUS
 62
    7
 10
135.0333891626
 20
132.17101960759999
 11
135.0333891626
 21
132.94682928820001
  0
LINE
  8
_0-0_0
  6
CONTINUOUS
 62
    7
 10
134.32331531669999
 20
132.5808353123
 11
135.0333891626
 21
132.17101960759999
  0
ARC
  8
_0-0_0
  6
CONTINUOUS
 62
    7
 10
133.85943830310001
 20
132.5119522626
 40
0.4689634935897453
 50
8.4463699817000002
 51
57.1024703434
  0
LINE
  8
_0-0_0
  6
CONTINUOUS
 62
    7
 10
134.11415031370001
 20
132.90571431000001
 11
130.2957737918
 21
135.1094719534
  0
LINE
  8
_0-0_0
  6
CONTINUOUS
 62
    7
 10
130.08660853149999
 20
135.02603025499999
 11
130.0959888395
 21
135.06214817599999
  0
LINE
  8
_0-0_0
  6
CONTINUOUS
 62
    7
 10
130.0959888395
 20
135.06214817599999
 11
130.11150085540001
 21
135.09219874039999
  0
LINE
  8
_0-0_0
  6
CONTINUOUS
 62
    7
 10
130.11150085540001
 20
135.09219874039999
 11
130.13266878069999
 21
135.11526019729999
  0
LINE
  8
_0-0_0
  6
CONTINUOUS
 62
    7
 10
130.13266878069999
 20
135.11526019729999
 11
130.1588429615
 21
135.13062445880001
  0
LINE
  8
_0-0_0
  6
CONTINUOUS
 62
    7
 10
130.1588429615
 20
135.13062445880001
 11
130.1892199733
 21
135.1378201128
  0
LINE
  8
_0-0_0
  6
CONTINUOUS
 62
    7
 10
130.1892199733
 20
135.1378201128
 11
130.2228673171
 21
135.13662593070001
  0
LINE
  8
_0-0_0
  6
CONTINUOUS
 62
    7
 10
130.2228673171
 20
135.13662593070001
 11
130.25875239519999
 21
135.12707886219999
  0
LINE
  8
_0-0_0
  6
CONTINUOUS
 62
    7
 10
130.25875239519999
 20
135.12707886219999
 11
130.2957737918
 21
135.1094719534
  0
LINE
  8
_0-0_0
  6
CONTINUOUS
 62
    7
 10
129.37653489140001
 20
135.435845841
 11
130.08660853149999
 21
135.02603025499999
  0
LINE
  8
_0-0_0
  6
CONTINUOUS
 62
    7
 10
129.37653489140001
 20
135.435845841
 11
129.37653489140001
 21
136.21165552159999
  0
ARC
  8
_0-0_0
  6
CONTINUOUS
 62
    7
 10
129.50587607720001
 20
136.23265106810001
 40
0.1310341761682803
 50
50.815019462299993
 51
189.22022009380001
  0
LINE
  8
_0-0_0
  6
CONTINUOUS
 62
    7
 10
129.5886668947
 20
136.3342169869
 11
134.82125707700001
 21
133.31425273170001
  0
LINE
  8
_0-0_0
  6
CONTINUOUS
 62
    7
 10
135.0333891626
 20
127.3120024326
 11
140.47810871409999
 21
130.45439613280001
  0
LINE
  8
_0-0_0
  6
CONTINUOUS
 62
    7
 10
135.0333891626
 20
127.3120024326
 11
135.0333891626
 21
128.08781187549999
  0
LINE
  8
_0-0_0
  6
CONTINUOUS
 62
    7
 10
135.0333891626
 20
128.08781187549999
 11
137.1547138052
 21
129.3121241895
  0
LINE
  8
_0-0_0
  6
CONTINUOUS
 62
    7
 10
137.1547138052
 20
129.3121241895
 11
137.1547138052
 21
133.3953319215
  0
LINE
  8
_0-0_0
  6
CONTINUOUS
 62
    7
 10
137.1547138052
 20
133.3953319215
 11
135.0333891626
 21
132.17101960759999
  0
LINE
  8
_0-0_0
  6
CONTINUOUS
 62
    7
 10
140.47810871409999
 20
130.45439613280001
 11
140.47810871409999
 21
136.0892229884
  0
LINE
  8
_0-0_0
  6
CONTINUOUS
 62
    7
 10
135.0333864461
 20
139.47661068709999
 11
129.5886668947
 21
136.3342169869
  0
LINE
  8
_0-0_0
  6
CONTINUOUS
 62
    7
 10
140.2659766285
 20
136.4566464319
 11
135.0333864461
 21
139.47661068709999
  0
ARC
  8
_0-0_0
  6
CONTINUOUS
 62
    7
 10
136.19942651860001
 20
129.7602104588
 40
0.2481819243614296
 50
351.12938509600002
 51
0.196032499900001
  0
LINE
  8
_0-0_0
  6
CONTINUOUS
 62
    7
 10
136.4476069904
 20
129.76105958989999
 11
136.4476069904
 21
132.9872287581
  0
LINE
  8
_0-0_0
  6
CONTINUOUS
 62
    7
 10
136.44463995929999
 20
129.72193989420001
 11
137.1547138052
 21
129.3121241895
  0
LINE
  8
_0-0_0
  6
CONTINUOUS
 62
    7
 10
133.4423988911
 20
128.8018838834
 11
133.4423988911
 21
127.98524228940001
  0
LINE
  8
_0-0_0
  6
CONTINUOUS
 62
    7
 10
133.4423988911
 20
128.8018838834
 11
134.11415031370001
 21
128.4141857809
  0
LINE
  8
_0-0_0
  6
CONTINUOUS
 62
    7
 10
134.32331531669999
 20
128.4976275802
 11
134.31393516310001
 21
128.4615098079
  0
LINE
  8
_0-0_0
  6
CONTINUOUS
 62
    7
 10
134.31393516310001
 20
128.4615098079
 11
134.2984230392
 21
128.43145902059999
  0
LINE
  8
_0-0_0
  6
CONTINUOUS
 62
    7
 10
134.2984230392
 20
128.43145902059999
 11
134.27725506749999
 21
128.4083975904
  0
LINE
  8
_0-0_0
  6
CONTINUOUS
 62
    7
 10
134.27725506749999
 20
128.4083975904
 11
134.2510809485
 21
128.39303329329999
  0
LINE
  8
_0-0_0
  6
CONTINUOUS
 62
    7
 10
134.2510809485
 20
128.39303329329999
 11
134.22070404089999
 21
128.38583776940001
  0
LINE
  8
_0-0_0
  6
CONTINUOUS
 62
    7
 10
134.22070404089999
 20
128.38583776940001
 11
134.18705669580001
 21
128.3870318571
  0
LINE
  8
_0-0_0
  6
CONTINUOUS
 62
    7
 10
134.18705669580001
 20
128.3870318571
 11
134.15117164860001
 21
128.39657886020001
  0
LINE
  8
_0-0_0
  6
CONTINUOUS
 62
    7
 10
134.15117164860001
 20
128.39657886020001
 11
134.11415031370001
 21
128.4141857809
  0
LINE
  8
_0-0_0
  6
CONTINUOUS
 62
    7
 10
134.32331531669999
 20
128.4976275802
 11
135.0333891626
 21
128.08781187549999
  0
ARC
  8
_0-0_0
  6
CONTINUOUS
 62
    7
 10
134.9040479752
 20
127.29100679379999
 40
0.1310341925078367
 50
230.8149797346
 51
9.2202598215000169
  0
LINE
  8
_0-0_0
  6
CONTINUOUS
 62
    7
 10
133.4423988911
 20
127.98524228940001
 11
134.82125707700001
 21
127.1894409197
  0
LINE
  8
_0-0_0
  6
CONTINUOUS
 62
    7
 10
136.44463995929999
 20
129.72193989420001
 11
134.32331531669999
 21
128.4976275802
  0
LINE
  8
_0-0_0
  6
CONTINUOUS
 62
    7
 10
133.94941185510001
 20
130.13215446769999
 11
136.4475976473
 21
131.5739967945
  0
LINE
  8
_0-0_0
  6
CONTINUOUS
 62
    7
 10
133.94941185510001
 20
130.13215446769999
 11
133.332048152
 21
130.4884629595
  0
LINE
  8
_0-0_0
  6
CONTINUOUS
 62
    7
 10
133.332048152
 20
130.4884629595
 11
136.44760748429999
 21
132.41440301540001
  0
LINE
  8
_0-0_0
  6
CONTINUOUS
 62
    7
 10
133.94941185510001
 20
129.7948127926
 11
136.4475976473
 21
131.13766139000001
  0
LINE
  8
_0-0_0
  6
CONTINUOUS
 62
    7
 10
133.94941185510001
 20
129.7948127926
 11
133.94941185510001
 21
130.13215446769999
  0
LINE
  8
_0-0_0
  6
CONTINUOUS
 62
    7
 10
133.332048152
 20
130.4884629595
 11
133.332048152
 21
130.15112128440001
  0
LINE
  8
_0-0_0
  6
CONTINUOUS
 62
    7
 10
133.332048152
 20
130.15112128440001
 11
133.94941185510001
 21
129.7948127926
  0
LINE
  8
_0-0_0
  6
CONTINUOUS
 62
    7
 10
130.26052750189999
 20
135.12640675220001
 11
130.08660853149999
 21
135.02603025499999
  0
LINE
  8
_0-0_0
  6
CONTINUOUS
 62
    7
 10
136.44760616720001
 20
130.53632480780001
 11
133.4423988911
 21
128.8018838834
  0
LINE
  8
_0-0_0
  6
CONTINUOUS
 62
    7
 10
136.2688468947
 20
132.88405831590001
 11
136.44760221589999
 21
132.7808905421
  0
LINE
  8
_0-0_0
  6
CONTINUOUS
 62
    7
 10
147.01884564459999
 20
140.72110766989999
 11
147.01884564459999
 21
136.06625077449999
  0
LINE
  8
_0-0_0
  6
CONTINUOUS
 62
    7
 10
146.3117374304
 20
139.25136944549999
 11
146.3117374304
 21
140.0680111346
  0
ARC
  8
_0-0_0
  6
CONTINUOUS
 62
    7
 10
146.77228090099999
 20
140.0470649248
 40
0.4610195570914478
 50
122.60353716379998
 51
177.39589636420001
  0
LINE
  8
_0-0_0
  6
CONTINUOUS
 62
    7
 10
146.52387305569999
 20
140.43543662100001
 11
147.01884564459999
 21
140.72110766989999
  0
LINE
  8
_0-0_0
  6
CONTINUOUS
 62
    7
 10
131.78497341490001
 20
131.04400802750001
 11
134.4779746179
 21
132.4915756769
  0
LINE
  8
_0-0_0
  6
CONTINUOUS
 62
    7
 10
131.78497341490001
 20
131.04400802750001
 11
131.78497341490001
 21
131.38134970260001
  0
LINE
  8
_0-0_0
  6
CONTINUOUS
 62
    7
 10
131.78497341490001
 20
131.38134970260001
 11
134.2334262551
 21
132.7944880853
  0
LINE
  8
_0-0_0
  6
CONTINUOUS
 62
    7
 10
131.78497341490001
 20
131.38134970260001
 11
131.16760999990001
 21
131.73765802809999
  0
LINE
  8
_0-0_0
  6
CONTINUOUS
 62
    7
 10
131.16760999990001
 20
131.73765802809999
 11
133.5675114817
 21
133.2212015636
  0
LINE
  8
_0-0_0
  6
CONTINUOUS
 62
    7
 10
131.16760999990001
 20
131.40031635299999
 11
131.78497341490001
 21
131.04400802750001
  0
LINE
  8
_0-0_0
  6
CONTINUOUS
 62
    7
 10
131.16760999990001
 20
131.73765802809999
 11
131.16760999990001
 21
131.40031635299999
  0
ARC
  8
_0-0_0
  6
CONTINUOUS
 62
    7
 10
145.85122114250001
 20
139.23043916719999
 40
0.4609916788974661
 50
2.6022790963000002
 51
57.397726480699994
  0
LINE
  8
_0-0_0
  6
CONTINUOUS
 62
    7
 10
146.0996054014
 20
139.61879285640001
 11
142.6347822971
 21
141.6184988453
  0
LINE
  8
_0-0_0
  6
CONTINUOUS
 62
    7
 10
132.204966431
 20
134.0075955662
 11
132.204966431
 21
132.3789187138
  0
LINE
  8
_0-0_0
  6
CONTINUOUS
 62
    7
 10
131.4978595339
 20
132.5769504228
 11
132.02922032890001
 21
132.27027809590001
  0
LINE
  8
_0-0_0
  6
CONTINUOUS
 62
    7
 10
131.4978595339
 20
132.5769504228
 11
131.4978595339
 21
134.4156989107
  0
LINE
  8
_0-0_0
  6
CONTINUOUS
 62
    7
 10
129.37653489140001
 20
131.35263810890001
 11
130.08660853149999
 21
130.9428225229
  0
ARC
  8
_0-0_0
  6
CONTINUOUS
 62
    7
 10
130.55048561749999
 20
131.0117056986
 40
0.4689635836847246
 50
188.4463839041
 51
237.1025043631
  0
LINE
  8
_0-0_0
  6
CONTINUOUS
 62
    7
 10
130.2957737918
 20
130.61794342429999
 11
130.96752508060001
 21
130.2302453991
  0
LINE
  8
_0-0_0
  6
CONTINUOUS
 62
    7
 10
130.96752508060001
 20
130.2302453991
 11
130.96752508060001
 21
129.4136038051
  0
LINE
  8
_0-0_0
  6
CONTINUOUS
 62
    7
 10
129.5886668947
 20
130.20940517490001
 11
130.96752508060001
 21
129.4136038051
  0
ARC
  8
_0-0_0
  6
CONTINUOUS
 62
    7
 10
129.83705121400001
 20
130.59775886209999
 40
0.460991709798144
 50
182.60226869869999
 51
237.39772002730001
  0
LINE
  8
_0-0_0
  6
CONTINUOUS
 62
    7
 10
129.37653489140001
 20
130.5768286659
 11
129.37653489140001
 21
131.35263810890001
  0
LINE
  8
_0-0_0
  6
CONTINUOUS
 62
    7
 10
130.96752508060001
 20
130.2302453991
 11
134.68181093600001
 21
132.37392761500001
  0
LINE
  8
_0-0_0
  6
CONTINUOUS
 62
    7
 10
136.41224463200001
 20
132.5559975054
 11
136.4476058379
 21
132.57983274360001
  0
LINE
  8
_0-0_0
  6
CONTINUOUS
 62
    7
 10
130.96752508060001
 20
129.4136038051
 11
136.41224463200001
 21
132.5559975054
  0
LINE
  8
_0-0_0
  6
CONTINUOUS
 62
    7
 10
130.08660853149999
 20
130.9428225229
 11
131.16761197549999
 21
131.56671846110001
  0
LINE
  8
_0-0_0
  6
CONTINUOUS
 62
    7
 10
143.34189281619999
 20
132.80038198139999
 11
142.6277355416
 21
132.3882095454
  0
LINE
  8
_0-0_0
  6
CONTINUOUS
 62
    7
 10
142.6277355416
 20
132.3882095454
 11
142.6277355416
 21
132.46987356220001
  0
LINE
  8
_0-0_0
  6
CONTINUOUS
 62
    7
 10
141.92767638789999
 20
132.39249442639999
 11
142.6277355416
 21
132.46987356220001
  0
LINE
  8
_0-0_0
  6
CONTINUOUS
 62
    7
 10
141.92767638789999
 20
132.39249442639999
 11
140.56597493269999
 21
131.60659498140001
  0
ARC
  8
_0-0_0
  6
CONTINUOUS
 62
    7
 10
140.81510637880001
 20
132.3425689055
 40
0.304782919289771
 50
215.17401956320001
 51
309.37122314530001
  0
LINE
  8
_0-0_0
  6
CONTINUOUS
 62
    7
 10
142.634784602
 20
133.04559096169999
 11
141.0084430851
 21
132.1069557779
  0
LINE
  8
_0-0_0
  6
CONTINUOUS
 62
    7
 10
143.34189281619999
 20
133.23487662470001
 11
142.634784602
 21
133.04559096169999
  0
LINE
  8
_0-0_0
  6
CONTINUOUS
 62
    7
 10
143.34189281619999
 20
132.80038198139999
 11
143.34189281619999
 21
133.23487662470001
  0
LINE
  8
_0-0_0
  6
CONTINUOUS
 62
    7
 10
129.37653489140001
 20
131.35263810890001
 11
131.4978595339
 21
132.5769504228
  0
LINE
  8
_0-0_0
  6
CONTINUOUS
 62
    7
 10
136.3415357204
 20
131.08065011830001
 11
136.3415357204
 21
130.47510674500001
  0
LINE
  8
_0-0_0
  6
CONTINUOUS
 62
    7
 10
135.70877454699999
 20
130.1099116773
 11
135.98991509999999
 21
130.89164385000001
  0
LINE
  8
_0-0_0
  6
CONTINUOUS
 62
    7
 10
134.91909522360001
 20
130.31604632739999
 11
135.4925162685
 21
129.98509912949999
  0
LINE
  8
_0-0_0
  6
CONTINUOUS
 62
    7
 10
135.13589844769999
 20
131.6035462163
 11
135.1970008413
 21
131.77343978490001
  0
LINE
  8
_0-0_0
  6
CONTINUOUS
 62
    7
 10
135.1970008413
 20
131.77343978490001
 11
135.30753440890001
 21
131.70964586810001
  0
LINE
  8
_0-0_0
  6
CONTINUOUS
 62
    7
 10
133.95409423000001
 20
130.8729920092
 11
133.9373711508
 21
130.88264365399999
  0
LINE
  8
_0-0_0
  6
CONTINUOUS
 62
    7
 10
133.9373711508
 20
130.88264365399999
 11
134.4246414031
 21
131.16386933640001
  0
LINE
  8
_0-0_0
  6
CONTINUOUS
 62
    7
 10
142.634784602
 20
133.04559096169999
 11
142.2978654938
 21
133.24004220450001
  0
LINE
  8
_0-0_0
  6
CONTINUOUS
 62
    7
 10
133.9373711508
 20
130.86265451220001
 11
133.9373711508
 21
130.88264365399999
  0
LINE
  8
_0-0_0
  6
CONTINUOUS
 62
    7
 10
135.28027116019999
 20
129.8626029422
 11
134.82125460750001
 21
130.1275221377
  0
LINE
  8
_0-0_0
  6
CONTINUOUS
 62
    7
 10
134.82125460750001
 20
130.04585812089999
 11
134.82125460750001
 21
130.1275221377
  0
ARC
  8
_0-0_0
  6
CONTINUOUS
 62
    7
 10
134.69191345429999
 20
130.02486236030001
 40
0.1310341782117565
 50
230.81500174799999
 51
9.2203148142000213
  0
LINE
  8
_0-0_0
  6
CONTINUOUS
 62
    7
 10
134.6091226042
 20
129.92329646549999
 11
134.4062558283
 21
130.04038004949999
  0
LINE
  8
_0-0_0
  6
CONTINUOUS
 62
    7
 10
135.1970008413
 20
131.77343978490001
 11
135.42229682000001
 21
131.9034682754
  0
LINE
  8
_0-0_0
  6
CONTINUOUS
 62
    7
 10
135.42229682000001
 20
131.9034682754
 11
135.52509808729999
 21
131.84413701849999
  0
ARC
  8
_0-0_0
  6
CONTINUOUS
 62
    7
 10
146.87608025310001
 20
136.0480847048
 40
0.1439165143397283
 50
304.055867396
 51
7.2515868031000119
  0
ARC
  8
_0-0_0
  6
CONTINUOUS
 62
    7
 10
142.54692989840001
 20
141.49582871379999
 40
0.1508840784455174
 50
54.390980943300001
 51
114.3069873001
  0
LINE
  8
_0-0_0
  6
CONTINUOUS
 62
    7
 10
146.3117374304
 20
140.0680111346
 11
142.42265029390001
 21
142.31257906900001
  0
LINE
  8
_0-0_0
  6
CONTINUOUS
 62
    7
 10
142.63478591910001
 20
142.68000455550001
 11
146.52387305569999
 21
140.43543662100001
  0
ARC
  8
_0-0_0
  6
CONTINUOUS
 62
    7
 10
142.88319376449999
 20
142.29163285929999
 40
0.4610195570920415
 50
122.60353716379998
 51
177.39589636420001
  0
LINE
  8
_0-0_0
  6
CONTINUOUS
 62
    7
 10
142.42265029390001
 20
141.5974549693
 11
142.42265029390001
 21
142.31257906900001
  0
LINE
  8
_0-0_0
  6
CONTINUOUS
 62
    7
 10
143.12975850800001
 20
142.9656756043
 11
147.01884564459999
 21
140.72110766989999
  0
LINE
  8
_0-0_0
  6
CONTINUOUS
 62
    7
 10
142.63478591910001
 20
142.68000455550001
 11
143.12975850800001
 21
142.9656756043
  0
LINE
  8
_0-0_0
  6
CONTINUOUS
 62
    7
 10
142.8154040158
 20
133.5387371034
 11
143.34189281619999
 21
133.23487662470001
  0
LINE
  8
_0-0_0
  6
CONTINUOUS
 62
    7
 10
142.6277355416
 20
132.3882095454
 11
142.50898210380001
 21
132.45674752080001
  0
LINE
  8
_0-0_0
  6
CONTINUOUS
 62
    7
 10
287.233559447
 20
217.9702963304
 11
287.12395788449999
 21
218.033552345
  0
LINE
  8
_0-0_0
  6
CONTINUOUS
 62
    7
 10
287.12395788449999
 20
218.033552345
 11
286.88299644900002
 21
217.8944826115
  0
LINE
  8
_0-0_0
  6
CONTINUOUS
 62
    7
 10
286.88299644900002
 20
217.8944826115
 11
286.70621972480001
 21
217.99650844760001
  0
LINE
  8
_0-0_0
  6
CONTINUOUS
 62
    7
 10
286.70621972480001
 20
217.99650844760001
 11
286.31816644650002
 21
217.77254536460001
  0
LINE
  8
_0-0_0
  6
CONTINUOUS
 62
    7
 10
286.31816644650002
 20
217.77254536460001
 11
286.1413897223
 21
217.87457120069999
  0
LINE
  8
_0-0_0
  6
CONTINUOUS
 62
    7
 10
286.1413897223
 20
217.87457120069999
 11
285.75310858760002
 21
217.65047661150001
  0
LINE
  8
_0-0_0
  6
CONTINUOUS
 62
    7
 10
285.75310858760002
 20
217.65047661150001
 11
285.57633186340001
 21
217.75250244759999
  0
LINE
  8
_0-0_0
  6
CONTINUOUS
 62
    7
 10
285.57633186340001
 20
217.75250244759999
 11
285.18805204580002
 21
217.52840861850001
  0
LINE
  8
_0-0_0
  6
CONTINUOUS
 62
    7
 10
285.18805204580002
 20
217.52840861850001
 11
285.01127532150002
 21
217.63043445470001
  0
LINE
  8
_0-0_0
  6
CONTINUOUS
 62
    7
 10
285.01127532150002
 20
217.63043445470001
 11
284.6229935284
 21
217.4063394854
  0
LINE
  8
_0-0_0
  6
CONTINUOUS
 62
    7
 10
284.6229935284
 20
217.4063394854
 11
284.44621696870001
 21
217.50836522649999
  0
LINE
  8
_0-0_0
  6
CONTINUOUS
 62
    7
 10
284.44621696870001
 20
217.50836522649999
 11
284.27006816670001
 21
217.40670179259999
  0
LINE
  8
_0-0_0
  6
CONTINUOUS
 62
    7
 10
284.27006816670001
 20
217.40670179259999
 11
283.93758345020001
 21
217.33487587650001
  0
LINE
  8
_0-0_0
  6
CONTINUOUS
 62
    7
 10
283.93758345020001
 20
217.33487587650001
 11
285.96017844160002
 21
218.50220684710001
  0
ARC
  8
_0-0_0
  6
CONTINUOUS
 62
    7
 10
285.58890685609998
 20
219.37632108790001
 40
0.9496937906845776
 50
293.01288983619997
 51
2.9756283720000116
  0
LINE
  8
_0-0_0
  6
CONTINUOUS
 62
    7
 10
286.53732018059998
 20
219.4256208031
 11
286.44257108110003
 21
220.01185447239999
  0
LINE
  8
_0-0_0
  6
CONTINUOUS
 62
    7
 10
285.93173551839999
 20
220.11820421409999
 11
285.99938199740001
 21
220.14751292470001
  0
LINE
  8
_0-0_0
  6
CONTINUOUS
 62
    7
 10
285.99938199740001
 20
220.14751292470001
 11
286.0785151133
 21
220.1647586144
  0
LINE
  8
_0-0_0
  6
CONTINUOUS
 62
    7
 10
286.0785151133
 20
220.1647586144
 11
286.16284324600002
 21
220.1685699041
  0
LINE
  8
_0-0_0
  6
CONTINUOUS
 62
    7
 10
286.16284324600002
 20
220.1685699041
 11
286.24566345900001
 21
220.15864440940001
  0
LINE
  8
_0-0_0
  6
CONTINUOUS
 62
    7
 10
286.24566345900001
 20
220.15864440940001
 11
286.3203902793
 21
220.13577042360001
  0
LINE
  8
_0-0_0
  6
CONTINUOUS
 62
    7
 10
286.3203902793
 20
220.13577042360001
 11
286.38108450909999
 21
220.1017672454
  0
LINE
  8
_0-0_0
  6
CONTINUOUS
 62
    7
 10
286.38108450909999
 20
220.1017672454
 11
286.42291988660003
 21
220.05933747220001
  0
LINE
  8
_0-0_0
  6
CONTINUOUS
 62
    7
 10
286.42291988660003
 20
220.05933747220001
 11
286.44257108110003
 21
220.01185447239999
  0
LINE
  8
_0-0_0
  6
CONTINUOUS
 62
    7
 10
285.93173551839999
 20
220.11820421409999
 11
287.1195641013
 21
220.80375376730001
  0
LINE
  8
_0-0_0
  6
CONTINUOUS
 62
    7
 10
287.1195641013
 20
220.80375376730001
 11
287.54817184170003
 21
218.15187336069999
  0
LINE
  8
_0-0_0
  6
CONTINUOUS
 62
    7
 10
287.54817184170003
 20
218.15187336069999
 11
287.233559447
 21
217.9702963304
  0
LINE
  8
_0-0_0
  6
CONTINUOUS
 62
    7
 10
280.44458526
 20
215.5468327774
 11
280.44458526
 21
215.10098973070001
  0
LINE
  8
_0-0_0
  6
CONTINUOUS
 62
    7
 10
280.44458526
 20
215.10098973070001
 11
281.08430379150002
 21
214.7317792572
  0
LINE
  8
_0-0_0
  6
CONTINUOUS
 62
    7
 10
281.08430379150002
 20
214.7317792572
 11
281.08430379150002
 21
215.20193402230001
  0
LINE
  8
_0-0_0
  6
CONTINUOUS
 62
    7
 10
281.08430379150002
 20
215.20193402230001
 11
281.57447783420002
 21
214.9190324313
  0
LINE
  8
_0-0_0
  6
CONTINUOUS
 62
    7
 10
281.57447783420002
 20
214.9190324313
 11
281.57447783420002
 21
217.45616169549999
  0
LINE
  8
_0-0_0
  6
CONTINUOUS
 62
    7
 10
281.57447783420002
 20
217.45616169549999
 11
279.95441115569997
 21
218.39117538650001
  0
LINE
  8
_0-0_0
  6
CONTINUOUS
 62
    7
 10
279.95441115569997
 20
218.39117538650001
 11
279.95441115569997
 21
217.1112881089
  0
LINE
  8
_0-0_0
  6
CONTINUOUS
 62
    7
 10
279.7882504982
 20
217.01538926520001
 11
279.7882504982
 21
218.4870742107
  0
LINE
  8
_0-0_0
  6
CONTINUOUS
 62
    7
 10
279.7882504982
 20
218.4870742107
 11
278.168183758
 21
219.42208793739999
  0
LINE
  8
_0-0_0
  6
CONTINUOUS
 62
    7
 10
278.168183758
 20
219.42208793739999
 11
278.168183758
 21
218.14218792049999
  0
LINE
  8
_0-0_0
  6
CONTINUOUS
 62
    7
 10
278.65835786230002
 20
216.5777326841
 11
278.65835786230002
 21
216.3632771522
  0
LINE
  8
_0-0_0
  6
CONTINUOUS
 62
    7
 10
280.93199100790002
 20
214.21050838580001
 11
279.53058590440003
 21
215.01932260059999
  0
LINE
  8
_0-0_0
  6
CONTINUOUS
 62
    7
 10
277.92678735380002
 20
215.94105454800001
 11
277.92678735380002
 21
216.15551010359999
  0
LINE
  8
_0-0_0
  6
CONTINUOUS
 62
    7
 10
277.92678735380002
 20
218.00286695259999
 11
277.92678735380002
 21
221.1714532785
  0
LINE
  8
_0-0_0
  6
CONTINUOUS
 62
    7
 10
277.92678735380002
 20
221.1714532785
 11
281.81587449040001
 21
218.926885344
  0
LINE
  8
_0-0_0
  6
CONTINUOUS
 62
    7
 10
281.81587449040001
 20
212.88373773890001
 11
281.81587449040001
 21
218.926885344
  0
LINE
  8
_0-0_0
  6
CONTINUOUS
 62
    7
 10
280.93199100790002
 20
213.3938668394
 11
281.81587449040001
 21
212.88373773890001
  0
LINE
  8
_0-0_0
  6
CONTINUOUS
 62
    7
 10
280.93199100790002
 20
214.21050838580001
 11
280.93199100790002
 21
213.3938668394
  0
LINE
  8
_0-0_0
  6
CONTINUOUS
 62
    7
 10
281.81587449040001
 20
218.926885344
 11
282.52336992869999
 21
219.33521293320001
  0
LINE
  8
_0-0_0
  6
CONTINUOUS
 62
    7
 10
278.6342827922
 20
221.57978086770001
 11
277.92678735380002
 21
221.1714532785
  0
LINE
  8
_0-0_0
  6
CONTINUOUS
 62
    7
 10
278.6342827922
 20
221.57978086770001
 11
282.52336992869999
 21
219.33521293320001
  0
LINE
  8
_0-0_0
  6
CONTINUOUS
 62
    7
 10
281.81587449040001
 20
212.88373773890001
 11
282.52298138750001
 21
213.29184108339999
  0
LINE
  8
_0-0_0
  6
CONTINUOUS
 62
    7
 10
282.52336992869999
 20
218.51857124419999
 11
282.52336992869999
 21
219.33521293320001
  0
LINE
  8
_0-0_0
  6
CONTINUOUS
 62
    7
 10
282.52336992869999
 20
218.51857124419999
 11
290.0898010176
 21
222.8855005529
  0
LINE
  8
_0-0_0
  6
CONTINUOUS
 62
    7
 10
290.0898010176
 20
218.4756361833
 11
290.0898010176
 21
222.8855005529
  0
LINE
  8
_0-0_0
  6
CONTINUOUS
 62
    7
 10
290.0898010176
 20
218.4756361833
 11
287.5481712088
 21
217.00874676430001
  0
LINE
  8
_0-0_0
  6
CONTINUOUS
 62
    7
 10
283.9375837229
 20
214.9249135636
 11
282.52298138750001
 21
214.10848262990001
  0
LINE
  8
_0-0_0
  6
CONTINUOUS
 62
    7
 10
282.52298138750001
 20
214.10848262990001
 11
282.52298138750001
 21
213.29184108339999
  0
LINE
  8
_0-0_0
  6
CONTINUOUS
 62
    7
 10
284.27006816670001
 20
213.73181495259999
 11
284.27006816670001
 21
217.40670179259999
  0
LINE
  8
_0-0_0
  6
CONTINUOUS
 62
    7
 10
284.27006816670001
 20
213.73181495259999
 11
283.93758345020001
 21
213.65998903650001
  0
LINE
  8
_0-0_0
  6
CONTINUOUS
 62
    7
 10
283.93758345020001
 20
213.65998903650001
 11
283.93758345020001
 21
217.33487587650001
  0
LINE
  8
_0-0_0
  6
CONTINUOUS
 62
    7
 10
285.01127532150002
 20
213.95554761459999
 11
285.01127532150002
 21
217.63043445470001
  0
LINE
  8
_0-0_0
  6
CONTINUOUS
 62
    7
 10
285.01127532150002
 20
213.95554761459999
 11
284.6229935284
 21
213.73145264530001
  0
LINE
  8
_0-0_0
  6
CONTINUOUS
 62
    7
 10
284.6229935284
 20
213.73145264530001
 11
284.6229935284
 21
217.4063394854
  0
LINE
  8
_0-0_0
  6
CONTINUOUS
 62
    7
 10
284.6229935284
 20
213.73145264530001
 11
284.44621696870001
 21
213.8334783864
  0
LINE
  8
_0-0_0
  6
CONTINUOUS
 62
    7
 10
284.44621696870001
 20
213.8334783864
 11
284.44621696870001
 21
217.50836522649999
  0
LINE
  8
_0-0_0
  6
CONTINUOUS
 62
    7
 10
284.44621696870001
 20
213.8334783864
 11
284.27006816670001
 21
213.73181495259999
  0
LINE
  8
_0-0_0
  6
CONTINUOUS
 62
    7
 10
285.18805204580002
 20
213.85352177850001
 11
285.18805204580002
 21
217.52840861850001
  0
LINE
  8
_0-0_0
  6
CONTINUOUS
 62
    7
 10
285.18805204580002
 20
213.85352177850001
 11
285.01127532150002
 21
213.95554761459999
  0
LINE
  8
_0-0_0
  6
CONTINUOUS
 62
    7
 10
285.57633186340001
 20
214.07761560759999
 11
285.57633186340001
 21
217.75250244759999
  0
LINE
  8
_0-0_0
  6
CONTINUOUS
 62
    7
 10
285.57633186340001
 20
214.07761560759999
 11
285.18805204580002
 21
213.85352177850001
  0
LINE
  8
_0-0_0
  6
CONTINUOUS
 62
    7
 10
286.1413897223
 20
214.19968436069999
 11
286.1413897223
 21
217.87457120069999
  0
LINE
  8
_0-0_0
  6
CONTINUOUS
 62
    7
 10
286.1413897223
 20
214.19968436069999
 11
285.75310858760002
 21
213.97558977150001
  0
LINE
  8
_0-0_0
  6
CONTINUOUS
 62
    7
 10
285.75310858760002
 20
213.97558977150001
 11
285.75310858760002
 21
217.65047661150001
  0
LINE
  8
_0-0_0
  6
CONTINUOUS
 62
    7
 10
285.75310858760002
 20
213.97558977150001
 11
285.57633186340001
 21
214.07761560759999
  0
LINE
  8
_0-0_0
  6
CONTINUOUS
 62
    7
 10
286.31816644650002
 20
214.09765852460001
 11
286.31816644650002
 21
217.77254536460001
  0
LINE
  8
_0-0_0
  6
CONTINUOUS
 62
    7
 10
286.31816644650002
 20
214.09765852460001
 11
286.1413897223
 21
214.19968436069999
  0
LINE
  8
_0-0_0
  6
CONTINUOUS
 62
    7
 10
286.70621972480001
 20
214.32162160760001
 11
286.70621972480001
 21
217.99650844760001
  0
LINE
  8
_0-0_0
  6
CONTINUOUS
 62
    7
 10
286.70621972480001
 20
214.32162160760001
 11
286.31816644650002
 21
214.09765852460001
  0
LINE
  8
_0-0_0
  6
CONTINUOUS
 62
    7
 10
286.88299644900002
 20
214.2195957715
 11
286.88299644900002
 21
217.8944826115
  0
LINE
  8
_0-0_0
  6
CONTINUOUS
 62
    7
 10
286.88299644900002
 20
214.2195957715
 11
286.70621972480001
 21
214.32162160760001
  0
LINE
  8
_0-0_0
  6
CONTINUOUS
 62
    7
 10
287.12395788449999
 20
214.35866550489999
 11
287.12395788449999
 21
218.033552345
  0
LINE
  8
_0-0_0
  6
CONTINUOUS
 62
    7
 10
287.12395788449999
 20
214.35866550489999
 11
286.88299644900002
 21
214.2195957715
  0
LINE
  8
_0-0_0
  6
CONTINUOUS
 62
    7
 10
286.21172869650002
 20
221.0426790349
 11
289.7472621942
 21
223.08319518729999
  0
LINE
  8
_0-0_0
  6
CONTINUOUS
 62
    7
 10
290.0898010176
 20
222.8855005529
 11
289.7472621942
 21
223.08319518729999
  0
LINE
  8
_0-0_0
  6
CONTINUOUS
 62
    7
 10
286.2007138811
 20
225.1300684874
 11
279.34176637669998
 21
221.17145992659999
  0
LINE
  8
_0-0_0
  6
CONTINUOUS
 62
    7
 10
286.54325251419999
 20
224.93237396289999
 11
286.2007138811
 21
225.1300684874
  0
LINE
  8
_0-0_0
  6
CONTINUOUS
 62
    7
 10
283.00771901659999
 20
222.8918578105
 11
286.54325251419999
 21
224.93237396289999
  0
LINE
  8
_0-0_0
  6
CONTINUOUS
 62
    7
 10
284.04798193390002
 20
222.29147507139999
 11
283.00771901659999
 21
222.8918578105
  0
LINE
  8
_0-0_0
  6
CONTINUOUS
 62
    7
 10
284.04798193390002
 20
222.29147507139999
 11
287.58351543150002
 21
224.3319912238
  0
LINE
  8
_0-0_0
  6
CONTINUOUS
 62
    7
 10
288.70699927679999
 20
223.68357792640001
 11
287.58351543150002
 21
224.3319912238
  0
LINE
  8
_0-0_0
  6
CONTINUOUS
 62
    7
 10
285.17146577919999
 20
221.64306177399999
 11
288.70699927679999
 21
223.68357792640001
  0
LINE
  8
_0-0_0
  6
CONTINUOUS
 62
    7
 10
286.21172869650002
 20
221.0426790349
 11
285.17146577919999
 21
221.64306177399999
  0
LINE
  8
_0-0_0
  6
CONTINUOUS
 62
    7
 10
287.54817184170003
 20
214.4769865207
 11
287.54817184170003
 21
218.15187336069999
  0
LINE
  8
_0-0_0
  6
CONTINUOUS
 62
    7
 10
287.54817184170003
 20
214.4769865207
 11
287.233559447
 21
214.29540949029999
  0
LINE
  8
_0-0_0
  6
CONTINUOUS
 62
    7
 10
287.233559447
 20
214.29540949029999
 11
287.233559447
 21
217.9702963304
  0
LINE
  8
_0-0_0
  6
CONTINUOUS
 62
    7
 10
287.233559447
 20
214.29540949029999
 11
287.12395788449999
 21
214.35866550489999
  0
LINE
  8
_0-0_0
  6
CONTINUOUS
 62
    7
 10
281.57447822519998
 20
215.48483583890001
 11
281.08430379150002
 21
215.20193402230001
  0
LINE
  8
_0-0_0
  6
CONTINUOUS
 62
    7
 10
281.57447773130002
 20
215.7531017357
 11
280.44458526
 21
215.10098973070001
  0
LINE
  8
_0-0_0
  6
CONTINUOUS
 62
    7
 10
282.64806909219999
 20
223.07967662460001
 11
278.63565289399997
 21
223.2956908024
  0
LINE
  8
_0-0_0
  6
CONTINUOUS
 62
    7
 10
281.85837972600001
 20
222.6575984632
 11
281.9078940412
 21
222.65248815410001
  0
LINE
  8
_0-0_0
  6
CONTINUOUS
 62
    7
 10
280.84263244509998
 20
222.7122824384
 11
281.85837972600001
 21
222.6575984632
  0
ARC
  8
_0-0_0
  6
CONTINUOUS
 62
    7
 10
280.62345673340002
 20
219.75590986180001
 40
2.9644859257766951
 50
85.7600365025
 51
117.7605936393
  0
LINE
  8
_0-0_0
  6
CONTINUOUS
 62
    7
 10
277.22006899799999
 20
221.2118570316
 11
279.2426639894
 21
222.3791880023
  0
LINE
  8
_0-0_0
  6
CONTINUOUS
 62
    7
 10
277.34451942200002
 20
221.40374893890001
 11
277.22006899799999
 21
221.2118570316
  0
LINE
  8
_0-0_0
  6
CONTINUOUS
 62
    7
 10
277.52066822410001
 20
221.50541237280001
 11
277.34451942200002
 21
221.40374893890001
  0
LINE
  8
_0-0_0
  6
CONTINUOUS
 62
    7
 10
277.34389149980001
 20
221.60743820889999
 11
277.52066822410001
 21
221.50541237280001
  0
LINE
  8
_0-0_0
  6
CONTINUOUS
 62
    7
 10
277.73217329300002
 20
221.8315331782
 11
277.34389149980001
 21
221.60743820889999
  0
LINE
  8
_0-0_0
  6
CONTINUOUS
 62
    7
 10
277.55539689800003
 20
221.93355882430001
 11
277.73217329300002
 21
221.8315331782
  0
LINE
  8
_0-0_0
  6
CONTINUOUS
 62
    7
 10
277.94367671560002
 20
222.15765265339999
 11
277.55539689800003
 21
221.93355882430001
  0
LINE
  8
_0-0_0
  6
CONTINUOUS
 62
    7
 10
277.76689966200001
 20
222.25967867950001
 11
277.94367671560002
 21
222.15765265339999
  0
LINE
  8
_0-0_0
  6
CONTINUOUS
 62
    7
 10
278.15518079660001
 20
222.48377326880001
 11
277.76689966200001
 21
222.25967867950001
  0
LINE
  8
_0-0_0
  6
CONTINUOUS
 62
    7
 10
277.97840440160002
 20
222.58579891490001
 11
278.15518079660001
 21
222.48377326880001
  0
LINE
  8
_0-0_0
  6
CONTINUOUS
 62
    7
 10
278.36645767990001
 20
222.80976199790001
 11
277.97840440160002
 21
222.58579891490001
  0
LINE
  8
_0-0_0
  6
CONTINUOUS
 62
    7
 10
278.1896806263
 20
222.911788024
 11
278.36645767990001
 21
222.80976199790001
  0
LINE
  8
_0-0_0
  6
CONTINUOUS
 62
    7
 10
278.43064206179997
 20
223.05085775750001
 11
278.1896806263
 21
222.911788024
  0
LINE
  8
_0-0_0
  6
CONTINUOUS
 62
    7
 10
278.32104049930001
 20
223.11411377210001
 11
278.43064206179997
 21
223.05085775750001
  0
LINE
  8
_0-0_0
  6
CONTINUOUS
 62
    7
 10
278.63565289399997
 20
223.2956908024
 11
278.32104049930001
 21
223.11411377210001
  0
LINE
  8
_0-0_0
  6
CONTINUOUS
 62
    7
 10
285.7431758431
 20
221.31310191259999
 11
287.11136922999998
 21
221.888627662
  0
LINE
  8
_0-0_0
  6
CONTINUOUS
 62
    7
 10
287.10647097600003
 20
221.8853627677
 11
287.38914462060001
 21
221.72221903339999
  0
LINE
  8
_0-0_0
  6
CONTINUOUS
 62
    7
 10
288.11333893659997
 20
222.4626479211
 11
288.80286664660002
 21
222.86060552230001
  0
LINE
  8
_0-0_0
  6
CONTINUOUS
 62
    7
 10
289.08222756539999
 20
222.69937371169999
 11
288.80286664660002
 21
222.86060552230001
  0
LINE
  8
_0-0_0
  6
CONTINUOUS
 62
    7
 10
288.70699927679999
 20
223.68357792640001
 11
288.80286664660002
 21
222.86060552230001
  0
LINE
  8
_0-0_0
  6
CONTINUOUS
 62
    7
 10
277.22006899799999
 20
217.59498809600001
 11
277.22006899799999
 21
221.2118570316
  0
LINE
  8
_0-0_0
  6
CONTINUOUS
 62
    7
 10
277.34389149980001
 20
221.40278076280001
 11
277.34389149980001
 21
221.60743820889999
  0
LINE
  8
_0-0_0
  6
CONTINUOUS
 62
    7
 10
277.55539689800003
 20
221.72950716170001
 11
277.55539689800003
 21
221.93355882430001
  0
LINE
  8
_0-0_0
  6
CONTINUOUS
 62
    7
 10
287.10647097600003
 20
221.8853627677
 11
288.0904734481
 21
222.4758445821
  0
LINE
  8
_0-0_0
  6
CONTINUOUS
 62
    7
 10
288.0904734481
 20
222.4758445821
 11
288.3926998554
 21
222.30141606480001
  0
LINE
  8
_0-0_0
  6
CONTINUOUS
 62
    7
 10
283.57942916280001
 20
222.56189790159999
 11
284.94762254969999
 21
223.13742365100001
  0
LINE
  8
_0-0_0
  6
CONTINUOUS
 62
    7
 10
284.94272429559999
 20
223.1341587567
 11
285.22539794020003
 21
222.9710150224
  0
LINE
  8
_0-0_0
  6
CONTINUOUS
 62
    7
 10
277.76689966200001
 20
222.05562701689999
 11
277.76689966200001
 21
222.25967867950001
  0
LINE
  8
_0-0_0
  6
CONTINUOUS
 62
    7
 10
285.94959209170003
 20
223.71144400509999
 11
286.63911980170002
 21
224.1094016063
  0
LINE
  8
_0-0_0
  6
CONTINUOUS
 62
    7
 10
286.63911980170002
 20
224.1094016063
 11
286.9184809674
 21
223.94816965320001
  0
LINE
  8
_0-0_0
  6
CONTINUOUS
 62
    7
 10
286.54325251419999
 20
224.93237396289999
 11
286.63911980170002
 21
224.1094016063
  0
LINE
  8
_0-0_0
  6
CONTINUOUS
 62
    7
 10
277.97840440160002
 20
222.3817472522
 11
277.97840440160002
 21
222.58579891490001
  0
LINE
  8
_0-0_0
  6
CONTINUOUS
 62
    7
 10
278.1896806263
 20
222.70773636140001
 11
278.1896806263
 21
222.911788024
  0
LINE
  8
_0-0_0
  6
CONTINUOUS
 62
    7
 10
278.32104049930001
 20
222.98760200749999
 11
278.32104049930001
 21
223.11411377210001
  0
LINE
  8
_0-0_0
  6
CONTINUOUS
 62
    7
 10
284.94272429559999
 20
223.1341587567
 11
285.92672676780001
 21
223.7246405711
  0
LINE
  8
_0-0_0
  6
CONTINUOUS
 62
    7
 10
285.92672676780001
 20
223.7246405711
 11
286.22895325740001
 21
223.5502120063
  0
LINE
  8
_0-0_0
  6
CONTINUOUS
 62
    7
 10
170.40113901999999
 20
151.697152042
 11
170.12633061939999
 21
151.8564216856
  0
LINE
  8
_0-0_0
  6
CONTINUOUS
 62
    7
 10
168.4943134367
 20
152.78262891029999
 11
168.30653770200001
 21
152.88752175190001
  0
LINE
  8
_0-0_0
  6
CONTINUOUS
 62
    7
 10
168.30653770200001
 20
152.88752175190001
 11
168.27349457279999
 21
152.90808003640001
  0
LINE
  8
_0-0_0
  6
CONTINUOUS
 62
    7
 10
174.4849821903
 20
150.6494931526
 11
174.4314286924
 21
150.68040129639999
  0
ARC
  8
_0-0_0
  6
CONTINUOUS
 62
    7
 10
174.23659770750001
 20
150.26113936549999
 40
0.4609918819739898
 50
2.6022919724000002
 51
57.397709592499979
  0
LINE
  8
_0-0_0
  6
CONTINUOUS
 62
    7
 10
174.69711419359999
 20
148.79609627959999
 11
174.69711419359999
 21
150.28206975660001
  0
ARC
  8
_0-0_0
  6
CONTINUOUS
 62
    7
 10
174.51308028779999
 20
148.78854213450001
 40
0.1841888802060729
 50
327.65671377260003
 51
2.3505331200999988
  0
LINE
  8
_0-0_0
  6
CONTINUOUS
 62
    7
 10
174.291865989
 20
148.1536978343
 11
174.66869371749999
 21
148.69000278159999
  0
LINE
  8
_0-0_0
  6
CONTINUOUS
 62
    7
 10
174.05210112890001
 20
148.17828836859999
 11
174.08632502840001
 21
148.1511291953
  0
LINE
  8
_0-0_0
  6
CONTINUOUS
 62
    7
 10
174.08632502840001
 20
148.1511291953
 11
174.12113717290001
 21
148.13019616770001
  0
LINE
  8
_0-0_0
  6
CONTINUOUS
 62
    7
 10
174.12113717290001
 20
148.13019616770001
 11
174.15559946549999
 21
148.116053378
  0
LINE
  8
_0-0_0
  6
CONTINUOUS
 62
    7
 10
174.15559946549999
 20
148.116053378
 11
174.18878335860001
 21
148.10908191210001
  0
LINE
  8
_0-0_0
  6
CONTINUOUS
 62
    7
 10
174.18878335860001
 20
148.10908191210001
 11
174.21979487799999
 21
148.1094695427
  0
LINE
  8
_0-0_0
  6
CONTINUOUS
 62
    7
 10
174.21979487799999
 20
148.1094695427
 11
174.2477988247
 21
148.1172056028
  0
LINE
  8
_0-0_0
  6
CONTINUOUS
 62
    7
 10
174.2477988247
 20
148.1172056028
 11
174.2720401773
 21
148.1320819906
  0
LINE
  8
_0-0_0
  6
CONTINUOUS
 62
    7
 10
174.2720401773
 20
148.1320819906
 11
174.291865989
 21
148.1536978343
  0
LINE
  8
_0-0_0
  6
CONTINUOUS
 62
    7
 10
173.43316082909999
 20
147.3078477457
 11
173.31255136589999
 21
147.57265398850001
  0
LINE
  8
_0-0_0
  6
CONTINUOUS
 62
    7
 10
173.31255136589999
 20
147.57265398850001
 11
173.2527672137
 21
147.83680356630001
  0
LINE
  8
_0-0_0
  6
CONTINUOUS
 62
    7
 10
173.2527672137
 20
147.83680356630001
 11
173.2601727114
 21
148.07217751749999
  0
LINE
  8
_0-0_0
  6
CONTINUOUS
 62
    7
 10
173.2601727114
 20
148.07217751749999
 11
173.33397925169999
 21
148.25371981929999
  0
LINE
  8
_0-0_0
  6
CONTINUOUS
 62
    7
 10
173.33397925169999
 20
148.25371981929999
 11
173.34569838050001
 21
148.26927956590001
  0
LINE
  8
_0-0_0
  6
CONTINUOUS
 62
    7
 10
174.00470847950001
 20
148.21840846399999
 11
174.05210112890001
 21
148.17828836859999
  0
ARC
  8
_0-0_0
  6
CONTINUOUS
 62
    7
 10
173.06265985030001
 20
147.08448278910001
 40
0.4326232531314069
 50
1.9500187962999997
 51
31.084631397700004
  0
LINE
  8
_0-0_0
  6
CONTINUOUS
 62
    7
 10
173.4950325673
 20
146.23932423540001
 11
173.4950325673
 21
147.09920395399999
  0
ARC
  8
_0-0_0
  6
CONTINUOUS
 62
    7
 10
173.36569151020001
 20
146.21832846629999
 40
0.1310340848485375
 50
230.81491433039997
 51
9.2203252257999679
  0
LINE
  8
_0-0_0
  6
CONTINUOUS
 62
    7
 10
173.0876594042
 20
146.22944526640001
 11
173.2829005641
 21
146.1167627701
  0
ARC
  8
_0-0_0
  6
CONTINUOUS
 62
    7
 10
256.2609819649
 20
197.6011182055
 40
0.4609918819739972
 50
2.6022919724000002
 51
57.397709592499979
  0
LINE
  8
_0-0_0
  6
CONTINUOUS
 62
    7
 10
256.721498451
 20
197.6220485966
 11
174.69711419359999
 21
150.28206975660001
  0
LINE
  8
_0-0_0
  6
CONTINUOUS
 62
    7
 10
256.721498451
 20
196.13607511960001
 11
256.721498451
 21
197.6220485966
  0
LINE
  8
_0-0_0
  6
CONTINUOUS
 62
    7
 10
256.721498451
 20
196.13607511960001
 11
174.69711419359999
 21
148.79609627959999
  0
LINE
  8
_0-0_0
  6
CONTINUOUS
 62
    7
 10
256.50936644770002
 20
197.9894719925
 11
256.36794500249999
 21
198.07109269950001
  0
ARC
  8
_0-0_0
  6
CONTINUOUS
 62
    7
 10
256.53746454520001
 20
196.12852097449999
 40
0.1841888802058503
 50
327.65671377260003
 51
2.3505331200999988
  0
LINE
  8
_0-0_0
  6
CONTINUOUS
 62
    7
 10
256.69307797499999
 20
196.02998162150001
 11
174.66869371749999
 21
148.69000278159999
  0
LINE
  8
_0-0_0
  6
CONTINUOUS
 62
    7
 10
256.31625024639999
 20
195.49367667429999
 11
256.69307797499999
 21
196.02998162150001
  0
LINE
  8
_0-0_0
  6
CONTINUOUS
 62
    7
 10
256.31625024639999
 20
195.49367667429999
 11
174.291865989
 21
148.1536978343
  0
LINE
  8
_0-0_0
  6
CONTINUOUS
 62
    7
 10
256.28249885259999
 20
195.46237038199999
 11
256.29642443469999
 21
195.4720608305
  0
LINE
  8
_0-0_0
  6
CONTINUOUS
 62
    7
 10
256.29642443469999
 20
195.4720608305
 11
256.31625024639999
 21
195.49367667429999
  0
LINE
  8
_0-0_0
  6
CONTINUOUS
 62
    7
 10
255.45754508650001
 20
194.64782658569999
 11
255.33693562330001
 21
194.91263282840001
  0
LINE
  8
_0-0_0
  6
CONTINUOUS
 62
    7
 10
255.33693562330001
 20
194.91263282840001
 11
255.3357968352
 21
194.9159860579
  0
LINE
  8
_0-0_0
  6
CONTINUOUS
 62
    7
 10
255.45754508650001
 20
194.64782658569999
 11
173.43316082909999
 21
147.3078477457
  0
ARC
  8
_0-0_0
  6
CONTINUOUS
 62
    7
 10
255.0870441077
 20
194.42446162900001
 40
0.432623253132213
 50
1.9500187962999997
 51
31.084631397700004
  0
LINE
  8
_0-0_0
  6
CONTINUOUS
 62
    7
 10
255.51941682469999
 20
194.43918279389999
 11
173.4950325673
 21
147.09920395399999
  0
LINE
  8
_0-0_0
  6
CONTINUOUS
 62
    7
 10
255.51941682469999
 20
193.5793030753
 11
255.51941682469999
 21
194.43918279389999
  0
LINE
  8
_0-0_0
  6
CONTINUOUS
 62
    7
 10
255.51941682469999
 20
193.5793030753
 11
173.4950325673
 21
146.23932423540001
  0
ARC
  8
_0-0_0
  6
CONTINUOUS
 62
    7
 10
255.3723560064
 20
193.5630806659
 40
0.1479528670357493
 50
305.01260941060002
 51
6.2948975222999932
  0
LINE
  8
_0-0_0
  6
CONTINUOUS
 62
    7
 10
247.2648546341
 20
207.97997179199999
 11
247.43601693720001
 21
207.93595702339999
  0
LINE
  8
_0-0_0
  6
CONTINUOUS
 62
    7
 10
247.43601693720001
 20
207.93595702339999
 11
247.67053188049999
 21
207.82728361810001
  0
LINE
  8
_0-0_0
  6
CONTINUOUS
 62
    7
 10
256.36794500249999
 20
201.41932290189999
 11
256.36794500249999
 21
201.0928839737
  0
LINE
  8
_0-0_0
  6
CONTINUOUS
 62
    7
 10
256.72149713390002
 20
196.3098586957
 11
256.74674573039999
 21
196.31859283750001
  0
LINE
  8
_0-0_0
  6
CONTINUOUS
 62
    7
 10
256.74674573039999
 20
196.31859283750001
 11
256.79220736270003
 21
196.34012584160001
  0
ARC
  8
_0-0_0
  6
CONTINUOUS
 62
    7
 10
258.07682283090003
 20
202.32972627859999
 40
0.1472917213025518
 50
293.5664633097
 51
355.1165077082
  0
ARC
  8
_0-0_0
  6
CONTINUOUS
 62
    7
 10
256.80934174380002
 20
204.52155859960001
 40
0.1508627507452984
 50
65.669777359099996
 51
125.61056626429999
  0
ARC
  8
_0-0_0
  6
CONTINUOUS
 62
    7
 10
258.0734803519
 20
197.67726998769999
 40
0.1508429729690481
 50
294.36566299920003
 51
354.3015119909
  0
ARC
  8
_0-0_0
  6
CONTINUOUS
 62
    7
 10
249.31401739419999
 20
208.84743242569999
 40
0.1508839094208765
 50
65.692921682399998
 51
125.60822652679998
  0
ARC
  8
_0-0_0
  6
CONTINUOUS
 62
    7
 10
257.99276460480002
 20
197.52177854429999
 40
0.1440866438853909
 50
304.09752695859999
 51
7.2100395338000096
  0
ARC
  8
_0-0_0
  6
CONTINUOUS
 62
    7
 10
256.87139854309999
 20
196.55915578369999
 40
0.1508440088424828
 50
294.36480575249999
 51
354.3014159741
  0
LINE
  8
_0-0_0
  6
CONTINUOUS
 62
    7
 10
256.72149746320002
 20
196.2153679651
 11
256.76378721589998
 21
196.2340321536
  0
LINE
  8
_0-0_0
  6
CONTINUOUS
 62
    7
 10
256.7214968047
 20
196.17384409120001
 11
256.76378721589998
 21
196.2340321536
  0
LINE
  8
_0-0_0
  6
CONTINUOUS
 62
    7
 10
256.6024503969
 20
195.90100079710001
 11
256.62164038380001
 21
195.91207620579999
  0
LINE
  8
_0-0_0
  6
CONTINUOUS
 62
    7
 10
256.90520833189998
 20
196.3156526704
 11
256.94306377509997
 21
196.34392928290001
  0
LINE
  8
_0-0_0
  6
CONTINUOUS
 62
    7
 10
256.94306377509997
 20
196.34392928290001
 11
256.96696136750001
 21
196.37170439779999
  0
LINE
  8
_0-0_0
  6
CONTINUOUS
 62
    7
 10
256.62164038380001
 20
195.91207620579999
 11
256.65949615630001
 21
195.9403526282
  0
LINE
  8
_0-0_0
  6
CONTINUOUS
 62
    7
 10
256.65949615630001
 20
195.9403526282
 11
256.68339374869998
 21
195.96812773120001
  0
LINE
  8
_0-0_0
  6
CONTINUOUS
 62
    7
 10
255.5446690432
 20
194.80552537930001
 11
255.46612427509999
 21
194.9912039761
  0
ARC
  8
_0-0_0
  6
CONTINUOUS
 62
    7
 10
254.27532325780001
 20
197.0254140824
 40
2.557175116628029
 50
296.37310478009999
 51
299.76118267219999
  0
LINE
  8
_0-0_0
  6
CONTINUOUS
 62
    7
 10
256.62164038380001
 20
195.91207620579999
 11
256.60389557280001
 21
195.8922309127
  0
LINE
  8
_0-0_0
  6
CONTINUOUS
 62
    7
 10
256.60389557280001
 20
195.8922309127
 11
256.5878886607
 21
195.8807701035
  0
LINE
  8
_0-0_0
  6
CONTINUOUS
 62
    7
 10
255.60754539109999
 20
195.07282449300001
 11
255.68609015920001
 21
194.88714589610001
  0
ARC
  8
_0-0_0
  6
CONTINUOUS
 62
    7
 10
255.60155603129999
 20
195.10924300209999
 40
0.2376407862069739
 50
290.83771917479999
 51
322.09091829020002
  0
ARC
  8
_0-0_0
  6
CONTINUOUS
 62
    7
 10
247.2940890802
 20
207.36884797389999
 40
1.014130452324016
 50
54.523272072999994
 51
112.80153528299999
  0
ARC
  8
_0-0_0
  6
CONTINUOUS
 62
    7
 10
255.4053370538
 20
194.96166835439999
 40
0.3816475556144168
 50
282.30817153290002
 51
298.95923126759999
  0
LINE
  8
_0-0_0
  6
CONTINUOUS
 62
    7
 10
255.51941550769999
 20
193.9164150654
 11
255.54466426869999
 21
193.9251491121
  0
LINE
  8
_0-0_0
  6
CONTINUOUS
 62
    7
 10
255.54466426869999
 20
193.9251491121
 11
255.59012590099999
 21
193.9466821163
  0
ARC
  8
_0-0_0
  6
CONTINUOUS
 62
    7
 10
248.640486866
 20
208.15230975489999
 40
1.0058865762914579
 50
54.390875498
 51
114.30731801589999
  0
ARC
  8
_0-0_0
  6
CONTINUOUS
 62
    7
 10
255.66931669749999
 20
194.84677052789999
 40
0.1508444183325745
 50
294.3648954377
 51
354.30132628889999
  0
ARC
  8
_0-0_0
  6
CONTINUOUS
 62
    7
 10
255.66931669749999
 20
194.16571233389999
 40
0.150844418332549
 50
294.3648954377
 51
354.30132628889999
  0
ARC
  8
_0-0_0
  6
CONTINUOUS
 62
    7
 10
255.4430646587
 20
193.9304599164
 40
0.1479532654723703
 50
305.0126239457
 51
6.294798811399974
  0
ARC
  8
_0-0_0
  6
CONTINUOUS
 62
    7
 10
255.5887817062
 20
194.01013656609999
 40
0.1439164339318093
 50
304.05583293870001
 51
7.2515898184000438
  0
ARC
  8
_0-0_0
  6
CONTINUOUS
 62
    7
 10
162.10030320070001
 20
151.22630595379999
 40
1.9372700634748301
 50
28.143045959599998
 51
63.659862457199999
  0
LINE
  8
_0-0_0
  6
CONTINUOUS
 62
    7
 10
165.02708450470001
 20
152.84334667089999
 11
164.98140654049999
 21
152.94264359740001
  0
LINE
  8
_0-0_0
  6
CONTINUOUS
 62
    7
 10
164.98140654049999
 20
152.94264359740001
 11
164.81399958750001
 21
153.44905319110001
  0
LINE
  8
_0-0_0
  6
CONTINUOUS
 62
    7
 10
164.81399958750001
 20
153.44905319110001
 11
164.7626136888
 21
153.92791764309999
  0
LINE
  8
_0-0_0
  6
CONTINUOUS
 62
    7
 10
164.7626136888
 20
153.92791764309999
 11
164.8321312935
 21
154.33373672370001
  0
LINE
  8
_0-0_0
  6
CONTINUOUS
 62
    7
 10
164.8321312935
 20
154.33373672370001
 11
165.01594687069999
 21
154.6279509327
  0
LINE
  8
_0-0_0
  6
CONTINUOUS
 62
    7
 10
165.01594687069999
 20
154.6279509327
 11
165.29659549089999
 21
154.7826048188
  0
LINE
  8
_0-0_0
  6
CONTINUOUS
 62
    7
 10
165.29659549089999
 20
154.7826048188
 11
165.6474100529
 21
154.78300401960001
  0
LINE
  8
_0-0_0
  6
CONTINUOUS
 62
    7
 10
165.6474100529
 20
154.78300401960001
 11
166.03505766769999
 21
154.62911014150001
  0
ARC
  8
_0-0_0
  6
CONTINUOUS
 62
    7
 10
174.28132723109999
 20
153.97188707180001
 40
0.1508418098484642
 50
294.36516588380005
 51
354.28947897789999
  0
ARC
  8
_0-0_0
  6
CONTINUOUS
 62
    7
 10
173.01719045440001
 20
156.16130918389999
 40
0.1508731760729417
 50
65.671929776200002
 51
125.60936723120001
  0
ARC
  8
_0-0_0
  6
CONTINUOUS
 62
    7
 10
174.28131838069999
 20
148.8926996767
 40
0.1508533999191936
 50
294.36686241389998
 51
354.29935931270001
  0
ARC
  8
_0-0_0
  6
CONTINUOUS
 62
    7
 10
165.521862449
 20
160.487194864
 40
0.1508825687942194
 50
65.692628262400007
 51
125.6085199469
  0
ARC
  8
_0-0_0
  6
CONTINUOUS
 62
    7
 10
172.71990539289999
 20
148.3866665141
 40
0.1451762666337247
 50
173.0512572035
 51
235.63657679280001
  0
ARC
  8
_0-0_0
  6
CONTINUOUS
 62
    7
 10
172.8571052586
 20
148.38614225200001
 40
0.1440866439050423
 50
304.09752696340001
 51
7.2100395290000563
  0
ARC
  8
_0-0_0
  6
CONTINUOUS
 62
    7
 10
170.55208965739999
 20
151.7055471395
 40
0.1509135845965977
 50
185.82890412730001
 51
245.63496856719999
  0
ARC
  8
_0-0_0
  6
CONTINUOUS
 62
    7
 10
170.2157859987
 20
152.28811218269999
 40
0.1509477782128058
 50
174.36975792059999
 51
234.26043724690001
  0
ARC
  8
_0-0_0
  6
CONTINUOUS
 62
    7
 10
170.6339403922
 20
149.5905711808
 40
0.1451762666192792
 50
173.05125720000004
 51
235.63657679630006
  0
ARC
  8
_0-0_0
  6
CONTINUOUS
 62
    7
 10
170.5520191821
 20
149.74552369220001
 40
0.1508082956239059
 50
185.69391130139999
 51
245.64624503249999
  0
ARC
  8
_0-0_0
  6
CONTINUOUS
 62
    7
 10
166.1749120595
 20
154.60962114930001
 40
0.1412057779450025
 50
172.0668056026
 51
236.62102839369999
  0
LINE
  8
_0-0_0
  6
CONTINUOUS
 62
    7
 10
173.77787628109999
 20
148.67366588440001
 11
173.77787628109999
 21
148.75162587119999
  0
ARC
  8
_0-0_0
  6
CONTINUOUS
 62
    7
 10
173.58539471540001
 20
147.67985035500001
 40
1.239207326366387
 50
148.39974836569999
 51
215.44088035540003
  0
LINE
  8
_0-0_0
  6
CONTINUOUS
 62
    7
 10
173.21989909269999
 20
148.4295920353
 11
173.4943084976
 21
148.27008930100001
  0
LINE
  8
_0-0_0
  6
CONTINUOUS
 62
    7
 10
174.37689528019999
 20
148.7052450107
 11
174.3529950537
 21
148.67746837550001
  0
LINE
  8
_0-0_0
  6
CONTINUOUS
 62
    7
 10
174.3529950537
 20
148.67746837550001
 11
174.31513697630001
 21
148.6491902427
  0
LINE
  8
_0-0_0
  6
CONTINUOUS
 62
    7
 10
174.09332766150001
 20
148.30166834409999
 11
174.06942743490001
 21
148.27389172080001
  0
LINE
  8
_0-0_0
  6
CONTINUOUS
 62
    7
 10
174.06942743490001
 20
148.27389172080001
 11
174.03156902820001
 21
148.24561377800001
  0
ARC
  8
_0-0_0
  6
CONTINUOUS
 62
    7
 10
173.6102608169
 20
148.23877038040001
 40
0.1201075148623202
 50
164.8849930236
 51
226.45851649790001
  0
LINE
  8
_0-0_0
  6
CONTINUOUS
 62
    7
 10
173.89014527809999
 20
148.1639917409
 11
173.87240046700001
 21
148.14414644780001
  0
LINE
  8
_0-0_0
  6
CONTINUOUS
 62
    7
 10
173.87240046700001
 20
148.14414644780001
 11
173.8563935549
 21
148.1326856387
  0
LINE
  8
_0-0_0
  6
CONTINUOUS
 62
    7
 10
173.01430001560001
 20
148.2938193674
 11
172.8919837697
 21
148.17974472559999
  0
LINE
  8
_0-0_0
  6
CONTINUOUS
 62
    7
 10
172.8919837697
 20
148.17974472559999
 11
172.80764446840001
 21
147.9805732822
  0
LINE
  8
_0-0_0
  6
CONTINUOUS
 62
    7
 10
172.80764446840001
 20
147.9805732822
 11
172.78992715160001
 21
147.72528563989999
  0
LINE
  8
_0-0_0
  6
CONTINUOUS
 62
    7
 10
172.78992715160001
 20
147.72528563989999
 11
172.84038894770001
 21
147.43631670440001
  0
LINE
  8
_0-0_0
  6
CONTINUOUS
 62
    7
 10
172.84038894770001
 20
147.43631670440001
 11
172.9545950534
 21
147.13906143119999
  0
LINE
  8
_0-0_0
  6
CONTINUOUS
 62
    7
 10
173.9978173051
 20
148.2143076758
 11
174.01382421720001
 21
148.22576848489999
  0
LINE
  8
_0-0_0
  6
CONTINUOUS
 62
    7
 10
174.01382421720001
 20
148.22576848489999
 11
174.03156902820001
 21
148.24561377800001
  0
ARC
  8
_0-0_0
  6
CONTINUOUS
 62
    7
 10
172.98869333069999
 20
147.4735834315
 40
0.2747310474917418
 50
292.99535569710002
 51
319.94372736150001
  0
LINE
  8
_0-0_0
  6
CONTINUOUS
 62
    7
 10
173.0960188036
 20
147.22068346840001
 11
172.98181269790001
 21
147.51793874160001
  0
LINE
  8
_0-0_0
  6
CONTINUOUS
 62
    7
 10
172.98181269790001
 20
147.51793874160001
 11
172.93135090179999
 21
147.80690767710001
  0
LINE
  8
_0-0_0
  6
CONTINUOUS
 62
    7
 10
172.93135090179999
 20
147.80690767710001
 11
172.94906821859999
 21
148.06219531939999
  0
LINE
  8
_0-0_0
  6
CONTINUOUS
 62
    7
 10
172.94906821859999
 20
148.06219531939999
 11
173.03340751990001
 21
148.26136676280001
  0
LINE
  8
_0-0_0
  6
CONTINUOUS
 62
    7
 10
173.03340751990001
 20
148.26136676280001
 11
173.15425340050001
 21
148.3745782908
  0
LINE
  8
_0-0_0
  6
CONTINUOUS
 62
    7
 10
170.40195726159999
 20
151.20950625859999
 11
169.68571363570001
 21
151.6228828221
  0
LINE
  8
_0-0_0
  6
CONTINUOUS
 62
    7
 10
168.08528716219999
 20
152.54656126329999
 11
167.89949726859999
 21
152.6537890068
  0
ARC
  8
_0-0_0
  6
CONTINUOUS
 62
    7
 10
163.5096439811
 20
159.04732219499999
 40
0.9782636897215055
 50
53.57501442809999
 51
116.5249421827
  0
ARC
  8
_0-0_0
  6
CONTINUOUS
 62
    7
 10
162.73847645480001
 20
158.90990810560001
 40
0.1507907517808395
 50
185.70008906070001
 51
245.64870987800003
  0
ARC
  8
_0-0_0
  6
CONTINUOUS
 62
    7
 10
164.84833207310001
 20
159.7920706534
 40
1.0058865762915421
 50
54.390875498
 51
114.30731801589999
  0
LINE
  8
_0-0_0
  6
CONTINUOUS
 62
    7
 10
166.3594734852
 20
151.5505161305
 11
166.3361079968
 21
151.55716098639999
  0
LINE
  8
_0-0_0
  6
CONTINUOUS
 62
    7
 10
166.3361079968
 20
151.55716098639999
 11
166.29043102049999
 21
151.5717045506
  0
LINE
  8
_0-0_0
  6
CONTINUOUS
 62
    7
 10
165.50288785079999
 20
154.5838666727
 11
165.32862413239999
 21
154.42420511009999
  0
LINE
  8
_0-0_0
  6
CONTINUOUS
 62
    7
 10
165.32862413239999
 20
154.42420511009999
 11
165.20263666549999
 21
154.0971495963
  0
LINE
  8
_0-0_0
  6
CONTINUOUS
 62
    7
 10
165.20263666549999
 20
154.0971495963
 11
165.20263666549999
 21
153.6717245918
  0
LINE
  8
_0-0_0
  6
CONTINUOUS
 62
    7
 10
165.20263666549999
 20
153.6717245918
 11
165.32862413239999
 21
153.1992428618
  0
LINE
  8
_0-0_0
  6
CONTINUOUS
 62
    7
 10
165.32862413239999
 20
153.1992428618
 11
165.39074595290001
 21
153.0532321334
  0
LINE
  8
_0-0_0
  6
CONTINUOUS
 62
    7
 10
166.7342505062
 20
153.82862932410001
 11
166.6721286856
 21
153.97464005250001
  0
LINE
  8
_0-0_0
  6
CONTINUOUS
 62
    7
 10
166.6721286856
 20
153.97464005250001
 11
166.59662359430001
 21
154.2034815582
  0
ARC
  8
_0-0_0
  6
CONTINUOUS
 62
    7
 10
173.07923653489999
 20
147.18031442099999
 40
0.1508538095177288
 50
294.36695210990001
 51
354.29926961680002
  0
ARC
  8
_0-0_0
  6
CONTINUOUS
 62
    7
 10
173.07923653489999
 20
146.4992562269
 40
0.1508538095176157
 50
294.36695210980002
 51
354.29926961669997
  0
ARC
  8
_0-0_0
  6
CONTINUOUS
 62
    7
 10
172.71995782979999
 20
146.26268255989999
 40
0.1452260689187412
 50
173.0631994176
 51
235.62463457859999
  0
ARC
  8
_0-0_0
  6
CONTINUOUS
 62
    7
 10
172.8572866005
 20
146.2620521012
 40
0.1439164339368086
 50
304.05583293989997
 51
7.2515898171000241
  0
ARC
  8
_0-0_0
  6
CONTINUOUS
 62
    7
 10
172.99441441900001
 20
146.34561800559999
 40
0.1479532655261041
 50
305.01262395800006
 51
6.2947987991000565
  0
ARC
  8
_0-0_0
  6
CONTINUOUS
 62
    7
 10
162.738491133
 20
153.8307271651
 40
0.1508106241686517
 50
185.69438878630001
 51
245.64600582849999
  0
ARC
  8
_0-0_0
  6
CONTINUOUS
 62
    7
 10
166.3623994427
 20
148.5443664963
 40
0.145226068873633
 50
173.06319940680001
 51
235.62463458950003
  0
ARC
  8
_0-0_0
  6
CONTINUOUS
 62
    7
 10
163.14022178530001
 20
152.9677124916
 40
0.1804306374013549
 50
181.67434400760001
 51
241.92055515060002
  0
LINE
  8
_0-0_0
  6
CONTINUOUS
 62
    7
 10
162.89230481000001
 20
152.97635539340001
 11
162.89354419079999
 21
152.97391879099999
  0
LINE
  8
_0-0_0
  6
CONTINUOUS
 62
    7
 10
162.89354419079999
 20
152.97391879099999
 11
162.90570750789999
 21
152.9654546905
  0
LINE
  8
_0-0_0
  6
CONTINUOUS
 62
    7
 10
162.90570750789999
 20
152.9654546905
 11
162.92809538700001
 21
152.961574931
  0
LINE
  8
_0-0_0
  6
CONTINUOUS
 62
    7
 10
162.92809538700001
 20
152.961574931
 11
162.95986818380001
 21
152.96244055069999
  0
LINE
  8
_0-0_0
  6
CONTINUOUS
 62
    7
 10
162.608736862
 20
153.7072516245
 11
162.6099762428
 21
153.70481504579999
  0
LINE
  8
_0-0_0
  6
CONTINUOUS
 62
    7
 10
162.6099762428
 20
153.70481504579999
 11
162.62213955979999
 21
153.6963509096
  0
LINE
  8
_0-0_0
  6
CONTINUOUS
 62
    7
 10
162.62213955979999
 20
153.6963509096
 11
162.64452743890001
 21
153.69247117399999
  0
LINE
  8
_0-0_0
  6
CONTINUOUS
 62
    7
 10
162.64452743890001
 20
153.69247117399999
 11
162.6763008943
 21
153.69333641360001
  0
LINE
  8
_0-0_0
  6
CONTINUOUS
 62
    7
 10
163.878382356
 20
150.33302170229999
 11
163.878382356
 21
150.118566004
  0
ARC
  8
_0-0_0
  6
CONTINUOUS
 62
    7
 10
140.3353433785
 20
130.436230077
 40
0.1439164571192531
 50
304.05583861740001
 51
7.25158413970001
  0
LINE
  8
_0-0_0
  6
CONTINUOUS
 62
    7
 10
134.11415031370001
 20
128.4141857809
 11
136.4476000448
 21
129.7609250694
  0
ARC
  8
_0-0_0
  6
CONTINUOUS
 62
    7
 10
134.94553438560001
 20
139.35394044989999
 40
0.1508839675023687
 50
54.391108752799994
 51
114.30714726160001
  0
ARC
  8
_0-0_0
  6
CONTINUOUS
 62
    7
 10
140.35382555300001
 20
136.3339921921
 40
0.1508691356976578
 50
65.689687853699994
 51
125.6114603556
  0
ARC
  8
_0-0_0
  6
CONTINUOUS
 62
    7
 10
140.41588141970001
 20
136.22663041140001
 40
0.1508410953348257
 50
294.36420564809998
 51
354.30208799569999
  0
ARC
  8
_0-0_0
  6
CONTINUOUS
 62
    7
 10
140.41588141970001
 20
130.59180355570001
 40
0.1508410953348851
 50
294.36420564809998
 51
354.30208799569999
  0
ARC
  8
_0-0_0
  6
CONTINUOUS
 62
    7
 10
135.12123537069999
 20
139.35395644720001
 40
0.1508691356977112
 50
65.689687853699994
 51
125.6114603556
  0
LINE
  8
_0-0_0
  6
CONTINUOUS
 62
    7
 10
140.5659840134
 20
132.34201272210001
 11
147.01884564459999
 21
136.06625077449999
  0
LINE
  8
_0-0_0
  6
CONTINUOUS
 62
    7
 10
146.3117374304
 20
139.25136944549999
 11
140.5659840134
 21
135.93523549779999
  0
LINE
  8
_0-0_0
  6
CONTINUOUS
 62
    7
 10
140.50660270020001
 20
136.3908182495
 11
146.0996054014
 21
139.61879285640001
  0
LINE
  8
_0-0_0
  6
CONTINUOUS
 62
    7
 10
142.6347822971
 20
141.6184988453
 11
137.06633013519999
 21
138.40469346410001
  0
LINE
  8
_0-0_0
  6
CONTINUOUS
 62
    7
 10
131.4094937269
 20
131.260721528
 11
130.2957737918
 21
130.61794342429999
  0
LINE
  8
_0-0_0
  6
CONTINUOUS
 62
    7
 10
140.6715239769
 20
132.30140702060001
 11
141.0084430851
 21
132.1069557779
  0
LINE
  8
_0-0_0
  6
CONTINUOUS
 62
    7
 10
134.82125460750001
 20
130.04585812089999
 11
134.89200862940001
 21
130.08669346440001
  0
LINE
  8
_0-0_0
  6
CONTINUOUS
 62
    7
 10
285.93173551839999
 20
218.48579129320001
 11
285.93173551839999
 21
220.11820421409999
  0
LINE
  8
_0-0_0
  6
CONTINUOUS
 62
    7
 10
286.53732018059998
 20
219.21120617490001
 11
286.53732018059998
 21
219.4256208031
  0
LINE
  8
_0-0_0
  6
CONTINUOUS
 62
    7
 10
286.44257108110003
 20
220.01185447239999
 11
286.44257108110003
 21
218.95208029419999
  0
LINE
  8
_0-0_0
  6
CONTINUOUS
 62
    7
 10
279.2426639894
 20
221.22865659109999
 11
279.2426639894
 21
222.3791880023
  0
LINE
  8
_0-0_0
  6
CONTINUOUS
 62
    7
 10
280.84263244509998
 20
222.7122824384
 11
280.84263244509998
 21
222.03767756810001
  0
LINE
  8
_0-0_0
  6
CONTINUOUS
 62
    7
 10
281.85837972600001
 20
222.6239111246
 11
281.85837972600001
 21
222.6575984632
  0
ARC
  8
_0-0_0
  6
CONTINUOUS
 62
    7
 10
169.952512254
 20
152.1424929307
 40
0.3167929605670005
 50
301.5763646735
 51
343.28101205680002
  0
LINE
  8
_0-0_0
  6
CONTINUOUS
 62
    7
 10
256.50936644770002
 20
197.9894719925
 11
256.36794269759997
 21
197.9078499554
  0
LINE
  8
_0-0_0
  6
CONTINUOUS
 62
    7
 10
174.83853102910001
 20
150.85354216429999
 11
174.4849821903
 21
150.6494931526
  0
LINE
  8
_0-0_0
  6
CONTINUOUS
 62
    7
 10
166.93840687689999
 20
154.00621862049999
 11
166.82784515649999
 21
153.9424084554
  0
ENDSEC
  0
EOF
