  0
SECTION
  2
HEADER
  9
$ACADVER
  1
AC1009
  9
$INSBASE
 10
0
 20
0
 30
0
  9
$EXTMIN
 10
0
 20
0
  9
$EXTMAX
 10
420
 20
297
  9
$LIMMIN
 10
0
 20
0
  9
$LIMMAX
 10
420
 20
297
  9
$LTSCALE
 40
1
  0
ENDSEC
  0
SECTION
  2
TABLES
  0
TABLE
  2
LTYPE
 70
     9
  0
LTYPE
  2
CONTINUOUS
 70
    64
  3
実線
 72
    65
 73
     0
 40
0.0
  0
LTYPE
  2
DASHED1
 70
    64
  3
--  --  --  --  --  --  --  --  
 72
    65
 73
     2
 40
2.5
 49
1.25
 49
-1.25
  0
LTYPE
  2
DASHED2
 70
    64
  3
----    ----    ----    ----    
 72
    65
 73
     2
 40
5.0
 49
2.5
 49
-2.5
  0
LTYPE
  2
DASHED3
 70
    64
  3
------  ------  ------  ------  
 72
    65
 73
     2
 40
5.0
 49
3.75
 49
-1.25
  0
LTYPE
  2
CENTER1
 70
    64
  3
----- - ----- - ----- - ----- - 
 72
    65
 73
     4
 40
10.0
 49
6.25
 49
-1.25
 49
1.25
 49
-1.25
  0
LTYPE
  2
CENTER2
 70
    64
  3
----------  --  ----------  --  
 72
    65
 73
     4
 40
20.0
 49
12.5
 49
-2.5
 49
2.5
 49
-2.5
  0
LTYPE
  2
PHANTOM1
 70
    64
  3
--- - - --- - - --- - - --- - - 
 72
    65
 73
     6
 40
10.0
 49
3.25
 49
-1.25
 49
1.25
 49
-1.25
 49
1.25
 49
-1.25
  0
LTYPE
  2
PHANTOM2
 70
    64
  3
--------  -  -  --------  -  -  
 72
    65
 73
     6
 40
20.0
 49
10.0
 49
-2.5
 49
1.25
 49
-2.5
 49
1.25
 49
-2.5
  0
LTYPE
  2
DOT
 70
    64
  3
-   -   -   -   -   -   -   -   
 72
    65
 73
     2
 40
2.5
 49
0.625
 49
-1.875
  0
LTYPE
  2
DUMMY
 70
    64
  3
ダミー
 72
    65
 73
     0
 40
0.0
  0
LTYPE
  2
RAND1
 70
    64
  3
ランダム線1
 72
    65
 73
     4
 40
10.0
 49
1.0
 49
-2.0
 49
3.0
 49
-4.0
  0
LTYPE
  2
RAND2
 70
    64
  3
ランダム線2
 72
    65
 73
     4
 40
14.0
 49
2.0
 49
-3.0
 49
4.0
 49
-5.0
  0
LTYPE
  2
RAND3
 70
    64
  3
ランダム線3
 72
    65
 73
     4
 40
18.0
 49
3.0
 49
-4.0
 49
5.0
 49
-6.0
  0
LTYPE
  2
RAND4
 70
    64
  3
ランダム線4
 72
    65
 73
     4
 40
22.0
 49
4.0
 49
-5.0
 49
6.0
 49
-7.0
  0
LTYPE
  2
RAND5
 70
    64
  3
ランダム線5
 72
    65
 73
     4
 40
26.0
 49
5.0
 49
-6.0
 49
7.0
 49
-8.0
  0
LTYPE
  2
LONG1
 70
    64
  3
----------  --  ----------  --  
 72
    65
 73
     4
 40
40.0
 49
32.5
 49
-2.5
 49
2.5
 49
-2.5
  0
LTYPE
  2
LONG2
 70
    64
  3
--------  -  -  --------  -  -  
 72
    65
 73
     6
 40
40.0
 49
30.0
 49
-2.5
 49
1.25
 49
-2.5
 49
1.25
 49
-2.5
  0
LTYPE
  2
LONG3
 70
    64
  3
+++++++++++++++..+++++++++++++++
 72
    65
 73
     2
 40
40.0
 49
37.5
 49
-2.5
  0
LTYPE
  2
LONG4
 70
    64
  3
+++++++++++++++..+++++++++++++++
 72
    65
 73
     2
 40
80.0
 49
75.0
 49
-5.0
  0
LTYPE
  2
LONG5
 70
    64
  3
----------  --  ----------  --  
 72
    65
 73
     4
 40
60.0
 49
37.5
 49
-7.5
 49
7.5
 49
-7.5
  0
LTYPE
  2
dashed
 70
   64
  3
-------   -------------   ------
 72
   65
 73
    2
 40
7.5
 49
6
 49
-1.5
  0
LTYPE
  2
dashed_spaced
 70
   64
  3
----        --------        ----
 72
   65
 73
    2
 40
12
 49
6
 49
-6
  0
LTYPE
  2
long_dashed_dotted
 70
   64
  3
------------- --- --------------
 72
   65
 73
    4
 40
15.25
 49
12
 49
-1.5
 49
0.25
 49
-1.5
  0
LTYPE
  2
long_dashed_double-dotted
 70
   64
  3
----------- --- --- ------------
 72
   65
 73
    6
 40
17
 49
12
 49
-1.5
 49
0.25
 49
-1.5
 49
0.25
 49
-1.5
  0
LTYPE
  2
long_dashed_triplicate-dotted
 70
   64
  3
--------- --- --- --- ----------
 72
   65
 73
    8
 40
18.75
 49
12
 49
-1.5
 49
0.25
 49
-1.5
 49
0.25
 49
-1.5
 49
0.25
 49
-1.5
  0
LTYPE
  2
dotted
 70
   64
  3
   -       -       -       -    
 72
   65
 73
    2
 40
1.75
 49
0.25
 49
-1.5
  0
LTYPE
  2
chain
 70
   64
  3
-------------- -- --------------
 72
   65
 73
    4
 40
18.5
 49
12
 49
-1.5
 49
3.5
 49
-1.5
  0
LTYPE
  2
chain_double_dash
 70
   64
  3
------------ -- -- -------------
 72
   65
 73
    6
 40
23.5
 49
12
 49
-1.5
 49
3.5
 49
-1.5
 49
3.5
 49
-1.5
  0
LTYPE
  2
dashed_dotted
 70
   64
  3
-----------     -     ----------
 72
   65
 73
    4
 40
9.25
 49
6
 49
-1.5
 49
0.25
 49
-1.5
  0
LTYPE
  2
double-dashed_dotted
 70
   64
  3
------   -----------   -   -----
 72
   65
 73
    6
 40
16.75
 49
6
 49
-1.5
 49
6
 49
-1.5
 49
0.25
 49
-1.5
  0
LTYPE
  2
dashed_double-dotted
 70
   64
  3
---------    -    -    ---------
 72
   65
 73
    6
 40
11
 49
6
 49
-1.5
 49
0.25
 49
-1.5
 49
0.25
 49
-1.5
  0
LTYPE
  2
double-dashed_double-dotted
 70
   64
  3
-----   ---------   -   -   ----
 72
   65
 73
    8
 40
18.5
 49
6
 49
-1.5
 49
6
 49
-1.5
 49
0.25
 49
-1.5
 49
0.25
 49
-1.5
  0
LTYPE
  2
dashed_triplicate-dotted
 70
   64
  3
-------    -    -    -    ------
 72
   65
 73
    8
 40
12.75
 49
6
 49
-1.5
 49
0.25
 49
-1.5
 49
0.25
 49
-1.5
 49
0.25
 49
-1.5
  0
LTYPE
  2
double-dashed_triplicate-dotted
 70
   64
  3
-----  ---------  -  -  -  -----
 72
   65
 73
   10
 40
20.25
 49
6
 49
-1.5
 49
6
 49
-1.5
 49
0.25
 49
-1.5
 49
0.25
 49
-1.5
 49
0.25
 49
-1.5
  0
LTYPE
  2
undefined
 70
   64
  3
--------------------------------
 72
   65
 73
    0
 40
0
  0
LTYPE
  2
SLD-破線
 70
   64
  3
------     -----------     -----
 72
   65
 73
    2
 40
1.905
 49
1.27
 49
-0.635
  0
LTYPE
  2
SLD-2点鎖線
 70
   64
  3
---------   ---   ---   --------
 72
   65
 73
    6
 40
12.699999999999998
 49
6.3499999999999996
 49
-1.27
 49
1.27
 49
-1.27
 49
1.27
 49
-1.27
  0
LTYPE
  2
SLD-1点鎖線_中心線_
 70
   64
  3
--------------- - --------------
 72
   65
 73
    4
 40
34.290000000000006
 49
30.48
 49
-1.27
 49
1.27
 49
-1.27
  0
LTYPE
  2
SLD-点線
 70
   64
  3
-               -               
 72
   65
 73
    2
 40
0.645
 49
0.01
 49
-0.635
  0
LTYPE
  2
_
 70
   64
  3
                                
 72
   65
 73
    0
 40
0
  0
LTYPE
  2
__22
 70
   64
  3
                                
 72
   65
 73
    0
 40
0
  0
LTYPE
  2
__23
 70
   64
  3
                                
 72
   65
 73
    0
 40
0
  0
LTYPE
  2
__24
 70
   64
  3
                                
 72
   65
 73
    0
 40
0
  0
LTYPE
  2
__25
 70
   64
  3
                                
 72
   65
 73
    0
 40
0
  0
LTYPE
  2
__26
 70
   64
  3
                                
 72
   65
 73
    0
 40
0
  0
LTYPE
  2
__27
 70
   64
  3
                                
 72
   65
 73
    0
 40
0
  0
LTYPE
  2
__28
 70
   64
  3
                                
 72
   65
 73
    0
 40
0
  0
LTYPE
  2
__29
 70
   64
  3
                                
 72
   65
 73
    0
 40
0
  0
LTYPE
  2
__30
 70
   64
  3
                                
 72
   65
 73
    0
 40
0
  0
LTYPE
  2
__31
 70
   64
  3
                                
 72
   65
 73
    0
 40
0
  0
LTYPE
  2
__32
 70
   64
  3
                                
 72
   65
 73
    0
 40
0
  0
ENDTAB
  0
TABLE
  2
STYLE
  5
3
100
AcDbSymbolTable
 70
     1
  0
STYLE
  5
10
100
AcDbSymbolTableRecord
100
AcDbTextStyleTableRecord
  2
STANDARD
 70
     0
 40
0.0
 41
1.0
 50
0.0
 71
     0
 42
0.2
  3
txt
  4
bigfont.shx
  0
STYLE
  5
26
100
AcDbSymbolTableRecord
100
AcDbTextStyleTableRecord
  2
TATEGAKI
 70
    68
 40
0.0
 41
1.0
 50
0.0
 71
     0
 42
1.0
  3
txt
  4
bigfont.shx
  0
ENDTAB
  0
TABLE
  2
LAYER
 70
    2
  0
LAYER
  2
_0-0_0
 70
   64
 62
    7
  6
CONTINUOUS
  0
LAYER
  2
ADD_LINE
 70
   64
 62
    7
  6
CONTINUOUS
  0
ENDTAB
  0
ENDSEC
  0
SECTION
  2
BLOCKS
  0
ENDSEC
  0
SECTION
  2
ENTITIES
  0
LINE
  8
_0-0_0
  6
CONTINUOUS
 62
    7
 10
161.40158512970001
 20
161.76362029110001
 11
161.50186762889999
 21
162.4452954461
  0
LINE
  8
_0-0_0
  6
CONTINUOUS
 62
    7
 10
160.42669493790001
 20
164.30821031209999
 11
159.78628411150001
 21
164.56239789150001
  0
LINE
  8
_0-0_0
  6
CONTINUOUS
 62
    7
 10
160.50757934999999
 20
162.69693751770001
 11
160.4911361522
 21
162.672166078
  0
LINE
  8
_0-0_0
  6
CONTINUOUS
 62
    7
 10
160.4911361522
 20
162.672166078
 11
160.3665092382
 21
162.53461107499999
  0
LINE
  8
_0-0_0
  6
CONTINUOUS
 62
    7
 10
160.3665092382
 20
162.53461107499999
 11
160.2723163002
 21
162.408223967
  0
LINE
  8
_0-0_0
  6
CONTINUOUS
 62
    7
 10
160.2723163002
 20
162.408223967
 11
160.22731992959999
 21
162.33471996279999
  0
LINE
  8
_0-0_0
  6
CONTINUOUS
 62
    7
 10
160.22731992959999
 20
162.33471996279999
 11
160.1769834216
 21
162.25009355189999
  0
LINE
  8
_0-0_0
  6
CONTINUOUS
 62
    7
 10
159.5857685041
 20
163.25337627850001
 11
159.68411356530001
 21
163.25469407989999
  0
LINE
  8
_0-0_0
  6
CONTINUOUS
 62
    7
 10
159.68411356530001
 20
163.25469407989999
 11
159.92556890910001
 21
163.27512933669999
  0
LINE
  8
_0-0_0
  6
CONTINUOUS
 62
    7
 10
159.92556890910001
 20
163.27512933669999
 11
160.10452311079999
 21
163.31264265120001
  0
LINE
  8
_0-0_0
  6
CONTINUOUS
 62
    7
 10
160.10452311079999
 20
163.31264265120001
 11
160.1423485903
 21
163.31469397820001
  0
LINE
  8
_0-0_0
  6
CONTINUOUS
 62
    7
 10
161.37704512720001
 20
167.3069673665
 11
160.38709994940001
 21
166.73562526870001
  0
LINE
  8
_0-0_0
  6
CONTINUOUS
 62
    7
 10
171.40111492899999
 20
159.0169890251
 11
171.29164474620001
 21
159.42913836509999
  0
LINE
  8
_0-0_0
  6
CONTINUOUS
 62
    7
 10
171.29164474620001
 20
159.42913836509999
 11
170.94148082620001
 21
160.46636987549999
  0
LINE
  8
_0-0_0
  6
CONTINUOUS
 62
    7
 10
170.94148082620001
 20
160.46636987549999
 11
170.49742953289999
 21
161.49449737149999
  0
LINE
  8
_0-0_0
  6
CONTINUOUS
 62
    7
 10
170.49742953289999
 20
161.49449737149999
 11
169.96764693980001
 21
162.49513585509999
  0
LINE
  8
_0-0_0
  6
CONTINUOUS
 62
    7
 10
169.96764693980001
 20
162.49513585509999
 11
169.36145383909999
 21
163.45083582160001
  0
LINE
  8
_0-0_0
  6
CONTINUOUS
 62
    7
 10
169.36145383909999
 20
163.45083582160001
 11
168.68941025940001
 21
164.34482327640001
  0
LINE
  8
_0-0_0
  6
CONTINUOUS
 62
    7
 10
168.68941025940001
 20
164.34482327640001
 11
167.9630783696
 21
165.1613579031
  0
LINE
  8
_0-0_0
  6
CONTINUOUS
 62
    7
 10
167.9630783696
 20
165.1613579031
 11
167.19471061659999
 21
165.88598914729999
  0
LINE
  8
_0-0_0
  6
CONTINUOUS
 62
    7
 10
167.19471061659999
 20
165.88598914729999
 11
166.3970887525
 21
166.5056977971
  0
LINE
  8
_0-0_0
  6
CONTINUOUS
 62
    7
 10
166.3970887525
 20
166.5056977971
 11
165.58329237679999
 21
167.00897904289999
  0
LINE
  8
_0-0_0
  6
CONTINUOUS
 62
    7
 10
165.58329237679999
 20
167.00897904289999
 11
164.76664483260001
 21
167.38586687079999
  0
LINE
  8
_0-0_0
  6
CONTINUOUS
 62
    7
 10
164.76664483260001
 20
167.38586687079999
 11
163.9610522751
 21
167.6278536149
  0
LINE
  8
_0-0_0
  6
CONTINUOUS
 62
    7
 10
163.9610522751
 20
167.6278536149
 11
163.953427976
 21
167.62884108680001
  0
LINE
  8
_0-0_0
  6
CONTINUOUS
 62
    7
 10
171.40599079259999
 20
155.6389995847
 11
171.40599079259999
 21
158.99870535209999
  0
ARC
  8
_0-0_0
  6
CONTINUOUS
 62
    7
 10
165.3477610281
 20
159.41811197179999
 40
1.640900577856939
 50
2.0444668645999999
 51
57.954534302600003
  0
ARC
  8
_0-0_0
  6
CONTINUOUS
 62
    7
 10
170.11604056229999
 20
155.0676548047
 40
0.2999999999999983
 50
240.00881341000007
 51
299.99118659000004
  0
LINE
  8
_0-0_0
  6
CONTINUOUS
 62
    7
 10
167.27907003429999
 20
156.3586137547
 11
169.96607565260001
 21
154.8078213865
  0
LINE
  8
_0-0_0
  6
CONTINUOUS
 62
    7
 10
170.26600480970001
 20
154.80782651749999
 11
171.2559499875
 21
155.37916861529999
  0
LINE
  8
_0-0_0
  6
CONTINUOUS
 62
    7
 10
166.98761707560001
 20
159.47665127479999
 11
166.98761707560001
 21
156.8633983643
  0
LINE
  8
_0-0_0
  6
CONTINUOUS
 62
    7
 10
162.75358655350001
 20
162.80869022229999
 11
166.21840982239999
 21
160.80898413829999
  0
ARC
  8
_0-0_0
  6
CONTINUOUS
 62
    7
 10
171.10599005590001
 20
155.63899939340001
 40
0.3000000000000114
 50
299.99118658999993
 51
359.99999999999994
  0
ARC
  8
_0-0_0
  6
CONTINUOUS
 62
    7
 10
167.62024484450001
 20
156.8921416869
 40
0.6332804059595459
 50
182.6014337906
 51
237.40081990109999
  0
ARC
  8
_0-0_0
  6
CONTINUOUS
 62
    7
 10
162.52918369880001
 20
162.55074023739999
 40
0.3418988679340336
 50
48.978454486099999
 51
111.5225356432
  0
LINE
  8
_0-0_0
  6
CONTINUOUS
 62
    7
 10
163.27426279310001
 20
161.8714511423
 11
163.27426279310001
 21
162.5081905081
  0
LINE
  8
_0-0_0
  6
CONTINUOUS
 62
    7
 10
158.85588913789999
 20
162.54732514080001
 11
158.85588913789999
 21
161.39325761629999
  0
LINE
  8
_0-0_0
  6
CONTINUOUS
 62
    7
 10
158.85588913789999
 20
164.75296338370001
 11
158.85588913789999
 21
164.5673903972
  0
LINE
  8
_0-0_0
  6
CONTINUOUS
 62
    7
 10
159.00592072329999
 20
161.133422086
 11
160.50071270640001
 21
160.27071008280001
  0
ARC
  8
_0-0_0
  6
CONTINUOUS
 62
    7
 10
159.1558854539
 20
161.3932556076
 40
0.3000000000000088
 50
180
 51
240.00881341000002
  0
LINE
  8
_0-0_0
  6
CONTINUOUS
 62
    7
 10
244.9227831019
 20
215.40132064470001
 11
244.6031677446
 21
215.21685617860001
  0
LINE
  8
_0-0_0
  6
CONTINUOUS
 62
    7
 10
254.93532837480001
 20
207.154720051
 11
254.8373827209
 21
207.52349164329999
  0
LINE
  8
_0-0_0
  6
CONTINUOUS
 62
    7
 10
254.8373827209
 20
207.52349164329999
 11
254.48722159970001
 21
208.5607245791
  0
LINE
  8
_0-0_0
  6
CONTINUOUS
 62
    7
 10
254.48722159970001
 20
208.5607245791
 11
254.04317277589999
 21
209.5888536903
  0
LINE
  8
_0-0_0
  6
CONTINUOUS
 62
    7
 10
254.04317277589999
 20
209.5888536903
 11
253.51338228029999
 21
210.58948761299999
  0
LINE
  8
_0-0_0
  6
CONTINUOUS
 62
    7
 10
253.51338228029999
 20
210.58948761299999
 11
252.90718670999999
 21
211.54518596419999
  0
LINE
  8
_0-0_0
  6
CONTINUOUS
 62
    7
 10
252.90718670999999
 20
211.54518596419999
 11
252.235148337
 21
212.43917649529999
  0
LINE
  8
_0-0_0
  6
CONTINUOUS
 62
    7
 10
252.235148337
 20
212.43917649529999
 11
251.50881379239999
 21
213.2557096136
  0
LINE
  8
_0-0_0
  6
CONTINUOUS
 62
    7
 10
251.50881379239999
 20
213.2557096136
 11
250.74044603940001
 21
213.98034085770001
  0
LINE
  8
_0-0_0
  6
CONTINUOUS
 62
    7
 10
250.74044603940001
 20
213.98034085770001
 11
249.94282425770001
 21
214.60004946000001
  0
LINE
  8
_0-0_0
  6
CONTINUOUS
 62
    7
 10
249.94282425770001
 20
214.60004946000001
 11
249.1290333149
 21
215.10333365139999
  0
LINE
  8
_0-0_0
  6
CONTINUOUS
 62
    7
 10
249.1290333149
 20
215.10333365139999
 11
248.3123801731
 21
215.4802186288
  0
LINE
  8
_0-0_0
  6
CONTINUOUS
 62
    7
 10
248.3123801731
 20
215.4802186288
 11
247.50679584740001
 21
215.72220974379999
  0
LINE
  8
_0-0_0
  6
CONTINUOUS
 62
    7
 10
247.50679584740001
 20
215.72220974379999
 11
247.49916595069999
 21
215.7231943651
  0
LINE
  8
_0-0_0
  6
CONTINUOUS
 62
    7
 10
254.95172876730001
 20
206.9074856439
 11
254.95172876730001
 21
207.09305863040001
  0
LINE
  8
_0-0_0
  6
CONTINUOUS
 62
    7
 10
254.95172876730001
 20
203.73335286299999
 11
254.95172876730001
 21
204.88742038749999
  0
LINE
  8
_0-0_0
  6
CONTINUOUS
 62
    7
 10
253.8919087244
 20
202.94844718249999
 11
254.80168796219999
 21
203.47352189360001
  0
ARC
  8
_0-0_0
  6
CONTINUOUS
 62
    7
 10
254.65172762700001
 20
203.73335232080001
 40
0.2999999999999842
 50
299.99118658999993
 51
359.99999999999994
  0
LINE
  8
_0-0_0
  6
CONTINUOUS
 62
    7
 10
243.16791147769999
 20
214.8090865897
 11
161.85063016609999
 21
167.8772088138
  0
LINE
  8
_0-0_0
  6
CONTINUOUS
 62
    7
 10
171.9938975117
 20
159.4378644231
 11
253.3111788233
 21
206.369742199
  0
LINE
  8
_0-0_0
  6
CONTINUOUS
 62
    7
 10
131.46902059129999
 20
135.19306401969999
 11
136.91374014280001
 21
138.33545771990001
  0
LINE
  8
_0-0_0
  6
CONTINUOUS
 62
    7
 10
131.381229848
 20
147.5099101104
 11
125.93651029660001
 21
144.3675164101
  0
ARC
  8
_0-0_0
  6
CONTINUOUS
 62
    7
 10
136.76378293299999
 20
144.2301168546
 40
0.3000000000000114
 50
0
 51
60.008813410000009
  0
LINE
  8
_0-0_0
  6
CONTINUOUS
 62
    7
 10
137.06378074200001
 20
138.5952888082
 11
137.06378074200001
 21
144.23011566380001
  0
LINE
  8
_0-0_0
  6
CONTINUOUS
 62
    7
 10
136.91373859929999
 20
144.48994493469999
 11
131.68114846840001
 21
147.50990916020001
  0
ARC
  8
_0-0_0
  6
CONTINUOUS
 62
    7
 10
136.76378293299999
 20
138.595290124
 40
0.3000000000000114
 50
299.99118658999993
 51
359.99999999999994
  0
ARC
  8
_0-0_0
  6
CONTINUOUS
 62
    7
 10
131.53119275220001
 20
147.25008110889999
 40
0.3000000000000476
 50
60.008813410000009
 51
119.99118659
  0
LINE
  8
_0-0_0
  6
CONTINUOUS
 62
    7
 10
137.06378208999999
 20
140.2589535802
 11
143.4544771196
 21
143.94731247749999
  0
LINE
  8
_0-0_0
  6
CONTINUOUS
 62
    7
 10
138.98262569900001
 20
149.6517986488
 11
133.47629799180001
 21
146.47384809779999
  0
LINE
  8
_0-0_0
  6
CONTINUOUS
 62
    7
 10
131.25688610820001
 20
137.92691985670001
 11
131.47775666780001
 21
138.05439423780001
  0
LINE
  8
_0-0_0
  6
CONTINUOUS
 62
    7
 10
165.6121056746
 20
161.15891377119999
 11
143.51665195289999
 21
148.406628934
  0
LINE
  8
_0-0_0
  6
CONTINUOUS
 62
    7
 10
143.5166497303
 20
146.55927076099999
 11
166.6161994343
 21
159.89106476469999
  0
LINE
  8
_0-0_0
  6
CONTINUOUS
 62
    7
 10
166.6161994343
 20
159.89106476469999
 11
166.849991378
 21
160.0125069371
  0
LINE
  8
_0-0_0
  6
CONTINUOUS
 62
    7
 10
166.849991378
 20
160.0125069371
 11
166.85634048790001
 21
160.0149078652
  0
LINE
  8
_0-0_0
  6
CONTINUOUS
 62
    7
 10
253.73485746610001
 20
210.17117921030001
 11
278.07228118419999
 21
224.2174062471
  0
LINE
  8
_0-0_0
  6
CONTINUOUS
 62
    7
 10
277.5610236951
 20
225.7696933366
 11
252.90920029220001
 21
211.54201203400001
  0
LINE
  8
_0-0_0
  6
CONTINUOUS
 62
    7
 10
252.7970281012
 20
211.6917279676
 11
276.28605419809998
 21
225.24830639800001
  0
LINE
  8
_0-0_0
  6
CONTINUOUS
 62
    7
 10
275.77480732800001
 20
226.80059952120001
 11
251.77925513740001
 21
212.95168199220001
  0
LINE
  8
_0-0_0
  6
CONTINUOUS
 62
    7
 10
163.82588930750001
 20
162.18981995589999
 11
142.0188780803
 21
149.60400831699999
  0
LINE
  8
_0-0_0
  6
CONTINUOUS
 62
    7
 10
143.51664833090001
 20
148.62108241769999
 11
164.82998298480001
 21
160.92197099680001
  0
LINE
  8
_0-0_0
  6
CONTINUOUS
 62
    7
 10
164.82998298480001
 20
160.92197099680001
 11
165.15976231810001
 21
161.13341798299999
  0
LINE
  8
_0-0_0
  6
CONTINUOUS
 62
    7
 10
165.15976231810001
 20
161.13341798299999
 11
165.3571564245
 21
161.30605411580001
  0
LINE
  8
_0-0_0
  6
CONTINUOUS
 62
    7
 10
171.8046005393
 20
158.0066346596
 11
253.82898479670001
 21
205.34661349949999
  0
LINE
  8
_0-0_0
  6
CONTINUOUS
 62
    7
 10
171.82557584040001
 20
154.9947906937
 11
253.84996009779999
 21
202.33476953370001
  0
ARC
  8
_0-0_0
  6
CONTINUOUS
 62
    7
 10
253.6973179618
 20
205.96917008759999
 40
1.5428139462402271
 50
324.39651093060002
 51
35.603489069399998
  0
LINE
  8
_0-0_0
  6
CONTINUOUS
 62
    7
 10
161.41859731
 20
162.017313871
 11
161.30739285019999
 21
162.70569489100001
  0
LINE
  8
_0-0_0
  6
CONTINUOUS
 62
    7
 10
161.30739285019999
 20
162.70569489100001
 11
160.99782161370001
 21
163.4118996951
  0
LINE
  8
_0-0_0
  6
CONTINUOUS
 62
    7
 10
160.99782161370001
 20
163.4118996951
 11
160.5370129968
 21
164.02841486759999
  0
LINE
  8
_0-0_0
  6
CONTINUOUS
 62
    7
 10
160.5370129968
 20
164.02841486759999
 11
159.99512108729999
 21
164.46138162330001
  0
LINE
  8
_0-0_0
  6
CONTINUOUS
 62
    7
 10
159.99512108729999
 20
164.46138162330001
 11
159.45464439
 21
164.6448843101
  0
LINE
  8
_0-0_0
  6
CONTINUOUS
 62
    7
 10
159.45464439
 20
164.6448843101
 11
158.99786474839999
 21
164.55098694
  0
LINE
  8
_0-0_0
  6
CONTINUOUS
 62
    7
 10
158.99786474839999
 20
164.55098694
 11
158.69432314540001
 21
164.19398427120001
  0
LINE
  8
_0-0_0
  6
CONTINUOUS
 62
    7
 10
158.69432314540001
 20
164.19398427120001
 11
158.5902309663
 21
163.62822673349999
  0
LINE
  8
_0-0_0
  6
CONTINUOUS
 62
    7
 10
158.5902309663
 20
163.62822673349999
 11
158.7014360846
 21
162.93984530969999
  0
LINE
  8
_0-0_0
  6
CONTINUOUS
 62
    7
 10
158.7014360846
 20
162.93984530969999
 11
159.01100732110001
 21
162.2336405531
  0
LINE
  8
_0-0_0
  6
CONTINUOUS
 62
    7
 10
159.01100732110001
 20
162.2336405531
 11
159.47181527949999
 21
161.61712576069999
  0
LINE
  8
_0-0_0
  6
CONTINUOUS
 62
    7
 10
159.47181527949999
 20
161.61712576069999
 11
160.013707189
 21
161.184159005
  0
LINE
  8
_0-0_0
  6
CONTINUOUS
 62
    7
 10
160.013707189
 20
161.184159005
 11
160.55418454479999
 21
161.00065584309999
  0
LINE
  8
_0-0_0
  6
CONTINUOUS
 62
    7
 10
160.55418454479999
 20
161.00065584309999
 11
161.0109635279
 21
161.0945535932
  0
LINE
  8
_0-0_0
  6
CONTINUOUS
 62
    7
 10
161.0109635279
 20
161.0945535932
 11
161.31450513089999
 21
161.45155630959999
  0
LINE
  8
_0-0_0
  6
CONTINUOUS
 62
    7
 10
161.31450513089999
 20
161.45155630959999
 11
161.41859731
 21
162.017313871
  0
ARC
  8
_0-0_0
  6
CONTINUOUS
 62
    7
 10
161.33337091000001
 20
163.6008843409
 40
1.2287815125099231
 50
182.80735073490001
 51
237.62746196109998
  0
LINE
  8
_0-0_0
  6
CONTINUOUS
 62
    7
 10
160.1035082937
 20
163.99131941959999
 11
160.106064105
 21
163.5407011897
  0
LINE
  8
_0-0_0
  6
CONTINUOUS
 62
    7
 10
159.89138057100001
 20
164.11213800600001
 11
160.1035082937
 21
163.99131941959999
  0
LINE
  8
_0-0_0
  6
CONTINUOUS
 62
    7
 10
159.8939363822
 20
163.66151977609999
 11
159.89138057100001
 21
164.11213800600001
  0
LINE
  8
_0-0_0
  6
CONTINUOUS
 62
    7
 10
159.33198059719999
 20
163.32825768719999
 11
159.54693545149999
 21
163.2549376879
  0
LINE
  8
_0-0_0
  6
CONTINUOUS
 62
    7
 10
159.54693545149999
 20
163.2549376879
 11
159.73090315260001
 21
163.2923811039
  0
LINE
  8
_0-0_0
  6
CONTINUOUS
 62
    7
 10
159.73090315260001
 20
163.2923811039
 11
159.85283069260001
 21
163.4363455525
  0
LINE
  8
_0-0_0
  6
CONTINUOUS
 62
    7
 10
159.85283069260001
 20
163.4363455525
 11
159.8939363822
 21
163.66151977609999
  0
LINE
  8
_0-0_0
  6
CONTINUOUS
 62
    7
 10
158.94307977220001
 20
163.54975844480001
 11
159.33198059719999
 21
163.32825768719999
  0
LINE
  8
_0-0_0
  6
CONTINUOUS
 62
    7
 10
158.9444739109
 20
163.30396666999999
 11
158.94307977220001
 21
163.54975844480001
  0
LINE
  8
_0-0_0
  6
CONTINUOUS
 62
    7
 10
159.33337407740001
 20
163.08246626869999
 11
158.9444739109
 21
163.30396666999999
  0
ARC
  8
_0-0_0
  6
CONTINUOUS
 62
    7
 10
158.67537065569999
 20
162.0446049597
 40
1.2288712706260969
 50
2.8095215749000002
 51
57.62532817360001
  0
LINE
  8
_0-0_0
  6
CONTINUOUS
 62
    7
 10
159.90532064109999
 20
161.65422082859999
 11
159.90276482990001
 21
162.104839011
  0
LINE
  8
_0-0_0
  6
CONTINUOUS
 62
    7
 10
160.11744770530001
 20
161.5334025272
 11
159.90532064109999
 21
161.65422082859999
  0
LINE
  8
_0-0_0
  6
CONTINUOUS
 62
    7
 10
160.1148918941
 20
161.98402080470001
 11
160.11744770530001
 21
161.5334025272
  0
LINE
  8
_0-0_0
  6
CONTINUOUS
 62
    7
 10
160.67684833760001
 20
162.3172825135
 11
160.4615661867
 21
162.3906310399
  0
LINE
  8
_0-0_0
  6
CONTINUOUS
 62
    7
 10
160.4615661867
 20
162.3906310399
 11
160.27795805100001
 21
162.35317319999999
  0
LINE
  8
_0-0_0
  6
CONTINUOUS
 62
    7
 10
160.27795805100001
 20
162.35317319999999
 11
160.15615629300001
 21
162.2095520158
  0
LINE
  8
_0-0_0
  6
CONTINUOUS
 62
    7
 10
160.15615629300001
 20
162.2095520158
 11
160.1148918941
 21
161.98402080470001
  0
LINE
  8
_0-0_0
  6
CONTINUOUS
 62
    7
 10
161.06574850409999
 20
162.0957821122
 11
160.67684833760001
 21
162.3172825135
  0
LINE
  8
_0-0_0
  6
CONTINUOUS
 62
    7
 10
161.06435436539999
 20
162.34157391069999
 11
161.06574850409999
 21
162.0957821122
  0
LINE
  8
_0-0_0
  6
CONTINUOUS
 62
    7
 10
160.67545419890001
 20
162.5630743358
 11
161.06435436539999
 21
162.34157391069999
  0
LINE
  8
_0-0_0
  6
CONTINUOUS
 62
    7
 10
161.06574850409999
 20
162.0957821122
 11
160.98329873169999
 21
162.38773841369999
  0
LINE
  8
_0-0_0
  6
CONTINUOUS
 62
    7
 10
159.89138057100001
 20
164.11213800600001
 11
160.10404830019999
 21
163.8968480879
  0
LINE
  8
_0-0_0
  6
CONTINUOUS
 62
    7
 10
159.90532064109999
 20
161.65422082859999
 11
160.13197914840001
 21
162.07740831850001
  0
LINE
  8
_0-0_0
  6
CONTINUOUS
 62
    7
 10
160.39181578660001
 20
162.56254410619999
 11
160.47690039560001
 21
162.72140335509999
  0
LINE
  8
_0-0_0
  6
CONTINUOUS
 62
    7
 10
158.9444739109
 20
163.30396666999999
 11
160.1494523099
 21
163.27047061779999
  0
LINE
  8
_0-0_0
  6
CONTINUOUS
 62
    7
 10
159.33337407740001
 20
163.08246626869999
 11
160.20393501410001
 21
163.14380817669999
  0
ARC
  8
_0-0_0
  6
CONTINUOUS
 62
    7
 10
159.00638251620001
 20
164.7518477898
 40
0.1495110280180045
 50
114.76302051739998
 51
209.4527261902
  0
ARC
  8
_0-0_0
  6
CONTINUOUS
 62
    7
 10
162.01935668679999
 20
163.91849458900001
 40
3.2246701327588752
 50
74.387083772400004
 51
162.51044413720001
  0
ARC
  8
_0-0_0
  6
CONTINUOUS
 62
    7
 10
170.0698967132
 20
158.77694478289999
 40
0.527372562264737
 50
251.65460423600001
 51
299.32409919909998
  0
ARC
  8
_0-0_0
  6
CONTINUOUS
 62
    7
 10
157.88273588390001
 20
155.45908420489999
 40
12.340962666922
 50
14.542942927499999
 51
60.09431662010001
  0
LINE
  8
_0-0_0
  6
CONTINUOUS
 62
    7
 10
159.01227172660001
 20
164.77917397760001
 11
158.92085718780001
 21
164.72433603280001
  0
LINE
  8
_0-0_0
  6
CONTINUOUS
 62
    7
 10
158.92085718780001
 20
164.72433603280001
 11
158.8761940407
 21
164.67833242840001
  0
ARC
  8
_0-0_0
  6
CONTINUOUS
 62
    7
 10
162.99321051339999
 20
164.2579648988
 40
3.4508559233222291
 50
76.021090319899997
 51
117.92643689729999
  0
LINE
  8
_0-0_0
  6
CONTINUOUS
 62
    7
 10
171.31812218670001
 20
158.88849006870001
 11
170.32817700890001
 21
158.31714797090001
  0
LINE
  8
_0-0_0
  6
CONTINUOUS
 62
    7
 10
169.90390905109999
 20
154.94522424120001
 11
169.90390905109999
 21
158.2763751919
  0
LINE
  8
_0-0_0
  6
CONTINUOUS
 62
    7
 10
167.21690343270001
 20
156.49601660939999
 11
169.90390905109999
 21
154.94522424120001
  0
ARC
  8
_0-0_0
  6
CONTINUOUS
 62
    7
 10
167.38249329530001
 20
156.75491926749999
 40
0.3073281453776319
 50
182.60228946410004
 51
237.39769043520002
  0
LINE
  8
_0-0_0
  6
CONTINUOUS
 62
    7
 10
167.07548208009999
 20
159.35421858719999
 11
167.07548208009999
 21
156.7409656767
  0
ARC
  8
_0-0_0
  6
CONTINUOUS
 62
    7
 10
165.07990984720001
 20
159.26352002420001
 40
1.9976322899474539
 50
2.6022967181999999
 51
57.397703365300003
  0
LINE
  8
_0-0_0
  6
CONTINUOUS
 62
    7
 10
162.69141995199999
 20
162.94609307690001
 11
166.1562432209
 21
160.946386993
  0
ARC
  8
_0-0_0
  6
CONTINUOUS
 62
    7
 10
162.33265955190001
 20
162.50597448760001
 40
0.5678145800236627
 50
50.814979495599999
 51
189.22029560179999
  0
LINE
  8
_0-0_0
  6
CONTINUOUS
 62
    7
 10
158.9437541218
 20
162.12066493029999
 11
158.9437541218
 21
161.27082494070001
  0
LINE
  8
_0-0_0
  6
CONTINUOUS
 62
    7
 10
158.9437541218
 20
162.12066493029999
 11
159.30852851020001
 21
161.61756571390001
  0
LINE
  8
_0-0_0
  6
CONTINUOUS
 62
    7
 10
159.30852851020001
 20
161.61756571390001
 11
159.73002004439999
 21
161.21269349100001
  0
LINE
  8
_0-0_0
  6
CONTINUOUS
 62
    7
 10
159.73002004439999
 20
161.21269349100001
 11
160.17387509150001
 21
160.939046902
  0
LINE
  8
_0-0_0
  6
CONTINUOUS
 62
    7
 10
160.17387509150001
 20
160.939046902
 11
160.6039184846
 21
160.81892869820001
  0
LINE
  8
_0-0_0
  6
CONTINUOUS
 62
    7
 10
160.6039184846
 20
160.81892869820001
 11
160.985101168
 21
160.8621286325
  0
LINE
  8
_0-0_0
  6
CONTINUOUS
 62
    7
 10
160.985101168
 20
160.8621286325
 11
161.28635498739999
 21
161.06512608630001
  0
LINE
  8
_0-0_0
  6
CONTINUOUS
 62
    7
 10
161.28635498739999
 20
161.06512608630001
 11
161.48312742780001
 21
161.41137610460001
  0
LINE
  8
_0-0_0
  6
CONTINUOUS
 62
    7
 10
161.48312742780001
 20
161.41137610460001
 11
161.55938029640001
 21
161.87265874010001
  0
LINE
  8
_0-0_0
  6
CONTINUOUS
 62
    7
 10
161.55938029640001
 20
161.87265874010001
 11
161.50890022569999
 21
162.41137745419999
  0
LINE
  8
_0-0_0
  6
CONTINUOUS
 62
    7
 10
161.50890022569999
 20
162.41137745419999
 11
161.3358004847
 21
162.9836258837
  0
LINE
  8
_0-0_0
  6
CONTINUOUS
 62
    7
 10
161.3358004847
 20
162.9836258837
 11
161.05418907230001
 21
163.54276416139999
  0
LINE
  8
_0-0_0
  6
CONTINUOUS
 62
    7
 10
161.05418907230001
 20
163.54276416139999
 11
160.68701824050001
 21
164.0432211321
  0
LINE
  8
_0-0_0
  6
CONTINUOUS
 62
    7
 10
160.68701824050001
 20
164.0432211321
 11
160.2642135685
 21
164.44420812249999
  0
LINE
  8
_0-0_0
  6
CONTINUOUS
 62
    7
 10
160.2642135685
 20
164.44420812249999
 11
159.8202340565
 21
164.7130439618
  0
LINE
  8
_0-0_0
  6
CONTINUOUS
 62
    7
 10
159.8202340565
 20
164.7130439618
 11
159.3912667251
 21
164.82781692379999
  0
LINE
  8
_0-0_0
  6
CONTINUOUS
 62
    7
 10
159.3912667251
 20
164.82781692379999
 11
159.01227172660001
 21
164.77917397760001
  0
LINE
  8
_0-0_0
  6
CONTINUOUS
 62
    7
 10
171.4021867102
 20
158.99860216159999
 11
171.40387785249999
 21
158.98175111079999
  0
LINE
  8
_0-0_0
  6
CONTINUOUS
 62
    7
 10
171.40387785249999
 20
158.98175111079999
 11
171.37592000399999
 21
158.9331362886
  0
LINE
  8
_0-0_0
  6
CONTINUOUS
 62
    7
 10
171.37592000399999
 20
158.9331362886
 11
171.31812218670001
 21
158.88849006870001
  0
LINE
  8
_0-0_0
  6
CONTINUOUS
 62
    7
 10
170.32817700890001
 20
158.31714797090001
 11
170.32817700890001
 21
154.9452261415
  0
ARC
  8
_0-0_0
  6
CONTINUOUS
 62
    7
 10
170.11604119570001
 20
155.35473361379999
 40
0.461191904771005
 50
242.61514953860001
 51
297.38536373940002
  0
LINE
  8
_0-0_0
  6
CONTINUOUS
 62
    7
 10
171.31812218670001
 20
155.5165682393
 11
171.31812218670001
 21
158.88849006870001
  0
LINE
  8
_0-0_0
  6
CONTINUOUS
 62
    7
 10
171.31812218670001
 20
155.5165682393
 11
170.32817700890001
 21
154.9452261415
  0
ARC
  8
_0-0_0
  6
CONTINUOUS
 62
    7
 10
161.9843131774
 20
162.82450273469999
 40
0.4611919978176704
 50
242.6152042256
 51
297.38536038059999
  0
LINE
  8
_0-0_0
  6
CONTINUOUS
 62
    7
 10
161.49582153169999
 20
162.4042111519
 11
161.49843924620001
 21
162.4101073233
  0
LINE
  8
_0-0_0
  6
CONTINUOUS
 62
    7
 10
161.49843924620001
 20
162.4101073233
 11
161.50564965000001
 21
162.42730590080001
  0
LINE
  8
_0-0_0
  6
CONTINUOUS
 62
    7
 10
160.41254545059999
 20
164.32055104220001
 11
160.38809698579999
 21
164.32352851709999
  0
LINE
  8
_0-0_0
  6
CONTINUOUS
 62
    7
 10
158.8761940407
 20
164.67833242840001
 11
158.86627109209999
 21
164.65122058739999
  0
LINE
  8
_0-0_0
  6
CONTINUOUS
 62
    7
 10
158.86627109209999
 20
164.65122058739999
 11
158.85588913789999
 21
164.5673903972
  0
ARC
  8
_0-0_0
  6
CONTINUOUS
 62
    7
 10
159.7285610534
 20
162.50466287450001
 40
0.8737141072212668
 50
177.20121244399999
 51
206.0720268986
  0
LINE
  8
_0-0_0
  6
CONTINUOUS
 62
    7
 10
158.85588913789999
 20
164.5673903972
 11
158.85588913789999
 21
164.279091677
  0
LINE
  8
_0-0_0
  6
CONTINUOUS
 62
    7
 10
158.85588913789999
 20
162.8356239085
 11
158.85588913789999
 21
162.54732514080001
  0
ARC
  8
_0-0_0
  6
CONTINUOUS
 62
    7
 10
240.4938487153
 20
203.01365588709999
 40
13.38427899734589
 50
15.775047570699998
 51
49.444581115299997
  0
ARC
  8
_0-0_0
  6
CONTINUOUS
 62
    7
 10
245.50847422539999
 20
211.24868261899999
 40
3.9787450853417079
 50
76.564066487700003
 51
95.709020298799999
  0
LINE
  8
_0-0_0
  6
CONTINUOUS
 62
    7
 10
253.81059790469999
 20
206.38375669000001
 11
253.8739097152
 21
206.41149820859999
  0
ARC
  8
_0-0_0
  6
CONTINUOUS
 62
    7
 10
246.53894869889999
 20
212.35231645330001
 40
3.4508575450860901
 50
76.021100630600003
 51
117.9264265867
  0
LINE
  8
_0-0_0
  6
CONTINUOUS
 62
    7
 10
253.8739097152
 20
206.41149820859999
 11
254.8638601614
 21
206.98284334690001
  0
LINE
  8
_0-0_0
  6
CONTINUOUS
 62
    7
 10
254.8638601614
 20
206.98284334690001
 11
254.9216609421
 21
207.02749089720001
  0
LINE
  8
_0-0_0
  6
CONTINUOUS
 62
    7
 10
254.9216609421
 20
207.02749089720001
 11
254.94961582720001
 21
207.07610438910001
  0
LINE
  8
_0-0_0
  6
CONTINUOUS
 62
    7
 10
254.94961582720001
 20
207.07610438910001
 11
254.94484203810001
 21
207.12350925059999
  0
LINE
  8
_0-0_0
  6
CONTINUOUS
 62
    7
 10
254.94484203810001
 20
207.12350925059999
 11
254.9314212303
 21
207.1436634097
  0
LINE
  8
_0-0_0
  6
CONTINUOUS
 62
    7
 10
254.8638601614
 20
203.61092151759999
 11
254.8638601614
 21
206.98284334690001
  0
LINE
  8
_0-0_0
  6
CONTINUOUS
 62
    7
 10
254.95172876730001
 20
206.9074856439
 11
254.95172876730001
 21
206.6191869237
  0
LINE
  8
_0-0_0
  6
CONTINUOUS
 62
    7
 10
254.95172876730001
 20
205.1757191552
 11
254.95172876730001
 21
204.88742038749999
  0
LINE
  8
_0-0_0
  6
CONTINUOUS
 62
    7
 10
172.0251908882
 20
159.59609836640001
 11
171.64575812219999
 21
160.71939342109999
  0
LINE
  8
_0-0_0
  6
CONTINUOUS
 62
    7
 10
171.64575812219999
 20
160.71939342109999
 11
171.16081319049999
 21
161.8336180405
  0
LINE
  8
_0-0_0
  6
CONTINUOUS
 62
    7
 10
171.16081319049999
 20
161.8336180405
 11
170.57983798160001
 21
162.9169866172
  0
LINE
  8
_0-0_0
  6
CONTINUOUS
 62
    7
 10
170.57983798160001
 20
162.9169866172
 11
169.9141923059
 21
163.948316245
  0
LINE
  8
_0-0_0
  6
CONTINUOUS
 62
    7
 10
169.9141923059
 20
163.948316245
 11
169.1768911842
 21
164.90744122429999
  0
LINE
  8
_0-0_0
  6
CONTINUOUS
 62
    7
 10
169.1768911842
 20
164.90744122429999
 11
168.3823508557
 21
165.77560873580001
  0
LINE
  8
_0-0_0
  6
CONTINUOUS
 62
    7
 10
168.3823508557
 20
165.77560873580001
 11
167.54610675559999
 21
166.53584315480001
  0
LINE
  8
_0-0_0
  6
CONTINUOUS
 62
    7
 10
167.54610675559999
 20
166.53584315480001
 11
166.68450967979999
 21
167.17328036559999
  0
LINE
  8
_0-0_0
  6
CONTINUOUS
 62
    7
 10
166.68450967979999
 20
167.17328036559999
 11
165.8144059377
 21
167.67545655519999
  0
LINE
  8
_0-0_0
  6
CONTINUOUS
 62
    7
 10
165.8144059377
 20
167.67545655519999
 11
164.95280910880001
 21
168.03255241799999
  0
LINE
  8
_0-0_0
  6
CONTINUOUS
 62
    7
 10
164.95280910880001
 20
168.03255241799999
 11
164.1165649264
 21
168.23758656659999
  0
LINE
  8
_0-0_0
  6
CONTINUOUS
 62
    7
 10
164.1165649264
 20
168.23758656659999
 11
163.3220247214
 21
168.2865492416
  0
LINE
  8
_0-0_0
  6
CONTINUOUS
 62
    7
 10
163.3220247214
 20
168.2865492416
 11
162.58472355859999
 21
168.17848387800001
  0
LINE
  8
_0-0_0
  6
CONTINUOUS
 62
    7
 10
162.58472355859999
 20
168.17848387800001
 11
161.91907796519999
 21
167.91550260279999
  0
LINE
  8
_0-0_0
  6
CONTINUOUS
 62
    7
 10
161.91907796519999
 20
167.91550260279999
 11
161.3381027563
 21
167.50274812070001
  0
LINE
  8
_0-0_0
  6
CONTINUOUS
 62
    7
 10
161.3381027563
 20
167.50274812070001
 11
160.92297605479999
 21
167.0449040901
  0
LINE
  8
_0-0_0
  6
CONTINUOUS
 62
    7
 10
171.8939241992
 20
159.44775665559999
 11
171.92809047610001
 21
159.43287584460001
  0
LINE
  8
_0-0_0
  6
CONTINUOUS
 62
    7
 10
171.92809047610001
 20
159.43287584460001
 11
171.96023304569999
 21
159.42855283980001
  0
LINE
  8
_0-0_0
  6
CONTINUOUS
 62
    7
 10
171.96023304569999
 20
159.42855283980001
 11
171.98844673880001
 21
159.4350441233
  0
LINE
  8
_0-0_0
  6
CONTINUOUS
 62
    7
 10
171.98844673880001
 20
159.4350441233
 11
172.0110604987
 21
159.4519649097
  0
LINE
  8
_0-0_0
  6
CONTINUOUS
 62
    7
 10
172.0110604987
 20
159.4519649097
 11
172.02673484580001
 21
159.47831256360001
  0
LINE
  8
_0-0_0
  6
CONTINUOUS
 62
    7
 10
172.02673484580001
 20
159.47831256360001
 11
172.03454057389999
 21
159.5125263267
  0
LINE
  8
_0-0_0
  6
CONTINUOUS
 62
    7
 10
172.03454057389999
 20
159.5125263267
 11
172.0340153846
 21
159.5525793635
  0
LINE
  8
_0-0_0
  6
CONTINUOUS
 62
    7
 10
172.0340153846
 20
159.5525793635
 11
172.0251908882
 21
159.59609836640001
  0
LINE
  8
_0-0_0
  6
CONTINUOUS
 62
    7
 10
171.1380938989
 20
159.8839804779
 11
171.8939241992
 21
159.44775665559999
  0
LINE
  8
_0-0_0
  6
CONTINUOUS
 62
    7
 10
170.88958587260001
 20
160.91580381360001
 11
170.7757737412
 21
160.85004767410001
  0
LINE
  8
_0-0_0
  6
CONTINUOUS
 62
    7
 10
170.7395858973
 20
161.42060381440001
 11
170.80116458329999
 21
161.37451467010001
  0
LINE
  8
_0-0_0
  6
CONTINUOUS
 62
    7
 10
170.80116458329999
 20
161.37451467010001
 11
170.85744017490001
 21
161.31129625240001
  0
LINE
  8
_0-0_0
  6
CONTINUOUS
 62
    7
 10
170.85744017490001
 20
161.31129625240001
 11
170.90356627860001
 21
161.2363925617
  0
LINE
  8
_0-0_0
  6
CONTINUOUS
 62
    7
 10
170.90356627860001
 20
161.2363925617
 11
170.93557038930001
 21
161.1562544638
  0
LINE
  8
_0-0_0
  6
CONTINUOUS
 62
    7
 10
170.93557038930001
 20
161.1562544638
 11
170.9506964981
 21
161.07778335340001
  0
LINE
  8
_0-0_0
  6
CONTINUOUS
 62
    7
 10
170.9506964981
 20
161.07778335340001
 11
170.94764183940001
 21
161.00773723189999
  0
LINE
  8
_0-0_0
  6
CONTINUOUS
 62
    7
 10
170.94764183940001
 20
161.00773723189999
 11
170.9266696663
 21
160.9521482504
  0
LINE
  8
_0-0_0
  6
CONTINUOUS
 62
    7
 10
170.9266696663
 20
160.9521482504
 11
170.88958587260001
 21
160.91580381360001
  0
LINE
  8
_0-0_0
  6
CONTINUOUS
 62
    7
 10
170.4472188069
 20
161.58934207440001
 11
170.7395858973
 21
161.42060381440001
  0
LINE
  8
_0-0_0
  6
CONTINUOUS
 62
    7
 10
253.3424721998
 20
206.52797614229999
 11
252.96303943379999
 21
207.651271197
  0
LINE
  8
_0-0_0
  6
CONTINUOUS
 62
    7
 10
252.96303943379999
 20
207.651271197
 11
252.47809450209999
 21
208.76549581629999
  0
LINE
  8
_0-0_0
  6
CONTINUOUS
 62
    7
 10
252.47809450209999
 20
208.76549581629999
 11
251.89711929320001
 21
209.8488643931
  0
LINE
  8
_0-0_0
  6
CONTINUOUS
 62
    7
 10
251.89711929320001
 20
209.8488643931
 11
251.2314736175
 21
210.88019402079999
  0
LINE
  8
_0-0_0
  6
CONTINUOUS
 62
    7
 10
251.2314736175
 20
210.88019402079999
 11
250.4941724958
 21
211.83931900019999
  0
LINE
  8
_0-0_0
  6
CONTINUOUS
 62
    7
 10
250.4941724958
 20
211.83931900019999
 11
249.6996321673
 21
212.70748651170001
  0
LINE
  8
_0-0_0
  6
CONTINUOUS
 62
    7
 10
249.6996321673
 20
212.70748651170001
 11
248.86338806719999
 21
213.46772093070001
  0
LINE
  8
_0-0_0
  6
CONTINUOUS
 62
    7
 10
248.86338806719999
 20
213.46772093070001
 11
248.00179099139999
 21
214.1051581415
  0
LINE
  8
_0-0_0
  6
CONTINUOUS
 62
    7
 10
248.00179099139999
 20
214.1051581415
 11
247.1316872493
 21
214.60733433109999
  0
LINE
  8
_0-0_0
  6
CONTINUOUS
 62
    7
 10
247.1316872493
 20
214.60733433109999
 11
246.27009042040001
 21
214.9644301939
  0
LINE
  8
_0-0_0
  6
CONTINUOUS
 62
    7
 10
246.27009042040001
 20
214.9644301939
 11
245.433846238
 21
215.16946434249999
  0
LINE
  8
_0-0_0
  6
CONTINUOUS
 62
    7
 10
245.433846238
 20
215.16946434249999
 11
244.639306033
 21
215.21842701750001
  0
LINE
  8
_0-0_0
  6
CONTINUOUS
 62
    7
 10
244.639306033
 20
215.21842701750001
 11
243.90200487019999
 21
215.11036165389999
  0
LINE
  8
_0-0_0
  6
CONTINUOUS
 62
    7
 10
243.90200487019999
 20
215.11036165389999
 11
243.23635927679999
 21
214.8473803787
  0
LINE
  8
_0-0_0
  6
CONTINUOUS
 62
    7
 10
243.23635927679999
 20
214.8473803787
 11
243.16791147769999
 21
214.8090865897
  0
LINE
  8
_0-0_0
  6
CONTINUOUS
 62
    7
 10
253.3424721998
 20
206.52797614229999
 11
172.0251908882
 21
159.59609836640001
  0
ARC
  8
_0-0_0
  6
CONTINUOUS
 62
    7
 10
253.21836079479999
 20
206.47030986030001
 40
0.136854086253831
 50
312.70518800479999
 51
24.921146491400002
  0
LINE
  8
_0-0_0
  6
CONTINUOUS
 62
    7
 10
131.31906056080001
 20
141.33271402599999
 11
136.7637801123
 21
144.4751077263
  0
ARC
  8
_0-0_0
  6
CONTINUOUS
 62
    7
 10
136.51539582620001
 20
144.08675401510001
 40
0.460991711985943
 50
2.6022812690000001
 51
57.397725110499991
  0
LINE
  8
_0-0_0
  6
CONTINUOUS
 62
    7
 10
136.97591214639999
 20
144.10768431240001
 11
131.53119259499999
 21
140.96529061219999
  0
ARC
  8
_0-0_0
  6
CONTINUOUS
 62
    7
 10
131.07067627480001
 20
140.9443603149
 40
0.4609917119859978
 50
2.6022812690000001
 51
57.397725110499991
  0
LINE
  8
_0-0_0
  6
CONTINUOUS
 62
    7
 10
131.53119259499999
 20
140.1894811217
 11
131.53119259499999
 21
140.96529061219999
  0
LINE
  8
_0-0_0
  6
CONTINUOUS
 62
    7
 10
130.82111876970001
 20
140.5992968146
 11
131.53119259499999
 21
140.1894811217
  0
ARC
  8
_0-0_0
  6
CONTINUOUS
 62
    7
 10
130.35724189499999
 20
140.5304138569
 40
0.4689633426339526
 50
8.4463613494000001
 51
57.102474138500014
  0
LINE
  8
_0-0_0
  6
CONTINUOUS
 62
    7
 10
130.61195379750001
 20
140.92417579440001
 11
126.7935769978
 21
143.1279335982
  0
LINE
  8
_0-0_0
  6
CONTINUOUS
 62
    7
 10
126.5844120668
 20
143.04449170980001
 11
126.5937923747
 21
143.0806094406
  0
LINE
  8
_0-0_0
  6
CONTINUOUS
 62
    7
 10
126.5937923747
 20
143.0806094406
 11
126.6093043906
 21
143.1106601951
  0
LINE
  8
_0-0_0
  6
CONTINUOUS
 62
    7
 10
126.6093043906
 20
143.1106601951
 11
126.630472316
 21
143.13372165210001
  0
LINE
  8
_0-0_0
  6
CONTINUOUS
 62
    7
 10
126.630472316
 20
143.13372165210001
 11
126.65664649679999
 21
143.14908591349999
  0
LINE
  8
_0-0_0
  6
CONTINUOUS
 62
    7
 10
126.65664649679999
 20
143.14908591349999
 11
126.6870235085
 21
143.15628137740001
  0
LINE
  8
_0-0_0
  6
CONTINUOUS
 62
    7
 10
126.6870235085
 20
143.15628137740001
 11
126.7206708524
 21
143.15508738540001
  0
LINE
  8
_0-0_0
  6
CONTINUOUS
 62
    7
 10
126.7206708524
 20
143.15508738540001
 11
126.7565559304
 21
143.14554031700001
  0
LINE
  8
_0-0_0
  6
CONTINUOUS
 62
    7
 10
126.7565559304
 20
143.14554031700001
 11
126.7935769978
 21
143.1279335982
  0
LINE
  8
_0-0_0
  6
CONTINUOUS
 62
    7
 10
125.87433842670001
 20
143.4543072957
 11
126.5844120668
 21
143.04449170980001
  0
LINE
  8
_0-0_0
  6
CONTINUOUS
 62
    7
 10
125.87433842670001
 20
143.4543072957
 11
125.87433842670001
 21
144.2301167862
  0
ARC
  8
_0-0_0
  6
CONTINUOUS
 62
    7
 10
126.0036794838
 20
144.2511125554
 40
0.131034084848542
 50
50.814914330300006
 51
189.2203252258
  0
LINE
  8
_0-0_0
  6
CONTINUOUS
 62
    7
 10
126.0864704299
 20
144.35267825150001
 11
131.31906056080001
 21
141.33271402599999
  0
LINE
  8
_0-0_0
  6
CONTINUOUS
 62
    7
 10
131.53119259499999
 20
135.33046375660001
 11
136.97591214639999
 21
138.4728574568
  0
LINE
  8
_0-0_0
  6
CONTINUOUS
 62
    7
 10
131.53119259499999
 20
135.33046375660001
 11
131.53119259499999
 21
136.10627324710001
  0
LINE
  8
_0-0_0
  6
CONTINUOUS
 62
    7
 10
131.53119259499999
 20
136.10627324710001
 11
133.65251723750001
 21
137.33058556099999
  0
LINE
  8
_0-0_0
  6
CONTINUOUS
 62
    7
 10
133.65251723750001
 20
137.33058556099999
 11
133.65251723750001
 21
141.4137934357
  0
LINE
  8
_0-0_0
  6
CONTINUOUS
 62
    7
 10
133.65251723750001
 20
141.4137934357
 11
131.53119259499999
 21
140.1894811217
  0
LINE
  8
_0-0_0
  6
CONTINUOUS
 62
    7
 10
136.97591214639999
 20
138.4728574568
 11
136.97591214639999
 21
144.10768431240001
  0
LINE
  8
_0-0_0
  6
CONTINUOUS
 62
    7
 10
131.53118998139999
 20
147.4950719517
 11
126.0864704299
 21
144.35267825150001
  0
LINE
  8
_0-0_0
  6
CONTINUOUS
 62
    7
 10
136.7637801123
 20
144.4751077263
 11
131.53118998139999
 21
147.4950719517
  0
ARC
  8
_0-0_0
  6
CONTINUOUS
 62
    7
 10
132.69723766609999
 20
137.7786712349
 40
0.2481742318927155
 50
351.12924428600002
 51
0.1961733097999693
  0
LINE
  8
_0-0_0
  6
CONTINUOUS
 62
    7
 10
132.94541044330001
 20
137.7795209496
 11
132.94541044330001
 21
141.00569007019999
  0
LINE
  8
_0-0_0
  6
CONTINUOUS
 62
    7
 10
132.94244341219999
 20
137.74040125389999
 11
133.65251723750001
 21
137.33058556099999
  0
LINE
  8
_0-0_0
  6
CONTINUOUS
 62
    7
 10
132.94244341219999
 20
137.74040125389999
 11
130.82111876970001
 21
136.51608893989999
  0
LINE
  8
_0-0_0
  6
CONTINUOUS
 62
    7
 10
130.82111876970001
 20
136.51608893989999
 11
131.53119259499999
 21
136.10627324710001
  0
LINE
  8
_0-0_0
  6
CONTINUOUS
 62
    7
 10
129.94020226180001
 20
136.82034524299999
 11
129.94020226180001
 21
136.00370374409999
  0
LINE
  8
_0-0_0
  6
CONTINUOUS
 62
    7
 10
129.94020226180001
 20
136.82034524299999
 11
130.61195379750001
 21
136.4326470753
  0
LINE
  8
_0-0_0
  6
CONTINUOUS
 62
    7
 10
130.82111876970001
 20
136.51608893989999
 11
130.81173862630001
 21
136.47997120919999
  0
LINE
  8
_0-0_0
  6
CONTINUOUS
 62
    7
 10
130.81173862630001
 20
136.47997120919999
 11
130.79622652809999
 21
136.44992040700001
  0
LINE
  8
_0-0_0
  6
CONTINUOUS
 62
    7
 10
130.79622652809999
 20
136.44992040700001
 11
130.77505852039999
 21
136.42685899759999
  0
LINE
  8
_0-0_0
  6
CONTINUOUS
 62
    7
 10
130.77505852039999
 20
136.42685899759999
 11
130.748884422
 21
136.41149468859999
  0
LINE
  8
_0-0_0
  6
CONTINUOUS
 62
    7
 10
130.748884422
 20
136.41149468859999
 11
130.71850749250001
 21
136.4042991773
  0
LINE
  8
_0-0_0
  6
CONTINUOUS
 62
    7
 10
130.71850749250001
 20
136.4042991773
 11
130.68486014870001
 21
136.40549316920001
  0
LINE
  8
_0-0_0
  6
CONTINUOUS
 62
    7
 10
130.68486014870001
 20
136.40549316920001
 11
130.64897511180001
 21
136.4150402139
  0
LINE
  8
_0-0_0
  6
CONTINUOUS
 62
    7
 10
130.64897511180001
 20
136.4150402139
 11
130.61195379750001
 21
136.4326470753
  0
ARC
  8
_0-0_0
  6
CONTINUOUS
 62
    7
 10
131.4018514226
 20
135.3094681808
 40
0.131034167605931
 50
230.81499141550003
 51
9.2202337020000371
  0
LINE
  8
_0-0_0
  6
CONTINUOUS
 62
    7
 10
129.94020226180001
 20
136.00370374409999
 11
131.31906056080001
 21
135.20790230910001
  0
LINE
  8
_0-0_0
  6
CONTINUOUS
 62
    7
 10
130.4472152669
 20
137.81327419979999
 11
132.9454011414
 21
139.15612274969999
  0
LINE
  8
_0-0_0
  6
CONTINUOUS
 62
    7
 10
130.4472152669
 20
137.81327419979999
 11
130.4472152669
 21
138.15061589870001
  0
LINE
  8
_0-0_0
  6
CONTINUOUS
 62
    7
 10
130.4472152669
 20
138.15061589870001
 11
132.9454011414
 21
139.59245813039999
  0
LINE
  8
_0-0_0
  6
CONTINUOUS
 62
    7
 10
130.4472152669
 20
138.15061589870001
 11
129.8298516049
 21
138.50692436669999
  0
LINE
  8
_0-0_0
  6
CONTINUOUS
 62
    7
 10
129.8298516049
 20
138.50692436669999
 11
132.94541101959999
 21
140.4328643751
  0
LINE
  8
_0-0_0
  6
CONTINUOUS
 62
    7
 10
129.8298516049
 20
138.50692436669999
 11
129.8298516049
 21
138.1695826678
  0
LINE
  8
_0-0_0
  6
CONTINUOUS
 62
    7
 10
129.8298516049
 20
138.1695826678
 11
130.4472152669
 21
137.81327419979999
  0
LINE
  8
_0-0_0
  6
CONTINUOUS
 62
    7
 10
126.75833103710001
 20
143.144868207
 11
126.5844120668
 21
143.04449170980001
  0
LINE
  8
_0-0_0
  6
CONTINUOUS
 62
    7
 10
132.9454095378
 20
138.5547861675
 11
129.94020226180001
 21
136.82034524299999
  0
LINE
  8
_0-0_0
  6
CONTINUOUS
 62
    7
 10
132.76665043
 20
140.90251958050001
 11
132.94540575120001
 21
140.7993518067
  0
LINE
  8
_0-0_0
  6
CONTINUOUS
 62
    7
 10
143.5166490718
 20
148.73956899679999
 11
143.5166490718
 21
144.08471214900001
  0
LINE
  8
_0-0_0
  6
CONTINUOUS
 62
    7
 10
142.80954085760001
 20
147.2698309626
 11
142.80954085760001
 21
148.08647246149999
  0
ARC
  8
_0-0_0
  6
CONTINUOUS
 62
    7
 10
143.2700843282
 20
148.06552625180001
 40
0.4610195570915867
 50
122.60353716379998
 51
177.39589636420001
  0
LINE
  8
_0-0_0
  6
CONTINUOUS
 62
    7
 10
143.02167648290001
 20
148.4538979479
 11
143.5166490718
 21
148.73956899679999
  0
LINE
  8
_0-0_0
  6
CONTINUOUS
 62
    7
 10
128.2827769502
 20
139.39981106229999
 11
130.73122962580001
 21
140.81294954000001
  0
LINE
  8
_0-0_0
  6
CONTINUOUS
 62
    7
 10
128.2827769502
 20
139.39981106229999
 11
127.66541320589999
 21
139.75611957780001
  0
LINE
  8
_0-0_0
  6
CONTINUOUS
 62
    7
 10
127.66541320589999
 20
139.75611957780001
 11
130.0653150169
 21
141.23966287580001
  0
LINE
  8
_0-0_0
  6
CONTINUOUS
 62
    7
 10
128.2827769502
 20
139.0624693634
 11
130.9757781532
 21
140.51003704850001
  0
LINE
  8
_0-0_0
  6
CONTINUOUS
 62
    7
 10
128.2827769502
 20
139.0624693634
 11
128.2827769502
 21
139.39981106229999
  0
LINE
  8
_0-0_0
  6
CONTINUOUS
 62
    7
 10
127.66541320589999
 20
139.41877787889999
 11
128.2827769502
 21
139.0624693634
  0
LINE
  8
_0-0_0
  6
CONTINUOUS
 62
    7
 10
127.66541320589999
 20
139.75611957780001
 11
127.66541320589999
 21
139.41877787889999
  0
ARC
  8
_0-0_0
  6
CONTINUOUS
 62
    7
 10
142.34902437150001
 20
147.24890057159999
 40
0.460991881974091
 50
2.6022919724000002
 51
57.397709592499979
  0
LINE
  8
_0-0_0
  6
CONTINUOUS
 62
    7
 10
142.5974088543
 20
147.63725435859999
 11
139.13258550309999
 21
149.63696049009999
  0
LINE
  8
_0-0_0
  6
CONTINUOUS
 62
    7
 10
128.70276963699999
 20
142.02605711589999
 11
128.70276963699999
 21
140.3973802397
  0
LINE
  8
_0-0_0
  6
CONTINUOUS
 62
    7
 10
127.99566306920001
 20
140.595411735
 11
128.5270238642
 21
140.288739408
  0
LINE
  8
_0-0_0
  6
CONTINUOUS
 62
    7
 10
127.99566306920001
 20
140.595411735
 11
127.99566306920001
 21
142.4341602703
  0
LINE
  8
_0-0_0
  6
CONTINUOUS
 62
    7
 10
125.87433842670001
 20
139.37109942110001
 11
126.5844120668
 21
138.96128383510001
  0
ARC
  8
_0-0_0
  6
CONTINUOUS
 62
    7
 10
127.04828955009999
 20
139.0301671812
 40
0.4689640017678414
 50
188.44639736529999
 51
237.10243167280001
  0
LINE
  8
_0-0_0
  6
CONTINUOUS
 62
    7
 10
126.7935769978
 20
138.636404879
 11
127.4653286158
 21
138.24870666370001
  0
LINE
  8
_0-0_0
  6
CONTINUOUS
 62
    7
 10
127.4653286158
 20
138.24870666370001
 11
127.4653286158
 21
137.43206516480001
  0
LINE
  8
_0-0_0
  6
CONTINUOUS
 62
    7
 10
126.0864704299
 20
138.2278665346
 11
127.4653286158
 21
137.43206516480001
  0
ARC
  8
_0-0_0
  6
CONTINUOUS
 62
    7
 10
126.3348549128
 20
138.6162203216
 40
0.4609918819740754
 50
182.6022919724
 51
237.39770959250001
  0
LINE
  8
_0-0_0
  6
CONTINUOUS
 62
    7
 10
125.87433842670001
 20
138.59528993059999
 11
125.87433842670001
 21
139.37109942110001
  0
LINE
  8
_0-0_0
  6
CONTINUOUS
 62
    7
 10
127.4653286158
 20
138.24870666370001
 11
131.1796144713
 21
140.39238887959999
  0
LINE
  8
_0-0_0
  6
CONTINUOUS
 62
    7
 10
132.9100481673
 20
140.57445886510001
 11
132.94540937319999
 21
140.5982941032
  0
LINE
  8
_0-0_0
  6
CONTINUOUS
 62
    7
 10
127.4653286158
 20
137.43206516480001
 11
132.9100481673
 21
140.57445886510001
  0
LINE
  8
_0-0_0
  6
CONTINUOUS
 62
    7
 10
126.5844120668
 20
138.96128383510001
 11
127.6654155108
 21
139.5851797732
  0
LINE
  8
_0-0_0
  6
CONTINUOUS
 62
    7
 10
139.83969618680001
 20
140.81884353109999
 11
139.1255389122
 21
140.40667109520001
  0
LINE
  8
_0-0_0
  6
CONTINUOUS
 62
    7
 10
139.1255389122
 20
140.40667109520001
 11
139.1255389122
 21
140.48833511199999
  0
LINE
  8
_0-0_0
  6
CONTINUOUS
 62
    7
 10
138.42547975849999
 20
140.4109559762
 11
139.1255389122
 21
140.48833511199999
  0
LINE
  8
_0-0_0
  6
CONTINUOUS
 62
    7
 10
138.42547975849999
 20
140.4109559762
 11
137.0637783034
 21
139.6250565311
  0
ARC
  8
_0-0_0
  6
CONTINUOUS
 62
    7
 10
137.3129096637
 20
140.3610301013
 40
0.3047827000259528
 50
215.17398906139999
 51
309.37127782329998
  0
LINE
  8
_0-0_0
  6
CONTINUOUS
 62
    7
 10
139.13258797270001
 20
141.06405251149999
 11
137.50624645569999
 21
140.12541732770001
  0
LINE
  8
_0-0_0
  6
CONTINUOUS
 62
    7
 10
139.83969618680001
 20
141.25333817449999
 11
139.13258797270001
 21
141.06405251149999
  0
LINE
  8
_0-0_0
  6
CONTINUOUS
 62
    7
 10
139.83969618680001
 20
140.81884353109999
 11
139.83969618680001
 21
141.25333817449999
  0
LINE
  8
_0-0_0
  6
CONTINUOUS
 62
    7
 10
125.87433842670001
 20
139.37109942110001
 11
127.99566306920001
 21
140.595411735
  0
LINE
  8
_0-0_0
  6
CONTINUOUS
 62
    7
 10
131.41689892350001
 20
138.3345076871
 11
131.99031963909999
 21
138.00356067929999
  0
LINE
  8
_0-0_0
  6
CONTINUOUS
 62
    7
 10
131.63370198300001
 20
139.62200748090001
 11
131.69480437659999
 21
139.79190104950001
  0
LINE
  8
_0-0_0
  6
CONTINUOUS
 62
    7
 10
131.69480437659999
 20
139.79190104950001
 11
131.80533777950001
 21
139.72810722770001
  0
LINE
  8
_0-0_0
  6
CONTINUOUS
 62
    7
 10
132.20657791759999
 20
138.12837313200001
 11
132.48771847059999
 21
138.91010530470001
  0
LINE
  8
_0-0_0
  6
CONTINUOUS
 62
    7
 10
132.839339091
 20
139.09911147790001
 11
132.839339091
 21
138.49356819970001
  0
LINE
  8
_0-0_0
  6
CONTINUOUS
 62
    7
 10
130.4518977653
 20
138.89145346399999
 11
130.43517468600001
 21
138.90110510869999
  0
LINE
  8
_0-0_0
  6
CONTINUOUS
 62
    7
 10
130.43517468600001
 20
138.90110510869999
 11
130.92244493839999
 21
139.18233079109999
  0
LINE
  8
_0-0_0
  6
CONTINUOUS
 62
    7
 10
139.13258797270001
 20
141.06405251149999
 11
138.79566886449999
 21
141.25850375420001
  0
LINE
  8
_0-0_0
  6
CONTINUOUS
 62
    7
 10
130.43517468600001
 20
138.881115967
 11
130.43517468600001
 21
138.90110510869999
  0
LINE
  8
_0-0_0
  6
CONTINUOUS
 62
    7
 10
131.77807453080001
 20
137.88106449200001
 11
131.31905830740001
 21
138.1459834975
  0
LINE
  8
_0-0_0
  6
CONTINUOUS
 62
    7
 10
131.31905830740001
 20
138.06431929050001
 11
131.31905830740001
 21
138.1459834975
  0
ARC
  8
_0-0_0
  6
CONTINUOUS
 62
    7
 10
131.18971692119999
 20
138.04332402590001
 40
0.1310343287600891
 50
230.81500111209999
 51
9.2200844319000019
  0
LINE
  8
_0-0_0
  6
CONTINUOUS
 62
    7
 10
131.10692597479999
 20
137.9417580153
 11
130.90405936350001
 21
138.05884150419999
  0
LINE
  8
_0-0_0
  6
CONTINUOUS
 62
    7
 10
131.69480437659999
 20
139.79190104950001
 11
131.92010035530001
 21
139.92192954000001
  0
LINE
  8
_0-0_0
  6
CONTINUOUS
 62
    7
 10
131.92010035530001
 20
139.92192954000001
 11
132.02290145789999
 21
139.86259837809999
  0
ARC
  8
_0-0_0
  6
CONTINUOUS
 62
    7
 10
143.37400435820001
 20
144.06649150600001
 40
0.1438037070428251
 50
304.02823908080006
 51
7.2792257642000608
  0
ARC
  8
_0-0_0
  6
CONTINUOUS
 62
    7
 10
139.04473369159999
 20
149.51429139210001
 40
0.1508828962878326
 50
54.390933736400001
 51
114.30729754629999
  0
LINE
  8
_0-0_0
  6
CONTINUOUS
 62
    7
 10
142.80954085760001
 20
148.08647246149999
 11
138.9204534998
 21
150.33104052370001
  0
LINE
  8
_0-0_0
  6
CONTINUOUS
 62
    7
 10
139.1325891251
 20
150.69846601009999
 11
143.02167648290001
 21
148.4538979479
  0
ARC
  8
_0-0_0
  6
CONTINUOUS
 62
    7
 10
139.38099697050001
 20
150.31009431390001
 40
0.4610195570917878
 50
122.60353716379998
 51
177.39589636420001
  0
LINE
  8
_0-0_0
  6
CONTINUOUS
 62
    7
 10
138.9204534998
 20
149.61591642400001
 11
138.9204534998
 21
150.33104052370001
  0
LINE
  8
_0-0_0
  6
CONTINUOUS
 62
    7
 10
139.627561714
 20
150.98413705900001
 11
143.5166490718
 21
148.73956899679999
  0
LINE
  8
_0-0_0
  6
CONTINUOUS
 62
    7
 10
139.1325891251
 20
150.69846601009999
 11
139.627561714
 21
150.98413705900001
  0
LINE
  8
_0-0_0
  6
CONTINUOUS
 62
    7
 10
139.31320746879999
 20
141.55719860569999
 11
139.83969618680001
 21
141.25333817449999
  0
LINE
  8
_0-0_0
  6
CONTINUOUS
 62
    7
 10
139.1255389122
 20
140.40667109520001
 11
139.0067855568
 21
140.47520902310001
  0
LINE
  8
_0-0_0
  6
CONTINUOUS
 62
    7
 10
283.73136281759997
 20
225.9887578801
 11
283.62176125510001
 21
226.0520138947
  0
LINE
  8
_0-0_0
  6
CONTINUOUS
 62
    7
 10
283.62176125510001
 20
226.0520138947
 11
283.38079981969997
 21
225.9129441613
  0
LINE
  8
_0-0_0
  6
CONTINUOUS
 62
    7
 10
283.38079981969997
 20
225.9129441613
 11
283.20402309539998
 21
226.01496999739999
  0
LINE
  8
_0-0_0
  6
CONTINUOUS
 62
    7
 10
283.20402309539998
 20
226.01496999739999
 11
282.81596981720003
 21
225.79100691439999
  0
LINE
  8
_0-0_0
  6
CONTINUOUS
 62
    7
 10
282.81596981720003
 20
225.79100691439999
 11
282.63919317519998
 21
225.89303270299999
  0
LINE
  8
_0-0_0
  6
CONTINUOUS
 62
    7
 10
282.63919317519998
 20
225.89303270299999
 11
282.25091204059999
 21
225.66893811380001
  0
LINE
  8
_0-0_0
  6
CONTINUOUS
 62
    7
 10
282.25091204059999
 20
225.66893811380001
 11
282.07413539859999
 21
225.77096390240001
  0
LINE
  8
_0-0_0
  6
CONTINUOUS
 62
    7
 10
282.07413539859999
 20
225.77096390240001
 11
281.68585558109999
 21
225.5468700733
  0
LINE
  8
_0-0_0
  6
CONTINUOUS
 62
    7
 10
281.68585558109999
 20
225.5468700733
 11
281.50907885679999
 21
225.64889590940001
  0
LINE
  8
_0-0_0
  6
CONTINUOUS
 62
    7
 10
281.50907885679999
 20
225.64889590940001
 11
281.12079706359998
 21
225.4248009401
  0
LINE
  8
_0-0_0
  6
CONTINUOUS
 62
    7
 10
281.12079706359998
 20
225.4248009401
 11
280.94402033940003
 21
225.52682677620001
  0
LINE
  8
_0-0_0
  6
CONTINUOUS
 62
    7
 10
280.94402033940003
 20
225.52682677620001
 11
280.76787153729998
 21
225.4251633424
  0
LINE
  8
_0-0_0
  6
CONTINUOUS
 62
    7
 10
280.76787153729998
 20
225.4251633424
 11
280.43538698549997
 21
225.35333733120001
  0
LINE
  8
_0-0_0
  6
CONTINUOUS
 62
    7
 10
280.43538698549997
 20
225.35333733120001
 11
282.45798197689999
 21
226.5206683019
  0
ARC
  8
_0-0_0
  6
CONTINUOUS
 62
    7
 10
282.08671017
 20
227.394782599
 40
0.9496939291242576
 50
293.01290080119998
 51
2.9756274026000482
  0
LINE
  8
_0-0_0
  6
CONTINUOUS
 62
    7
 10
283.03512363359999
 20
227.44408230529999
 11
282.94037455469999
 21
228.03031596279999
  0
LINE
  8
_0-0_0
  6
CONTINUOUS
 62
    7
 10
282.42953894559997
 20
228.1366657312
 11
282.4971854607
 21
228.16597442099999
  0
LINE
  8
_0-0_0
  6
CONTINUOUS
 62
    7
 10
282.4971854607
 20
228.16597442099999
 11
282.5763185971
 21
228.18322009889999
  0
LINE
  8
_0-0_0
  6
CONTINUOUS
 62
    7
 10
282.5763185971
 20
228.18322009889999
 11
282.66064670309999
 21
228.18703140389999
  0
LINE
  8
_0-0_0
  6
CONTINUOUS
 62
    7
 10
282.66064670309999
 20
228.18703140389999
 11
282.74346690679999
 21
228.17710591459999
  0
LINE
  8
_0-0_0
  6
CONTINUOUS
 62
    7
 10
282.74346690679999
 20
228.17710591459999
 11
282.8181937631
 21
228.15423190800001
  0
LINE
  8
_0-0_0
  6
CONTINUOUS
 62
    7
 10
282.8181937631
 20
228.15423190800001
 11
282.87888798260002
 21
228.1202287358
  0
LINE
  8
_0-0_0
  6
CONTINUOUS
 62
    7
 10
282.87888798260002
 20
228.1202287358
 11
282.92072338079998
 21
228.07779895069999
  0
LINE
  8
_0-0_0
  6
CONTINUOUS
 62
    7
 10
282.92072338079998
 20
228.07779895069999
 11
282.94037455469999
 21
228.03031596279999
  0
LINE
  8
_0-0_0
  6
CONTINUOUS
 62
    7
 10
282.42953894559997
 20
228.1366657312
 11
283.61736752849998
 21
228.82221528439999
  0
LINE
  8
_0-0_0
  6
CONTINUOUS
 62
    7
 10
283.61736752849998
 20
228.82221528439999
 11
284.04597521229999
 21
226.1703349105
  0
LINE
  8
_0-0_0
  6
CONTINUOUS
 62
    7
 10
284.04597521229999
 20
226.1703349105
 11
283.73136281759997
 21
225.9887578801
  0
LINE
  8
_0-0_0
  6
CONTINUOUS
 62
    7
 10
278.31367791759999
 20
226.94534667100001
 11
279.02117335600002
 21
227.35367426019999
  0
LINE
  8
_0-0_0
  6
CONTINUOUS
 62
    7
 10
274.42459055979998
 20
229.1899147332
 11
278.31367791759999
 21
226.94534667100001
  0
LINE
  8
_0-0_0
  6
CONTINUOUS
 62
    7
 10
275.13208599820001
 20
229.59824232240001
 11
274.42459055979998
 21
229.1899147332
  0
LINE
  8
_0-0_0
  6
CONTINUOUS
 62
    7
 10
275.13208599820001
 20
229.59824232240001
 11
279.02117335600002
 21
227.35367426019999
  0
LINE
  8
_0-0_0
  6
CONTINUOUS
 62
    7
 10
276.94238863070001
 20
223.5652942321
 11
276.94238863070001
 21
223.11945117939999
  0
LINE
  8
_0-0_0
  6
CONTINUOUS
 62
    7
 10
276.94238863070001
 20
223.11945117939999
 11
277.58210732679999
 21
222.75024061100001
  0
LINE
  8
_0-0_0
  6
CONTINUOUS
 62
    7
 10
277.58210732679999
 20
222.75024061100001
 11
277.58210732679999
 21
223.2203953344
  0
LINE
  8
_0-0_0
  6
CONTINUOUS
 62
    7
 10
277.58210732679999
 20
223.2203953344
 11
278.0722812665
 21
222.93749380279999
  0
LINE
  8
_0-0_0
  6
CONTINUOUS
 62
    7
 10
278.0722812665
 20
222.93749380279999
 11
278.0722812665
 21
225.4746230195
  0
LINE
  8
_0-0_0
  6
CONTINUOUS
 62
    7
 10
278.0722812665
 20
225.4746230195
 11
276.45221469099999
 21
226.40963665109999
  0
LINE
  8
_0-0_0
  6
CONTINUOUS
 62
    7
 10
276.45221469099999
 20
226.40963665109999
 11
276.45221469099999
 21
225.12974942100001
  0
LINE
  8
_0-0_0
  6
CONTINUOUS
 62
    7
 10
276.28605403339998
 20
225.03385057739999
 11
276.28605403339998
 21
226.50553547539999
  0
LINE
  8
_0-0_0
  6
CONTINUOUS
 62
    7
 10
276.28605403339998
 20
226.50553547539999
 11
274.66598729319998
 21
227.440549202
  0
LINE
  8
_0-0_0
  6
CONTINUOUS
 62
    7
 10
274.66598729319998
 20
227.440549202
 11
274.66598729319998
 21
226.16064932770001
  0
LINE
  8
_0-0_0
  6
CONTINUOUS
 62
    7
 10
275.15616139759999
 20
224.5961940437
 11
275.15616139759999
 21
224.38173848810001
  0
LINE
  8
_0-0_0
  6
CONTINUOUS
 62
    7
 10
277.42979454319999
 20
222.22896969799999
 11
276.02838943969999
 21
223.03778391270001
  0
LINE
  8
_0-0_0
  6
CONTINUOUS
 62
    7
 10
274.42459055979998
 20
223.9595160026
 11
274.42459055979998
 21
224.17397160580001
  0
LINE
  8
_0-0_0
  6
CONTINUOUS
 62
    7
 10
274.42459055979998
 20
226.0213284548
 11
274.42459055979998
 21
229.1899147332
  0
LINE
  8
_0-0_0
  6
CONTINUOUS
 62
    7
 10
278.31367791759999
 20
220.902199161
 11
278.31367791759999
 21
226.94534667100001
  0
LINE
  8
_0-0_0
  6
CONTINUOUS
 62
    7
 10
277.42979454319999
 20
221.41232819909999
 11
278.31367791759999
 21
220.902199161
  0
LINE
  8
_0-0_0
  6
CONTINUOUS
 62
    7
 10
277.42979454319999
 20
222.22896969799999
 11
277.42979454319999
 21
221.41232819909999
  0
LINE
  8
_0-0_0
  6
CONTINUOUS
 62
    7
 10
278.31367791759999
 20
220.902199161
 11
279.02078481469999
 21
221.3103025055
  0
LINE
  8
_0-0_0
  6
CONTINUOUS
 62
    7
 10
279.02117335600002
 20
226.5370327613
 11
279.02117335600002
 21
227.35367426019999
  0
LINE
  8
_0-0_0
  6
CONTINUOUS
 62
    7
 10
279.02117335600002
 20
226.5370327613
 11
286.58760444479998
 21
230.90396207000001
  0
LINE
  8
_0-0_0
  6
CONTINUOUS
 62
    7
 10
286.58760444479998
 20
226.49409755779999
 11
286.58760444479998
 21
230.90396207000001
  0
LINE
  8
_0-0_0
  6
CONTINUOUS
 62
    7
 10
286.58760444479998
 20
226.49409755779999
 11
284.04597463610003
 21
225.02720813880001
  0
LINE
  8
_0-0_0
  6
CONTINUOUS
 62
    7
 10
280.43538715009998
 20
222.94337493809999
 11
279.02078481469999
 21
222.1269440044
  0
LINE
  8
_0-0_0
  6
CONTINUOUS
 62
    7
 10
279.02078481469999
 20
222.1269440044
 11
279.02078481469999
 21
221.3103025055
  0
LINE
  8
_0-0_0
  6
CONTINUOUS
 62
    7
 10
280.76787153729998
 20
221.75027640729999
 11
280.76787153729998
 21
225.4251633424
  0
LINE
  8
_0-0_0
  6
CONTINUOUS
 62
    7
 10
280.76787153729998
 20
221.75027640729999
 11
280.43538698549997
 21
221.6784503961
  0
LINE
  8
_0-0_0
  6
CONTINUOUS
 62
    7
 10
280.43538698549997
 20
221.6784503961
 11
280.43538698549997
 21
225.35333733120001
  0
LINE
  8
_0-0_0
  6
CONTINUOUS
 62
    7
 10
281.12079706359998
 20
221.74991400499999
 11
281.12079706359998
 21
225.4248009401
  0
LINE
  8
_0-0_0
  6
CONTINUOUS
 62
    7
 10
281.12079706359998
 20
221.74991400499999
 11
280.94402033940003
 21
221.85193984110001
  0
LINE
  8
_0-0_0
  6
CONTINUOUS
 62
    7
 10
280.94402033940003
 20
221.85193984110001
 11
280.94402033940003
 21
225.52682677620001
  0
LINE
  8
_0-0_0
  6
CONTINUOUS
 62
    7
 10
281.50907885679999
 20
221.97400897430001
 11
281.50907885679999
 21
225.64889590940001
  0
LINE
  8
_0-0_0
  6
CONTINUOUS
 62
    7
 10
281.50907885679999
 20
221.97400897430001
 11
281.12079706359998
 21
221.74991400499999
  0
LINE
  8
_0-0_0
  6
CONTINUOUS
 62
    7
 10
280.94402033940003
 20
221.85193984110001
 11
280.76787153729998
 21
221.75027640729999
  0
LINE
  8
_0-0_0
  6
CONTINUOUS
 62
    7
 10
281.68585558109999
 20
221.87198313819999
 11
281.68585558109999
 21
225.5468700733
  0
LINE
  8
_0-0_0
  6
CONTINUOUS
 62
    7
 10
281.68585558109999
 20
221.87198313819999
 11
281.50907885679999
 21
221.97400897430001
  0
LINE
  8
_0-0_0
  6
CONTINUOUS
 62
    7
 10
282.07413539859999
 20
222.09607696730001
 11
282.07413539859999
 21
225.77096390240001
  0
LINE
  8
_0-0_0
  6
CONTINUOUS
 62
    7
 10
282.07413539859999
 20
222.09607696730001
 11
281.68585558109999
 21
221.87198313819999
  0
LINE
  8
_0-0_0
  6
CONTINUOUS
 62
    7
 10
282.63919317519998
 20
222.21814576790001
 11
282.63919317519998
 21
225.89303270299999
  0
LINE
  8
_0-0_0
  6
CONTINUOUS
 62
    7
 10
282.63919317519998
 20
222.21814576790001
 11
282.25091204059999
 21
221.9940511787
  0
LINE
  8
_0-0_0
  6
CONTINUOUS
 62
    7
 10
282.25091204059999
 20
221.9940511787
 11
282.25091204059999
 21
225.66893811380001
  0
LINE
  8
_0-0_0
  6
CONTINUOUS
 62
    7
 10
282.25091204059999
 20
221.9940511787
 11
282.07413539859999
 21
222.09607696730001
  0
LINE
  8
_0-0_0
  6
CONTINUOUS
 62
    7
 10
282.81596981720003
 20
222.11611997930001
 11
282.81596981720003
 21
225.79100691439999
  0
LINE
  8
_0-0_0
  6
CONTINUOUS
 62
    7
 10
282.81596981720003
 20
222.11611997930001
 11
282.63919317519998
 21
222.21814576790001
  0
LINE
  8
_0-0_0
  6
CONTINUOUS
 62
    7
 10
283.20402309539998
 20
222.34008306230001
 11
283.20402309539998
 21
226.01496999739999
  0
LINE
  8
_0-0_0
  6
CONTINUOUS
 62
    7
 10
283.20402309539998
 20
222.34008306230001
 11
282.81596981720003
 21
222.11611997930001
  0
LINE
  8
_0-0_0
  6
CONTINUOUS
 62
    7
 10
283.38079981969997
 20
222.2380572262
 11
283.38079981969997
 21
225.9129441613
  0
LINE
  8
_0-0_0
  6
CONTINUOUS
 62
    7
 10
283.38079981969997
 20
222.2380572262
 11
283.20402309539998
 21
222.34008306230001
  0
LINE
  8
_0-0_0
  6
CONTINUOUS
 62
    7
 10
283.62176125510001
 20
222.37712695959999
 11
283.62176125510001
 21
226.0520138947
  0
LINE
  8
_0-0_0
  6
CONTINUOUS
 62
    7
 10
283.62176125510001
 20
222.37712695959999
 11
283.38079981969997
 21
222.2380572262
  0
LINE
  8
_0-0_0
  6
CONTINUOUS
 62
    7
 10
282.70953214949998
 20
229.0611405372
 11
286.24506564709998
 21
231.10165668959999
  0
LINE
  8
_0-0_0
  6
CONTINUOUS
 62
    7
 10
286.58760444479998
 20
230.90396207000001
 11
286.24506564709998
 21
231.10165668959999
  0
LINE
  8
_0-0_0
  6
CONTINUOUS
 62
    7
 10
282.69851708710002
 20
233.14853013219999
 11
275.83956958269999
 21
229.18992157139999
  0
LINE
  8
_0-0_0
  6
CONTINUOUS
 62
    7
 10
283.04105604950001
 20
232.95083541770001
 11
282.69851708710002
 21
233.14853013219999
  0
LINE
  8
_0-0_0
  6
CONTINUOUS
 62
    7
 10
279.50552255180003
 20
230.91031926529999
 11
283.04105604950001
 21
232.95083541770001
  0
LINE
  8
_0-0_0
  6
CONTINUOUS
 62
    7
 10
280.5457854691
 20
230.3099365262
 11
279.50552255180003
 21
230.91031926529999
  0
LINE
  8
_0-0_0
  6
CONTINUOUS
 62
    7
 10
280.5457854691
 20
230.3099365262
 11
284.08131896679998
 21
232.35045267859999
  0
LINE
  8
_0-0_0
  6
CONTINUOUS
 62
    7
 10
285.20480281210001
 20
231.7020393812
 11
284.08131896679998
 21
232.35045267859999
  0
LINE
  8
_0-0_0
  6
CONTINUOUS
 62
    7
 10
281.66926931450001
 20
229.66152322880001
 11
285.20480281210001
 21
231.7020393812
  0
LINE
  8
_0-0_0
  6
CONTINUOUS
 62
    7
 10
282.70953214949998
 20
229.0611405372
 11
281.66926931450001
 21
229.66152322880001
  0
LINE
  8
_0-0_0
  6
CONTINUOUS
 62
    7
 10
284.04597521229999
 20
222.4954479754
 11
284.04597521229999
 21
226.1703349105
  0
LINE
  8
_0-0_0
  6
CONTINUOUS
 62
    7
 10
284.04597521229999
 20
222.4954479754
 11
283.73136281759997
 21
222.31387094499999
  0
LINE
  8
_0-0_0
  6
CONTINUOUS
 62
    7
 10
283.73136281759997
 20
222.31387094499999
 11
283.73136281759997
 21
225.9887578801
  0
LINE
  8
_0-0_0
  6
CONTINUOUS
 62
    7
 10
283.73136281759997
 20
222.31387094499999
 11
283.62176125510001
 21
222.37712695959999
  0
LINE
  8
_0-0_0
  6
CONTINUOUS
 62
    7
 10
278.07228176040002
 20
223.50329715110001
 11
277.58210732679999
 21
223.2203953344
  0
LINE
  8
_0-0_0
  6
CONTINUOUS
 62
    7
 10
278.07228110189999
 20
223.77156318440001
 11
276.94238863070001
 21
223.11945117939999
  0
LINE
  8
_0-0_0
  6
CONTINUOUS
 62
    7
 10
279.14587262750001
 20
231.0981380794
 11
275.1334564293
 21
231.31415225719999
  0
LINE
  8
_0-0_0
  6
CONTINUOUS
 62
    7
 10
278.35618293200002
 20
230.676060108
 11
278.40569757650002
 21
230.6709496089
  0
LINE
  8
_0-0_0
  6
CONTINUOUS
 62
    7
 10
277.34043565109999
 20
230.73074408319999
 11
278.35618293200002
 21
230.676060108
  0
ARC
  8
_0-0_0
  6
CONTINUOUS
 62
    7
 10
277.1212593939
 20
227.77437985
 40
2.9644776455530222
 50
85.760014065999997
 51
117.76065157790001
  0
LINE
  8
_0-0_0
  6
CONTINUOUS
 62
    7
 10
273.71787286249997
 20
229.2303182963
 11
275.74046785389999
 21
230.39764926699999
  0
LINE
  8
_0-0_0
  6
CONTINUOUS
 62
    7
 10
273.84232328659999
 20
229.4222102036
 11
273.71787286249997
 21
229.2303182963
  0
LINE
  8
_0-0_0
  6
CONTINUOUS
 62
    7
 10
274.01847208869998
 20
229.5238736375
 11
273.84232328659999
 21
229.4222102036
  0
LINE
  8
_0-0_0
  6
CONTINUOUS
 62
    7
 10
273.84169503509997
 20
229.62589966370001
 11
274.01847208869998
 21
229.5238736375
  0
LINE
  8
_0-0_0
  6
CONTINUOUS
 62
    7
 10
274.22997682829998
 20
229.84999463299999
 11
273.84169503509997
 21
229.62589966370001
  0
LINE
  8
_0-0_0
  6
CONTINUOUS
 62
    7
 10
274.05320043329999
 20
229.9520202791
 11
274.22997682829998
 21
229.84999463299999
  0
LINE
  8
_0-0_0
  6
CONTINUOUS
 62
    7
 10
274.4414802508
 20
230.17611410809999
 11
274.05320043329999
 21
229.9520202791
  0
LINE
  8
_0-0_0
  6
CONTINUOUS
 62
    7
 10
274.26470319729998
 20
230.2781401343
 11
274.4414802508
 21
230.17611410809999
  0
LINE
  8
_0-0_0
  6
CONTINUOUS
 62
    7
 10
274.65298433189997
 20
230.50223472350001
 11
274.26470319729998
 21
230.2781401343
  0
LINE
  8
_0-0_0
  6
CONTINUOUS
 62
    7
 10
274.47620793689998
 20
230.60426036960001
 11
274.65298433189997
 21
230.50223472350001
  0
LINE
  8
_0-0_0
  6
CONTINUOUS
 62
    7
 10
274.86426121509999
 20
230.82822345260001
 11
274.47620793689998
 21
230.60426036960001
  0
LINE
  8
_0-0_0
  6
CONTINUOUS
 62
    7
 10
274.68748416160003
 20
230.93024947879999
 11
274.86426121509999
 21
230.82822345260001
  0
LINE
  8
_0-0_0
  6
CONTINUOUS
 62
    7
 10
274.92844559709999
 20
231.0693192123
 11
274.68748416160003
 21
230.93024947879999
  0
LINE
  8
_0-0_0
  6
CONTINUOUS
 62
    7
 10
274.81884403459998
 20
231.1325752269
 11
274.92844559709999
 21
231.0693192123
  0
LINE
  8
_0-0_0
  6
CONTINUOUS
 62
    7
 10
275.1334564293
 20
231.31415225719999
 11
274.81884403459998
 21
231.1325752269
  0
LINE
  8
_0-0_0
  6
CONTINUOUS
 62
    7
 10
282.24097929610002
 20
229.33156322470001
 11
283.609172683
 21
229.9070891643
  0
LINE
  8
_0-0_0
  6
CONTINUOUS
 62
    7
 10
283.6042744289
 20
229.90382407990001
 11
283.88694807349998
 21
229.74068034550001
  0
LINE
  8
_0-0_0
  6
CONTINUOUS
 62
    7
 10
284.61114238959999
 20
230.48110923319999
 11
285.30067009959998
 21
230.87906683439999
  0
LINE
  8
_0-0_0
  6
CONTINUOUS
 62
    7
 10
285.58003110070001
 20
230.7178349763
 11
285.30067009959998
 21
230.87906683439999
  0
LINE
  8
_0-0_0
  6
CONTINUOUS
 62
    7
 10
285.20480281210001
 20
231.7020393812
 11
285.30067009959998
 21
230.87906683439999
  0
LINE
  8
_0-0_0
  6
CONTINUOUS
 62
    7
 10
273.71787286249997
 20
225.61344928939999
 11
273.71787286249997
 21
229.2303182963
  0
LINE
  8
_0-0_0
  6
CONTINUOUS
 62
    7
 10
273.84169503509997
 20
229.4212422176
 11
273.84169503509997
 21
229.62589966370001
  0
LINE
  8
_0-0_0
  6
CONTINUOUS
 62
    7
 10
274.05320043329999
 20
229.74796861639999
 11
274.05320043329999
 21
229.9520202791
  0
LINE
  8
_0-0_0
  6
CONTINUOUS
 62
    7
 10
283.6042744289
 20
229.90382407990001
 11
284.58827690110002
 21
230.49430608430001
  0
LINE
  8
_0-0_0
  6
CONTINUOUS
 62
    7
 10
284.58827690110002
 20
230.49430608430001
 11
284.89050339070002
 21
230.3198775196
  0
LINE
  8
_0-0_0
  6
CONTINUOUS
 62
    7
 10
280.07723269809998
 20
230.58035916630001
 11
281.44542608490002
 21
231.1558851058
  0
LINE
  8
_0-0_0
  6
CONTINUOUS
 62
    7
 10
281.44052783090001
 20
231.1526200214
 11
281.72320114619998
 21
230.9894764771
  0
LINE
  8
_0-0_0
  6
CONTINUOUS
 62
    7
 10
274.26470319729998
 20
230.07408847170001
 11
274.26470319729998
 21
230.2781401343
  0
LINE
  8
_0-0_0
  6
CONTINUOUS
 62
    7
 10
282.4473956269
 20
231.7299052697
 11
283.1369233369
 21
232.1278628709
  0
LINE
  8
_0-0_0
  6
CONTINUOUS
 62
    7
 10
283.1369233369
 20
232.1278628709
 11
283.41628417340002
 21
231.96663110790001
  0
LINE
  8
_0-0_0
  6
CONTINUOUS
 62
    7
 10
283.04105604950001
 20
232.95083541770001
 11
283.1369233369
 21
232.1278628709
  0
LINE
  8
_0-0_0
  6
CONTINUOUS
 62
    7
 10
274.47620793689998
 20
230.40020870699999
 11
274.47620793689998
 21
230.60426036960001
  0
LINE
  8
_0-0_0
  6
CONTINUOUS
 62
    7
 10
274.68748416160003
 20
230.7261978162
 11
274.68748416160003
 21
230.93024947879999
  0
LINE
  8
_0-0_0
  6
CONTINUOUS
 62
    7
 10
274.81884403459998
 20
231.00606327209999
 11
274.81884403459998
 21
231.1325752269
  0
LINE
  8
_0-0_0
  6
CONTINUOUS
 62
    7
 10
281.44052783090001
 20
231.1526200214
 11
282.42453030310003
 21
231.7431020258
  0
LINE
  8
_0-0_0
  6
CONTINUOUS
 62
    7
 10
282.42453030310003
 20
231.7431020258
 11
282.72675646340002
 21
231.5686736511
  0
LINE
  8
_0-0_0
  6
CONTINUOUS
 62
    7
 10
166.9591308068
 20
159.68204045420001
 11
166.89894247300001
 21
159.71561344919999
  0
LINE
  8
_0-0_0
  6
CONTINUOUS
 62
    7
 10
166.89894247300001
 20
159.71561344919999
 11
166.62422898509999
 21
159.8748280767
  0
LINE
  8
_0-0_0
  6
CONTINUOUS
 62
    7
 10
164.99211697199999
 20
160.80109027
 11
164.804340908
 21
160.9059833016
  0
LINE
  8
_0-0_0
  6
CONTINUOUS
 62
    7
 10
164.804340908
 20
160.9059833016
 11
164.77099254340001
 21
160.92673148879999
  0
LINE
  8
_0-0_0
  6
CONTINUOUS
 62
    7
 10
165.37598289490001
 20
161.02263656470001
 11
165.16942547089999
 21
161.14186759500001
  0
LINE
  8
_0-0_0
  6
CONTINUOUS
 62
    7
 10
163.15094802909999
 20
159.95292398230001
 11
163.33673792280001
 21
159.8456962388
  0
LINE
  8
_0-0_0
  6
CONTINUOUS
 62
    7
 10
164.93716439619999
 20
158.92201779760001
 11
166.98761697270001
 21
157.73860895569999
  0
LINE
  8
_0-0_0
  6
CONTINUOUS
 62
    7
 10
166.98761697270001
 20
158.5238221596
 11
165.61742078739999
 21
159.3146242974
  0
LINE
  8
_0-0_0
  6
CONTINUOUS
 62
    7
 10
164.0169943139
 20
160.23830273850001
 11
163.83120442020001
 21
160.34553048199999
  0
LINE
  8
_0-0_0
  6
CONTINUOUS
 62
    7
 10
171.6528228231
 20
159.17880913170001
 11
171.30478682500001
 21
159.379676434
  0
ARC
  8
_0-0_0
  6
CONTINUOUS
 62
    7
 10
171.40142766170001
 20
158.78574806750001
 40
0.4665796045969253
 50
2.6022776394999996
 51
57.397711240299991
  0
LINE
  8
_0-0_0
  6
CONTINUOUS
 62
    7
 10
171.8675261134
 20
158.14569984939999
 11
171.8675261134
 21
158.80693204100001
  0
ARC
  8
_0-0_0
  6
CONTINUOUS
 62
    7
 10
171.73661729259999
 20
158.1244495464
 40
0.132622376423725
 50
230.81491597210001
 51
9.2203426050000381
  0
LINE
  8
_0-0_0
  6
CONTINUOUS
 62
    7
 10
171.58125516940001
 20
158.06295767579999
 11
171.6528228231
 21
158.02165274879999
  0
LINE
  8
_0-0_0
  6
CONTINUOUS
 62
    7
 10
171.58125516940001
 20
157.15376341230001
 11
171.58125516940001
 21
158.06295767579999
  0
LINE
  8
_0-0_0
  6
CONTINUOUS
 62
    7
 10
171.6528228231
 20
157.11245848519999
 11
171.58125516940001
 21
157.15376341230001
  0
ARC
  8
_0-0_0
  6
CONTINUOUS
 62
    7
 10
171.40142811679999
 20
156.719397681
 40
0.466579140297805
 50
2.6022541064000002
 51
57.397741115900011
  0
LINE
  8
_0-0_0
  6
CONTINUOUS
 62
    7
 10
171.8675261134
 20
155.08750101039999
 11
171.8675261134
 21
156.74058144200001
  0
ARC
  8
_0-0_0
  6
CONTINUOUS
 62
    7
 10
171.78025346219999
 20
155.0733342213
 40
0.0884150075212623
 50
230.81495864979999
 51
9.2202809064000188
  0
LINE
  8
_0-0_0
  6
CONTINUOUS
 62
    7
 10
171.1658447998
 20
155.3271648624
 11
171.72439047669999
 21
155.0048029116
  0
LINE
  8
_0-0_0
  6
CONTINUOUS
 62
    7
 10
253.67720708050001
 20
206.51878797169999
 11
171.6528228231
 21
159.17880913170001
  0
ARC
  8
_0-0_0
  6
CONTINUOUS
 62
    7
 10
253.4258119191
 20
206.12572690740001
 40
0.466579604597229
 50
2.6022776394999996
 51
57.397711240200003
  0
LINE
  8
_0-0_0
  6
CONTINUOUS
 62
    7
 10
253.89191037079999
 20
206.146910881
 11
171.8675261134
 21
158.80693204100001
  0
LINE
  8
_0-0_0
  6
CONTINUOUS
 62
    7
 10
253.89191037079999
 20
205.48567868929999
 11
253.89191037079999
 21
206.146910881
  0
LINE
  8
_0-0_0
  6
CONTINUOUS
 62
    7
 10
253.89191037079999
 20
205.48567868929999
 11
171.8675261134
 21
158.14569984939999
  0
LINE
  8
_0-0_0
  6
CONTINUOUS
 62
    7
 10
253.67720708050001
 20
206.51878797169999
 11
253.276024565
 21
206.7503285308
  0
ARC
  8
_0-0_0
  6
CONTINUOUS
 62
    7
 10
253.74312730529999
 20
205.4692323189
 40
0.1496892904665876
 50
304.99964563110001
 51
6.3078248133999884
  0
LINE
  8
_0-0_0
  6
CONTINUOUS
 62
    7
 10
253.6056394268
 20
204.49374225220001
 11
253.6056394268
 21
205.21771062830001
  0
LINE
  8
_0-0_0
  6
CONTINUOUS
 62
    7
 10
253.6056394268
 20
204.49374225220001
 11
171.58125516940001
 21
157.15376341230001
  0
LINE
  8
_0-0_0
  6
CONTINUOUS
 62
    7
 10
253.67720708050001
 20
204.45243732509999
 11
171.6528228231
 21
157.11245848519999
  0
ARC
  8
_0-0_0
  6
CONTINUOUS
 62
    7
 10
253.42581237420001
 20
204.0593765209
 40
0.4665791402977198
 50
2.6022541064000002
 51
57.397741115900011
  0
LINE
  8
_0-0_0
  6
CONTINUOUS
 62
    7
 10
253.89191037079999
 20
204.08056028199999
 11
171.8675261134
 21
156.74058144200001
  0
LINE
  8
_0-0_0
  6
CONTINUOUS
 62
    7
 10
253.89191037079999
 20
202.42747985029999
 11
253.89191037079999
 21
204.08056028199999
  0
LINE
  8
_0-0_0
  6
CONTINUOUS
 62
    7
 10
253.89191037079999
 20
202.42747985029999
 11
171.8675261134
 21
155.08750101039999
  0
LINE
  8
_0-0_0
  6
CONTINUOUS
 62
    7
 10
253.67720708050001
 20
204.45243732509999
 11
253.6056394268
 21
204.49374225220001
  0
ARC
  8
_0-0_0
  6
CONTINUOUS
 62
    7
 10
253.79268022799999
 20
202.4165341156
 40
0.0998320106546338
 50
305.01301938699999
 51
6.2946519175000128
  0
LINE
  8
_0-0_0
  6
CONTINUOUS
 62
    7
 10
162.8872345394
 20
167.0241805837
 11
163.3271327219
 21
166.90401578480001
  0
LINE
  8
_0-0_0
  6
CONTINUOUS
 62
    7
 10
163.3271327219
 20
166.90401578480001
 11
164.19655766930001
 21
166.55023683600001
  0
LINE
  8
_0-0_0
  6
CONTINUOUS
 62
    7
 10
164.19655766930001
 20
166.55023683600001
 11
165.07537675410001
 21
166.04303062829999
  0
LINE
  8
_0-0_0
  6
CONTINUOUS
 62
    7
 10
165.07537675410001
 20
166.04303062829999
 11
165.94480170150001
 21
165.3932407241
  0
LINE
  8
_0-0_0
  6
CONTINUOUS
 62
    7
 10
165.94480170150001
 20
165.3932407241
 11
166.7862448047
 21
164.6147592252
  0
LINE
  8
_0-0_0
  6
CONTINUOUS
 62
    7
 10
166.7862448047
 20
164.6147592252
 11
167.58171670620001
 21
163.72422950570001
  0
LINE
  8
_0-0_0
  6
CONTINUOUS
 62
    7
 10
167.58171670620001
 20
163.72422950570001
 11
168.31421092619999
 21
162.74069004469999
  0
LINE
  8
_0-0_0
  6
CONTINUOUS
 62
    7
 10
168.31421092619999
 20
162.74069004469999
 11
168.96806725580001
 21
161.6851680924
  0
LINE
  8
_0-0_0
  6
CONTINUOUS
 62
    7
 10
168.96806725580001
 20
161.6851680924
 11
169.529306709
 21
160.580230046
  0
LINE
  8
_0-0_0
  6
CONTINUOUS
 62
    7
 10
169.529306709
 20
160.580230046
 11
169.98593076949999
 21
159.44949881420001
  0
LINE
  8
_0-0_0
  6
CONTINUOUS
 62
    7
 10
169.98593076949999
 20
159.44949881420001
 11
170.32817700890001
 21
158.31714797090001
  0
LINE
  8
_0-0_0
  6
CONTINUOUS
 62
    7
 10
169.90390905109999
 20
158.2763751919
 11
169.82829052549999
 21
158.5579684962
  0
ARC
  8
_0-0_0
  6
CONTINUOUS
 62
    7
 10
162.084351352
 20
163.42455778839999
 40
3.357477958953984
 50
54.467148180199999
 51
156.20518957819999
  0
LINE
  8
_0-0_0
  6
CONTINUOUS
 62
    7
 10
171.31812218670001
 20
158.88849006870001
 11
170.97587594730001
 21
160.0208409119
  0
LINE
  8
_0-0_0
  6
CONTINUOUS
 62
    7
 10
170.97587594730001
 20
160.0208409119
 11
170.51925188690001
 21
161.1515721438
  0
LINE
  8
_0-0_0
  6
CONTINUOUS
 62
    7
 10
170.51925188690001
 20
161.1515721438
 11
169.95801243369999
 21
162.2565101902
  0
LINE
  8
_0-0_0
  6
CONTINUOUS
 62
    7
 10
169.95801243369999
 20
162.2565101902
 11
169.30415610399999
 21
163.31203214249999
  0
LINE
  8
_0-0_0
  6
CONTINUOUS
 62
    7
 10
169.30415610399999
 20
163.31203214249999
 11
168.57166188400001
 21
164.29557160339999
  0
LINE
  8
_0-0_0
  6
CONTINUOUS
 62
    7
 10
168.57166188400001
 20
164.29557160339999
 11
167.7761899825
 21
165.186101323
  0
LINE
  8
_0-0_0
  6
CONTINUOUS
 62
    7
 10
167.7761899825
 20
165.186101323
 11
166.93474687930001
 21
165.9645828219
  0
LINE
  8
_0-0_0
  6
CONTINUOUS
 62
    7
 10
166.93474687930001
 20
165.9645828219
 11
166.0653219319
 21
166.61437272609999
  0
LINE
  8
_0-0_0
  6
CONTINUOUS
 62
    7
 10
166.0653219319
 20
166.61437272609999
 11
165.1865028471
 21
167.12157893380001
  0
LINE
  8
_0-0_0
  6
CONTINUOUS
 62
    7
 10
165.1865028471
 20
167.12157893380001
 11
164.3170778997
 21
167.47535788260001
  0
LINE
  8
_0-0_0
  6
CONTINUOUS
 62
    7
 10
164.3170778997
 20
167.47535788260001
 11
163.8268155504
 21
167.6066227263
  0
LINE
  8
_0-0_0
  6
CONTINUOUS
 62
    7
 10
161.77218138090001
 20
161.004532044
 11
161.77218138090001
 21
162.41499307710001
  0
LINE
  8
_0-0_0
  6
CONTINUOUS
 62
    7
 10
158.9437541218
 20
161.27082494070001
 11
160.58866593530001
 21
160.32147199950001
  0
ARC
  8
_0-0_0
  6
CONTINUOUS
 62
    7
 10
171.255882676
 20
155.65398453660001
 40
0.1508542191237801
 50
294.36704180689998
 51
354.29917991970001
  0
ARC
  8
_0-0_0
  6
CONTINUOUS
 62
    7
 10
167.13795177860001
 20
159.49191350230001
 40
0.1512030186812705
 50
186.16036435460001
 51
245.5970616324
  0
ARC
  8
_0-0_0
  6
CONTINUOUS
 62
    7
 10
166.3003305382
 20
160.92884032149999
 40
0.145151784998723
 50
173.05681964999997
 51
235.77669760269998
  0
ARC
  8
_0-0_0
  6
CONTINUOUS
 62
    7
 10
170.18565049930001
 20
154.92695219800001
 40
0.1436932251407566
 50
304.00099975659998
 51
7.3062792650000095
  0
ARC
  8
_0-0_0
  6
CONTINUOUS
 62
    7
 10
170.0657987214
 20
154.93570489909999
 40
0.1621693042740221
 50
176.63480189570001
 51
232.05303210060003
  0
ARC
  8
_0-0_0
  6
CONTINUOUS
 62
    7
 10
167.37879310299999
 20
156.48649726720001
 40
0.1621693041476876
 50
176.63480187219997
 51
232.05303212409999
  0
ARC
  8
_0-0_0
  6
CONTINUOUS
 62
    7
 10
171.17129952339999
 20
155.50023827000001
 40
0.1477280012634018
 50
304.96078858800001
 51
6.346490433700005
  0
ARC
  8
_0-0_0
  6
CONTINUOUS
 62
    7
 10
167.1376978728
 20
156.87836037279999
 40
0.1508247572381286
 50
185.69317834570001
 51
245.6377800265
  0
ARC
  8
_0-0_0
  6
CONTINUOUS
 62
    7
 10
162.8528502378
 20
162.93636589069999
 40
0.1617230822906599
 50
176.55173959160001
 51
232.13609440469997
  0
ARC
  8
_0-0_0
  6
CONTINUOUS
 62
    7
 10
162.69773994959999
 20
162.46418770240001
 40
0.5036988308025559
 50
125.86705480379997
 51
185.60458811289999
  0
LINE
  8
_0-0_0
  6
CONTINUOUS
 62
    7
 10
162.8160919762
 20
162.7726191253
 11
162.1964490094
 21
162.4149951675
  0
LINE
  8
_0-0_0
  6
CONTINUOUS
 62
    7
 10
162.1964490094
 20
162.4149951675
 11
162.1964490094
 21
161.2493961058
  0
LINE
  8
_0-0_0
  6
CONTINUOUS
 62
    7
 10
163.18639418719999
 20
161.8207382036
 11
163.18639418719999
 21
162.55890272729999
  0
ARC
  8
_0-0_0
  6
CONTINUOUS
 62
    7
 10
159.00596942199999
 20
161.4082192596
 40
0.1508242104418597
 50
185.6930595755
 51
245.63789134900003
  0
ARC
  8
_0-0_0
  6
CONTINUOUS
 62
    7
 10
159.10991902390001
 20
161.2632398861
 40
0.1663379323411491
 50
177.38639068730001
 51
231.30144330899998
  0
LINE
  8
_0-0_0
  6
CONTINUOUS
 62
    7
 10
246.4329672458
 20
215.11853082139999
 11
246.87286575749999
 21
214.9983658324
  0
LINE
  8
_0-0_0
  6
CONTINUOUS
 62
    7
 10
246.87286575749999
 20
214.9983658324
 11
247.74229037559999
 21
214.6445870737
  0
LINE
  8
_0-0_0
  6
CONTINUOUS
 62
    7
 10
247.74229037559999
 20
214.6445870737
 11
248.62110962509999
 21
214.13738077089999
  0
LINE
  8
_0-0_0
  6
CONTINUOUS
 62
    7
 10
248.62110962509999
 20
214.13738077089999
 11
249.49053449019999
 21
213.48759091420001
  0
LINE
  8
_0-0_0
  6
CONTINUOUS
 62
    7
 10
249.49053449019999
 20
213.48759091420001
 11
250.3319775933
 21
212.70910941540001
  0
LINE
  8
_0-0_0
  6
CONTINUOUS
 62
    7
 10
250.3319775933
 20
212.70910941540001
 11
251.1274495154
 21
211.8185796839
  0
LINE
  8
_0-0_0
  6
CONTINUOUS
 62
    7
 10
251.1274495154
 20
211.8185796839
 11
251.85994371480001
 21
210.8350402348
  0
LINE
  8
_0-0_0
  6
CONTINUOUS
 62
    7
 10
251.85994371480001
 20
210.8350402348
 11
252.51379996220001
 21
209.77951833009999
  0
LINE
  8
_0-0_0
  6
CONTINUOUS
 62
    7
 10
252.51379996220001
 20
209.77951833009999
 11
253.07503958000001
 21
208.67458018869999
  0
LINE
  8
_0-0_0
  6
CONTINUOUS
 62
    7
 10
253.07503958000001
 20
208.67458018869999
 11
253.5316636405
 21
207.54384895679999
  0
LINE
  8
_0-0_0
  6
CONTINUOUS
 62
    7
 10
253.5316636405
 20
207.54384895679999
 11
253.8739097152
 21
206.41149820859999
  0
LINE
  8
_0-0_0
  6
CONTINUOUS
 62
    7
 10
254.8638601614
 20
206.98284334690001
 11
254.5216140867
 21
208.1151940952
  0
LINE
  8
_0-0_0
  6
CONTINUOUS
 62
    7
 10
254.5216140867
 20
208.1151940952
 11
254.06499002620001
 21
209.24592532700001
  0
LINE
  8
_0-0_0
  6
CONTINUOUS
 62
    7
 10
254.06499002620001
 20
209.24592532700001
 11
253.50375040829999
 21
210.35086346849999
  0
LINE
  8
_0-0_0
  6
CONTINUOUS
 62
    7
 10
253.50375040829999
 20
210.35086346849999
 11
252.84989416100001
 21
211.40638537320001
  0
LINE
  8
_0-0_0
  6
CONTINUOUS
 62
    7
 10
252.84989416100001
 20
211.40638537320001
 11
252.1173999616
 21
212.3899248223
  0
LINE
  8
_0-0_0
  6
CONTINUOUS
 62
    7
 10
252.1173999616
 20
212.3899248223
 11
251.32192803949999
 21
213.2804545537
  0
LINE
  8
_0-0_0
  6
CONTINUOUS
 62
    7
 10
251.32192803949999
 20
213.2804545537
 11
250.4804849363
 21
214.05893605259999
  0
LINE
  8
_0-0_0
  6
CONTINUOUS
 62
    7
 10
250.4804849363
 20
214.05893605259999
 11
249.6110600712
 21
214.7087259093
  0
LINE
  8
_0-0_0
  6
CONTINUOUS
 62
    7
 10
249.6110600712
 20
214.7087259093
 11
248.73224082179999
 21
215.2159322121
  0
LINE
  8
_0-0_0
  6
CONTINUOUS
 62
    7
 10
248.73224082179999
 20
215.2159322121
 11
247.8628162036
 21
215.5697109708
  0
LINE
  8
_0-0_0
  6
CONTINUOUS
 62
    7
 10
247.8628162036
 20
215.5697109708
 11
247.37255352509999
 21
215.70097600459999
  0
LINE
  8
_0-0_0
  6
CONTINUOUS
 62
    7
 10
253.8739097152
 20
206.41149820859999
 11
253.8739097152
 21
206.25667994899999
  0
LINE
  8
_0-0_0
  6
CONTINUOUS
 62
    7
 10
253.8739097152
 20
205.39668372259999
 11
253.8739097152
 21
204.19032935000001
  0
LINE
  8
_0-0_0
  6
CONTINUOUS
 62
    7
 10
253.8919090537
 20
203.0499646108
 11
254.8638601614
 21
203.61092151759999
  0
ARC
  8
_0-0_0
  6
CONTINUOUS
 62
    7
 10
254.8016250476
 20
203.7483346592
 40
0.1508495306128865
 50
294.36601506559992
 51
354.30020666099995
  0
ARC
  8
_0-0_0
  6
CONTINUOUS
 62
    7
 10
254.71703835939999
 20
203.59459115850001
 40
0.1477271882780913
 50
304.96060142060003
 51
6.3466776011000032
  0
ARC
  8
_0-0_0
  6
CONTINUOUS
 62
    7
 10
136.83308668020001
 20
138.454718576
 40
0.1439726807515603
 50
304.06961425290001
 51
7.2378354544999883
  0
LINE
  8
_0-0_0
  6
CONTINUOUS
 62
    7
 10
130.61195379750001
 20
136.4326470753
 11
132.9454035286
 21
137.7793863638
  0
ARC
  8
_0-0_0
  6
CONTINUOUS
 62
    7
 10
131.44333809259999
 20
147.37240345020001
 40
0.1508824563557872
 50
54.390778006200001
 51
114.30747800819999
  0
ARC
  8
_0-0_0
  6
CONTINUOUS
 62
    7
 10
136.85162894370001
 20
144.3524544277
 40
0.1508683161414669
 50
65.689508439000008
 51
125.61163977030003
  0
ARC
  8
_0-0_0
  6
CONTINUOUS
 62
    7
 10
136.91368471460001
 20
144.24509192740001
 40
0.1508413269469157
 50
294.36422311050001
 51
354.30200760579999
  0
ARC
  8
_0-0_0
  6
CONTINUOUS
 62
    7
 10
136.91368471460001
 20
138.61026507170001
 40
0.1508413269470111
 50
294.36422311050001
 51
354.3020076057
  0
ARC
  8
_0-0_0
  6
CONTINUOUS
 62
    7
 10
131.6190388128
 20
147.37241865319999
 40
0.1508683161416609
 50
65.689508439000008
 51
125.61163977030003
  0
LINE
  8
_0-0_0
  6
CONTINUOUS
 62
    7
 10
137.0637874407
 20
140.3604740966
 11
143.5166490718
 21
144.08471214900001
  0
LINE
  8
_0-0_0
  6
CONTINUOUS
 62
    7
 10
142.80954085760001
 20
147.2698309626
 11
137.0637874407
 21
143.9536970149
  0
LINE
  8
_0-0_0
  6
CONTINUOUS
 62
    7
 10
137.00440615310001
 20
144.4092797518
 11
142.5974088543
 21
147.63725435859999
  0
LINE
  8
_0-0_0
  6
CONTINUOUS
 62
    7
 10
139.13258550309999
 20
149.63696049009999
 11
133.56413334109999
 21
146.4231551089
  0
LINE
  8
_0-0_0
  6
CONTINUOUS
 62
    7
 10
127.9072969329
 20
139.27918298259999
 11
126.7935769978
 21
138.636404879
  0
LINE
  8
_0-0_0
  6
CONTINUOUS
 62
    7
 10
137.16932734759999
 20
140.31986857039999
 11
137.50624645569999
 21
140.12541732770001
  0
LINE
  8
_0-0_0
  6
CONTINUOUS
 62
    7
 10
131.31905830740001
 20
138.06431929050001
 11
131.38981232930001
 21
138.105154634
  0
LINE
  8
_0-0_0
  6
CONTINUOUS
 62
    7
 10
282.42953894559997
 20
226.5042526677
 11
282.42953894559997
 21
228.1366657312
  0
LINE
  8
_0-0_0
  6
CONTINUOUS
 62
    7
 10
283.03512363359999
 20
227.2296676771
 11
283.03512363359999
 21
227.44408230529999
  0
LINE
  8
_0-0_0
  6
CONTINUOUS
 62
    7
 10
282.94037455469999
 20
228.03031596279999
 11
282.94037455469999
 21
226.97054178459999
  0
LINE
  8
_0-0_0
  6
CONTINUOUS
 62
    7
 10
275.74046785389999
 20
229.24711766569999
 11
275.74046785389999
 21
230.39764926699999
  0
LINE
  8
_0-0_0
  6
CONTINUOUS
 62
    7
 10
277.34043565109999
 20
230.73074408319999
 11
277.34043565109999
 21
230.05613921290001
  0
LINE
  8
_0-0_0
  6
CONTINUOUS
 62
    7
 10
278.35618293200002
 20
230.6423727694
 11
278.35618293200002
 21
230.676060108
  0
LINE
  8
_0-0_0
  6
CONTINUOUS
 62
    7
 10
166.78199138919999
 20
160.2574640233
 11
166.73893122179999
 21
160.0323038393
  0
LINE
  8
_0-0_0
  6
CONTINUOUS
 62
    7
 10
166.73893122179999
 20
160.0323038393
 11
166.61630603610001
 21
159.8911262837
  0
LINE
  8
_0-0_0
  6
CONTINUOUS
 62
    7
 10
166.61630603610001
 20
159.8911262837
 11
166.6161994343
 21
159.89106476469999
  0
LINE
  8
_0-0_0
  6
CONTINUOUS
 62
    7
 10
164.83008966899999
 20
160.9220324684
 11
164.82998298480001
 21
160.92197099680001
  0
LINE
  8
_0-0_0
  6
CONTINUOUS
 62
    7
 10
170.82819948170001
 20
161.34706203979999
 11
170.6144095926
 21
161.2236742337
  0
LINE
  8
_0-0_0
  6
CONTINUOUS
 62
    7
 10
170.9493366037
 20
161.0179489942
 11
170.7523633072
 21
160.90426680350001
  0
LINE
  8
_0-0_0
  6
CONTINUOUS
 62
    7
 10
170.94930417040001
 20
161.01772082190001
 11
170.752436241
 21
160.90409944340001
  0
ENDSEC
  0
EOF
