  0
SECTION
  2
HEADER
  9
$ACADVER
  1
AC1009
  9
$INSBASE
 10
0
 20
0
 30
0
  9
$EXTMIN
 10
0
 20
0
  9
$EXTMAX
 10
420
 20
297
  9
$LIMMIN
 10
0
 20
0
  9
$LIMMAX
 10
420
 20
297
  9
$LTSCALE
 40
1
  0
ENDSEC
  0
SECTION
  2
TABLES
  0
TABLE
  2
LTYPE
 70
     9
  0
LTYPE
  2
CONTINUOUS
 70
    64
  3
実線
 72
    65
 73
     0
 40
0.0
  0
LTYPE
  2
DASHED1
 70
    64
  3
--  --  --  --  --  --  --  --  
 72
    65
 73
     2
 40
2.5
 49
1.25
 49
-1.25
  0
LTYPE
  2
DASHED2
 70
    64
  3
----    ----    ----    ----    
 72
    65
 73
     2
 40
5.0
 49
2.5
 49
-2.5
  0
LTYPE
  2
DASHED3
 70
    64
  3
------  ------  ------  ------  
 72
    65
 73
     2
 40
5.0
 49
3.75
 49
-1.25
  0
LTYPE
  2
CENTER1
 70
    64
  3
----- - ----- - ----- - ----- - 
 72
    65
 73
     4
 40
10.0
 49
6.25
 49
-1.25
 49
1.25
 49
-1.25
  0
LTYPE
  2
CENTER2
 70
    64
  3
----------  --  ----------  --  
 72
    65
 73
     4
 40
20.0
 49
12.5
 49
-2.5
 49
2.5
 49
-2.5
  0
LTYPE
  2
PHANTOM1
 70
    64
  3
--- - - --- - - --- - - --- - - 
 72
    65
 73
     6
 40
10.0
 49
3.25
 49
-1.25
 49
1.25
 49
-1.25
 49
1.25
 49
-1.25
  0
LTYPE
  2
PHANTOM2
 70
    64
  3
--------  -  -  --------  -  -  
 72
    65
 73
     6
 40
20.0
 49
10.0
 49
-2.5
 49
1.25
 49
-2.5
 49
1.25
 49
-2.5
  0
LTYPE
  2
DOT
 70
    64
  3
-   -   -   -   -   -   -   -   
 72
    65
 73
     2
 40
2.5
 49
0.625
 49
-1.875
  0
LTYPE
  2
DUMMY
 70
    64
  3
ダミー
 72
    65
 73
     0
 40
0.0
  0
LTYPE
  2
RAND1
 70
    64
  3
ランダム線1
 72
    65
 73
     4
 40
10.0
 49
1.0
 49
-2.0
 49
3.0
 49
-4.0
  0
LTYPE
  2
RAND2
 70
    64
  3
ランダム線2
 72
    65
 73
     4
 40
14.0
 49
2.0
 49
-3.0
 49
4.0
 49
-5.0
  0
LTYPE
  2
RAND3
 70
    64
  3
ランダム線3
 72
    65
 73
     4
 40
18.0
 49
3.0
 49
-4.0
 49
5.0
 49
-6.0
  0
LTYPE
  2
RAND4
 70
    64
  3
ランダム線4
 72
    65
 73
     4
 40
22.0
 49
4.0
 49
-5.0
 49
6.0
 49
-7.0
  0
LTYPE
  2
RAND5
 70
    64
  3
ランダム線5
 72
    65
 73
     4
 40
26.0
 49
5.0
 49
-6.0
 49
7.0
 49
-8.0
  0
LTYPE
  2
LONG1
 70
    64
  3
----------  --  ----------  --  
 72
    65
 73
     4
 40
40.0
 49
32.5
 49
-2.5
 49
2.5
 49
-2.5
  0
LTYPE
  2
LONG2
 70
    64
  3
--------  -  -  --------  -  -  
 72
    65
 73
     6
 40
40.0
 49
30.0
 49
-2.5
 49
1.25
 49
-2.5
 49
1.25
 49
-2.5
  0
LTYPE
  2
LONG3
 70
    64
  3
+++++++++++++++..+++++++++++++++
 72
    65
 73
     2
 40
40.0
 49
37.5
 49
-2.5
  0
LTYPE
  2
LONG4
 70
    64
  3
+++++++++++++++..+++++++++++++++
 72
    65
 73
     2
 40
80.0
 49
75.0
 49
-5.0
  0
LTYPE
  2
LONG5
 70
    64
  3
----------  --  ----------  --  
 72
    65
 73
     4
 40
60.0
 49
37.5
 49
-7.5
 49
7.5
 49
-7.5
  0
LTYPE
  2
dashed
 70
   64
  3
-------   -------------   ------
 72
   65
 73
    2
 40
7.5
 49
6
 49
-1.5
  0
LTYPE
  2
dashed_spaced
 70
   64
  3
----        --------        ----
 72
   65
 73
    2
 40
12
 49
6
 49
-6
  0
LTYPE
  2
long_dashed_dotted
 70
   64
  3
------------- --- --------------
 72
   65
 73
    4
 40
15.25
 49
12
 49
-1.5
 49
0.25
 49
-1.5
  0
LTYPE
  2
long_dashed_double-dotted
 70
   64
  3
----------- --- --- ------------
 72
   65
 73
    6
 40
17
 49
12
 49
-1.5
 49
0.25
 49
-1.5
 49
0.25
 49
-1.5
  0
LTYPE
  2
long_dashed_triplicate-dotted
 70
   64
  3
--------- --- --- --- ----------
 72
   65
 73
    8
 40
18.75
 49
12
 49
-1.5
 49
0.25
 49
-1.5
 49
0.25
 49
-1.5
 49
0.25
 49
-1.5
  0
LTYPE
  2
dotted
 70
   64
  3
   -       -       -       -    
 72
   65
 73
    2
 40
1.75
 49
0.25
 49
-1.5
  0
LTYPE
  2
chain
 70
   64
  3
-------------- -- --------------
 72
   65
 73
    4
 40
18.5
 49
12
 49
-1.5
 49
3.5
 49
-1.5
  0
LTYPE
  2
chain_double_dash
 70
   64
  3
------------ -- -- -------------
 72
   65
 73
    6
 40
23.5
 49
12
 49
-1.5
 49
3.5
 49
-1.5
 49
3.5
 49
-1.5
  0
LTYPE
  2
dashed_dotted
 70
   64
  3
-----------     -     ----------
 72
   65
 73
    4
 40
9.25
 49
6
 49
-1.5
 49
0.25
 49
-1.5
  0
LTYPE
  2
double-dashed_dotted
 70
   64
  3
------   -----------   -   -----
 72
   65
 73
    6
 40
16.75
 49
6
 49
-1.5
 49
6
 49
-1.5
 49
0.25
 49
-1.5
  0
LTYPE
  2
dashed_double-dotted
 70
   64
  3
---------    -    -    ---------
 72
   65
 73
    6
 40
11
 49
6
 49
-1.5
 49
0.25
 49
-1.5
 49
0.25
 49
-1.5
  0
LTYPE
  2
double-dashed_double-dotted
 70
   64
  3
-----   ---------   -   -   ----
 72
   65
 73
    8
 40
18.5
 49
6
 49
-1.5
 49
6
 49
-1.5
 49
0.25
 49
-1.5
 49
0.25
 49
-1.5
  0
LTYPE
  2
dashed_triplicate-dotted
 70
   64
  3
-------    -    -    -    ------
 72
   65
 73
    8
 40
12.75
 49
6
 49
-1.5
 49
0.25
 49
-1.5
 49
0.25
 49
-1.5
 49
0.25
 49
-1.5
  0
LTYPE
  2
double-dashed_triplicate-dotted
 70
   64
  3
-----  ---------  -  -  -  -----
 72
   65
 73
   10
 40
20.25
 49
6
 49
-1.5
 49
6
 49
-1.5
 49
0.25
 49
-1.5
 49
0.25
 49
-1.5
 49
0.25
 49
-1.5
  0
LTYPE
  2
undefined
 70
   64
  3
--------------------------------
 72
   65
 73
    0
 40
0
  0
LTYPE
  2
SLD-破線
 70
   64
  3
------     -----------     -----
 72
   65
 73
    2
 40
1.905
 49
1.27
 49
-0.635
  0
LTYPE
  2
SLD-2点鎖線
 70
   64
  3
---------   ---   ---   --------
 72
   65
 73
    6
 40
12.699999999999998
 49
6.3499999999999996
 49
-1.27
 49
1.27
 49
-1.27
 49
1.27
 49
-1.27
  0
LTYPE
  2
SLD-1点鎖線_中心線_
 70
   64
  3
--------------- - --------------
 72
   65
 73
    4
 40
34.290000000000006
 49
30.48
 49
-1.27
 49
1.27
 49
-1.27
  0
LTYPE
  2
SLD-点線
 70
   64
  3
-               -               
 72
   65
 73
    2
 40
0.645
 49
0.01
 49
-0.635
  0
LTYPE
  2
_
 70
   64
  3
                                
 72
   65
 73
    0
 40
0
  0
LTYPE
  2
__22
 70
   64
  3
                                
 72
   65
 73
    0
 40
0
  0
LTYPE
  2
__23
 70
   64
  3
                                
 72
   65
 73
    0
 40
0
  0
LTYPE
  2
__24
 70
   64
  3
                                
 72
   65
 73
    0
 40
0
  0
LTYPE
  2
__25
 70
   64
  3
                                
 72
   65
 73
    0
 40
0
  0
LTYPE
  2
__26
 70
   64
  3
                                
 72
   65
 73
    0
 40
0
  0
LTYPE
  2
__27
 70
   64
  3
                                
 72
   65
 73
    0
 40
0
  0
LTYPE
  2
__28
 70
   64
  3
                                
 72
   65
 73
    0
 40
0
  0
LTYPE
  2
__29
 70
   64
  3
                                
 72
   65
 73
    0
 40
0
  0
LTYPE
  2
__30
 70
   64
  3
                                
 72
   65
 73
    0
 40
0
  0
LTYPE
  2
__31
 70
   64
  3
                                
 72
   65
 73
    0
 40
0
  0
LTYPE
  2
__32
 70
   64
  3
                                
 72
   65
 73
    0
 40
0
  0
ENDTAB
  0
TABLE
  2
STYLE
  5
3
100
AcDbSymbolTable
 70
     1
  0
STYLE
  5
10
100
AcDbSymbolTableRecord
100
AcDbTextStyleTableRecord
  2
STANDARD
 70
     0
 40
0.0
 41
1.0
 50
0.0
 71
     0
 42
0.2
  3
txt
  4
bigfont.shx
  0
STYLE
  5
26
100
AcDbSymbolTableRecord
100
AcDbTextStyleTableRecord
  2
TATEGAKI
 70
    68
 40
0.0
 41
1.0
 50
0.0
 71
     0
 42
1.0
  3
txt
  4
bigfont.shx
  0
ENDTAB
  0
TABLE
  2
LAYER
 70
    2
  0
LAYER
  2
_0-0_0
 70
   64
 62
    7
  6
CONTINUOUS
  0
LAYER
  2
ADD_LINE
 70
   64
 62
    7
  6
CONTINUOUS
  0
ENDTAB
  0
ENDSEC
  0
SECTION
  2
BLOCKS
  0
ENDSEC
  0
SECTION
  2
ENTITIES
  0
LINE
  8
_0-0_0
  6
CONTINUOUS
 62
    7
 10
168.58228619440001
 20
155.4198855596
 11
168.65758088070001
 21
155.93176496059999
  0
ARC
  8
_0-0_0
  6
CONTINUOUS
 62
    7
 10
166.8168955516
 20
158.74414910269999
 40
1.8325324692568039
 50
268.53994252000007
 51
283.36410490850005
  0
LINE
  8
_0-0_0
  6
CONTINUOUS
 62
    7
 10
250.97593018680001
 20
213.0910138408
 11
249.9032375745
 21
212.47191445920001
  0
LINE
  8
_0-0_0
  6
CONTINUOUS
 62
    7
 10
259.97067088580002
 20
205.1504089336
 11
259.89434722369998
 21
205.53498942510001
  0
LINE
  8
_0-0_0
  6
CONTINUOUS
 62
    7
 10
259.89434722369998
 20
205.53498942510001
 11
259.62647288519997
 21
206.50352435389999
  0
LINE
  8
_0-0_0
  6
CONTINUOUS
 62
    7
 10
259.62647288519997
 20
206.50352435389999
 11
259.26102595819998
 21
207.47372497079999
  0
LINE
  8
_0-0_0
  6
CONTINUOUS
 62
    7
 10
259.26102595819998
 20
207.47372497079999
 11
258.80570384020001
 21
208.42615365180001
  0
LINE
  8
_0-0_0
  6
CONTINUOUS
 62
    7
 10
258.80570384020001
 20
208.42615365180001
 11
258.26964614119998
 21
209.34219527240001
  0
LINE
  8
_0-0_0
  6
CONTINUOUS
 62
    7
 10
258.26964614119998
 20
209.34219527240001
 11
257.6633713809
 21
210.20387527259999
  0
LINE
  8
_0-0_0
  6
CONTINUOUS
 62
    7
 10
257.6633713809
 20
210.20387527259999
 11
256.99866805149998
 21
210.99409897370001
  0
LINE
  8
_0-0_0
  6
CONTINUOUS
 62
    7
 10
256.99866805149998
 20
210.99409897370001
 11
256.28815025400002
 21
211.6971974505
  0
LINE
  8
_0-0_0
  6
CONTINUOUS
 62
    7
 10
256.28815025400002
 20
211.6971974505
 11
255.5450507715
 21
212.29901542429999
  0
LINE
  8
_0-0_0
  6
CONTINUOUS
 62
    7
 10
255.5450507715
 20
212.29901542429999
 11
254.78296462759999
 21
212.78703231009999
  0
LINE
  8
_0-0_0
  6
CONTINUOUS
 62
    7
 10
254.78296462759999
 20
212.78703231009999
 11
254.0157265254
 21
213.1503573249
  0
LINE
  8
_0-0_0
  6
CONTINUOUS
 62
    7
 10
254.0157265254
 20
213.1503573249
 11
253.2578362978
 21
213.3796356629
  0
LINE
  8
_0-0_0
  6
CONTINUOUS
 62
    7
 10
253.2578362978
 20
213.3796356629
 11
253.24530683
 21
213.3811395079
  0
LINE
  8
_0-0_0
  6
CONTINUOUS
 62
    7
 10
259.97467615350001
 20
203.57519428859999
 11
259.97467615350001
 21
205.13491353129999
  0
LINE
  8
_0-0_0
  6
CONTINUOUS
 62
    7
 10
258.77259535040002
 20
202.45707973020001
 11
258.77259535040002
 21
202.70818328159999
  0
LINE
  8
_0-0_0
  6
CONTINUOUS
 62
    7
 10
258.7725950212
 20
202.70818292449999
 11
259.8246383119
 21
203.31536464940001
  0
ARC
  8
_0-0_0
  6
CONTINUOUS
 62
    7
 10
258.47259550590002
 20
202.45707975089999
 40
0.3000000000000246
 50
324.90670204819992
 51
359.99999999999994
  0
LINE
  8
_0-0_0
  6
CONTINUOUS
 62
    7
 10
258.43449201459998
 20
201.88102975749999
 11
258.7180596334
 21
202.28460642409999
  0
ARC
  8
_0-0_0
  6
CONTINUOUS
 62
    7
 10
258.18902767809999
 20
202.05350320459999
 40
0.29999999999997
 50
299.99118658999993
 51
324.90670204829996
  0
ARC
  8
_0-0_0
  6
CONTINUOUS
 62
    7
 10
259.67467703390002
 20
203.5751947224
 40
0.3000000000000192
 50
299.99118658999993
 51
359.99999999999994
  0
LINE
  8
_0-0_0
  6
CONTINUOUS
 62
    7
 10
257.53999298500003
 20
200.87652870310001
 11
257.46647357009999
 21
201.04795984149999
  0
ARC
  8
_0-0_0
  6
CONTINUOUS
 62
    7
 10
257.27051397790001
 20
200.7446943464
 40
0.3000000000000135
 50
0
 51
26.0687814552
  0
LINE
  8
_0-0_0
  6
CONTINUOUS
 62
    7
 10
257.57051388880001
 20
200.0636360048
 11
257.57051388880001
 21
200.7446941988
  0
LINE
  8
_0-0_0
  6
CONTINUOUS
 62
    7
 10
257.27051476140002
 20
199.7174407224
 11
257.27905213240001
 21
199.72218442350001
  0
LINE
  8
_0-0_0
  6
CONTINUOUS
 62
    7
 10
257.27905213240001
 20
199.72218442350001
 11
257.42047324840001
 21
199.8038049404
  0
ARC
  8
_0-0_0
  6
CONTINUOUS
 62
    7
 10
257.27051397790001
 20
200.06363603520001
 40
0.3000000000000114
 50
299.99118658999993
 51
359.99999999999994
  0
LINE
  8
_0-0_0
  6
CONTINUOUS
 62
    7
 10
164.4295295517
 20
162.06125249639999
 11
164.42725559749999
 21
162.05564244050001
  0
LINE
  8
_0-0_0
  6
CONTINUOUS
 62
    7
 10
164.42725559749999
 20
162.05564244050001
 11
164.3455091507
 21
161.73901634609999
  0
LINE
  8
_0-0_0
  6
CONTINUOUS
 62
    7
 10
167.18377539400001
 20
164.7307747392
 11
165.84027084069999
 21
163.9553775485
  0
LINE
  8
_0-0_0
  6
CONTINUOUS
 62
    7
 10
176.1785213613
 20
156.79017287260001
 11
176.10219769919999
 21
157.17475336410001
  0
LINE
  8
_0-0_0
  6
CONTINUOUS
 62
    7
 10
176.10219769919999
 20
157.17475336410001
 11
175.83432336070001
 21
158.1432882929
  0
LINE
  8
_0-0_0
  6
CONTINUOUS
 62
    7
 10
175.83432336070001
 20
158.1432882929
 11
175.46887379949999
 21
159.11348738960001
  0
LINE
  8
_0-0_0
  6
CONTINUOUS
 62
    7
 10
175.46887379949999
 20
159.11348738960001
 11
175.0135464132
 21
160.06591302999999
  0
LINE
  8
_0-0_0
  6
CONTINUOUS
 62
    7
 10
175.0135464132
 20
160.06591302999999
 11
174.47749134829999
 21
160.98195617089999
  0
LINE
  8
_0-0_0
  6
CONTINUOUS
 62
    7
 10
174.47749134829999
 20
160.98195617089999
 11
173.8712165881
 21
161.84363617100001
  0
LINE
  8
_0-0_0
  6
CONTINUOUS
 62
    7
 10
173.8712165881
 20
161.84363617100001
 11
173.2065132587
 21
162.6338598721
  0
LINE
  8
_0-0_0
  6
CONTINUOUS
 62
    7
 10
173.2065132587
 20
162.6338598721
 11
172.4959980953
 21
163.33695986929999
  0
LINE
  8
_0-0_0
  6
CONTINUOUS
 62
    7
 10
172.4959980953
 20
163.33695986929999
 11
171.75290124700001
 21
163.9387793633
  0
LINE
  8
_0-0_0
  6
CONTINUOUS
 62
    7
 10
171.75290124700001
 20
163.9387793633
 11
170.99080720059999
 21
164.4267916883
  0
LINE
  8
_0-0_0
  6
CONTINUOUS
 62
    7
 10
170.99080720059999
 20
164.4267916883
 11
170.22357700090001
 21
164.79012126399999
  0
LINE
  8
_0-0_0
  6
CONTINUOUS
 62
    7
 10
170.22357700090001
 20
164.79012126399999
 11
169.46568677330001
 21
165.01939960199999
  0
LINE
  8
_0-0_0
  6
CONTINUOUS
 62
    7
 10
169.46568677330001
 20
165.01939960199999
 11
169.45169401960001
 21
165.0210749183
  0
ARC
  8
_0-0_0
  6
CONTINUOUS
 62
    7
 10
174.53902057900001
 20
154.4395600988
 40
0.3000000000000125
 50
240.00881341000002
 51
299.99118658999998
  0
LINE
  8
_0-0_0
  6
CONTINUOUS
 62
    7
 10
176.18252399479999
 20
154.79061730250001
 11
176.18252399479999
 21
156.7746759501
  0
LINE
  8
_0-0_0
  6
CONTINUOUS
 62
    7
 10
171.03030316050001
 20
158.5681445004
 11
171.19060575590001
 21
158.46159157630001
  0
LINE
  8
_0-0_0
  6
CONTINUOUS
 62
    7
 10
171.19060575590001
 20
158.46159157630001
 11
171.4999039125
 21
158.1738263556
  0
LINE
  8
_0-0_0
  6
CONTINUOUS
 62
    7
 10
171.4999039125
 20
158.1738263556
 11
171.77758188990001
 21
157.7997888285
  0
LINE
  8
_0-0_0
  6
CONTINUOUS
 62
    7
 10
171.77758188990001
 20
157.7997888285
 11
171.9918427206
 21
157.3762148246
  0
LINE
  8
_0-0_0
  6
CONTINUOUS
 62
    7
 10
171.9918427206
 20
157.3762148246
 11
172.11965653729999
 21
156.94933436619999
  0
LINE
  8
_0-0_0
  6
CONTINUOUS
 62
    7
 10
172.11965653729999
 20
156.94933436619999
 11
172.15199140190001
 21
156.5696035318
  0
LINE
  8
_0-0_0
  6
CONTINUOUS
 62
    7
 10
172.15199140190001
 20
156.5696035318
 11
172.09987476570001
 21
156.2821903951
  0
LINE
  8
_0-0_0
  6
CONTINUOUS
 62
    7
 10
172.09987476570001
 20
156.2821903951
 11
171.99524867170001
 21
156.10923344240001
  0
LINE
  8
_0-0_0
  6
CONTINUOUS
 62
    7
 10
171.99524867170001
 20
156.10923344240001
 11
171.95461149529999
 21
156.07466820299999
  0
LINE
  8
_0-0_0
  6
CONTINUOUS
 62
    7
 10
174.6889789658
 20
154.1797283571
 11
175.74102752490001
 21
154.78691312270001
  0
LINE
  8
_0-0_0
  6
CONTINUOUS
 62
    7
 10
171.9789864501
 20
155.57069186359999
 11
174.3890603454
 21
154.17972930729999
  0
LINE
  8
_0-0_0
  6
CONTINUOUS
 62
    7
 10
167.84832253510001
 20
160.4046093131
 11
171.03030316050001
 21
158.5681445004
  0
ARC
  8
_0-0_0
  6
CONTINUOUS
 62
    7
 10
175.8825234633
 20
154.79061692670001
 40
0.3000000000000013
 50
324.90670204819992
 51
359.99999999999994
  0
LINE
  8
_0-0_0
  6
CONTINUOUS
 62
    7
 10
175.84442592740001
 20
154.2145703704
 11
176.12799354609999
 21
154.618147037
  0
ARC
  8
_0-0_0
  6
CONTINUOUS
 62
    7
 10
175.45753427930001
 20
154.30541972489999
 40
0.2999999999999983
 50
233.38879275879998
 51
299.99118658999998
  0
ARC
  8
_0-0_0
  6
CONTINUOUS
 62
    7
 10
172.1289466664
 20
155.83052266510001
 40
0.2999999999999832
 50
125.52981485679999
 51
240.00881341000002
  0
LINE
  8
_0-0_0
  6
CONTINUOUS
 62
    7
 10
174.7672887981
 20
154.20257542429999
 11
174.78047516410001
 21
154.2146322257
  0
LINE
  8
_0-0_0
  6
CONTINUOUS
 62
    7
 10
174.78047516410001
 20
154.2146322257
 11
174.91199506340001
 21
154.23093664730001
  0
LINE
  8
_0-0_0
  6
CONTINUOUS
 62
    7
 10
174.91199506340001
 20
154.23093664730001
 11
175.1150691162
 21
154.16624287510001
  0
LINE
  8
_0-0_0
  6
CONTINUOUS
 62
    7
 10
175.1150691162
 20
154.16624287510001
 11
175.27861946799999
 21
154.0646093762
  0
LINE
  8
_0-0_0
  6
CONTINUOUS
 62
    7
 10
175.60749182079999
 20
154.04558766490001
 11
175.748915571
 21
154.1272097021
  0
ARC
  8
_0-0_0
  6
CONTINUOUS
 62
    7
 10
175.5989556355
 20
154.38704038040001
 40
0.3000000000000334
 50
299.99118658999993
 51
324.90670204829996
  0
ARC
  8
_0-0_0
  6
CONTINUOUS
 62
    7
 10
175.9690825184
 20
153.8330324639
 40
1.1944802439657221
 50
162.91523093870001
 51
211.43552313630002
  0
ARC
  8
_0-0_0
  6
CONTINUOUS
 62
    7
 10
167.4733921207
 20
159.9103979539
 40
0.6203367498992058
 50
52.814450837400003
 51
110.7901676036
  0
ARC
  8
_0-0_0
  6
CONTINUOUS
 62
    7
 10
174.6804419353
 20
153.07823152220001
 40
0.3000000000000012
 50
0
 51
26.0687814552
  0
LINE
  8
_0-0_0
  6
CONTINUOUS
 62
    7
 10
174.98044253320001
 20
152.39717357710001
 11
174.98044253320001
 21
153.07823177110001
  0
LINE
  8
_0-0_0
  6
CONTINUOUS
 62
    7
 10
172.0133287642
 20
157.3044360609
 11
171.52464511069999
 21
157.586477481
  0
LINE
  8
_0-0_0
  6
CONTINUOUS
 62
    7
 10
169.9242188019
 20
158.51015582709999
 11
169.73842890820001
 21
158.6173835706
  0
ARC
  8
_0-0_0
  6
CONTINUOUS
 62
    7
 10
174.53902057900001
 20
152.31555255539999
 40
0.3000000000000125
 50
240.00881341000002
 51
299.99118658999998
  0
LINE
  8
_0-0_0
  6
CONTINUOUS
 62
    7
 10
169.65998275710001
 20
154.785085334
 11
174.3890596869
 21
152.05572133059999
  0
LINE
  8
_0-0_0
  6
CONTINUOUS
 62
    7
 10
174.68897814260001
 20
152.05572047550001
 11
174.83040189280001
 21
152.13734251259999
  0
ARC
  8
_0-0_0
  6
CONTINUOUS
 62
    7
 10
174.6804419353
 20
152.39717321099999
 40
0.3000000000000088
 50
299.99118658999993
 51
359.99999999999994
  0
LINE
  8
_0-0_0
  6
CONTINUOUS
 62
    7
 10
168.57895330060001
 20
159.8553159601
 11
168.53021508009999
 21
159.95169234740001
  0
LINE
  8
_0-0_0
  6
CONTINUOUS
 62
    7
 10
168.53021508009999
 20
159.95169234740001
 11
168.5087182117
 21
160.02346473790001
  0
LINE
  8
_0-0_0
  6
CONTINUOUS
 62
    7
 10
164.3395229811
 20
161.71272406200001
 11
164.3395229811
 21
159.72866541440001
  0
ARC
  8
_0-0_0
  6
CONTINUOUS
 62
    7
 10
168.45790226080001
 20
154.43768959900001
 40
0.3000000000000125
 50
240.00881341000002
 51
299.99118658999998
  0
LINE
  8
_0-0_0
  6
CONTINUOUS
 62
    7
 10
168.6078604411
 20
154.1778579999
 11
169.65998275710001
 21
154.785085334
  0
LINE
  8
_0-0_0
  6
CONTINUOUS
 62
    7
 10
168.03150129989999
 20
154.33740526700001
 11
168.30794215
 21
154.17785875999999
  0
ARC
  8
_0-0_0
  6
CONTINUOUS
 62
    7
 10
164.18446324510001
 20
157.4045651946
 40
1.456442662902125
 50
25.0353962047
 51
64.609244626199995
  0
ARC
  8
_0-0_0
  6
CONTINUOUS
 62
    7
 10
167.2099285521
 20
152.9182597237
 40
1.639012173129851
 50
59.983365290099989
 51
79.376440853599988
  0
LINE
  8
_0-0_0
  6
CONTINUOUS
 62
    7
 10
164.3598351279
 20
159.62015365080001
 11
164.64340307590001
 21
158.88925741969999
  0
ARC
  8
_0-0_0
  6
CONTINUOUS
 62
    7
 10
164.6395256424
 20
159.72866658570001
 40
0.3000000000000397
 50
180
 51
201.2048984022
  0
ARC
  8
_0-0_0
  6
CONTINUOUS
 62
    7
 10
164.9230934702
 20
158.99777042380001
 40
0.3000000000000011
 50
201.20489840229996
 51
247.64159032559996
  0
LINE
  8
_0-0_0
  6
CONTINUOUS
 62
    7
 10
165.54160510130001
 20
156.19520673459999
 11
165.54160510130001
 21
155.98075103639999
  0
LINE
  8
_0-0_0
  6
CONTINUOUS
 62
    7
 10
249.0167543487
 20
212.15740911270001
 11
167.69947303710001
 21
165.2255313368
  0
LINE
  8
_0-0_0
  6
CONTINUOUS
 62
    7
 10
176.68478831780001
 20
156.78323403920001
 11
258.00206962940001
 21
203.71511181509999
  0
LINE
  8
_0-0_0
  6
CONTINUOUS
 62
    7
 10
136.72231539399999
 20
133.08750473980001
 11
142.16703494539999
 21
136.22989844
  0
LINE
  8
_0-0_0
  6
CONTINUOUS
 62
    7
 10
136.6345245787
 20
145.40435087200001
 11
131.18980502720001
 21
142.26195717179999
  0
ARC
  8
_0-0_0
  6
CONTINUOUS
 62
    7
 10
142.01707773059999
 20
142.1245574994
 40
0.2999999999999842
 50
0
 51
60.008813410000009
  0
LINE
  8
_0-0_0
  6
CONTINUOUS
 62
    7
 10
142.31707550350001
 20
136.489729552
 11
142.31707550350001
 21
142.1245564077
  0
LINE
  8
_0-0_0
  6
CONTINUOUS
 62
    7
 10
142.16703338139999
 20
142.38438566670001
 11
136.93444319899999
 21
145.40434992179999
  0
ARC
  8
_0-0_0
  6
CONTINUOUS
 62
    7
 10
142.01707773059999
 20
136.4897307688
 40
0.2999999999999842
 50
299.99118658999993
 51
359.99999999999994
  0
ARC
  8
_0-0_0
  6
CONTINUOUS
 62
    7
 10
136.78448754990001
 20
145.14452175369999
 40
0.3000000000000088
 50
60.008813410000009
 51
119.99118659
  0
LINE
  8
_0-0_0
  6
CONTINUOUS
 62
    7
 10
142.31707688239999
 20
138.15339416360001
 11
148.70777191190001
 21
141.8417530609
  0
LINE
  8
_0-0_0
  6
CONTINUOUS
 62
    7
 10
144.2359204297
 20
147.54623941049999
 11
138.72959272240001
 21
144.36828885950001
  0
LINE
  8
_0-0_0
  6
CONTINUOUS
 62
    7
 10
136.51018100350001
 20
135.8213603332
 11
136.73105156310001
 21
135.94883471430001
  0
LINE
  8
_0-0_0
  6
CONTINUOUS
 62
    7
 10
170.5274987487
 20
158.85833602700001
 11
148.76994684819999
 21
146.3010696007
  0
LINE
  8
_0-0_0
  6
CONTINUOUS
 62
    7
 10
148.7699445433
 20
144.4537114039
 11
171.80394536110001
 21
157.74767418319999
  0
LINE
  8
_0-0_0
  6
CONTINUOUS
 62
    7
 10
258.98024447659998
 20
208.06105590300001
 11
283.32557599720002
 21
222.11184688989999
  0
LINE
  8
_0-0_0
  6
CONTINUOUS
 62
    7
 10
282.81431859039998
 20
223.66413400330001
 11
258.19153436609997
 21
209.4532125229
  0
LINE
  8
_0-0_0
  6
CONTINUOUS
 62
    7
 10
168.7412822169
 20
159.8892423067
 11
147.2721728109
 21
147.49844907869999
  0
LINE
  8
_0-0_0
  6
CONTINUOUS
 62
    7
 10
148.76994322620001
 20
146.51552301300001
 11
170.08327788010001
 21
158.81641159220001
  0
LINE
  8
_0-0_0
  6
CONTINUOUS
 62
    7
 10
170.08327788010001
 20
158.81641159220001
 11
170.3281670396
 21
158.9733770597
  0
LINE
  8
_0-0_0
  6
CONTINUOUS
 62
    7
 10
258.08422223359997
 20
209.60573334450001
 11
281.53934909330002
 21
223.14274699340001
  0
LINE
  8
_0-0_0
  6
CONTINUOUS
 62
    7
 10
281.02810205859998
 20
224.69504028290001
 11
257.09353372369998
 21
210.88131929279999
  0
LINE
  8
_0-0_0
  6
CONTINUOUS
 62
    7
 10
176.00921286100001
 20
154.03529356839999
 11
258.03359711849998
 21
201.37527240829999
  0
LINE
  8
_0-0_0
  6
CONTINUOUS
 62
    7
 10
175.1839589633
 20
152.01482663780001
 11
257.20834322069999
 21
199.35480547770001
  0
LINE
  8
_0-0_0
  6
CONTINUOUS
 62
    7
 10
165.9543162615
 20
156.4334014328
 11
166.02870972970001
 21
156.26188131879999
  0
LINE
  8
_0-0_0
  6
CONTINUOUS
 62
    7
 10
167.0144622839
 20
154.98344721199999
 11
167.18511520280001
 21
154.84575242450001
  0
LINE
  8
_0-0_0
  6
CONTINUOUS
 62
    7
 10
167.18511520280001
 20
154.84575242450001
 11
167.72631136000001
 21
154.65772997049999
  0
LINE
  8
_0-0_0
  6
CONTINUOUS
 62
    7
 10
167.72631136000001
 20
154.65772997049999
 11
168.18511536739999
 21
154.74698476450001
  0
LINE
  8
_0-0_0
  6
CONTINUOUS
 62
    7
 10
168.18511536739999
 20
154.74698476450001
 11
168.49167837260001
 21
155.09992851090001
  0
LINE
  8
_0-0_0
  6
CONTINUOUS
 62
    7
 10
168.49167837260001
 20
155.09992851090001
 11
168.59932899699999
 21
155.6628288284
  0
LINE
  8
_0-0_0
  6
CONTINUOUS
 62
    7
 10
168.59932899699999
 20
155.6628288284
 11
168.56552096830001
 21
155.87863314730001
  0
LINE
  8
_0-0_0
  6
CONTINUOUS
 62
    7
 10
167.95165179040001
 20
157.37169816420001
 11
167.8403024509
 21
157.5218891806
  0
LINE
  8
_0-0_0
  6
CONTINUOUS
 62
    7
 10
166.77294009779999
 20
156.922649277
 11
166.9133836044
 21
156.9496883418
  0
LINE
  8
_0-0_0
  6
CONTINUOUS
 62
    7
 10
166.9133836044
 20
156.9496883418
 11
166.97772834200001
 21
157.02405854200001
  0
LINE
  8
_0-0_0
  6
CONTINUOUS
 62
    7
 10
166.513363914
 20
156.7442373273
 11
166.50312782739999
 21
156.75014503540001
  0
LINE
  8
_0-0_0
  6
CONTINUOUS
 62
    7
 10
166.6599447262
 20
156.6261958117
 11
166.513363914
 21
156.7442373273
  0
LINE
  8
_0-0_0
  6
CONTINUOUS
 62
    7
 10
167.29118136899999
 20
157.19362943019999
 11
167.32023766980001
 21
157.00728062920001
  0
LINE
  8
_0-0_0
  6
CONTINUOUS
 62
    7
 10
167.29118136899999
 20
157.20496643120001
 11
167.29118136899999
 21
157.19362943019999
  0
ARC
  8
_0-0_0
  6
CONTINUOUS
 62
    7
 10
251.05064864409999
 20
209.47876255649999
 40
3.18863726303243
 50
76.882710770499997
 51
109.4917470601
  0
ARC
  8
_0-0_0
  6
CONTINUOUS
 62
    7
 10
258.3005934684
 20
204.68222442230001
 40
0.4994634629608953
 50
248.68528795730001
 51
299.07445568759999
  0
ARC
  8
_0-0_0
  6
CONTINUOUS
 62
    7
 10
247.03358173129999
 20
202.11703982189999
 40
11.281928441169811
 50
13.464808757800002
 51
56.3825786632
  0
ARC
  8
_0-0_0
  6
CONTINUOUS
 62
    7
 10
252.3947940704
 20
210.45132314759999
 40
2.9968552977369951
 50
76.009093412900015
 51
118.25853710910002
  0
LINE
  8
_0-0_0
  6
CONTINUOUS
 62
    7
 10
258.54330562860002
 20
204.24569886960001
 11
259.8868101818
 21
205.02109606030001
  0
LINE
  8
_0-0_0
  6
CONTINUOUS
 62
    7
 10
259.8868101818
 20
205.02109606030001
 11
259.94483684329998
 21
205.0666564194
  0
LINE
  8
_0-0_0
  6
CONTINUOUS
 62
    7
 10
259.94483684329998
 20
205.0666564194
 11
259.97270578839999
 21
205.1175274981
  0
LINE
  8
_0-0_0
  6
CONTINUOUS
 62
    7
 10
259.97270578839999
 20
205.1175274981
 11
259.96928464960001
 21
205.15016083090001
  0
LINE
  8
_0-0_0
  6
CONTINUOUS
 62
    7
 10
258.54330562860002
 20
202.25302786789999
 11
258.54330562860002
 21
204.24569886960001
  0
LINE
  8
_0-0_0
  6
CONTINUOUS
 62
    7
 10
258.68472674460003
 20
202.75898778960001
 11
258.68472674460003
 21
202.3346483848
  0
LINE
  8
_0-0_0
  6
CONTINUOUS
 62
    7
 10
258.54330562860002
 20
202.25302786789999
 11
258.68472674460003
 21
202.3346483848
  0
LINE
  8
_0-0_0
  6
CONTINUOUS
 62
    7
 10
259.8868101818
 20
205.02109606030001
 11
259.8868101818
 21
203.45276446349999
  0
LINE
  8
_0-0_0
  6
CONTINUOUS
 62
    7
 10
258.68472674460003
 20
202.75898778960001
 11
259.8868101818
 21
203.45276446349999
  0
LINE
  8
_0-0_0
  6
CONTINUOUS
 62
    7
 10
258.77259550584296
 20
202.70818331599691
 11
258.77259550584296
 21
202.70818331599691
  0
LINE
  8
_0-0_0
  6
CONTINUOUS
 62
    7
 10
258.77259550584296
 20
202.70818331599691
 11
258.76803783175342
 21
202.71083118138506
  0
LINE
  8
_0-0_0
  6
CONTINUOUS
 62
    7
 10
258.76803783175342
 20
202.71083118138506
 11
258.75450329209389
 21
202.71866227589007
  0
LINE
  8
_0-0_0
  6
CONTINUOUS
 62
    7
 10
258.75450329209389
 20
202.71866227589007
 11
258.73240312700312
 21
202.73143865566811
  0
LINE
  8
_0-0_0
  6
CONTINUOUS
 62
    7
 10
258.73240312700312
 20
202.73143865566811
 11
258.70240883881405
 21
202.74877211688479
  0
LINE
  8
_0-0_0
  6
CONTINUOUS
 62
    7
 10
258.70240883881405
 20
202.74877211688479
 11
258.68472754021633
 21
202.75898816714789
  0
ARC
  8
_0-0_0
  6
CONTINUOUS
 62
    7
 10
258.35927001269999
 20
202.24547352139999
 40
0.1841905970800719
 50
327.65705613559999
 51
2.3505738947000263
  0
ARC
  8
_0-0_0
  6
CONTINUOUS
 62
    7
 10
258.5006911287
 20
202.3270940383
 40
0.1841905970796753
 50
327.65705613559999
 51
2.3505738947000263
  0
LINE
  8
_0-0_0
  6
CONTINUOUS
 62
    7
 10
258.51488548179998
 20
202.14693417980001
 11
258.65630659779998
 21
202.2285546967
  0
LINE
  8
_0-0_0
  6
CONTINUOUS
 62
    7
 10
258.65630659779998
 20
202.2285546967
 11
258.37273864970001
 21
201.82497823200001
  0
LINE
  8
_0-0_0
  6
CONTINUOUS
 62
    7
 10
257.29576730909997
 20
200.71842740549999
 11
257.43718842509998
 21
200.80004792240001
  0
ARC
  8
_0-0_0
  6
CONTINUOUS
 62
    7
 10
256.92609239030003
 20
200.5292034805
 40
0.4152893442209503
 50
1.5783720111999997
 51
27.106351184000005
  0
LINE
  8
_0-0_0
  6
CONTINUOUS
 62
    7
 10
257.34122416690002
 20
199.85958414250001
 11
257.34122416690002
 21
200.54064233650001
  0
ARC
  8
_0-0_0
  6
CONTINUOUS
 62
    7
 10
257.06751350629997
 20
200.6108239973
 40
0.4152893442230706
 50
1.5783720112999997
 51
27.106351183899996
  0
LINE
  8
_0-0_0
  6
CONTINUOUS
 62
    7
 10
257.34122416690002
 20
200.54064233650001
 11
257.48264528290002
 21
200.6222628534
  0
LINE
  8
_0-0_0
  6
CONTINUOUS
 62
    7
 10
257.48264528290002
 20
200.6222628534
 11
257.48264528290002
 21
199.9412046594
  0
LINE
  8
_0-0_0
  6
CONTINUOUS
 62
    7
 10
257.34122416690002
 20
199.85958414250001
 11
257.48264528290002
 21
199.9412046594
  0
ARC
  8
_0-0_0
  6
CONTINUOUS
 62
    7
 10
167.27609667070001
 20
161.46262900310001
 40
2.8502352427421949
 50
75.625800583000014
 51
165.7708885207
  0
ARC
  8
_0-0_0
  6
CONTINUOUS
 62
    7
 10
174.5084640083
 20
156.3216941769
 40
0.4991967104184962
 50
248.67086920690002
 51
299.08815299700007
  0
ARC
  8
_0-0_0
  6
CONTINUOUS
 62
    7
 10
162.86950625029999
 20
153.5652753032
 40
11.68789293688681
 50
13.171591103299999
 51
50.488229405699997
  0
ARC
  8
_0-0_0
  6
CONTINUOUS
 62
    7
 10
164.50567805029999
 20
161.71423518820001
 40
0.163989244113177
 50
171.08218990829999
 51
241.48807805409999
  0
ARC
  8
_0-0_0
  6
CONTINUOUS
 62
    7
 10
168.60250776890001
 20
162.09149022509999
 40
2.9964352650907791
 50
76.034814114699998
 51
118.2599993239
  0
LINE
  8
_0-0_0
  6
CONTINUOUS
 62
    7
 10
176.094655389
 20
156.6608569588
 11
174.7511508357
 21
155.88545976809999
  0
LINE
  8
_0-0_0
  6
CONTINUOUS
 62
    7
 10
164.4273991602
 20
159.60623843990001
 11
164.71096644970001
 21
158.875342577
  0
LINE
  8
_0-0_0
  6
CONTINUOUS
 62
    7
 10
164.4273991602
 20
161.57013491910001
 11
164.4273991602
 21
159.60623843990001
  0
LINE
  8
_0-0_0
  6
CONTINUOUS
 62
    7
 10
174.3268937439
 20
154.31713216200001
 11
174.3268937439
 21
155.85668923630001
  0
LINE
  8
_0-0_0
  6
CONTINUOUS
 62
    7
 10
171.9168198486
 20
155.7080947183
 11
174.3268937439
 21
154.31713216200001
  0
LINE
  8
_0-0_0
  6
CONTINUOUS
 62
    7
 10
170.9681365589
 20
158.70554735510001
 11
171.32912401799999
 21
158.43684473650001
  0
LINE
  8
_0-0_0
  6
CONTINUOUS
 62
    7
 10
171.32912401799999
 20
158.43684473650001
 11
171.6604651616
 21
158.0694883889
  0
LINE
  8
_0-0_0
  6
CONTINUOUS
 62
    7
 10
171.6604651616
 20
158.0694883889
 11
171.9349483853
 21
157.63364800670001
  0
LINE
  8
_0-0_0
  6
CONTINUOUS
 62
    7
 10
171.9349483853
 20
157.63364800670001
 11
172.13003157669999
 21
157.16511689870001
  0
LINE
  8
_0-0_0
  6
CONTINUOUS
 62
    7
 10
172.13003157669999
 20
157.16511689870001
 11
172.22969339759999
 21
156.70237389069999
  0
LINE
  8
_0-0_0
  6
CONTINUOUS
 62
    7
 10
172.22969339759999
 20
156.70237389069999
 11
172.22574912760001
 21
156.28342157930001
  0
LINE
  8
_0-0_0
  6
CONTINUOUS
 62
    7
 10
172.22574912760001
 20
156.28342157930001
 11
172.11852252360001
 21
155.94266703189999
  0
LINE
  8
_0-0_0
  6
CONTINUOUS
 62
    7
 10
172.11852252360001
 20
155.94266703189999
 11
171.9168198486
 21
155.7080947183
  0
LINE
  8
_0-0_0
  6
CONTINUOUS
 62
    7
 10
167.78615593360001
 20
160.54201216769999
 11
170.9681365589
 21
158.70554735510001
  0
ARC
  8
_0-0_0
  6
CONTINUOUS
 62
    7
 10
166.45717577869999
 20
157.74031116660001
 40
0.7436666419381191
 50
105.32772591379999
 51
134.6545995301
  0
LINE
  8
_0-0_0
  6
CONTINUOUS
 62
    7
 10
176.17712722260001
 20
156.78992020909999
 11
176.1805509955
 21
156.7572883965
  0
LINE
  8
_0-0_0
  6
CONTINUOUS
 62
    7
 10
176.1805509955
 20
156.7572883965
 11
176.1526794163
 21
156.7064157975
  0
LINE
  8
_0-0_0
  6
CONTINUOUS
 62
    7
 10
176.1526794163
 20
156.7064157975
 11
176.094655389
 21
156.6608569588
  0
LINE
  8
_0-0_0
  6
CONTINUOUS
 62
    7
 10
174.7511508357
 20
155.88545976809999
 11
174.7511508357
 21
154.31712817120001
  0
ARC
  8
_0-0_0
  6
CONTINUOUS
 62
    7
 10
174.53902614169999
 20
154.72662462100001
 40
0.4611770030862997
 50
242.61415507429999
 51
297.38476701439998
  0
LINE
  8
_0-0_0
  6
CONTINUOUS
 62
    7
 10
176.094655389
 20
154.66818595710001
 11
176.094655389
 21
156.6608569588
  0
LINE
  8
_0-0_0
  6
CONTINUOUS
 62
    7
 10
176.094655389
 20
154.66818595710001
 11
175.95323163879999
 21
154.58656391989999
  0
LINE
  8
_0-0_0
  6
CONTINUOUS
 62
    7
 10
175.95323163879999
 20
155.01090332480001
 11
175.95323163879999
 21
154.58656391989999
  0
LINE
  8
_0-0_0
  6
CONTINUOUS
 62
    7
 10
175.95323163879999
 20
155.01090332480001
 11
174.7511508357
 21
154.31712817120001
  0
LINE
  8
_0-0_0
  6
CONTINUOUS
 62
    7
 10
175.74102218540284
 20
154.78691014054584
 11
175.74102218540284
 21
154.78691014054584
  0
LINE
  8
_0-0_0
  6
CONTINUOUS
 62
    7
 10
175.74102218540284
 20
154.78691014054584
 11
175.79311785104329
 21
154.82223918484632
  0
LINE
  8
_0-0_0
  6
CONTINUOUS
 62
    7
 10
175.79311785104329
 20
154.82223918484632
 11
175.84363304462525
 21
154.86702073844705
  0
LINE
  8
_0-0_0
  6
CONTINUOUS
 62
    7
 10
175.84363304462525
 20
154.86702073844705
 11
175.89103288755368
 21
154.91989413650242
  0
LINE
  8
_0-0_0
  6
CONTINUOUS
 62
    7
 10
175.89103288755368
 20
154.91989413650242
 11
175.93387715958664
 21
154.97925284756778
  0
LINE
  8
_0-0_0
  6
CONTINUOUS
 62
    7
 10
175.93387715958664
 20
154.97925284756778
 11
175.95323414144647
 21
155.01090468742422
  0
ARC
  8
_0-0_0
  6
CONTINUOUS
 62
    7
 10
175.74110694480001
 20
154.99606036969999
 40
0.4611770030863712
 50
242.61415507429999
 51
297.38476701439998
  0
LINE
  8
_0-0_0
  6
CONTINUOUS
 62
    7
 10
174.32689308529999
 20
152.19312418530001
 11
174.32689308529999
 21
152.87418237930001
  0
LINE
  8
_0-0_0
  6
CONTINUOUS
 62
    7
 10
169.65998835479999
 20
154.88660580289999
 11
174.32689308529999
 21
152.19312418530001
  0
LINE
  8
_0-0_0
  6
CONTINUOUS
 62
    7
 10
169.65998835479999
 20
156.51029960650001
 11
169.65998835479999
 21
154.88660580289999
  0
LINE
  8
_0-0_0
  6
CONTINUOUS
 62
    7
 10
175.2454067635
 20
154.1829913272
 11
175.52897454699999
 21
154.58656791070001
  0
ARC
  8
_0-0_0
  6
CONTINUOUS
 62
    7
 10
175.76919602289999
 20
154.57900957339999
 40
0.1841905970807994
 50
327.65705613570003
 51
2.350573894600049
  0
ARC
  8
_0-0_0
  6
CONTINUOUS
 62
    7
 10
175.79247286450001
 20
154.7781891317
 40
0.3258067765812374
 50
216.02539378149999
 51
293.96556101570002
  0
LINE
  8
_0-0_0
  6
CONTINUOUS
 62
    7
 10
175.924811492
 20
154.48047023180001
 11
175.6412435439
 21
154.0768937672
  0
ARC
  8
_0-0_0
  6
CONTINUOUS
 62
    7
 10
175.5089049227
 20
154.3746124962
 40
0.3258066179607854
 50
216.025402762
 51
293.96557219959999
  0
ARC
  8
_0-0_0
  6
CONTINUOUS
 62
    7
 10
175.9106197731
 20
154.66063161060001
 40
0.1841905970809707
 50
327.65705613570003
 51
2.350573894600049
  0
LINE
  8
_0-0_0
  6
CONTINUOUS
 62
    7
 10
176.06623524220001
 20
154.562092269
 11
175.924811492
 21
154.48047023180001
  0
LINE
  8
_0-0_0
  6
CONTINUOUS
 62
    7
 10
175.78266729410001
 20
154.15851580430001
 11
176.06623524220001
 21
154.562092269
  0
LINE
  8
_0-0_0
  6
CONTINUOUS
 62
    7
 10
175.78266729410001
 20
154.15851580430001
 11
175.6412435439
 21
154.0768937672
  0
LINE
  8
_0-0_0
  6
CONTINUOUS
 62
    7
 10
175.27861946799999
 20
154.0646093762
 11
175.28238173279999
 21
154.0619942335
  0
ARC
  8
_0-0_0
  6
CONTINUOUS
 62
    7
 10
173.4700487799
 20
155.19231821279999
 40
2.47142386209917
 50
290.28564552009999
 51
299.99819595730003
  0
LINE
  8
_0-0_0
  6
CONTINUOUS
 62
    7
 10
174.8471170695
 20
153.13358549469999
 11
174.7056933193
 21
153.05196345749999
  0
LINE
  8
_0-0_0
  6
CONTINUOUS
 62
    7
 10
168.28084172640001
 20
157.60206607629999
 11
169.65998144010001
 21
158.39802992849999
  0
LINE
  8
_0-0_0
  6
CONTINUOUS
 62
    7
 10
168.17953354420001
 20
157.71767468109999
 11
168.19820064679999
 21
157.69178315779999
  0
LINE
  8
_0-0_0
  6
CONTINUOUS
 62
    7
 10
168.19820064679999
 20
157.69178315779999
 11
168.28084172640001
 21
157.60206607629999
  0
LINE
  8
_0-0_0
  6
CONTINUOUS
 62
    7
 10
168.30185193040001
 20
157.573814752
 11
168.28084172640001
 21
157.60206607629999
  0
LINE
  8
_0-0_0
  6
CONTINUOUS
 62
    7
 10
168.0415292863
 20
157.48460657690001
 11
167.92529749779999
 21
157.6502538069
  0
ARC
  8
_0-0_0
  6
CONTINUOUS
 62
    7
 10
174.3360184005
 20
152.8627395325
 40
0.4152893442206463
 50
1.5783720111999997
 51
27.106351184000005
  0
ARC
  8
_0-0_0
  6
CONTINUOUS
 62
    7
 10
174.53902548319999
 20
153.28367537969999
 40
0.4611774838396354
 50
242.6141860148
 51
297.3847360739
  0
LINE
  8
_0-0_0
  6
CONTINUOUS
 62
    7
 10
174.75115017709999
 20
152.87417838850001
 11
174.75115017709999
 21
152.19312019450001
  0
ARC
  8
_0-0_0
  6
CONTINUOUS
 62
    7
 10
174.53902548319999
 20
152.60261718570001
 40
0.4611774838395352
 50
242.6141860148
 51
297.3847360739
  0
ARC
  8
_0-0_0
  6
CONTINUOUS
 62
    7
 10
174.4774421507
 20
152.94436156960001
 40
0.4152893442221303
 50
1.5783720112999997
 51
27.106351183999998
  0
LINE
  8
_0-0_0
  6
CONTINUOUS
 62
    7
 10
174.89257392729999
 20
152.95580042570001
 11
174.75115017709999
 21
152.87417838850001
  0
LINE
  8
_0-0_0
  6
CONTINUOUS
 62
    7
 10
174.89257392729999
 20
152.2747422317
 11
174.89257392729999
 21
152.95580042570001
  0
LINE
  8
_0-0_0
  6
CONTINUOUS
 62
    7
 10
174.89257392729999
 20
152.2747422317
 11
174.75115017709999
 21
152.19312019450001
  0
LINE
  8
_0-0_0
  6
CONTINUOUS
 62
    7
 10
169.65998835479999
 20
154.88660580289999
 11
169.65997946440001
 21
154.84350996449999
  0
LINE
  8
_0-0_0
  6
CONTINUOUS
 62
    7
 10
169.65997946440001
 20
154.84350996449999
 11
169.65998308639999
 21
154.8114870924
  0
LINE
  8
_0-0_0
  6
CONTINUOUS
 62
    7
 10
169.65998308639999
 20
154.8114870924
 11
169.65998868400001
 21
154.79176216159999
  0
LINE
  8
_0-0_0
  6
CONTINUOUS
 62
    7
 10
169.65998868400001
 20
154.79176216159999
 11
169.6599807815
 21
154.78508402829999
  0
LINE
  8
_0-0_0
  6
CONTINUOUS
 62
    7
 10
169.6599807815
 20
154.78508402829999
 11
169.65998275710001
 21
154.785085334
  0
ARC
  8
_0-0_0
  6
CONTINUOUS
 62
    7
 10
167.9052149108
 20
155.81751886199999
 40
1.344240856116685
 50
237.6091146066
 51
272.73402475199998
  0
ARC
  8
_0-0_0
  6
CONTINUOUS
 62
    7
 10
168.40664927259999
 20
156.77527568810001
 40
2.4232566582241799
 50
230.6769943036
 51
239.7291841105
  0
LINE
  8
_0-0_0
  6
CONTINUOUS
 62
    7
 10
165.83538509900001
 20
156.36476092359999
 11
165.85542394980001
 21
156.3139715959
  0
LINE
  8
_0-0_0
  6
CONTINUOUS
 62
    7
 10
165.85542394980001
 20
156.3139715959
 11
165.9073126472
 21
156.19181800019999
  0
LINE
  8
_0-0_0
  6
CONTINUOUS
 62
    7
 10
168.0729382374
 20
157.4419179304
 11
168.06849108630001
 21
157.44804107620001
  0
LINE
  8
_0-0_0
  6
CONTINUOUS
 62
    7
 10
168.06849108630001
 20
157.44804107620001
 11
168.0415292863
 21
157.48460657690001
  0
ARC
  8
_0-0_0
  6
CONTINUOUS
 62
    7
 10
167.1593314305
 20
156.0123323798
 40
1.755220578827259
 50
329.39417081299996
 51
2.1877423893999599
  0
ARC
  8
_0-0_0
  6
CONTINUOUS
 62
    7
 10
167.4008041301
 20
155.6279211227
 40
1.367570281983453
 50
308.16026497690007
 51
338.13903504740006
  0
ARC
  8
_0-0_0
  6
CONTINUOUS
 62
    7
 10
167.89836461120001
 20
155.256898347
 40
0.7853036825757705
 50
275.18505395070008
 51
296.25650813280004
  0
LINE
  8
_0-0_0
  6
CONTINUOUS
 62
    7
 10
168.67003264019999
 20
154.31525762390001
 11
169.65998835479999
 21
154.88660580289999
  0
LINE
  8
_0-0_0
  6
CONTINUOUS
 62
    7
 10
168.67003264019999
 20
155.11869871030001
 11
168.67003264019999
 21
154.31525762390001
  0
ARC
  8
_0-0_0
  6
CONTINUOUS
 62
    7
 10
168.4579079463
 20
154.72475407370001
 40
0.4611770030862232
 50
242.61415507429999
 51
297.38476701439998
  0
LINE
  8
_0-0_0
  6
CONTINUOUS
 62
    7
 10
168.24577554839999
 20
154.31526161470001
 11
168.24577554839999
 21
154.55262033759999
  0
LINE
  8
_0-0_0
  6
CONTINUOUS
 62
    7
 10
167.9693346983
 20
154.47480812169999
 11
168.24577554839999
 21
154.31526161470001
  0
LINE
  8
_0-0_0
  6
CONTINUOUS
 62
    7
 10
176.13065521839999
 20
157.03133887129999
 11
176.53482818449999
 21
156.79807238800001
  0
LINE
  8
_0-0_0
  6
CONTINUOUS
 62
    7
 10
176.74180213790001
 20
156.97730781230001
 11
176.50694508070001
 21
158.00239871580001
  0
LINE
  8
_0-0_0
  6
CONTINUOUS
 62
    7
 10
176.50694508070001
 20
158.00239871580001
 11
176.15963743290001
 21
159.0418760414
  0
LINE
  8
_0-0_0
  6
CONTINUOUS
 62
    7
 10
176.15963743290001
 20
159.0418760414
 11
175.70767702000001
 21
160.07240127239999
  0
LINE
  8
_0-0_0
  6
CONTINUOUS
 62
    7
 10
175.70767702000001
 20
160.07240127239999
 11
175.1612111897
 21
161.07083673650001
  0
LINE
  8
_0-0_0
  6
CONTINUOUS
 62
    7
 10
175.1612111897
 20
161.07083673650001
 11
174.5325092846
 21
162.0147661364
  0
LINE
  8
_0-0_0
  6
CONTINUOUS
 62
    7
 10
174.5325092846
 20
162.0147661364
 11
173.83568685649999
 21
162.88299615939999
  0
LINE
  8
_0-0_0
  6
CONTINUOUS
 62
    7
 10
173.83568685649999
 20
162.88299615939999
 11
173.08638900899999
 21
163.65603318980001
  0
LINE
  8
_0-0_0
  6
CONTINUOUS
 62
    7
 10
173.08638900899999
 20
163.65603318980001
 11
172.3014389407
 21
164.31652040149999
  0
LINE
  8
_0-0_0
  6
CONTINUOUS
 62
    7
 10
172.3014389407
 20
164.31652040149999
 11
171.49846039319999
 21
164.849629448
  0
LINE
  8
_0-0_0
  6
CONTINUOUS
 62
    7
 10
171.49846039319999
 20
164.849629448
 11
170.6954817635
 21
165.24339086169999
  0
LINE
  8
_0-0_0
  6
CONTINUOUS
 62
    7
 10
170.6954817635
 20
165.24339086169999
 11
169.91053194209999
 21
165.48896382020001
  0
LINE
  8
_0-0_0
  6
CONTINUOUS
 62
    7
 10
169.91053194209999
 20
165.48896382020001
 11
169.16123407399999
 21
165.5808340989
  0
LINE
  8
_0-0_0
  6
CONTINUOUS
 62
    7
 10
169.16123407399999
 20
165.5808340989
 11
168.46441166650001
 21
165.5169394893
  0
LINE
  8
_0-0_0
  6
CONTINUOUS
 62
    7
 10
168.46441166650001
 20
165.5169394893
 11
167.83570943219999
 21
165.29871484040001
  0
LINE
  8
_0-0_0
  6
CONTINUOUS
 62
    7
 10
167.83570943219999
 20
165.29871484040001
 11
167.2892439311
 21
164.93105943730001
  0
LINE
  8
_0-0_0
  6
CONTINUOUS
 62
    7
 10
167.2892439311
 20
164.93105943730001
 11
166.98367401100001
 21
164.61528725509999
  0
LINE
  8
_0-0_0
  6
CONTINUOUS
 62
    7
 10
176.53482818449999
 20
156.79807238800001
 11
176.58194342199999
 21
156.7769991143
  0
LINE
  8
_0-0_0
  6
CONTINUOUS
 62
    7
 10
176.58194342199999
 20
156.7769991143
 11
176.62670502149999
 21
156.76921698609999
  0
LINE
  8
_0-0_0
  6
CONTINUOUS
 62
    7
 10
176.62670502149999
 20
156.76921698609999
 11
176.666876895
 21
156.77511453049999
  0
LINE
  8
_0-0_0
  6
CONTINUOUS
 62
    7
 10
176.666876895
 20
156.77511453049999
 11
176.70045278680001
 21
156.79439698499999
  0
LINE
  8
_0-0_0
  6
CONTINUOUS
 62
    7
 10
176.70045278680001
 20
156.79439698499999
 11
176.7257550546
 21
156.8261015393
  0
LINE
  8
_0-0_0
  6
CONTINUOUS
 62
    7
 10
176.7257550546
 20
156.8261015393
 11
176.74151962229999
 21
156.86864413539999
  0
LINE
  8
_0-0_0
  6
CONTINUOUS
 62
    7
 10
176.74151962229999
 20
156.86864413539999
 11
176.7469591999
 21
156.9198997256
  0
LINE
  8
_0-0_0
  6
CONTINUOUS
 62
    7
 10
176.7469591999
 20
156.9198997256
 11
176.74180213790001
 21
156.97730781230001
  0
LINE
  8
_0-0_0
  6
CONTINUOUS
 62
    7
 10
258.05908344950001
 20
203.90918558819999
 11
257.82422639229998
 21
204.93427649169999
  0
LINE
  8
_0-0_0
  6
CONTINUOUS
 62
    7
 10
257.82422639229998
 20
204.93427649169999
 11
257.47691874449998
 21
205.97375381730001
  0
LINE
  8
_0-0_0
  6
CONTINUOUS
 62
    7
 10
257.47691874449998
 20
205.97375381730001
 11
257.02495833159998
 21
207.00427904829999
  0
LINE
  8
_0-0_0
  6
CONTINUOUS
 62
    7
 10
257.02495833159998
 20
207.00427904829999
 11
256.47849250119998
 21
208.00271451239999
  0
LINE
  8
_0-0_0
  6
CONTINUOUS
 62
    7
 10
256.47849250119998
 20
208.00271451239999
 11
255.84979059619999
 21
208.9466439123
  0
LINE
  8
_0-0_0
  6
CONTINUOUS
 62
    7
 10
255.84979059619999
 20
208.9466439123
 11
255.15296816809999
 21
209.8148739353
  0
LINE
  8
_0-0_0
  6
CONTINUOUS
 62
    7
 10
255.15296816809999
 20
209.8148739353
 11
254.40367032060001
 21
210.58791096569999
  0
LINE
  8
_0-0_0
  6
CONTINUOUS
 62
    7
 10
254.40367032060001
 20
210.58791096569999
 11
253.61872025229999
 21
211.24839817739999
  0
LINE
  8
_0-0_0
  6
CONTINUOUS
 62
    7
 10
253.61872025229999
 20
211.24839817739999
 11
252.81574170479999
 21
211.78150722390001
  0
LINE
  8
_0-0_0
  6
CONTINUOUS
 62
    7
 10
252.81574170479999
 20
211.78150722390001
 11
252.0127630751
 21
212.1752686376
  0
LINE
  8
_0-0_0
  6
CONTINUOUS
 62
    7
 10
252.0127630751
 20
212.1752686376
 11
251.22781325369999
 21
212.42084159609999
  0
LINE
  8
_0-0_0
  6
CONTINUOUS
 62
    7
 10
251.22781325369999
 20
212.42084159609999
 11
250.47851538559999
 21
212.5127118748
  0
LINE
  8
_0-0_0
  6
CONTINUOUS
 62
    7
 10
250.47851538559999
 20
212.5127118748
 11
249.78169297810001
 21
212.44881726520001
  0
LINE
  8
_0-0_0
  6
CONTINUOUS
 62
    7
 10
249.78169297810001
 20
212.44881726520001
 11
249.15299074379999
 21
212.23059261629999
  0
LINE
  8
_0-0_0
  6
CONTINUOUS
 62
    7
 10
249.15299074379999
 20
212.23059261629999
 11
249.0167543487
 21
212.15740911270001
  0
LINE
  8
_0-0_0
  6
CONTINUOUS
 62
    7
 10
258.05908344950001
 20
203.90918558819999
 11
176.74180213790001
 21
156.97730781230001
  0
ARC
  8
_0-0_0
  6
CONTINUOUS
 62
    7
 10
257.88845932750002
 20
203.85389903719999
 40
0.1793577255302747
 50
309.30352927939998
 51
17.953641859100031
  0
LINE
  8
_0-0_0
  6
CONTINUOUS
 62
    7
 10
136.57235534290001
 20
139.22715475800001
 11
142.0170748944
 21
142.3695484582
  0
ARC
  8
_0-0_0
  6
CONTINUOUS
 62
    7
 10
141.7686895981
 20
141.981194101
 40
0.460992800595088
 50
2.6023518070999998
 51
57.397662596700009
  0
LINE
  8
_0-0_0
  6
CONTINUOUS
 62
    7
 10
142.22920697999999
 20
142.0021250147
 11
136.7844874285
 21
138.85973131450001
  0
ARC
  8
_0-0_0
  6
CONTINUOUS
 62
    7
 10
136.32397004660001
 20
138.83880040080001
 40
0.4609928005952045
 50
2.6023518070999998
 51
57.397662596700009
  0
LINE
  8
_0-0_0
  6
CONTINUOUS
 62
    7
 10
136.7844874285
 20
138.08392163389999
 11
136.7844874285
 21
138.85973131450001
  0
LINE
  8
_0-0_0
  6
CONTINUOUS
 62
    7
 10
136.07441358259999
 20
138.4937373386
 11
136.7844874285
 21
138.08392163389999
  0
ARC
  8
_0-0_0
  6
CONTINUOUS
 62
    7
 10
135.610536569
 20
138.42485428890001
 40
0.4689634935900364
 50
8.4463699817000002
 51
57.1024703434
  0
LINE
  8
_0-0_0
  6
CONTINUOUS
 62
    7
 10
135.86524857960001
 20
138.81861633630001
 11
132.0468720577
 21
141.02237397970001
  0
LINE
  8
_0-0_0
  6
CONTINUOUS
 62
    7
 10
131.83770679739999
 20
140.9389322813
 11
131.84708710539999
 21
140.9750502023
  0
LINE
  8
_0-0_0
  6
CONTINUOUS
 62
    7
 10
131.84708710539999
 20
140.9750502023
 11
131.86259912130001
 21
141.0051007667
  0
LINE
  8
_0-0_0
  6
CONTINUOUS
 62
    7
 10
131.86259912130001
 20
141.0051007667
 11
131.88376704660001
 21
141.02816222359999
  0
LINE
  8
_0-0_0
  6
CONTINUOUS
 62
    7
 10
131.88376704660001
 20
141.02816222359999
 11
131.9099412274
 21
141.04352648509999
  0
LINE
  8
_0-0_0
  6
CONTINUOUS
 62
    7
 10
131.9099412274
 20
141.04352648509999
 11
131.9403182392
 21
141.05072213899999
  0
LINE
  8
_0-0_0
  6
CONTINUOUS
 62
    7
 10
131.9403182392
 20
141.05072213899999
 11
131.97396558299999
 21
141.04952795700001
  0
LINE
  8
_0-0_0
  6
CONTINUOUS
 62
    7
 10
131.97396558299999
 20
141.04952795700001
 11
132.00985066109999
 21
141.0399808885
  0
LINE
  8
_0-0_0
  6
CONTINUOUS
 62
    7
 10
132.00985066109999
 20
141.0399808885
 11
132.0468720577
 21
141.02237397970001
  0
LINE
  8
_0-0_0
  6
CONTINUOUS
 62
    7
 10
131.12763315730001
 20
141.34874786730001
 11
131.83770679739999
 21
140.9389322813
  0
LINE
  8
_0-0_0
  6
CONTINUOUS
 62
    7
 10
131.12763315730001
 20
141.34874786730001
 11
131.12763315730001
 21
142.1245575479
  0
ARC
  8
_0-0_0
  6
CONTINUOUS
 62
    7
 10
131.25697434310001
 20
142.1455530943
 40
0.1310341761682623
 50
50.815019462299993
 51
189.22022009380001
  0
LINE
  8
_0-0_0
  6
CONTINUOUS
 62
    7
 10
131.3397651606
 20
142.24711901320001
 11
136.57235534290001
 21
139.22715475800001
  0
LINE
  8
_0-0_0
  6
CONTINUOUS
 62
    7
 10
136.7844874285
 20
133.2249044589
 11
142.22920697999999
 21
136.36729815909999
  0
LINE
  8
_0-0_0
  6
CONTINUOUS
 62
    7
 10
136.7844874285
 20
133.2249044589
 11
136.7844874285
 21
134.0007139018
  0
LINE
  8
_0-0_0
  6
CONTINUOUS
 62
    7
 10
136.7844874285
 20
134.0007139018
 11
138.9058120711
 21
135.2250262158
  0
LINE
  8
_0-0_0
  6
CONTINUOUS
 62
    7
 10
138.9058120711
 20
135.2250262158
 11
138.9058120711
 21
139.30823394780001
  0
LINE
  8
_0-0_0
  6
CONTINUOUS
 62
    7
 10
138.9058120711
 20
139.30823394780001
 11
136.7844874285
 21
138.08392163389999
  0
LINE
  8
_0-0_0
  6
CONTINUOUS
 62
    7
 10
142.22920697999999
 20
136.36729815909999
 11
142.22920697999999
 21
142.0021250147
  0
LINE
  8
_0-0_0
  6
CONTINUOUS
 62
    7
 10
136.78448471199999
 20
145.38951271339999
 11
131.3397651606
 21
142.24711901320001
  0
LINE
  8
_0-0_0
  6
CONTINUOUS
 62
    7
 10
142.0170748944
 20
142.3695484582
 11
136.78448471199999
 21
145.38951271339999
  0
ARC
  8
_0-0_0
  6
CONTINUOUS
 62
    7
 10
137.9505247845
 20
135.67311248510001
 40
0.2481819243692149
 50
351.12938509610001
 51
0.1960324996999775
  0
LINE
  8
_0-0_0
  6
CONTINUOUS
 62
    7
 10
138.1987052563
 20
135.67396161619999
 11
138.1987052563
 21
138.90013078440001
  0
LINE
  8
_0-0_0
  6
CONTINUOUS
 62
    7
 10
138.19573822519999
 20
135.63484192050001
 11
138.9058120711
 21
135.2250262158
  0
LINE
  8
_0-0_0
  6
CONTINUOUS
 62
    7
 10
135.193497157
 20
134.7147859097
 11
135.193497157
 21
133.89814431569999
  0
LINE
  8
_0-0_0
  6
CONTINUOUS
 62
    7
 10
135.193497157
 20
134.7147859097
 11
135.86524857960001
 21
134.3270878072
  0
LINE
  8
_0-0_0
  6
CONTINUOUS
 62
    7
 10
136.07441358259999
 20
134.41052960650001
 11
136.06503342900001
 21
134.3744118342
  0
LINE
  8
_0-0_0
  6
CONTINUOUS
 62
    7
 10
136.06503342900001
 20
134.3744118342
 11
136.0495213051
 21
134.34436104689999
  0
LINE
  8
_0-0_0
  6
CONTINUOUS
 62
    7
 10
136.0495213051
 20
134.34436104689999
 11
136.02835333339999
 21
134.3212996167
  0
LINE
  8
_0-0_0
  6
CONTINUOUS
 62
    7
 10
136.02835333339999
 20
134.3212996167
 11
136.0021792144
 21
134.3059353196
  0
LINE
  8
_0-0_0
  6
CONTINUOUS
 62
    7
 10
136.0021792144
 20
134.3059353196
 11
135.97180230679999
 21
134.2987397956
  0
LINE
  8
_0-0_0
  6
CONTINUOUS
 62
    7
 10
135.97180230679999
 20
134.2987397956
 11
135.93815496170001
 21
134.2999338834
  0
LINE
  8
_0-0_0
  6
CONTINUOUS
 62
    7
 10
135.93815496170001
 20
134.2999338834
 11
135.90226991450001
 21
134.30948088650001
  0
LINE
  8
_0-0_0
  6
CONTINUOUS
 62
    7
 10
135.90226991450001
 20
134.30948088650001
 11
135.86524857960001
 21
134.3270878072
  0
LINE
  8
_0-0_0
  6
CONTINUOUS
 62
    7
 10
136.07441358259999
 20
134.41052960650001
 11
136.7844874285
 21
134.0007139018
  0
ARC
  8
_0-0_0
  6
CONTINUOUS
 62
    7
 10
136.6551462411
 20
133.2039088201
 40
0.1310341925078326
 50
230.81497973450001
 51
9.2202598215999867
  0
LINE
  8
_0-0_0
  6
CONTINUOUS
 62
    7
 10
135.193497157
 20
133.89814431569999
 11
136.57235534290001
 21
133.10234294599999
  0
LINE
  8
_0-0_0
  6
CONTINUOUS
 62
    7
 10
138.19573822519999
 20
135.63484192050001
 11
136.07441358259999
 21
134.41052960650001
  0
LINE
  8
_0-0_0
  6
CONTINUOUS
 62
    7
 10
135.70051012100001
 20
135.7077148189
 11
138.1986959132
 21
137.05056341630001
  0
LINE
  8
_0-0_0
  6
CONTINUOUS
 62
    7
 10
135.70051012100001
 20
135.7077148189
 11
135.70051012100001
 21
136.04505649399999
  0
LINE
  8
_0-0_0
  6
CONTINUOUS
 62
    7
 10
135.70051012100001
 20
136.04505649399999
 11
138.1986959132
 21
137.48689882080001
  0
LINE
  8
_0-0_0
  6
CONTINUOUS
 62
    7
 10
135.70051012100001
 20
136.04505649399999
 11
135.0831464179
 21
136.4013649858
  0
LINE
  8
_0-0_0
  6
CONTINUOUS
 62
    7
 10
135.0831464179
 20
136.4013649858
 11
138.19870575019999
 21
138.32730504169999
  0
LINE
  8
_0-0_0
  6
CONTINUOUS
 62
    7
 10
135.0831464179
 20
136.4013649858
 11
135.0831464179
 21
136.06402331070001
  0
LINE
  8
_0-0_0
  6
CONTINUOUS
 62
    7
 10
135.0831464179
 20
136.06402331070001
 11
135.70051012100001
 21
135.7077148189
  0
LINE
  8
_0-0_0
  6
CONTINUOUS
 62
    7
 10
132.01162576780001
 20
141.03930877849999
 11
131.83770679739999
 21
140.9389322813
  0
LINE
  8
_0-0_0
  6
CONTINUOUS
 62
    7
 10
138.1987044331
 20
136.44922683409999
 11
135.193497157
 21
134.7147859097
  0
LINE
  8
_0-0_0
  6
CONTINUOUS
 62
    7
 10
138.0199451606
 20
138.79696034220001
 11
138.19870048179999
 21
138.69379256830001
  0
LINE
  8
_0-0_0
  6
CONTINUOUS
 62
    7
 10
148.76994391049999
 20
146.63400969610001
 11
148.76994391049999
 21
141.97915280079999
  0
LINE
  8
_0-0_0
  6
CONTINUOUS
 62
    7
 10
148.0628356963
 20
145.16427147179999
 11
148.0628356963
 21
145.98091316079999
  0
ARC
  8
_0-0_0
  6
CONTINUOUS
 62
    7
 10
148.52337916690001
 20
145.9599669511
 40
0.4610195570918784
 50
122.60353716379998
 51
177.39589636420001
  0
LINE
  8
_0-0_0
  6
CONTINUOUS
 62
    7
 10
148.27497132159999
 20
146.34833864719999
 11
148.76994391049999
 21
146.63400969610001
  0
LINE
  8
_0-0_0
  6
CONTINUOUS
 62
    7
 10
133.53607168080001
 20
137.29425172890001
 11
135.984524521
 21
138.70739011160001
  0
LINE
  8
_0-0_0
  6
CONTINUOUS
 62
    7
 10
133.53607168080001
 20
137.29425172890001
 11
132.91870826580001
 21
137.65056005439999
  0
LINE
  8
_0-0_0
  6
CONTINUOUS
 62
    7
 10
132.91870826580001
 20
137.65056005439999
 11
135.31860974759999
 21
139.13410358990001
  0
LINE
  8
_0-0_0
  6
CONTINUOUS
 62
    7
 10
133.53607168080001
 20
136.95691005379999
 11
136.2290728838
 21
138.4044777032
  0
LINE
  8
_0-0_0
  6
CONTINUOUS
 62
    7
 10
133.53607168080001
 20
136.95691005379999
 11
133.53607168080001
 21
137.29425172890001
  0
LINE
  8
_0-0_0
  6
CONTINUOUS
 62
    7
 10
132.91870826580001
 20
137.3132183793
 11
133.53607168080001
 21
136.95691005379999
  0
LINE
  8
_0-0_0
  6
CONTINUOUS
 62
    7
 10
132.91870826580001
 20
137.65056005439999
 11
132.91870826580001
 21
137.3132183793
  0
ARC
  8
_0-0_0
  6
CONTINUOUS
 62
    7
 10
147.60231940829999
 20
145.14334119349999
 40
0.4609916788972632
 50
2.6022790963000002
 51
57.397726480799996
  0
LINE
  8
_0-0_0
  6
CONTINUOUS
 62
    7
 10
147.8507036673
 20
145.53169488270001
 11
144.385880563
 21
147.5314008716
  0
LINE
  8
_0-0_0
  6
CONTINUOUS
 62
    7
 10
133.9560646969
 20
139.92049759240001
 11
133.9560646969
 21
138.29182074010001
  0
LINE
  8
_0-0_0
  6
CONTINUOUS
 62
    7
 10
133.2489577998
 20
138.4898524491
 11
133.78031859480001
 21
138.1831801221
  0
LINE
  8
_0-0_0
  6
CONTINUOUS
 62
    7
 10
133.2489577998
 20
138.4898524491
 11
133.2489577998
 21
140.32860093689999
  0
LINE
  8
_0-0_0
  6
CONTINUOUS
 62
    7
 10
131.12763315730001
 20
137.26554013520001
 11
131.83770679739999
 21
136.8557245492
  0
ARC
  8
_0-0_0
  6
CONTINUOUS
 62
    7
 10
132.30158388340001
 20
136.9246077249
 40
0.4689635836846685
 50
188.4463839041
 51
237.1025043631
  0
LINE
  8
_0-0_0
  6
CONTINUOUS
 62
    7
 10
132.0468720577
 20
136.5308454506
 11
132.71862334650001
 21
136.1431474254
  0
LINE
  8
_0-0_0
  6
CONTINUOUS
 62
    7
 10
132.71862334650001
 20
136.1431474254
 11
132.71862334650001
 21
135.3265058314
  0
LINE
  8
_0-0_0
  6
CONTINUOUS
 62
    7
 10
131.3397651606
 20
136.12230720119999
 11
132.71862334650001
 21
135.3265058314
  0
ARC
  8
_0-0_0
  6
CONTINUOUS
 62
    7
 10
131.58814947990001
 20
136.5106608884
 40
0.4609917097982981
 50
182.60226869869999
 51
237.39772002719997
  0
LINE
  8
_0-0_0
  6
CONTINUOUS
 62
    7
 10
131.12763315730001
 20
136.4897306922
 11
131.12763315730001
 21
137.26554013520001
  0
LINE
  8
_0-0_0
  6
CONTINUOUS
 62
    7
 10
132.71862334650001
 20
136.1431474254
 11
136.4329092019
 21
138.28682964129999
  0
LINE
  8
_0-0_0
  6
CONTINUOUS
 62
    7
 10
138.16334289790001
 20
138.4688995317
 11
138.1987041038
 21
138.49273476979999
  0
LINE
  8
_0-0_0
  6
CONTINUOUS
 62
    7
 10
132.71862334650001
 20
135.3265058314
 11
138.16334289790001
 21
138.4688995317
  0
LINE
  8
_0-0_0
  6
CONTINUOUS
 62
    7
 10
131.83770679739999
 20
136.8557245492
 11
132.91871024139999
 21
137.47962048740001
  0
LINE
  8
_0-0_0
  6
CONTINUOUS
 62
    7
 10
145.09299108210001
 20
138.7132840077
 11
144.3788338075
 21
138.30111157170001
  0
LINE
  8
_0-0_0
  6
CONTINUOUS
 62
    7
 10
144.3788338075
 20
138.30111157170001
 11
144.3788338075
 21
138.38277558850001
  0
LINE
  8
_0-0_0
  6
CONTINUOUS
 62
    7
 10
143.6787746537
 20
138.30539645269999
 11
144.3788338075
 21
138.38277558850001
  0
LINE
  8
_0-0_0
  6
CONTINUOUS
 62
    7
 10
143.6787746537
 20
138.30539645269999
 11
142.31707319860001
 21
137.51949700759999
  0
ARC
  8
_0-0_0
  6
CONTINUOUS
 62
    7
 10
142.56620464470001
 20
138.25547093180001
 40
0.3047829192897489
 50
215.17401956320001
 51
309.37122314530001
  0
LINE
  8
_0-0_0
  6
CONTINUOUS
 62
    7
 10
144.38588286789999
 20
138.95849298799999
 11
142.759541351
 21
138.0198578042
  0
LINE
  8
_0-0_0
  6
CONTINUOUS
 62
    7
 10
145.09299108210001
 20
139.14777865100001
 11
144.38588286789999
 21
138.95849298799999
  0
LINE
  8
_0-0_0
  6
CONTINUOUS
 62
    7
 10
145.09299108210001
 20
138.7132840077
 11
145.09299108210001
 21
139.14777865100001
  0
LINE
  8
_0-0_0
  6
CONTINUOUS
 62
    7
 10
131.12763315730001
 20
137.26554013520001
 11
133.2489577998
 21
138.4898524491
  0
LINE
  8
_0-0_0
  6
CONTINUOUS
 62
    7
 10
138.0926339863
 20
136.99355214459999
 11
138.0926339863
 21
136.38800877130001
  0
LINE
  8
_0-0_0
  6
CONTINUOUS
 62
    7
 10
137.45987281289999
 20
136.02281370360001
 11
137.74101336589999
 21
136.80454587630001
  0
LINE
  8
_0-0_0
  6
CONTINUOUS
 62
    7
 10
136.67019348950001
 20
136.22894835369999
 11
137.2436145344
 21
135.89800115579999
  0
LINE
  8
_0-0_0
  6
CONTINUOUS
 62
    7
 10
136.88699671360001
 20
137.51644824260001
 11
136.94809910719999
 21
137.68634181120001
  0
LINE
  8
_0-0_0
  6
CONTINUOUS
 62
    7
 10
136.94809910719999
 20
137.68634181120001
 11
137.05863267480001
 21
137.6225478943
  0
LINE
  8
_0-0_0
  6
CONTINUOUS
 62
    7
 10
135.6884694167
 20
136.77555653850001
 11
135.6884694167
 21
136.79554568029999
  0
LINE
  8
_0-0_0
  6
CONTINUOUS
 62
    7
 10
135.70519249590001
 20
136.78589403550001
 11
135.6884694167
 21
136.79554568029999
  0
LINE
  8
_0-0_0
  6
CONTINUOUS
 62
    7
 10
137.03136942610001
 20
135.7755049685
 11
136.57235287340001
 21
136.040424164
  0
LINE
  8
_0-0_0
  6
CONTINUOUS
 62
    7
 10
136.57235287340001
 20
135.9587601472
 11
136.57235287340001
 21
136.040424164
  0
ARC
  8
_0-0_0
  6
CONTINUOUS
 62
    7
 10
136.44301172019999
 20
135.93776438660001
 40
0.1310341782117344
 50
230.81500174799999
 51
9.2203148142000213
  0
LINE
  8
_0-0_0
  6
CONTINUOUS
 62
    7
 10
136.36022087009999
 20
135.83619849179999
 11
136.1573540942
 21
135.9532820757
  0
LINE
  8
_0-0_0
  6
CONTINUOUS
 62
    7
 10
135.6884694167
 20
136.79554568029999
 11
136.175739669
 21
137.07677136269999
  0
LINE
  8
_0-0_0
  6
CONTINUOUS
 62
    7
 10
144.38588286789999
 20
138.95849298799999
 11
144.0489637597
 21
139.1529442307
  0
LINE
  8
_0-0_0
  6
CONTINUOUS
 62
    7
 10
136.94809910719999
 20
137.68634181120001
 11
137.17339508590001
 21
137.8163703017
  0
LINE
  8
_0-0_0
  6
CONTINUOUS
 62
    7
 10
137.17339508590001
 20
137.8163703017
 11
137.27619635319999
 21
137.75703904470001
  0
ARC
  8
_0-0_0
  6
CONTINUOUS
 62
    7
 10
148.62717851900001
 20
141.96098673110001
 40
0.1439165143058893
 50
304.05586738779999
 51
7.2515868113999744
  0
ARC
  8
_0-0_0
  6
CONTINUOUS
 62
    7
 10
144.29802816430001
 20
147.4087307401
 40
0.1508840784454778
 50
54.390980943300001
 51
114.30698730019999
  0
LINE
  8
_0-0_0
  6
CONTINUOUS
 62
    7
 10
148.0628356963
 20
145.98091316079999
 11
144.17374855969999
 21
148.22548109530001
  0
LINE
  8
_0-0_0
  6
CONTINUOUS
 62
    7
 10
144.38588418500001
 20
148.59290658169999
 11
148.27497132159999
 21
146.34833864719999
  0
ARC
  8
_0-0_0
  6
CONTINUOUS
 62
    7
 10
144.63429203039999
 20
148.2045348856
 40
0.4610195570918176
 50
122.60353716379998
 51
177.39589636420001
  0
LINE
  8
_0-0_0
  6
CONTINUOUS
 62
    7
 10
144.17374855969999
 20
147.51035699560001
 11
144.17374855969999
 21
148.22548109530001
  0
LINE
  8
_0-0_0
  6
CONTINUOUS
 62
    7
 10
144.88085677390001
 20
148.87857763060001
 11
148.76994391049999
 21
146.63400969610001
  0
LINE
  8
_0-0_0
  6
CONTINUOUS
 62
    7
 10
144.38588418500001
 20
148.59290658169999
 11
144.88085677390001
 21
148.87857763060001
  0
LINE
  8
_0-0_0
  6
CONTINUOUS
 62
    7
 10
144.5665022817
 20
139.4516391297
 11
145.09299108210001
 21
139.14777865100001
  0
LINE
  8
_0-0_0
  6
CONTINUOUS
 62
    7
 10
144.3788338075
 20
138.30111157170001
 11
144.26008036970001
 21
138.36964954710001
  0
LINE
  8
_0-0_0
  6
CONTINUOUS
 62
    7
 10
288.9846577129
 20
223.88319835659999
 11
288.87505615039998
 21
223.94645437119999
  0
LINE
  8
_0-0_0
  6
CONTINUOUS
 62
    7
 10
288.87505615039998
 20
223.94645437119999
 11
288.63409471490002
 21
223.8073846378
  0
LINE
  8
_0-0_0
  6
CONTINUOUS
 62
    7
 10
288.63409471490002
 20
223.8073846378
 11
288.45731799070001
 21
223.90941047390001
  0
LINE
  8
_0-0_0
  6
CONTINUOUS
 62
    7
 10
288.45731799070001
 20
223.90941047390001
 11
288.06926471240001
 21
223.68544739090001
  0
LINE
  8
_0-0_0
  6
CONTINUOUS
 62
    7
 10
288.06926471240001
 20
223.68544739090001
 11
287.8924879882
 21
223.78747322699999
  0
LINE
  8
_0-0_0
  6
CONTINUOUS
 62
    7
 10
287.8924879882
 20
223.78747322699999
 11
287.50420685350002
 21
223.56337863780001
  0
LINE
  8
_0-0_0
  6
CONTINUOUS
 62
    7
 10
287.50420685350002
 20
223.56337863780001
 11
287.32743012930001
 21
223.6654044739
  0
LINE
  8
_0-0_0
  6
CONTINUOUS
 62
    7
 10
287.32743012930001
 20
223.6654044739
 11
286.93915031170002
 21
223.44131064480001
  0
LINE
  8
_0-0_0
  6
CONTINUOUS
 62
    7
 10
286.93915031170002
 20
223.44131064480001
 11
286.76237358740002
 21
223.54333648100001
  0
LINE
  8
_0-0_0
  6
CONTINUOUS
 62
    7
 10
286.76237358740002
 20
223.54333648100001
 11
286.3740917943
 21
223.31924151160001
  0
LINE
  8
_0-0_0
  6
CONTINUOUS
 62
    7
 10
286.3740917943
 20
223.31924151160001
 11
286.19731523460001
 21
223.42126725279999
  0
LINE
  8
_0-0_0
  6
CONTINUOUS
 62
    7
 10
286.19731523460001
 20
223.42126725279999
 11
286.02116643250002
 21
223.31960381889999
  0
LINE
  8
_0-0_0
  6
CONTINUOUS
 62
    7
 10
286.02116643250002
 20
223.31960381889999
 11
285.68868171610001
 21
223.24777790280001
  0
LINE
  8
_0-0_0
  6
CONTINUOUS
 62
    7
 10
285.68868171610001
 20
223.24777790280001
 11
287.71127670750002
 21
224.41510887339999
  0
ARC
  8
_0-0_0
  6
CONTINUOUS
 62
    7
 10
287.34000512199998
 20
225.28922311420001
 40
0.9496937906847475
 50
293.01288983619997
 51
2.9756283720000116
  0
LINE
  8
_0-0_0
  6
CONTINUOUS
 62
    7
 10
288.28841844649997
 20
225.33852282929999
 11
288.19366934700003
 21
225.92475649869999
  0
LINE
  8
_0-0_0
  6
CONTINUOUS
 62
    7
 10
287.68283378429999
 20
226.03110624039999
 11
287.75048026330001
 21
226.0604149509
  0
LINE
  8
_0-0_0
  6
CONTINUOUS
 62
    7
 10
287.75048026330001
 20
226.0604149509
 11
287.8296133792
 21
226.0776606407
  0
LINE
  8
_0-0_0
  6
CONTINUOUS
 62
    7
 10
287.8296133792
 20
226.0776606407
 11
287.91394151190002
 21
226.0814719304
  0
LINE
  8
_0-0_0
  6
CONTINUOUS
 62
    7
 10
287.91394151190002
 20
226.0814719304
 11
287.99676172490001
 21
226.0715464356
  0
LINE
  8
_0-0_0
  6
CONTINUOUS
 62
    7
 10
287.99676172490001
 20
226.0715464356
 11
288.0714885452
 21
226.04867244990001
  0
LINE
  8
_0-0_0
  6
CONTINUOUS
 62
    7
 10
288.0714885452
 20
226.04867244990001
 11
288.13218277499999
 21
226.0146692717
  0
LINE
  8
_0-0_0
  6
CONTINUOUS
 62
    7
 10
288.13218277499999
 20
226.0146692717
 11
288.17401815250003
 21
225.9722394984
  0
LINE
  8
_0-0_0
  6
CONTINUOUS
 62
    7
 10
288.17401815250003
 20
225.9722394984
 11
288.19366934700003
 21
225.92475649869999
  0
LINE
  8
_0-0_0
  6
CONTINUOUS
 62
    7
 10
287.68283378429999
 20
226.03110624039999
 11
288.8706623672
 21
226.71665579360001
  0
LINE
  8
_0-0_0
  6
CONTINUOUS
 62
    7
 10
288.8706623672
 20
226.71665579360001
 11
289.29927010760002
 21
224.064775387
  0
LINE
  8
_0-0_0
  6
CONTINUOUS
 62
    7
 10
289.29927010760002
 20
224.064775387
 11
288.9846577129
 21
223.88319835659999
  0
LINE
  8
_0-0_0
  6
CONTINUOUS
 62
    7
 10
283.5669727563
 20
218.79663976520001
 11
284.27407965340001
 21
219.20474310969999
  0
LINE
  8
_0-0_0
  6
CONTINUOUS
 62
    7
 10
283.5669727563
 20
218.79663976520001
 11
283.5669727563
 21
224.8397873703
  0
LINE
  8
_0-0_0
  6
CONTINUOUS
 62
    7
 10
283.5669727563
 20
224.8397873703
 11
284.27446819459999
 21
225.24811495949999
  0
LINE
  8
_0-0_0
  6
CONTINUOUS
 62
    7
 10
284.27446819459999
 20
224.43147327049999
 11
284.27446819459999
 21
225.24811495949999
  0
LINE
  8
_0-0_0
  6
CONTINUOUS
 62
    7
 10
284.27446819459999
 20
224.43147327049999
 11
291.84089928349999
 21
228.7984025792
  0
LINE
  8
_0-0_0
  6
CONTINUOUS
 62
    7
 10
291.84089928349999
 20
224.3885382096
 11
291.84089928349999
 21
228.7984025792
  0
LINE
  8
_0-0_0
  6
CONTINUOUS
 62
    7
 10
291.84089928349999
 20
224.3885382096
 11
289.2992694747
 21
222.92164879059999
  0
LINE
  8
_0-0_0
  6
CONTINUOUS
 62
    7
 10
285.6886819888
 20
220.8378155899
 11
284.27407965340001
 21
220.0213846561
  0
LINE
  8
_0-0_0
  6
CONTINUOUS
 62
    7
 10
284.27407965340001
 20
220.0213846561
 11
284.27407965340001
 21
219.20474310969999
  0
LINE
  8
_0-0_0
  6
CONTINUOUS
 62
    7
 10
279.67788561970002
 20
227.0843553048
 11
283.5669727563
 21
224.8397873703
  0
LINE
  8
_0-0_0
  6
CONTINUOUS
 62
    7
 10
280.38538105809999
 20
227.49268289400001
 11
279.67788561970002
 21
227.0843553048
  0
LINE
  8
_0-0_0
  6
CONTINUOUS
 62
    7
 10
280.38538105809999
 20
227.49268289400001
 11
284.27446819459999
 21
225.24811495949999
  0
LINE
  8
_0-0_0
  6
CONTINUOUS
 62
    7
 10
282.19568352589999
 20
221.4597348037
 11
282.19568352589999
 21
221.01389175689999
  0
LINE
  8
_0-0_0
  6
CONTINUOUS
 62
    7
 10
282.19568352589999
 20
221.01389175689999
 11
282.83540205740002
 21
220.64468128350001
  0
LINE
  8
_0-0_0
  6
CONTINUOUS
 62
    7
 10
282.83540205740002
 20
220.64468128350001
 11
282.83540205740002
 21
221.11483604860001
  0
LINE
  8
_0-0_0
  6
CONTINUOUS
 62
    7
 10
282.83540205740002
 20
221.11483604860001
 11
283.32557610010002
 21
220.8319344576
  0
LINE
  8
_0-0_0
  6
CONTINUOUS
 62
    7
 10
283.32557610010002
 20
220.8319344576
 11
283.32557610010002
 21
223.36906372179999
  0
LINE
  8
_0-0_0
  6
CONTINUOUS
 62
    7
 10
283.32557610010002
 20
223.36906372179999
 11
281.70550942160003
 21
224.30407741280001
  0
LINE
  8
_0-0_0
  6
CONTINUOUS
 62
    7
 10
281.70550942160003
 20
224.30407741280001
 11
281.70550942160003
 21
223.0241901352
  0
LINE
  8
_0-0_0
  6
CONTINUOUS
 62
    7
 10
281.5393487641
 20
222.92829129149999
 11
281.5393487641
 21
224.399976237
  0
LINE
  8
_0-0_0
  6
CONTINUOUS
 62
    7
 10
281.5393487641
 20
224.399976237
 11
279.9192820239
 21
225.3349899637
  0
LINE
  8
_0-0_0
  6
CONTINUOUS
 62
    7
 10
279.9192820239
 20
225.3349899637
 11
279.9192820239
 21
224.0550899468
  0
LINE
  8
_0-0_0
  6
CONTINUOUS
 62
    7
 10
280.40945612820002
 20
222.49063471029999
 11
280.40945612820002
 21
222.2761791785
  0
LINE
  8
_0-0_0
  6
CONTINUOUS
 62
    7
 10
282.68308927380002
 20
220.12341041209999
 11
281.28168417030003
 21
220.93222462689999
  0
LINE
  8
_0-0_0
  6
CONTINUOUS
 62
    7
 10
279.67788561970002
 20
221.85395657430001
 11
279.67788561970002
 21
222.0684121299
  0
LINE
  8
_0-0_0
  6
CONTINUOUS
 62
    7
 10
279.67788561970002
 20
223.91576897889999
 11
279.67788561970002
 21
227.0843553048
  0
LINE
  8
_0-0_0
  6
CONTINUOUS
 62
    7
 10
282.68308927380002
 20
219.30676886570001
 11
283.5669727563
 21
218.79663976520001
  0
LINE
  8
_0-0_0
  6
CONTINUOUS
 62
    7
 10
282.68308927380002
 20
220.12341041209999
 11
282.68308927380002
 21
219.30676886570001
  0
LINE
  8
_0-0_0
  6
CONTINUOUS
 62
    7
 10
286.02116643250002
 20
219.64471697889999
 11
286.02116643250002
 21
223.31960381889999
  0
LINE
  8
_0-0_0
  6
CONTINUOUS
 62
    7
 10
286.02116643250002
 20
219.64471697889999
 11
285.68868171610001
 21
219.57289106269999
  0
LINE
  8
_0-0_0
  6
CONTINUOUS
 62
    7
 10
285.68868171610001
 20
219.57289106269999
 11
285.68868171610001
 21
223.24777790280001
  0
LINE
  8
_0-0_0
  6
CONTINUOUS
 62
    7
 10
286.76237358740002
 20
219.8684496409
 11
286.76237358740002
 21
223.54333648100001
  0
LINE
  8
_0-0_0
  6
CONTINUOUS
 62
    7
 10
286.76237358740002
 20
219.8684496409
 11
286.3740917943
 21
219.64435467160001
  0
LINE
  8
_0-0_0
  6
CONTINUOUS
 62
    7
 10
286.3740917943
 20
219.64435467160001
 11
286.3740917943
 21
223.31924151160001
  0
LINE
  8
_0-0_0
  6
CONTINUOUS
 62
    7
 10
286.3740917943
 20
219.64435467160001
 11
286.19731523460001
 21
219.74638041270001
  0
LINE
  8
_0-0_0
  6
CONTINUOUS
 62
    7
 10
286.19731523460001
 20
219.74638041270001
 11
286.19731523460001
 21
223.42126725279999
  0
LINE
  8
_0-0_0
  6
CONTINUOUS
 62
    7
 10
286.19731523460001
 20
219.74638041270001
 11
286.02116643250002
 21
219.64471697889999
  0
LINE
  8
_0-0_0
  6
CONTINUOUS
 62
    7
 10
287.32743012930001
 20
219.9905176339
 11
287.32743012930001
 21
223.6654044739
  0
LINE
  8
_0-0_0
  6
CONTINUOUS
 62
    7
 10
287.32743012930001
 20
219.9905176339
 11
286.93915031170002
 21
219.76642380480001
  0
LINE
  8
_0-0_0
  6
CONTINUOUS
 62
    7
 10
286.93915031170002
 20
219.76642380480001
 11
286.93915031170002
 21
223.44131064480001
  0
LINE
  8
_0-0_0
  6
CONTINUOUS
 62
    7
 10
286.93915031170002
 20
219.76642380480001
 11
286.76237358740002
 21
219.8684496409
  0
LINE
  8
_0-0_0
  6
CONTINUOUS
 62
    7
 10
287.50420685350002
 20
219.88849179779999
 11
287.50420685350002
 21
223.56337863780001
  0
LINE
  8
_0-0_0
  6
CONTINUOUS
 62
    7
 10
287.50420685350002
 20
219.88849179779999
 11
287.32743012930001
 21
219.9905176339
  0
LINE
  8
_0-0_0
  6
CONTINUOUS
 62
    7
 10
287.8924879882
 20
220.11258638699999
 11
287.8924879882
 21
223.78747322699999
  0
LINE
  8
_0-0_0
  6
CONTINUOUS
 62
    7
 10
287.8924879882
 20
220.11258638699999
 11
287.50420685350002
 21
219.88849179779999
  0
LINE
  8
_0-0_0
  6
CONTINUOUS
 62
    7
 10
288.06926471240001
 20
220.01056055090001
 11
288.06926471240001
 21
223.68544739090001
  0
LINE
  8
_0-0_0
  6
CONTINUOUS
 62
    7
 10
288.06926471240001
 20
220.01056055090001
 11
287.8924879882
 21
220.11258638699999
  0
LINE
  8
_0-0_0
  6
CONTINUOUS
 62
    7
 10
288.45731799070001
 20
220.23452363390001
 11
288.45731799070001
 21
223.90941047390001
  0
LINE
  8
_0-0_0
  6
CONTINUOUS
 62
    7
 10
288.45731799070001
 20
220.23452363390001
 11
288.06926471240001
 21
220.01056055090001
  0
LINE
  8
_0-0_0
  6
CONTINUOUS
 62
    7
 10
288.87505615039998
 20
220.27156753119999
 11
288.87505615039998
 21
223.94645437119999
  0
LINE
  8
_0-0_0
  6
CONTINUOUS
 62
    7
 10
288.87505615039998
 20
220.27156753119999
 11
288.63409471490002
 21
220.13249779770001
  0
LINE
  8
_0-0_0
  6
CONTINUOUS
 62
    7
 10
288.63409471490002
 20
220.13249779770001
 11
288.63409471490002
 21
223.8073846378
  0
LINE
  8
_0-0_0
  6
CONTINUOUS
 62
    7
 10
288.63409471490002
 20
220.13249779770001
 11
288.45731799070001
 21
220.23452363390001
  0
LINE
  8
_0-0_0
  6
CONTINUOUS
 62
    7
 10
287.96282696240002
 20
226.95558106120001
 11
291.4983604601
 21
228.9960972136
  0
LINE
  8
_0-0_0
  6
CONTINUOUS
 62
    7
 10
291.84089928349999
 20
228.7984025792
 11
291.4983604601
 21
228.9960972136
  0
LINE
  8
_0-0_0
  6
CONTINUOUS
 62
    7
 10
287.951812147
 20
231.0429705137
 11
281.09286464259998
 21
227.0843619529
  0
LINE
  8
_0-0_0
  6
CONTINUOUS
 62
    7
 10
288.29435078009999
 20
230.84527598919999
 11
287.951812147
 21
231.0429705137
  0
LINE
  8
_0-0_0
  6
CONTINUOUS
 62
    7
 10
284.7588172824
 20
228.8047598368
 11
288.29435078009999
 21
230.84527598919999
  0
LINE
  8
_0-0_0
  6
CONTINUOUS
 62
    7
 10
285.79908019980002
 20
228.20437709769999
 11
284.7588172824
 21
228.8047598368
  0
LINE
  8
_0-0_0
  6
CONTINUOUS
 62
    7
 10
285.79908019980002
 20
228.20437709769999
 11
289.33461369740002
 21
230.24489325010001
  0
LINE
  8
_0-0_0
  6
CONTINUOUS
 62
    7
 10
290.45809754269999
 20
229.59647995270001
 11
289.33461369740002
 21
230.24489325010001
  0
LINE
  8
_0-0_0
  6
CONTINUOUS
 62
    7
 10
286.92256404509999
 20
227.55596380029999
 11
290.45809754269999
 21
229.59647995270001
  0
LINE
  8
_0-0_0
  6
CONTINUOUS
 62
    7
 10
287.96282696240002
 20
226.95558106120001
 11
286.92256404509999
 21
227.55596380029999
  0
LINE
  8
_0-0_0
  6
CONTINUOUS
 62
    7
 10
288.9846577129
 20
220.20831151659999
 11
288.9846577129
 21
223.88319835659999
  0
LINE
  8
_0-0_0
  6
CONTINUOUS
 62
    7
 10
288.9846577129
 20
220.20831151659999
 11
288.87505615039998
 21
220.27156753119999
  0
LINE
  8
_0-0_0
  6
CONTINUOUS
 62
    7
 10
289.29927010760002
 20
220.38988854690001
 11
289.29927010760002
 21
224.064775387
  0
LINE
  8
_0-0_0
  6
CONTINUOUS
 62
    7
 10
289.29927010760002
 20
220.38988854690001
 11
288.9846577129
 21
220.20831151659999
  0
LINE
  8
_0-0_0
  6
CONTINUOUS
 62
    7
 10
283.32557649109998
 20
221.39773786520001
 11
282.83540205740002
 21
221.11483604860001
  0
LINE
  8
_0-0_0
  6
CONTINUOUS
 62
    7
 10
283.32557599720002
 20
221.666003762
 11
282.19568352589999
 21
221.01389175689999
  0
LINE
  8
_0-0_0
  6
CONTINUOUS
 62
    7
 10
284.39916735809999
 20
228.99257865089999
 11
280.38675115989997
 21
229.20859282870001
  0
LINE
  8
_0-0_0
  6
CONTINUOUS
 62
    7
 10
283.60947799190001
 20
228.57050048950001
 11
283.65899230709999
 21
228.56539018039999
  0
LINE
  8
_0-0_0
  6
CONTINUOUS
 62
    7
 10
282.59373071099998
 20
228.6251844647
 11
283.60947799190001
 21
228.57050048950001
  0
ARC
  8
_0-0_0
  6
CONTINUOUS
 62
    7
 10
282.37455499930002
 20
225.66881188810001
 40
2.964485925776756
 50
85.7600365025
 51
117.7605936393
  0
LINE
  8
_0-0_0
  6
CONTINUOUS
 62
    7
 10
278.97116726389999
 20
227.12475905790001
 11
280.9937622553
 21
228.29209002850001
  0
LINE
  8
_0-0_0
  6
CONTINUOUS
 62
    7
 10
279.09561768790002
 20
227.31665096520001
 11
278.97116726389999
 21
227.12475905790001
  0
LINE
  8
_0-0_0
  6
CONTINUOUS
 62
    7
 10
279.27176649
 20
227.41831439910001
 11
279.09561768790002
 21
227.31665096520001
  0
LINE
  8
_0-0_0
  6
CONTINUOUS
 62
    7
 10
279.09498976570001
 20
227.5203402352
 11
279.27176649
 21
227.41831439910001
  0
LINE
  8
_0-0_0
  6
CONTINUOUS
 62
    7
 10
279.48327155890001
 20
227.74443520450001
 11
279.09498976570001
 21
227.5203402352
  0
LINE
  8
_0-0_0
  6
CONTINUOUS
 62
    7
 10
279.30649516390002
 20
227.84646085060001
 11
279.48327155890001
 21
227.74443520450001
  0
LINE
  8
_0-0_0
  6
CONTINUOUS
 62
    7
 10
279.69477498150002
 20
228.0705546797
 11
279.30649516390002
 21
227.84646085060001
  0
LINE
  8
_0-0_0
  6
CONTINUOUS
 62
    7
 10
279.51799792790001
 20
228.17258070579999
 11
279.69477498150002
 21
228.0705546797
  0
LINE
  8
_0-0_0
  6
CONTINUOUS
 62
    7
 10
279.9062790625
 20
228.39667529510001
 11
279.51799792790001
 21
228.17258070579999
  0
LINE
  8
_0-0_0
  6
CONTINUOUS
 62
    7
 10
279.72950266750001
 20
228.49870094120001
 11
279.9062790625
 21
228.39667529510001
  0
LINE
  8
_0-0_0
  6
CONTINUOUS
 62
    7
 10
280.11755594580001
 20
228.72266402419999
 11
279.72950266750001
 21
228.49870094120001
  0
LINE
  8
_0-0_0
  6
CONTINUOUS
 62
    7
 10
279.9407788922
 20
228.82469005030001
 11
280.11755594580001
 21
228.72266402419999
  0
LINE
  8
_0-0_0
  6
CONTINUOUS
 62
    7
 10
280.18174032770003
 20
228.96375978379999
 11
279.9407788922
 21
228.82469005030001
  0
LINE
  8
_0-0_0
  6
CONTINUOUS
 62
    7
 10
280.07213876520001
 20
229.02701579839999
 11
280.18174032770003
 21
228.96375978379999
  0
LINE
  8
_0-0_0
  6
CONTINUOUS
 62
    7
 10
280.38675115989997
 20
229.20859282870001
 11
280.07213876520001
 21
229.02701579839999
  0
LINE
  8
_0-0_0
  6
CONTINUOUS
 62
    7
 10
287.494274109
 20
227.22600393889999
 11
288.86246749589998
 21
227.80152968830001
  0
LINE
  8
_0-0_0
  6
CONTINUOUS
 62
    7
 10
288.85756924190002
 20
227.798264794
 11
289.1402428865
 21
227.6351210597
  0
LINE
  8
_0-0_0
  6
CONTINUOUS
 62
    7
 10
289.86443720250003
 20
228.3755499474
 11
290.55396491250002
 21
228.77350754860001
  0
LINE
  8
_0-0_0
  6
CONTINUOUS
 62
    7
 10
290.83332583129999
 20
228.61227573799999
 11
290.55396491250002
 21
228.77350754860001
  0
LINE
  8
_0-0_0
  6
CONTINUOUS
 62
    7
 10
290.45809754269999
 20
229.59647995270001
 11
290.55396491250002
 21
228.77350754860001
  0
LINE
  8
_0-0_0
  6
CONTINUOUS
 62
    7
 10
278.97116726389999
 20
223.50789012230001
 11
278.97116726389999
 21
227.12475905790001
  0
LINE
  8
_0-0_0
  6
CONTINUOUS
 62
    7
 10
279.09498976570001
 20
227.31568278910001
 11
279.09498976570001
 21
227.5203402352
  0
LINE
  8
_0-0_0
  6
CONTINUOUS
 62
    7
 10
279.30649516390002
 20
227.6424091879
 11
279.30649516390002
 21
227.84646085060001
  0
LINE
  8
_0-0_0
  6
CONTINUOUS
 62
    7
 10
288.85756924190002
 20
227.798264794
 11
289.841571714
 21
228.3887466084
  0
LINE
  8
_0-0_0
  6
CONTINUOUS
 62
    7
 10
289.841571714
 20
228.3887466084
 11
290.14379812129999
 21
228.21431809110001
  0
LINE
  8
_0-0_0
  6
CONTINUOUS
 62
    7
 10
285.33052742870001
 20
228.47479992789999
 11
286.69872081559998
 21
229.05032567730001
  0
LINE
  8
_0-0_0
  6
CONTINUOUS
 62
    7
 10
286.69382256149999
 20
229.04706078300001
 11
286.97649620610002
 21
228.8839170487
  0
LINE
  8
_0-0_0
  6
CONTINUOUS
 62
    7
 10
279.51799792790001
 20
227.96852904319999
 11
279.51799792790001
 21
228.17258070579999
  0
LINE
  8
_0-0_0
  6
CONTINUOUS
 62
    7
 10
287.70069035760002
 20
229.62434603139999
 11
288.39021806760002
 21
230.0223036326
  0
LINE
  8
_0-0_0
  6
CONTINUOUS
 62
    7
 10
288.39021806760002
 20
230.0223036326
 11
288.6695792333
 21
229.86107167949999
  0
LINE
  8
_0-0_0
  6
CONTINUOUS
 62
    7
 10
288.29435078009999
 20
230.84527598919999
 11
288.39021806760002
 21
230.0223036326
  0
LINE
  8
_0-0_0
  6
CONTINUOUS
 62
    7
 10
279.72950266750001
 20
228.2946492785
 11
279.72950266750001
 21
228.49870094120001
  0
LINE
  8
_0-0_0
  6
CONTINUOUS
 62
    7
 10
279.9407788922
 20
228.62063838770001
 11
279.9407788922
 21
228.82469005030001
  0
LINE
  8
_0-0_0
  6
CONTINUOUS
 62
    7
 10
280.07213876520001
 20
228.9005040337
 11
280.07213876520001
 21
229.02701579839999
  0
LINE
  8
_0-0_0
  6
CONTINUOUS
 62
    7
 10
286.69382256149999
 20
229.04706078300001
 11
287.6778250337
 21
229.6375425974
  0
LINE
  8
_0-0_0
  6
CONTINUOUS
 62
    7
 10
287.6778250337
 20
229.6375425974
 11
287.98005152330001
 21
229.4631140326
  0
LINE
  8
_0-0_0
  6
CONTINUOUS
 62
    7
 10
170.24541170259999
 20
158.69553093659999
 11
170.05763596790001
 21
158.8004237781
  0
LINE
  8
_0-0_0
  6
CONTINUOUS
 62
    7
 10
170.05763596790001
 20
158.8004237781
 11
170.0245796678
 21
158.82099028210001
  0
LINE
  8
_0-0_0
  6
CONTINUOUS
 62
    7
 10
176.2360804562
 20
156.5623951789
 11
176.1825269583
 21
156.59330332260001
  0
ARC
  8
_0-0_0
  6
CONTINUOUS
 62
    7
 10
175.98769597340001
 20
156.17404139179999
 40
0.4609918819742817
 50
2.6022919724000002
 51
57.397709592499986
  0
LINE
  8
_0-0_0
  6
CONTINUOUS
 62
    7
 10
176.44821245950001
 20
154.7089983059
 11
176.44821245950001
 21
156.19497178290001
  0
ARC
  8
_0-0_0
  6
CONTINUOUS
 62
    7
 10
176.26417855369999
 20
154.70144416080001
 40
0.1841888802061286
 50
327.65671377260003
 51
2.3505331200999988
  0
LINE
  8
_0-0_0
  6
CONTINUOUS
 62
    7
 10
176.0429642549
 20
154.06659986060001
 11
176.41979198339999
 21
154.60290480789999
  0
LINE
  8
_0-0_0
  6
CONTINUOUS
 62
    7
 10
175.8031993948
 20
154.0911903949
 11
175.83742329430001
 21
154.0640312216
  0
LINE
  8
_0-0_0
  6
CONTINUOUS
 62
    7
 10
175.83742329430001
 20
154.0640312216
 11
175.87223543869999
 21
154.04309819400001
  0
LINE
  8
_0-0_0
  6
CONTINUOUS
 62
    7
 10
175.87223543869999
 20
154.04309819400001
 11
175.90669773139999
 21
154.02895540419999
  0
LINE
  8
_0-0_0
  6
CONTINUOUS
 62
    7
 10
175.90669773139999
 20
154.02895540419999
 11
175.9398816245
 21
154.0219839383
  0
LINE
  8
_0-0_0
  6
CONTINUOUS
 62
    7
 10
175.9398816245
 20
154.0219839383
 11
175.97089314390001
 21
154.022371569
  0
LINE
  8
_0-0_0
  6
CONTINUOUS
 62
    7
 10
175.97089314390001
 20
154.022371569
 11
175.9988970906
 21
154.0301076291
  0
LINE
  8
_0-0_0
  6
CONTINUOUS
 62
    7
 10
175.9988970906
 20
154.0301076291
 11
176.0231384432
 21
154.0449840169
  0
LINE
  8
_0-0_0
  6
CONTINUOUS
 62
    7
 10
176.0231384432
 20
154.0449840169
 11
176.0429642549
 21
154.06659986060001
  0
LINE
  8
_0-0_0
  6
CONTINUOUS
 62
    7
 10
175.18425909499999
 20
153.220749772
 11
175.06364963179999
 21
153.48555601480001
  0
LINE
  8
_0-0_0
  6
CONTINUOUS
 62
    7
 10
175.06364963179999
 20
153.48555601480001
 11
175.00386547959999
 21
153.74970559249999
  0
LINE
  8
_0-0_0
  6
CONTINUOUS
 62
    7
 10
175.00386547959999
 20
153.74970559249999
 11
175.0112709773
 21
153.9850795438
  0
LINE
  8
_0-0_0
  6
CONTINUOUS
 62
    7
 10
175.0112709773
 20
153.9850795438
 11
175.08507751760001
 21
154.16662184559999
  0
LINE
  8
_0-0_0
  6
CONTINUOUS
 62
    7
 10
175.08507751760001
 20
154.16662184559999
 11
175.09678347549999
 21
154.18216504599999
  0
LINE
  8
_0-0_0
  6
CONTINUOUS
 62
    7
 10
175.75580674540001
 20
154.1313104903
 11
175.8031993948
 21
154.0911903949
  0
ARC
  8
_0-0_0
  6
CONTINUOUS
 62
    7
 10
174.81375811620001
 20
152.99738481540001
 40
0.4326232531310738
 50
1.9500187962999997
 51
31.084631397700004
  0
LINE
  8
_0-0_0
  6
CONTINUOUS
 62
    7
 10
175.2461308332
 20
152.15222626170001
 11
175.2461308332
 21
153.01210598029999
  0
ARC
  8
_0-0_0
  6
CONTINUOUS
 62
    7
 10
175.11678977610001
 20
152.1312304926
 40
0.1310340848485186
 50
230.81491433030004
 51
9.2203252258000177
  0
LINE
  8
_0-0_0
  6
CONTINUOUS
 62
    7
 10
174.83875767009999
 20
152.14234729270001
 11
175.03399883
 21
152.0296647964
  0
ARC
  8
_0-0_0
  6
CONTINUOUS
 62
    7
 10
258.0120802308
 20
203.5140202318
 40
0.4609918819738811
 50
2.6022919724000002
 51
57.397709592499986
  0
LINE
  8
_0-0_0
  6
CONTINUOUS
 62
    7
 10
258.4725967169
 20
203.53495062280001
 11
176.44821245950001
 21
156.19497178290001
  0
LINE
  8
_0-0_0
  6
CONTINUOUS
 62
    7
 10
258.4725967169
 20
202.04897714590001
 11
258.4725967169
 21
203.53495062280001
  0
LINE
  8
_0-0_0
  6
CONTINUOUS
 62
    7
 10
258.4725967169
 20
202.04897714590001
 11
176.44821245950001
 21
154.7089983059
  0
LINE
  8
_0-0_0
  6
CONTINUOUS
 62
    7
 10
258.26046471360002
 20
203.9023740188
 11
258.03689938989999
 21
204.03140367009999
  0
ARC
  8
_0-0_0
  6
CONTINUOUS
 62
    7
 10
258.28856281110001
 20
202.04142300079999
 40
0.1841888802062474
 50
327.65671377260003
 51
2.3505331200999988
  0
LINE
  8
_0-0_0
  6
CONTINUOUS
 62
    7
 10
258.44417624089999
 20
201.94288364779999
 11
176.41979198339999
 21
154.60290480789999
  0
LINE
  8
_0-0_0
  6
CONTINUOUS
 62
    7
 10
258.06734851229999
 20
201.40657870059999
 11
258.44417624089999
 21
201.94288364779999
  0
LINE
  8
_0-0_0
  6
CONTINUOUS
 62
    7
 10
258.06734851229999
 20
201.40657870059999
 11
176.0429642549
 21
154.06659986060001
  0
LINE
  8
_0-0_0
  6
CONTINUOUS
 62
    7
 10
258.03359711849998
 20
201.37527240829999
 11
258.04752270059998
 21
201.3849628568
  0
LINE
  8
_0-0_0
  6
CONTINUOUS
 62
    7
 10
258.04752270059998
 20
201.3849628568
 11
258.06734851229999
 21
201.40657870059999
  0
LINE
  8
_0-0_0
  6
CONTINUOUS
 62
    7
 10
257.20864335239997
 20
200.5607286119
 11
257.08803388920001
 21
200.82553485470001
  0
LINE
  8
_0-0_0
  6
CONTINUOUS
 62
    7
 10
257.08803388920001
 20
200.82553485470001
 11
257.08689510110003
 21
200.8288880842
  0
LINE
  8
_0-0_0
  6
CONTINUOUS
 62
    7
 10
257.20864335239997
 20
200.5607286119
 11
175.18425909499999
 21
153.220749772
  0
ARC
  8
_0-0_0
  6
CONTINUOUS
 62
    7
 10
256.83814237360002
 20
200.33736365530001
 40
0.4326232531310055
 50
1.9500187962999997
 51
31.084631397700004
  0
LINE
  8
_0-0_0
  6
CONTINUOUS
 62
    7
 10
257.27051509059999
 20
200.35208482019999
 11
175.2461308332
 21
153.01210598029999
  0
LINE
  8
_0-0_0
  6
CONTINUOUS
 62
    7
 10
257.27051509059999
 20
199.49220510160001
 11
257.27051509059999
 21
200.35208482019999
  0
LINE
  8
_0-0_0
  6
CONTINUOUS
 62
    7
 10
257.27051509059999
 20
199.49220510160001
 11
175.2461308332
 21
152.15222626170001
  0
ARC
  8
_0-0_0
  6
CONTINUOUS
 62
    7
 10
257.12345427230002
 20
199.47598269209999
 40
0.1479528670303103
 50
305.0126094094
 51
6.2948975235000288
  0
LINE
  8
_0-0_0
  6
CONTINUOUS
 62
    7
 10
258.54330562860002
 20
204.24569886960001
 11
258.28845911140002
 21
205.31084176639999
  0
LINE
  8
_0-0_0
  6
CONTINUOUS
 62
    7
 10
258.28845911140002
 20
205.31084176639999
 11
257.91203194259998
 21
206.38859617989999
  0
LINE
  8
_0-0_0
  6
CONTINUOUS
 62
    7
 10
257.91203194259998
 20
206.38859617989999
 11
257.42335092320002
 21
207.4522590755
  0
LINE
  8
_0-0_0
  6
CONTINUOUS
 62
    7
 10
257.42335092320002
 20
207.4522590755
 11
256.83452405280002
 21
208.47547575370001
  0
LINE
  8
_0-0_0
  6
CONTINUOUS
 62
    7
 10
256.83452405280002
 20
208.47547575370001
 11
256.16014047919998
 21
209.4328950245
  0
LINE
  8
_0-0_0
  6
CONTINUOUS
 62
    7
 10
256.16014047919998
 20
209.4328950245
 11
255.41690923120001
 21
210.3007943067
  0
LINE
  8
_0-0_0
  6
CONTINUOUS
 62
    7
 10
255.41690923120001
 20
210.3007943067
 11
254.62324527620001
 21
211.05767029
  0
LINE
  8
_0-0_0
  6
CONTINUOUS
 62
    7
 10
254.62324527620001
 20
211.05767029
 11
253.79881299510001
 21
211.68476975190001
  0
LINE
  8
_0-0_0
  6
CONTINUOUS
 62
    7
 10
253.79881299510001
 20
211.68476975190001
 11
252.96403934259999
 21
212.16655535020001
  0
LINE
  8
_0-0_0
  6
CONTINUOUS
 62
    7
 10
252.96403934259999
 20
212.16655535020001
 11
252.13960697909999
 21
212.49109018690001
  0
LINE
  8
_0-0_0
  6
CONTINUOUS
 62
    7
 10
252.13960697909999
 20
212.49109018690001
 11
251.77429455980001
 21
212.5842003974
  0
LINE
  8
_0-0_0
  6
CONTINUOUS
 62
    7
 10
252.99769442429999
 20
211.6729369821
 11
253.27976253720001
 21
211.5120988793
  0
LINE
  8
_0-0_0
  6
CONTINUOUS
 62
    7
 10
258.0054051573
 20
204.74401528050001
 11
258.11904326839999
 21
204.21692529730001
  0
LINE
  8
_0-0_0
  6
CONTINUOUS
 62
    7
 10
253.11933747309999
 20
213.35927406420001
 11
253.48311153239999
 21
213.26648737759999
  0
LINE
  8
_0-0_0
  6
CONTINUOUS
 62
    7
 10
253.48311153239999
 20
213.26648737759999
 11
254.30754389590001
 21
212.94195254089999
  0
LINE
  8
_0-0_0
  6
CONTINUOUS
 62
    7
 10
254.30754389590001
 20
212.94195254089999
 11
255.14231754830001
 21
212.46016694260001
  0
LINE
  8
_0-0_0
  6
CONTINUOUS
 62
    7
 10
255.14231754830001
 20
212.46016694260001
 11
255.9667498295
 21
211.83306748070001
  0
LINE
  8
_0-0_0
  6
CONTINUOUS
 62
    7
 10
255.9667498295
 20
211.83306748070001
 11
256.76041378449997
 21
211.0761914974
  0
LINE
  8
_0-0_0
  6
CONTINUOUS
 62
    7
 10
256.76041378449997
 20
211.0761914974
 11
257.5036450325
 21
210.2082922152
  0
LINE
  8
_0-0_0
  6
CONTINUOUS
 62
    7
 10
257.5036450325
 20
210.2082922152
 11
258.178028606
 21
209.25087294439999
  0
LINE
  8
_0-0_0
  6
CONTINUOUS
 62
    7
 10
258.178028606
 20
209.25087294439999
 11
258.76685547649998
 21
208.2276562662
  0
LINE
  8
_0-0_0
  6
CONTINUOUS
 62
    7
 10
258.76685547649998
 20
208.2276562662
 11
259.25553649580002
 21
207.1639933706
  0
LINE
  8
_0-0_0
  6
CONTINUOUS
 62
    7
 10
259.25553649580002
 20
207.1639933706
 11
259.63196366469998
 21
206.08623895709999
  0
LINE
  8
_0-0_0
  6
CONTINUOUS
 62
    7
 10
259.63196366469998
 20
206.08623895709999
 11
259.8868101818
 21
205.02109606030001
  0
LINE
  8
_0-0_0
  6
CONTINUOUS
 62
    7
 10
258.11904326839999
 20
204.21692529730001
 11
258.11904326839999
 21
203.9839947257
  0
LINE
  8
_0-0_0
  6
CONTINUOUS
 62
    7
 10
258.47259539980001
 20
202.222760722
 11
258.49784399629999
 21
202.23149486380001
  0
LINE
  8
_0-0_0
  6
CONTINUOUS
 62
    7
 10
258.49784399629999
 20
202.23149486380001
 11
258.54330562860002
 21
202.25302786789999
  0
ARC
  8
_0-0_0
  6
CONTINUOUS
 62
    7
 10
259.8245786178
 20
203.59017201399999
 40
0.1508429729693902
 50
294.36566299930001
 51
354.30151199080001
  0
ARC
  8
_0-0_0
  6
CONTINUOUS
 62
    7
 10
258.62249680899998
 20
202.47205781
 40
0.1508440088421585
 50
294.36480575239995
 51
354.30141597419993
  0
ARC
  8
_0-0_0
  6
CONTINUOUS
 62
    7
 10
259.74386287060003
 20
203.43468057059999
 40
0.1440866439194425
 50
304.09752696689998
 51
7.2100395254000249
  0
LINE
  8
_0-0_0
  6
CONTINUOUS
 62
    7
 10
258.47259572910002
 20
202.1282699914
 11
258.51488548179998
 21
202.14693417980001
  0
LINE
  8
_0-0_0
  6
CONTINUOUS
 62
    7
 10
258.47259507059999
 20
202.0867461174
 11
258.51488548179998
 21
202.14693417980001
  0
LINE
  8
_0-0_0
  6
CONTINUOUS
 62
    7
 10
258.35354866279999
 20
201.81390282340001
 11
258.37273864970001
 21
201.82497823200001
  0
LINE
  8
_0-0_0
  6
CONTINUOUS
 62
    7
 10
258.7180596334
 20
202.28460642409999
 11
258.69416204100003
 21
202.25683130920001
  0
LINE
  8
_0-0_0
  6
CONTINUOUS
 62
    7
 10
258.69416204100003
 20
202.25683130920001
 11
258.65630659779998
 21
202.2285546967
  0
LINE
  8
_0-0_0
  6
CONTINUOUS
 62
    7
 10
258.43449201459998
 20
201.88102975749999
 11
258.41059442220001
 21
201.85325465450001
  0
LINE
  8
_0-0_0
  6
CONTINUOUS
 62
    7
 10
258.41059442220001
 20
201.85325465450001
 11
258.37273864970001
 21
201.82497823200001
  0
LINE
  8
_0-0_0
  6
CONTINUOUS
 62
    7
 10
257.29576730909997
 20
200.71842740549999
 11
257.21722254100001
 21
200.9041060024
  0
ARC
  8
_0-0_0
  6
CONTINUOUS
 62
    7
 10
256.02642152369998
 20
202.93831610870001
 40
2.5571751166500301
 50
296.37310478009999
 51
299.76118267219999
  0
LINE
  8
_0-0_0
  6
CONTINUOUS
 62
    7
 10
258.37273864970001
 20
201.82497823200001
 11
258.35499383870001
 21
201.80513293889999
  0
LINE
  8
_0-0_0
  6
CONTINUOUS
 62
    7
 10
258.35499383870001
 20
201.80513293889999
 11
258.3389869266
 21
201.7936721298
  0
LINE
  8
_0-0_0
  6
CONTINUOUS
 62
    7
 10
257.35864365700002
 20
200.98572651929999
 11
257.43718842509998
 21
200.80004792240001
  0
ARC
  8
_0-0_0
  6
CONTINUOUS
 62
    7
 10
257.3298614007
 20
201.05295136199999
 40
0.274734853819032
 50
292.99537030379997
 51
319.94349940540002
  0
ARC
  8
_0-0_0
  6
CONTINUOUS
 62
    7
 10
257.15643531969999
 20
200.87457038060001
 40
0.3816475556128485
 50
282.30817153279997
 51
298.95923126769998
  0
LINE
  8
_0-0_0
  6
CONTINUOUS
 62
    7
 10
257.27051377359999
 20
199.82931709159999
 11
257.29576253459999
 21
199.8380511384
  0
LINE
  8
_0-0_0
  6
CONTINUOUS
 62
    7
 10
257.29576253459999
 20
199.8380511384
 11
257.34122416690002
 21
199.85958414250001
  0
ARC
  8
_0-0_0
  6
CONTINUOUS
 62
    7
 10
257.42041496339999
 20
200.75967255419999
 40
0.1508444183327639
 50
294.36489543779993
 51
354.30132628879994
  0
ARC
  8
_0-0_0
  6
CONTINUOUS
 62
    7
 10
257.42041496339999
 20
200.07861436019999
 40
0.1508444183327886
 50
294.36489543779993
 51
354.30132628879994
  0
ARC
  8
_0-0_0
  6
CONTINUOUS
 62
    7
 10
257.19416292450001
 20
199.8433619427
 40
0.1479532655259684
 50
305.01262395800006
 51
6.2947987991000565
  0
ARC
  8
_0-0_0
  6
CONTINUOUS
 62
    7
 10
257.33987997219998
 20
199.92303859239999
 40
0.1439164338981568
 50
304.05583293040002
 51
7.2515898266000098
  0
LINE
  8
_0-0_0
  6
CONTINUOUS
 62
    7
 10
167.98367812699999
 20
164.2236377719
 11
168.34745218629999
 21
164.1308510854
  0
LINE
  8
_0-0_0
  6
CONTINUOUS
 62
    7
 10
168.34745218629999
 20
164.1308510854
 11
169.1718845497
 21
163.80631624860001
  0
LINE
  8
_0-0_0
  6
CONTINUOUS
 62
    7
 10
169.1718845497
 20
163.80631624860001
 11
170.00665820219999
 21
163.32453065030001
  0
LINE
  8
_0-0_0
  6
CONTINUOUS
 62
    7
 10
170.00665820219999
 20
163.32453065030001
 11
170.83109048329999
 21
162.6974311884
  0
LINE
  8
_0-0_0
  6
CONTINUOUS
 62
    7
 10
170.83109048329999
 20
162.6974311884
 11
171.62475443829999
 21
161.94055520520001
  0
LINE
  8
_0-0_0
  6
CONTINUOUS
 62
    7
 10
171.62475443829999
 20
161.94055520520001
 11
172.3679856864
 21
161.0726559229
  0
LINE
  8
_0-0_0
  6
CONTINUOUS
 62
    7
 10
172.3679856864
 20
161.0726559229
 11
173.0423692599
 21
160.1152366522
  0
LINE
  8
_0-0_0
  6
CONTINUOUS
 62
    7
 10
173.0423692599
 20
160.1152366522
 11
173.63119613040001
 21
159.09201997400001
  0
LINE
  8
_0-0_0
  6
CONTINUOUS
 62
    7
 10
173.63119613040001
 20
159.09201997400001
 11
174.11987714969999
 21
158.02835707829999
  0
LINE
  8
_0-0_0
  6
CONTINUOUS
 62
    7
 10
174.11987714969999
 20
158.02835707829999
 11
174.49630431849999
 21
156.9506026649
  0
LINE
  8
_0-0_0
  6
CONTINUOUS
 62
    7
 10
174.49630431849999
 20
156.9506026649
 11
174.7511508357
 21
155.88545976809999
  0
LINE
  8
_0-0_0
  6
CONTINUOUS
 62
    7
 10
174.3268937439
 20
155.85668923630001
 11
174.24991417140001
 21
156.2285734189
  0
LINE
  8
_0-0_0
  6
CONTINUOUS
 62
    7
 10
170.30577298669999
 20
162.58241333749999
 11
169.77640618219999
 21
162.96846334809999
  0
LINE
  8
_0-0_0
  6
CONTINUOUS
 62
    7
 10
169.77640618219999
 20
162.96846334809999
 11
168.97788639269999
 21
163.42932520369999
  0
LINE
  8
_0-0_0
  6
CONTINUOUS
 62
    7
 10
168.97788639269999
 20
163.42932520369999
 11
168.1891884652
 21
163.74031990789999
  0
LINE
  8
_0-0_0
  6
CONTINUOUS
 62
    7
 10
168.1891884652
 20
163.74031990789999
 11
167.42971443810001
 21
163.893796904
  0
LINE
  8
_0-0_0
  6
CONTINUOUS
 62
    7
 10
167.42971443810001
 20
163.893796904
 11
166.71814754830001
 21
163.8859810212
  0
LINE
  8
_0-0_0
  6
CONTINUOUS
 62
    7
 10
166.71814754830001
 20
163.8859810212
 11
166.0719919089
 21
163.71706398009999
  0
LINE
  8
_0-0_0
  6
CONTINUOUS
 62
    7
 10
166.0719919089
 20
163.71706398009999
 11
165.5071434672
 21
163.39120178869999
  0
LINE
  8
_0-0_0
  6
CONTINUOUS
 62
    7
 10
165.5071434672
 20
163.39120178869999
 11
165.03749718290001
 21
162.9164102352
  0
LINE
  8
_0-0_0
  6
CONTINUOUS
 62
    7
 10
165.03749718290001
 20
162.9164102352
 11
164.67460689040001
 21
162.30436894030001
  0
LINE
  8
_0-0_0
  6
CONTINUOUS
 62
    7
 10
164.67460689040001
 20
162.30436894030001
 11
164.4273991602
 21
161.57013491910001
  0
LINE
  8
_0-0_0
  6
CONTINUOUS
 62
    7
 10
176.094655389
 20
156.6608569588
 11
175.83980887179999
 21
157.72599985560001
  0
LINE
  8
_0-0_0
  6
CONTINUOUS
 62
    7
 10
175.83980887179999
 20
157.72599985560001
 11
175.46338170300001
 21
158.803754269
  0
LINE
  8
_0-0_0
  6
CONTINUOUS
 62
    7
 10
175.46338170300001
 20
158.803754269
 11
174.97470068359999
 21
159.86741716469999
  0
LINE
  8
_0-0_0
  6
CONTINUOUS
 62
    7
 10
174.97470068359999
 20
159.86741716469999
 11
174.38587381319999
 21
160.8906338429
  0
LINE
  8
_0-0_0
  6
CONTINUOUS
 62
    7
 10
174.38587381319999
 20
160.8906338429
 11
173.71149023960001
 21
161.8480531136
  0
LINE
  8
_0-0_0
  6
CONTINUOUS
 62
    7
 10
173.71149023960001
 20
161.8480531136
 11
172.96825899160001
 21
162.71595239589999
  0
LINE
  8
_0-0_0
  6
CONTINUOUS
 62
    7
 10
172.96825899160001
 20
162.71595239589999
 11
172.17459503660001
 21
163.47282837910001
  0
LINE
  8
_0-0_0
  6
CONTINUOUS
 62
    7
 10
172.17459503660001
 20
163.47282837910001
 11
171.35016275550001
 21
164.09992784100001
  0
LINE
  8
_0-0_0
  6
CONTINUOUS
 62
    7
 10
171.35016275550001
 20
164.09992784100001
 11
170.51538910299999
 21
164.58171343929999
  0
LINE
  8
_0-0_0
  6
CONTINUOUS
 62
    7
 10
170.51538910299999
 20
164.58171343929999
 11
169.6909567395
 21
164.9062482761
  0
LINE
  8
_0-0_0
  6
CONTINUOUS
 62
    7
 10
169.6909567395
 20
164.9062482761
 11
169.3256443203
 21
164.99935848659999
  0
ARC
  8
_0-0_0
  6
CONTINUOUS
 62
    7
 10
163.85140146660001
 20
157.1392079801
 40
1.93727006347407
 50
28.143045959599998
 51
63.659862457199999
  0
LINE
  8
_0-0_0
  6
CONTINUOUS
 62
    7
 10
166.77818277060001
 20
158.75624869719999
 11
166.73250480639999
 21
158.85554562359999
  0
LINE
  8
_0-0_0
  6
CONTINUOUS
 62
    7
 10
166.73250480639999
 20
158.85554562359999
 11
166.5650978534
 21
159.36195521729999
  0
LINE
  8
_0-0_0
  6
CONTINUOUS
 62
    7
 10
166.5650978534
 20
159.36195521729999
 11
166.5137119547
 21
159.84081966939999
  0
LINE
  8
_0-0_0
  6
CONTINUOUS
 62
    7
 10
166.5137119547
 20
159.84081966939999
 11
166.5832295594
 21
160.24663874999999
  0
LINE
  8
_0-0_0
  6
CONTINUOUS
 62
    7
 10
166.5832295594
 20
160.24663874999999
 11
166.76704513659999
 21
160.54085295889999
  0
LINE
  8
_0-0_0
  6
CONTINUOUS
 62
    7
 10
166.76704513659999
 20
160.54085295889999
 11
167.04769375679999
 21
160.6955068451
  0
LINE
  8
_0-0_0
  6
CONTINUOUS
 62
    7
 10
167.04769375679999
 20
160.6955068451
 11
167.3985083188
 21
160.69590604589999
  0
LINE
  8
_0-0_0
  6
CONTINUOUS
 62
    7
 10
167.3985083188
 20
160.69590604589999
 11
167.78615593360001
 21
160.54201216769999
  0
ARC
  8
_0-0_0
  6
CONTINUOUS
 62
    7
 10
174.47100365879999
 20
154.2995685404
 40
0.1451762666193287
 50
173.05125720000004
 51
235.63657679620002
  0
ARC
  8
_0-0_0
  6
CONTINUOUS
 62
    7
 10
174.6082035245
 20
154.29904427829999
 40
0.1440866439391514
 50
304.09752697179999
 51
7.2100395206000201
  0
ARC
  8
_0-0_0
  6
CONTINUOUS
 62
    7
 10
176.03241664660001
 20
154.80560170289999
 40
0.1508533999190643
 50
294.36686241389998
 51
354.29935931270001
  0
ARC
  8
_0-0_0
  6
CONTINUOUS
 62
    7
 10
171.1184810176
 20
158.6907610328
 40
0.1510698235231703
 50
174.38304495759999
 51
234.11710005809999
  0
ARC
  8
_0-0_0
  6
CONTINUOUS
 62
    7
 10
172.13197377489999
 20
155.87114836360001
 40
0.2699587066121585
 50
131.07130881390003
 51
217.15654050149999
  0
ARC
  8
_0-0_0
  6
CONTINUOUS
 62
    7
 10
172.06092976350001
 20
155.6905310967
 40
0.1451762666194149
 50
173.0512572001
 51
235.63657679620002
  0
LINE
  8
_0-0_0
  6
CONTINUOUS
 62
    7
 10
175.52897454699999
 20
154.58656791070001
 11
175.52897454699999
 21
154.66452789740001
  0
ARC
  8
_0-0_0
  6
CONTINUOUS
 62
    7
 10
167.92601032549999
 20
160.52252317560001
 40
0.1412057779897598
 50
172.06680561409999
 51
236.62102838220002
  0
ARC
  8
_0-0_0
  6
CONTINUOUS
 62
    7
 10
175.33649298130001
 20
153.59275238129999
 40
1.2392073263666581
 50
148.39974836569999
 51
215.44088035540003
  0
LINE
  8
_0-0_0
  6
CONTINUOUS
 62
    7
 10
174.97099735859999
 20
154.34249406160001
 11
175.2454067635
 21
154.1829913272
  0
LINE
  8
_0-0_0
  6
CONTINUOUS
 62
    7
 10
172.17021736199999
 20
156.45941292489999
 11
170.87101795449999
 21
157.20923961380001
  0
LINE
  8
_0-0_0
  6
CONTINUOUS
 62
    7
 10
176.12799354609999
 20
154.618147037
 11
176.1040933196
 21
154.59037040179999
  0
LINE
  8
_0-0_0
  6
CONTINUOUS
 62
    7
 10
176.1040933196
 20
154.59037040179999
 11
176.06623524220001
 21
154.562092269
  0
LINE
  8
_0-0_0
  6
CONTINUOUS
 62
    7
 10
175.84442592740001
 20
154.2145703704
 11
175.8205257008
 21
154.18679374710001
  0
LINE
  8
_0-0_0
  6
CONTINUOUS
 62
    7
 10
175.8205257008
 20
154.18679374710001
 11
175.78266729410001
 21
154.15851580430001
  0
LINE
  8
_0-0_0
  6
CONTINUOUS
 62
    7
 10
175.6412435439
 20
154.0768937672
 11
175.6234987329
 21
154.05704847409999
  0
LINE
  8
_0-0_0
  6
CONTINUOUS
 62
    7
 10
175.6234987329
 20
154.05704847409999
 11
175.60749182079999
 21
154.04558766490001
  0
ARC
  8
_0-0_0
  6
CONTINUOUS
 62
    7
 10
175.36135908279999
 20
154.15167240669999
 40
0.1201075148622727
 50
164.88499302349996
 51
226.45851649790001
  0
LINE
  8
_0-0_0
  6
CONTINUOUS
 62
    7
 10
174.76539828150001
 20
154.2067212986
 11
174.6430820356
 21
154.09264675189999
  0
LINE
  8
_0-0_0
  6
CONTINUOUS
 62
    7
 10
174.6430820356
 20
154.09264675189999
 11
174.55874273430001
 21
153.8934753085
  0
LINE
  8
_0-0_0
  6
CONTINUOUS
 62
    7
 10
174.55874273430001
 20
153.8934753085
 11
174.54102541750001
 21
153.6381876662
  0
LINE
  8
_0-0_0
  6
CONTINUOUS
 62
    7
 10
174.54102541750001
 20
153.6381876662
 11
174.5914872136
 21
153.34921873069999
  0
LINE
  8
_0-0_0
  6
CONTINUOUS
 62
    7
 10
174.5914872136
 20
153.34921873069999
 11
174.7056933193
 21
153.05196345749999
  0
LINE
  8
_0-0_0
  6
CONTINUOUS
 62
    7
 10
175.748915571
 20
154.1272097021
 11
175.76492248310001
 21
154.13867051119999
  0
LINE
  8
_0-0_0
  6
CONTINUOUS
 62
    7
 10
175.76492248310001
 20
154.13867051119999
 11
175.78266729410001
 21
154.15851580430001
  0
ARC
  8
_0-0_0
  6
CONTINUOUS
 62
    7
 10
174.73978460160001
 20
153.38649629899999
 40
0.2747437599220073
 50
292.99581531310002
 51
319.94305439610002
  0
LINE
  8
_0-0_0
  6
CONTINUOUS
 62
    7
 10
174.8471170695
 20
153.13358549469999
 11
174.73291096380001
 21
153.43084076779999
  0
LINE
  8
_0-0_0
  6
CONTINUOUS
 62
    7
 10
174.73291096380001
 20
153.43084076779999
 11
174.68244916770001
 21
153.71980970339999
  0
LINE
  8
_0-0_0
  6
CONTINUOUS
 62
    7
 10
174.68244916770001
 20
153.71980970339999
 11
174.70016648449999
 21
153.97509734560001
  0
LINE
  8
_0-0_0
  6
CONTINUOUS
 62
    7
 10
174.70016648449999
 20
153.97509734560001
 11
174.78450578569999
 21
154.17426878910001
  0
LINE
  8
_0-0_0
  6
CONTINUOUS
 62
    7
 10
174.78450578569999
 20
154.17426878910001
 11
174.90535364199999
 21
154.28748145860001
  0
LINE
  8
_0-0_0
  6
CONTINUOUS
 62
    7
 10
169.65998144010001
 20
158.39802992849999
 11
169.694961678
 21
158.3778412524
  0
LINE
  8
_0-0_0
  6
CONTINUOUS
 62
    7
 10
171.2953881514
 20
157.45416281129999
 11
172.1091178495
 21
156.98452262999999
  0
LINE
  8
_0-0_0
  6
CONTINUOUS
 62
    7
 10
172.0500302728
 20
157.181868815
 11
171.43681190160001
 21
157.5357848484
  0
LINE
  8
_0-0_0
  6
CONTINUOUS
 62
    7
 10
169.83638542809999
 20
158.4594632896
 11
169.65059553450001
 21
158.5666910331
  0
ARC
  8
_0-0_0
  6
CONTINUOUS
 62
    7
 10
168.41681077440001
 20
158.5843796234
 40
1.162039994597224
 50
251.15854247269999
 51
254.7200380077
  0
LINE
  8
_0-0_0
  6
CONTINUOUS
 62
    7
 10
167.2508442008
 20
160.49499316359999
 11
167.07972239829999
 21
160.33710713639999
  0
LINE
  8
_0-0_0
  6
CONTINUOUS
 62
    7
 10
167.07972239829999
 20
160.33710713639999
 11
166.95373493139999
 21
160.0100516226
  0
LINE
  8
_0-0_0
  6
CONTINUOUS
 62
    7
 10
166.95373493139999
 20
160.0100516226
 11
166.95373493139999
 21
159.5846266181
  0
LINE
  8
_0-0_0
  6
CONTINUOUS
 62
    7
 10
166.95373493139999
 20
159.5846266181
 11
167.07972239829999
 21
159.1121448881
  0
LINE
  8
_0-0_0
  6
CONTINUOUS
 62
    7
 10
167.07972239829999
 20
159.1121448881
 11
167.1418442188
 21
158.9661341597
  0
LINE
  8
_0-0_0
  6
CONTINUOUS
 62
    7
 10
168.4853487721
 20
159.74153135040001
 11
168.4232269515
 21
159.88754207880001
  0
LINE
  8
_0-0_0
  6
CONTINUOUS
 62
    7
 10
168.4232269515
 20
159.88754207880001
 11
168.34772186020001
 21
160.1163835845
  0
ARC
  8
_0-0_0
  6
CONTINUOUS
 62
    7
 10
174.83033480079999
 20
153.09321644720001
 40
0.1508538095177317
 50
294.36695210990001
 51
354.29926961669997
  0
ARC
  8
_0-0_0
  6
CONTINUOUS
 62
    7
 10
174.83033480079999
 20
152.4121582532
 40
0.1508538095177317
 50
294.36695210990001
 51
354.29926961669997
  0
ARC
  8
_0-0_0
  6
CONTINUOUS
 62
    7
 10
174.60838486630001
 20
152.1749541275
 40
0.1439164339704125
 50
304.05583294820002
 51
7.2515898089000066
  0
ARC
  8
_0-0_0
  6
CONTINUOUS
 62
    7
 10
174.46678050099999
 20
152.17365013450001
 40
0.14123642488244
 50
172.07465789529999
 51
236.61317610099999
  0
ARC
  8
_0-0_0
  6
CONTINUOUS
 62
    7
 10
174.74551268499999
 20
152.25852003189999
 40
0.147953265487027
 50
305.01262394899999
 51
6.2947988079999995
  0
ARC
  8
_0-0_0
  6
CONTINUOUS
 62
    7
 10
164.48958939889999
 20
159.74362919129999
 40
0.1508106241688368
 50
185.6943887864
 51
245.64600582840001
  0
ARC
  8
_0-0_0
  6
CONTINUOUS
 62
    7
 10
168.5275064933
 20
154.29698351619999
 40
0.1436928862503597
 50
304.0009164539
 51
7.3063625679000044
  0
ARC
  8
_0-0_0
  6
CONTINUOUS
 62
    7
 10
168.38562994029999
 20
154.2957726226
 40
0.1412057779745273
 50
172.06680561019999
 51
236.62102838609999
  0
ARC
  8
_0-0_0
  6
CONTINUOUS
 62
    7
 10
168.1091890902
 20
154.4553191295
 40
0.1412057779898068
 50
172.06680561409999
 51
236.62102838220002
  0
ARC
  8
_0-0_0
  6
CONTINUOUS
 62
    7
 10
164.89131748189999
 20
158.88061326920001
 40
0.1804280327820002
 50
181.6739714858
 51
241.9210386112
  0
LINE
  8
_0-0_0
  6
CONTINUOUS
 62
    7
 10
164.64340307590001
 20
158.88925741969999
 11
164.64464245670001
 21
158.88682081729999
  0
LINE
  8
_0-0_0
  6
CONTINUOUS
 62
    7
 10
164.64464245670001
 20
158.88682081729999
 11
164.65680577379999
 21
158.87835671670001
  0
LINE
  8
_0-0_0
  6
CONTINUOUS
 62
    7
 10
164.65680577379999
 20
158.87835671670001
 11
164.67919365290001
 21
158.8744769573
  0
LINE
  8
_0-0_0
  6
CONTINUOUS
 62
    7
 10
164.67919365290001
 20
158.8744769573
 11
164.71096644970001
 21
158.875342577
  0
LINE
  8
_0-0_0
  6
CONTINUOUS
 62
    7
 10
164.3598351279
 20
159.62015365080001
 11
164.3610745087
 21
159.61771707209999
  0
LINE
  8
_0-0_0
  6
CONTINUOUS
 62
    7
 10
164.3610745087
 20
159.61771707209999
 11
164.37323782569999
 21
159.6092529359
  0
LINE
  8
_0-0_0
  6
CONTINUOUS
 62
    7
 10
164.37323782569999
 20
159.6092529359
 11
164.39562570480001
 21
159.60537320029999
  0
LINE
  8
_0-0_0
  6
CONTINUOUS
 62
    7
 10
164.39562570480001
 20
159.60537320029999
 11
164.4273991602
 21
159.60623843990001
  0
LINE
  8
_0-0_0
  6
CONTINUOUS
 62
    7
 10
165.6294806219
 20
156.24592372859999
 11
165.6294806219
 21
156.0314680303
  0
ARC
  8
_0-0_0
  6
CONTINUOUS
 62
    7
 10
142.0864416444
 20
136.34913210330001
 40
0.143916457138903
 50
304.05583862219999
 51
7.2515841349000061
  0
LINE
  8
_0-0_0
  6
CONTINUOUS
 62
    7
 10
135.86524857960001
 20
134.3270878072
 11
138.1986983107
 21
135.67382709570001
  0
ARC
  8
_0-0_0
  6
CONTINUOUS
 62
    7
 10
136.69663265150001
 20
145.2668424762
 40
0.1508839675022964
 50
54.391108752799994
 51
114.30714726159999
  0
ARC
  8
_0-0_0
  6
CONTINUOUS
 62
    7
 10
142.10492381890001
 20
142.2468942184
 40
0.1508691356976311
 50
65.689687853699994
 51
125.6114603556
  0
ARC
  8
_0-0_0
  6
CONTINUOUS
 62
    7
 10
142.16697968560001
 20
142.13953243770001
 40
0.1508410953349445
 50
294.36420564809998
 51
354.30208799569999
  0
ARC
  8
_0-0_0
  6
CONTINUOUS
 62
    7
 10
142.16697968560001
 20
136.50470558200001
 40
0.150841095335035
 50
294.36420564809998
 51
354.30208799569999
  0
ARC
  8
_0-0_0
  6
CONTINUOUS
 62
    7
 10
136.87233363659999
 20
145.26685847350001
 40
0.1508691356975721
 50
65.689687853699994
 51
125.6114603556
  0
LINE
  8
_0-0_0
  6
CONTINUOUS
 62
    7
 10
142.3170822793
 20
138.25491474840001
 11
148.76994391049999
 21
141.97915280079999
  0
LINE
  8
_0-0_0
  6
CONTINUOUS
 62
    7
 10
148.0628356963
 20
145.16427147179999
 11
142.3170822793
 21
141.8481375241
  0
LINE
  8
_0-0_0
  6
CONTINUOUS
 62
    7
 10
142.2577009661
 20
142.3037202758
 11
147.8507036673
 21
145.53169488270001
  0
LINE
  8
_0-0_0
  6
CONTINUOUS
 62
    7
 10
144.385880563
 20
147.5314008716
 11
138.81742840109999
 21
144.31759549040001
  0
LINE
  8
_0-0_0
  6
CONTINUOUS
 62
    7
 10
133.16059199279999
 20
137.17362355430001
 11
132.0468720577
 21
136.5308454506
  0
LINE
  8
_0-0_0
  6
CONTINUOUS
 62
    7
 10
142.4226222428
 20
138.21430904690001
 11
142.759541351
 21
138.0198578042
  0
LINE
  8
_0-0_0
  6
CONTINUOUS
 62
    7
 10
136.57235287340001
 20
135.9587601472
 11
136.64310689530001
 21
135.99959549069999
  0
LINE
  8
_0-0_0
  6
CONTINUOUS
 62
    7
 10
287.68283378429999
 20
224.39869331950001
 11
287.68283378429999
 21
226.03110624039999
  0
LINE
  8
_0-0_0
  6
CONTINUOUS
 62
    7
 10
288.28841844649997
 20
225.12410820119999
 11
288.28841844649997
 21
225.33852282929999
  0
LINE
  8
_0-0_0
  6
CONTINUOUS
 62
    7
 10
288.19366934700003
 20
225.92475649869999
 11
288.19366934700003
 21
224.86498232049999
  0
LINE
  8
_0-0_0
  6
CONTINUOUS
 62
    7
 10
280.9937622553
 20
227.14155861739999
 11
280.9937622553
 21
228.29209002850001
  0
LINE
  8
_0-0_0
  6
CONTINUOUS
 62
    7
 10
282.59373071099998
 20
228.6251844647
 11
282.59373071099998
 21
227.95057959440001
  0
LINE
  8
_0-0_0
  6
CONTINUOUS
 62
    7
 10
283.60947799190001
 20
228.5368131509
 11
283.60947799190001
 21
228.57050048950001
  0
ARC
  8
_0-0_0
  6
CONTINUOUS
 62
    7
 10
169.91105422370001
 20
159.09357422369999
 40
0.3263129052440885
 50
301.8560419776
 51
348.66817478209998
  0
LINE
  8
_0-0_0
  6
CONTINUOUS
 62
    7
 10
258.26046471360002
 20
203.9023740188
 11
258.05399783950003
 21
203.78321265549999
  0
LINE
  8
_0-0_0
  6
CONTINUOUS
 62
    7
 10
176.59983936899999
 20
156.77233688570001
 11
176.2360804562
 21
156.5623951789
  0
LINE
  8
_0-0_0
  6
CONTINUOUS
 62
    7
 10
168.68950514279999
 20
159.9191206468
 11
168.57895395919999
 21
159.85531656289999
  0
ENDSEC
  0
EOF
