  0
SECTION
  2
HEADER
  9
$ACADVER
  1
AC1009
  9
$INSBASE
 10
0
 20
0
 30
0
  9
$EXTMIN
 10
0
 20
0
  9
$EXTMAX
 10
420
 20
297
  9
$LIMMIN
 10
0
 20
0
  9
$LIMMAX
 10
420
 20
297
  9
$LTSCALE
 40
1
  0
ENDSEC
  0
SECTION
  2
TABLES
  0
TABLE
  2
LTYPE
 70
     9
  0
LTYPE
  2
CONTINUOUS
 70
    64
  3
実線
 72
    65
 73
     0
 40
0.0
  0
LTYPE
  2
DASHED1
 70
    64
  3
--  --  --  --  --  --  --  --  
 72
    65
 73
     2
 40
2.5
 49
1.25
 49
-1.25
  0
LTYPE
  2
DASHED2
 70
    64
  3
----    ----    ----    ----    
 72
    65
 73
     2
 40
5.0
 49
2.5
 49
-2.5
  0
LTYPE
  2
DASHED3
 70
    64
  3
------  ------  ------  ------  
 72
    65
 73
     2
 40
5.0
 49
3.75
 49
-1.25
  0
LTYPE
  2
CENTER1
 70
    64
  3
----- - ----- - ----- - ----- - 
 72
    65
 73
     4
 40
10.0
 49
6.25
 49
-1.25
 49
1.25
 49
-1.25
  0
LTYPE
  2
CENTER2
 70
    64
  3
----------  --  ----------  --  
 72
    65
 73
     4
 40
20.0
 49
12.5
 49
-2.5
 49
2.5
 49
-2.5
  0
LTYPE
  2
PHANTOM1
 70
    64
  3
--- - - --- - - --- - - --- - - 
 72
    65
 73
     6
 40
10.0
 49
3.25
 49
-1.25
 49
1.25
 49
-1.25
 49
1.25
 49
-1.25
  0
LTYPE
  2
PHANTOM2
 70
    64
  3
--------  -  -  --------  -  -  
 72
    65
 73
     6
 40
20.0
 49
10.0
 49
-2.5
 49
1.25
 49
-2.5
 49
1.25
 49
-2.5
  0
LTYPE
  2
DOT
 70
    64
  3
-   -   -   -   -   -   -   -   
 72
    65
 73
     2
 40
2.5
 49
0.625
 49
-1.875
  0
LTYPE
  2
DUMMY
 70
    64
  3
ダミー
 72
    65
 73
     0
 40
0.0
  0
LTYPE
  2
RAND1
 70
    64
  3
ランダム線1
 72
    65
 73
     4
 40
10.0
 49
1.0
 49
-2.0
 49
3.0
 49
-4.0
  0
LTYPE
  2
RAND2
 70
    64
  3
ランダム線2
 72
    65
 73
     4
 40
14.0
 49
2.0
 49
-3.0
 49
4.0
 49
-5.0
  0
LTYPE
  2
RAND3
 70
    64
  3
ランダム線3
 72
    65
 73
     4
 40
18.0
 49
3.0
 49
-4.0
 49
5.0
 49
-6.0
  0
LTYPE
  2
RAND4
 70
    64
  3
ランダム線4
 72
    65
 73
     4
 40
22.0
 49
4.0
 49
-5.0
 49
6.0
 49
-7.0
  0
LTYPE
  2
RAND5
 70
    64
  3
ランダム線5
 72
    65
 73
     4
 40
26.0
 49
5.0
 49
-6.0
 49
7.0
 49
-8.0
  0
LTYPE
  2
LONG1
 70
    64
  3
----------  --  ----------  --  
 72
    65
 73
     4
 40
40.0
 49
32.5
 49
-2.5
 49
2.5
 49
-2.5
  0
LTYPE
  2
LONG2
 70
    64
  3
--------  -  -  --------  -  -  
 72
    65
 73
     6
 40
40.0
 49
30.0
 49
-2.5
 49
1.25
 49
-2.5
 49
1.25
 49
-2.5
  0
LTYPE
  2
LONG3
 70
    64
  3
+++++++++++++++..+++++++++++++++
 72
    65
 73
     2
 40
40.0
 49
37.5
 49
-2.5
  0
LTYPE
  2
LONG4
 70
    64
  3
+++++++++++++++..+++++++++++++++
 72
    65
 73
     2
 40
80.0
 49
75.0
 49
-5.0
  0
LTYPE
  2
LONG5
 70
    64
  3
----------  --  ----------  --  
 72
    65
 73
     4
 40
60.0
 49
37.5
 49
-7.5
 49
7.5
 49
-7.5
  0
LTYPE
  2
dashed
 70
   64
  3
-------   -------------   ------
 72
   65
 73
    2
 40
7.5
 49
6
 49
-1.5
  0
LTYPE
  2
dashed_spaced
 70
   64
  3
----        --------        ----
 72
   65
 73
    2
 40
12
 49
6
 49
-6
  0
LTYPE
  2
long_dashed_dotted
 70
   64
  3
------------- --- --------------
 72
   65
 73
    4
 40
15.25
 49
12
 49
-1.5
 49
0.25
 49
-1.5
  0
LTYPE
  2
long_dashed_double-dotted
 70
   64
  3
----------- --- --- ------------
 72
   65
 73
    6
 40
17
 49
12
 49
-1.5
 49
0.25
 49
-1.5
 49
0.25
 49
-1.5
  0
LTYPE
  2
long_dashed_triplicate-dotted
 70
   64
  3
--------- --- --- --- ----------
 72
   65
 73
    8
 40
18.75
 49
12
 49
-1.5
 49
0.25
 49
-1.5
 49
0.25
 49
-1.5
 49
0.25
 49
-1.5
  0
LTYPE
  2
dotted
 70
   64
  3
   -       -       -       -    
 72
   65
 73
    2
 40
1.75
 49
0.25
 49
-1.5
  0
LTYPE
  2
chain
 70
   64
  3
-------------- -- --------------
 72
   65
 73
    4
 40
18.5
 49
12
 49
-1.5
 49
3.5
 49
-1.5
  0
LTYPE
  2
chain_double_dash
 70
   64
  3
------------ -- -- -------------
 72
   65
 73
    6
 40
23.5
 49
12
 49
-1.5
 49
3.5
 49
-1.5
 49
3.5
 49
-1.5
  0
LTYPE
  2
dashed_dotted
 70
   64
  3
-----------     -     ----------
 72
   65
 73
    4
 40
9.25
 49
6
 49
-1.5
 49
0.25
 49
-1.5
  0
LTYPE
  2
double-dashed_dotted
 70
   64
  3
------   -----------   -   -----
 72
   65
 73
    6
 40
16.75
 49
6
 49
-1.5
 49
6
 49
-1.5
 49
0.25
 49
-1.5
  0
LTYPE
  2
dashed_double-dotted
 70
   64
  3
---------    -    -    ---------
 72
   65
 73
    6
 40
11
 49
6
 49
-1.5
 49
0.25
 49
-1.5
 49
0.25
 49
-1.5
  0
LTYPE
  2
double-dashed_double-dotted
 70
   64
  3
-----   ---------   -   -   ----
 72
   65
 73
    8
 40
18.5
 49
6
 49
-1.5
 49
6
 49
-1.5
 49
0.25
 49
-1.5
 49
0.25
 49
-1.5
  0
LTYPE
  2
dashed_triplicate-dotted
 70
   64
  3
-------    -    -    -    ------
 72
   65
 73
    8
 40
12.75
 49
6
 49
-1.5
 49
0.25
 49
-1.5
 49
0.25
 49
-1.5
 49
0.25
 49
-1.5
  0
LTYPE
  2
double-dashed_triplicate-dotted
 70
   64
  3
-----  ---------  -  -  -  -----
 72
   65
 73
   10
 40
20.25
 49
6
 49
-1.5
 49
6
 49
-1.5
 49
0.25
 49
-1.5
 49
0.25
 49
-1.5
 49
0.25
 49
-1.5
  0
LTYPE
  2
undefined
 70
   64
  3
--------------------------------
 72
   65
 73
    0
 40
0
  0
LTYPE
  2
SLD-破線
 70
   64
  3
------     -----------     -----
 72
   65
 73
    2
 40
1.905
 49
1.27
 49
-0.635
  0
LTYPE
  2
SLD-2点鎖線
 70
   64
  3
---------   ---   ---   --------
 72
   65
 73
    6
 40
12.699999999999998
 49
6.3499999999999996
 49
-1.27
 49
1.27
 49
-1.27
 49
1.27
 49
-1.27
  0
LTYPE
  2
SLD-1点鎖線_中心線_
 70
   64
  3
--------------- - --------------
 72
   65
 73
    4
 40
34.290000000000006
 49
30.48
 49
-1.27
 49
1.27
 49
-1.27
  0
LTYPE
  2
SLD-点線
 70
   64
  3
-               -               
 72
   65
 73
    2
 40
0.645
 49
0.01
 49
-0.635
  0
LTYPE
  2
_
 70
   64
  3
                                
 72
   65
 73
    0
 40
0
  0
LTYPE
  2
__22
 70
   64
  3
                                
 72
   65
 73
    0
 40
0
  0
LTYPE
  2
__23
 70
   64
  3
                                
 72
   65
 73
    0
 40
0
  0
LTYPE
  2
__24
 70
   64
  3
                                
 72
   65
 73
    0
 40
0
  0
LTYPE
  2
__25
 70
   64
  3
                                
 72
   65
 73
    0
 40
0
  0
LTYPE
  2
__26
 70
   64
  3
                                
 72
   65
 73
    0
 40
0
  0
LTYPE
  2
__27
 70
   64
  3
                                
 72
   65
 73
    0
 40
0
  0
LTYPE
  2
__28
 70
   64
  3
                                
 72
   65
 73
    0
 40
0
  0
LTYPE
  2
__29
 70
   64
  3
                                
 72
   65
 73
    0
 40
0
  0
LTYPE
  2
__30
 70
   64
  3
                                
 72
   65
 73
    0
 40
0
  0
LTYPE
  2
__31
 70
   64
  3
                                
 72
   65
 73
    0
 40
0
  0
LTYPE
  2
__32
 70
   64
  3
                                
 72
   65
 73
    0
 40
0
  0
ENDTAB
  0
TABLE
  2
STYLE
  5
3
100
AcDbSymbolTable
 70
     1
  0
STYLE
  5
10
100
AcDbSymbolTableRecord
100
AcDbTextStyleTableRecord
  2
STANDARD
 70
     0
 40
0.0
 41
1.0
 50
0.0
 71
     0
 42
0.2
  3
txt
  4
bigfont.shx
  0
STYLE
  5
26
100
AcDbSymbolTableRecord
100
AcDbTextStyleTableRecord
  2
TATEGAKI
 70
    68
 40
0.0
 41
1.0
 50
0.0
 71
     0
 42
1.0
  3
txt
  4
bigfont.shx
  0
ENDTAB
  0
TABLE
  2
LAYER
 70
    2
  0
LAYER
  2
_0-0_0
 70
   64
 62
    7
  6
CONTINUOUS
  0
LAYER
  2
ADD_LINE
 70
   64
 62
    7
  6
CONTINUOUS
  0
ENDTAB
  0
ENDSEC
  0
SECTION
  2
BLOCKS
  0
ENDSEC
  0
SECTION
  2
ENTITIES
  0
ARC
  8
_0-0_0
  6
CONTINUOUS
 62
    7
 10
246.7896807823
 20
208.69190440919999
 40
1.0620665631705619
 50
1.6977777341
 51
58.305148318400001
  0
LINE
  8
_0-0_0
  6
CONTINUOUS
 62
    7
 10
247.8512811089
 20
205.701797005
 11
247.8512811089
 21
208.72337075999999
  0
LINE
  8
_0-0_0
  6
CONTINUOUS
 62
    7
 10
247.34768545590001
 20
209.5955725833
 11
243.24646625950001
 21
211.96257151579999
  0
LINE
  8
_0-0_0
  6
CONTINUOUS
 62
    7
 10
246.7734618922
 20
204.90650299789999
 11
247.7012404685
 21
205.4419659406
  0
ARC
  8
_0-0_0
  6
CONTINUOUS
 62
    7
 10
247.55127994099999
 20
205.70179647040001
 40
0.300000000000023
 50
299.99118658999993
 51
359.99999999999994
  0
LINE
  8
_0-0_0
  6
CONTINUOUS
 62
    7
 10
241.70816193580001
 20
211.41379344500001
 11
241.69511979110001
 21
211.40907191560001
  0
LINE
  8
_0-0_0
  6
CONTINUOUS
 62
    7
 10
241.69511979110001
 20
211.40907191560001
 11
241.55177934720001
 21
211.271921593
  0
LINE
  8
_0-0_0
  6
CONTINUOUS
 62
    7
 10
241.55177934720001
 20
211.271921593
 11
241.54312409670001
 21
211.25276916440001
  0
LINE
  8
_0-0_0
  6
CONTINUOUS
 62
    7
 10
242.69661419330001
 20
211.9873030473
 11
241.70666374710001
 21
211.4159579089
  0
ARC
  8
_0-0_0
  6
CONTINUOUS
 62
    7
 10
242.9534207737
 20
211.51619624919999
 40
0.5339724106636063
 50
56.715090007200004
 51
118.58963208510001
  0
ARC
  8
_0-0_0
  6
CONTINUOUS
 62
    7
 10
247.55127994099999
 20
201.78191700560001
 40
0.3000000000000114
 50
0
 51
60.008813410000009
  0
LINE
  8
_0-0_0
  6
CONTINUOUS
 62
    7
 10
247.8512811089
 20
199.74031370189999
 11
247.8512811089
 21
201.78191754420001
  0
LINE
  8
_0-0_0
  6
CONTINUOUS
 62
    7
 10
247.70123882210001
 20
202.0417470884
 11
246.77346139829999
 21
202.57720936589999
  0
LINE
  8
_0-0_0
  6
CONTINUOUS
 62
    7
 10
246.7734618922
 20
198.94501988490001
 11
247.7012404685
 21
199.48048282760001
  0
ARC
  8
_0-0_0
  6
CONTINUOUS
 62
    7
 10
247.55127994099999
 20
199.7403131177
 40
0.3000000000000476
 50
299.99118658999993
 51
359.99999999999994
  0
ARC
  8
_0-0_0
  6
CONTINUOUS
 62
    7
 10
163.35106064070001
 20
160.53570612639999
 40
1.0620863433930161
 50
1.6983523804
 51
58.304573672000004
  0
LINE
  8
_0-0_0
  6
CONTINUOUS
 62
    7
 10
164.4126804231
 20
157.54560995579999
 11
164.4126804231
 21
160.56718371080001
  0
LINE
  8
_0-0_0
  6
CONTINUOUS
 62
    7
 10
163.90908477010001
 20
161.43938553410001
 11
159.80786557370001
 21
163.80638446660001
  0
ARC
  8
_0-0_0
  6
CONTINUOUS
 62
    7
 10
163.1227302673
 20
156.97426512440001
 40
0.3000000000000476
 50
240.00881341000002
 51
299.99118658999998
  0
LINE
  8
_0-0_0
  6
CONTINUOUS
 62
    7
 10
160.4271810793
 20
158.1836034367
 11
162.97276544779999
 21
156.7144316625
  0
LINE
  8
_0-0_0
  6
CONTINUOUS
 62
    7
 10
163.27269460490001
 20
156.71443679359999
 11
164.26263978270001
 21
157.2857788913
  0
ARC
  8
_0-0_0
  6
CONTINUOUS
 62
    7
 10
164.11267976100001
 20
157.54560971309999
 40
0.3000000000000476
 50
299.99118658999993
 51
359.99999999999994
  0
ARC
  8
_0-0_0
  6
CONTINUOUS
 62
    7
 10
158.50094502530001
 20
162.82610860130001
 40
0.4896546188989995
 50
118.2278182351
 51
186.46878580680001
  0
LINE
  8
_0-0_0
  6
CONTINUOUS
 62
    7
 10
159.25801350750001
 20
163.83111599809999
 11
158.26806832969999
 21
163.25977390029999
  0
LINE
  8
_0-0_0
  6
CONTINUOUS
 62
    7
 10
158.01440785119999
 20
162.7709431774
 11
158.01440785119999
 21
155.7355401017
  0
LINE
  8
_0-0_0
  6
CONTINUOUS
 62
    7
 10
158.01440785119999
 20
154.60441733740001
 11
158.01440785119999
 21
153.9418376294
  0
ARC
  8
_0-0_0
  6
CONTINUOUS
 62
    7
 10
159.51486080219999
 20
163.3601732436
 40
0.5338129369500956
 50
56.709080175899999
 51
118.5776550702
  0
ARC
  8
_0-0_0
  6
CONTINUOUS
 62
    7
 10
160.20281027749999
 20
157.92604669439999
 40
0.3415812234344279
 50
48.939217609099998
 51
111.55247686949998
  0
ARC
  8
_0-0_0
  6
CONTINUOUS
 62
    7
 10
164.11267976100001
 20
153.62573024829999
 40
0.3000000000000397
 50
0
 51
60.008813410000009
  0
LINE
  8
_0-0_0
  6
CONTINUOUS
 62
    7
 10
164.4126804231
 20
151.58412665270001
 11
164.4126804231
 21
153.625730495
  0
LINE
  8
_0-0_0
  6
CONTINUOUS
 62
    7
 10
164.26263813630001
 20
153.8855600391
 11
161.7170537678
 21
155.35473181329999
  0
ARC
  8
_0-0_0
  6
CONTINUOUS
 62
    7
 10
163.1227302673
 20
151.01278177169999
 40
0.300000000000023
 50
240.00881341000002
 51
299.99118658999998
  0
LINE
  8
_0-0_0
  6
CONTINUOUS
 62
    7
 10
163.27269460490001
 20
150.7529536806
 11
164.26263978270001
 21
151.3242957784
  0
LINE
  8
_0-0_0
  6
CONTINUOUS
 62
    7
 10
158.7919599128
 20
153.16588035460001
 11
162.97276544779999
 21
150.75294854960001
  0
LINE
  8
_0-0_0
  6
CONTINUOUS
 62
    7
 10
160.94785715419999
 20
157.2296180029
 11
160.94785715419999
 21
157.8831039364
  0
ARC
  8
_0-0_0
  6
CONTINUOUS
 62
    7
 10
164.11267976100001
 20
151.58412636040001
 40
0.3000000000000397
 50
299.99118658999993
 51
359.99999999999994
  0
LINE
  8
_0-0_0
  6
CONTINUOUS
 62
    7
 10
161.7170537678
 20
155.35473181329999
 11
161.59092677180001
 21
155.44052692930001
  0
LINE
  8
_0-0_0
  6
CONTINUOUS
 62
    7
 10
161.59092677180001
 20
155.44052692930001
 11
161.40313391500001
 21
155.62508537420001
  0
LINE
  8
_0-0_0
  6
CONTINUOUS
 62
    7
 10
165.0611803164
 20
160.6797000286
 11
246.378461628
 21
207.6115778045
  0
LINE
  8
_0-0_0
  6
CONTINUOUS
 62
    7
 10
240.92884727980001
 20
211.41606722899999
 11
159.61156596820001
 21
164.48418945309999
  0
LINE
  8
_0-0_0
  6
CONTINUOUS
 62
    7
 10
163.32585100049999
 20
154.70531003229999
 11
163.76563467849999
 21
154.810868927
  0
LINE
  8
_0-0_0
  6
CONTINUOUS
 62
    7
 10
163.76563467849999
 20
154.810868927
 11
164.04197394810001
 21
154.9018754768
  0
ARC
  8
_0-0_0
  6
CONTINUOUS
 62
    7
 10
197.33851958220001
 20
333.37933551110001
 40
138.1317798662478
 50
290.97020792019998
 51
292.1441101177
  0
LINE
  8
_0-0_0
  6
CONTINUOUS
 62
    7
 10
248.85527690999999
 20
206.36562519340001
 11
248.1245521168
 21
206.02615952299999
  0
LINE
  8
_0-0_0
  6
CONTINUOUS
 62
    7
 10
248.1245521168
 20
206.02615952299999
 11
247.8512800593
 21
205.9371553277
  0
LINE
  8
_0-0_0
  6
CONTINUOUS
 62
    7
 10
274.11153588190001
 20
220.9421936606
 11
248.8319615122
 21
206.35220890689999
  0
LINE
  8
_0-0_0
  6
CONTINUOUS
 62
    7
 10
249.3718176342
 20
205.41681842419999
 11
274.33308715010003
 21
219.8230950626
  0
LINE
  8
_0-0_0
  6
CONTINUOUS
 62
    7
 10
137.99271457169999
 20
143.19625108229999
 11
157.03627284589999
 21
154.18714914149999
  0
LINE
  8
_0-0_0
  6
CONTINUOUS
 62
    7
 10
156.49641666220001
 20
155.12253966279999
 11
136.91243042299999
 21
143.81973620310001
  0
LINE
  8
_0-0_0
  6
CONTINUOUS
 62
    7
 10
161.40052220979999
 20
157.62184828380001
 11
160.97991526550001
 21
157.25116755280001
  0
LINE
  8
_0-0_0
  6
CONTINUOUS
 62
    7
 10
160.97991526550001
 20
157.25116755280001
 11
160.14470647970001
 21
156.6897332769
  0
LINE
  8
_0-0_0
  6
CONTINUOUS
 62
    7
 10
160.14470647970001
 20
156.6897332769
 11
159.1114256159
 21
156.15828084649999
  0
LINE
  8
_0-0_0
  6
CONTINUOUS
 62
    7
 10
159.1114256159
 20
156.15828084649999
 11
158.17315412069999
 21
155.78817177779999
  0
LINE
  8
_0-0_0
  6
CONTINUOUS
 62
    7
 10
158.17315412069999
 20
155.78817177779999
 11
157.3357252168
 21
155.510515336
  0
LINE
  8
_0-0_0
  6
CONTINUOUS
 62
    7
 10
157.3357252168
 20
155.510515336
 11
156.46247774779999
 21
155.10290783030001
  0
LINE
  8
_0-0_0
  6
CONTINUOUS
 62
    7
 10
157.01314492739999
 20
154.1738451258
 11
157.74514381910001
 21
154.5154449572
  0
LINE
  8
_0-0_0
  6
CONTINUOUS
 62
    7
 10
157.74514381910001
 20
154.5154449572
 11
158.56004613799999
 21
154.7847067184
  0
LINE
  8
_0-0_0
  6
CONTINUOUS
 62
    7
 10
158.56004613799999
 20
154.7847067184
 11
159.15162045619999
 21
155.01757156939999
  0
LINE
  8
_0-0_0
  6
CONTINUOUS
 62
    7
 10
158.15059716030001
 20
154.02043880549999
 11
138.1501368376
 21
142.4772693317
  0
LINE
  8
_0-0_0
  6
CONTINUOUS
 62
    7
 10
138.150133977
 20
141.2303018339
 11
158.6904532824
 21
153.08504832279999
  0
LINE
  8
_0-0_0
  6
CONTINUOUS
 62
    7
 10
158.65790873309999
 20
153.06628623879999
 11
159.4709139293
 21
153.67030649290001
  0
LINE
  8
_0-0_0
  6
CONTINUOUS
 62
    7
 10
159.4709139293
 20
153.67030649290001
 11
160.10118085510001
 21
154.4495278787
  0
LINE
  8
_0-0_0
  6
CONTINUOUS
 62
    7
 10
159.18359624940001
 20
155.01906768449999
 11
158.7104920097
 21
154.43697844970001
  0
LINE
  8
_0-0_0
  6
CONTINUOUS
 62
    7
 10
158.7104920097
 20
154.43697844970001
 11
158.12509498310001
 21
154.00569945300001
  0
ARC
  8
_0-0_0
  6
CONTINUOUS
 62
    7
 10
167.3851376355
 20
148.03905434410001
 40
9.6905945315564743
 50
116.74583558889999
 51
139.33100848509997
  0
ARC
  8
_0-0_0
  6
CONTINUOUS
 62
    7
 10
166.73735910580001
 20
148.7623771248
 40
9.8070253947218156
 50
119.3183405278
 51
140.545080289
  0
LINE
  8
_0-0_0
  6
CONTINUOUS
 62
    7
 10
247.85128061500001
 20
206.6352703586
 11
272.54686034920002
 21
220.8882054174
  0
LINE
  8
_0-0_0
  6
CONTINUOUS
 62
    7
 10
272.29568241890001
 20
221.99020520709999
 11
247.85128077959999
 21
207.8822363777
  0
LINE
  8
_0-0_0
  6
CONTINUOUS
 62
    7
 10
126.1025001973
 20
129.55888783220001
 11
131.54723028550001
 21
132.70128761359999
  0
LINE
  8
_0-0_0
  6
CONTINUOUS
 62
    7
 10
126.014720001
 20
141.87573999809999
 11
120.5699899129
 21
138.7333402166
  0
ARC
  8
_0-0_0
  6
CONTINUOUS
 62
    7
 10
131.39726643309999
 20
138.59594281540001
 40
0.3000000000000114
 50
0
 51
60.008813410000009
  0
LINE
  8
_0-0_0
  6
CONTINUOUS
 62
    7
 10
131.6972709259
 20
132.96111848789999
 11
131.6972709259
 21
138.59594534359999
  0
LINE
  8
_0-0_0
  6
CONTINUOUS
 62
    7
 10
131.54722880369999
 20
138.8557747927
 11
126.31463862139999
 21
141.8757390479
  0
ARC
  8
_0-0_0
  6
CONTINUOUS
 62
    7
 10
131.39726643309999
 20
132.9611160847
 40
0.3000000000000114
 50
299.99118658999993
 51
359.99999999999994
  0
ARC
  8
_0-0_0
  6
CONTINUOUS
 62
    7
 10
126.1646762523
 20
141.61590706960001
 40
0.3000000000000334
 50
60.008813410000009
 51
119.99118659
  0
LINE
  8
_0-0_0
  6
CONTINUOUS
 62
    7
 10
131.6972617063
 20
134.62477719649999
 11
138.0879672726
 21
138.31314217510001
  0
LINE
  8
_0-0_0
  6
CONTINUOUS
 62
    7
 10
133.6161156874
 20
144.01762844140001
 11
128.10978798010001
 21
140.8396778904
  0
LINE
  8
_0-0_0
  6
CONTINUOUS
 62
    7
 10
125.8903762612
 20
132.29274936409999
 11
126.1112362841
 21
132.42021766400001
  0
LINE
  8
_0-0_0
  6
CONTINUOUS
 62
    7
 10
164.3369678903
 20
161.04987209320001
 11
164.2912596331
 21
161.02349179239999
  0
LINE
  8
_0-0_0
  6
CONTINUOUS
 62
    7
 10
164.70763147759999
 20
152.8808845259
 11
246.73201573509999
 21
200.2208633658
  0
LINE
  8
_0-0_0
  6
CONTINUOUS
 62
    7
 10
164.6869074112
 20
151.1201374465
 11
246.7112916687
 21
198.46011628650001
  0
ARC
  8
_0-0_0
  6
CONTINUOUS
 62
    7
 10
245.54541735890001
 20
207.973779597
 40
1.2293124333006431
 50
2.6023045277999999
 51
57.397701851699999
  0
LINE
  8
_0-0_0
  6
CONTINUOUS
 62
    7
 10
246.20777652269999
 20
209.0093902365
 11
247.19772696890001
 21
209.5807353749
  0
ARC
  8
_0-0_0
  6
CONTINUOUS
 62
    7
 10
246.53536780499999
 20
208.54512473529999
 40
1.2293124333005561
 50
2.6023045277999999
 51
57.397701851699999
  0
LINE
  8
_0-0_0
  6
CONTINUOUS
 62
    7
 10
246.77346205680001
 20
208.02959427619999
 11
247.76341250300001
 21
208.60093941459999
  0
LINE
  8
_0-0_0
  6
CONTINUOUS
 62
    7
 10
246.20777652269999
 20
209.0093902365
 11
242.10655732629999
 21
211.37638916899999
  0
LINE
  8
_0-0_0
  6
CONTINUOUS
 62
    7
 10
247.76341250300001
 20
208.60093941459999
 11
247.76341250300001
 21
205.5793656596
  0
LINE
  8
_0-0_0
  6
CONTINUOUS
 62
    7
 10
246.77346205680001
 20
205.0080205212
 11
247.76341250300001
 21
205.5793656596
  0
LINE
  8
_0-0_0
  6
CONTINUOUS
 62
    7
 10
242.10655732629999
 20
211.37638916899999
 11
243.09650777249999
 21
211.9477343074
  0
LINE
  8
_0-0_0
  6
CONTINUOUS
 62
    7
 10
243.09650777249999
 20
211.9477343074
 11
247.19772696890001
 21
209.5807353749
  0
ARC
  8
_0-0_0
  6
CONTINUOUS
 62
    7
 10
247.30289557969999
 20
201.63855564490001
 40
0.4609923261786327
 50
2.6023097221999993
 51
57.397704681500009
  0
LINE
  8
_0-0_0
  6
CONTINUOUS
 62
    7
 10
246.77346205680001
 20
201.08814106040001
 11
247.76341250300001
 21
201.65948619880001
  0
LINE
  8
_0-0_0
  6
CONTINUOUS
 62
    7
 10
247.76341250300001
 20
201.65948619880001
 11
247.76341250300001
 21
199.61788235649999
  0
LINE
  8
_0-0_0
  6
CONTINUOUS
 62
    7
 10
246.77346205680001
 20
199.04653721810001
 11
247.76341250300001
 21
199.61788235649999
  0
ARC
  8
_0-0_0
  6
CONTINUOUS
 62
    7
 10
162.14307102000001
 20
159.83852421750001
 40
0.7683201554617388
 50
2.6022959700000001
 51
57.397697891499995
  0
ARC
  8
_0-0_0
  6
CONTINUOUS
 62
    7
 10
163.0175475648
 20
160.46485842609999
 40
0.4609771289302899
 50
122.60080406270001
 51
177.39862946529999
  0
ARC
  8
_0-0_0
  6
CONTINUOUS
 62
    7
 10
162.1068219414
 20
159.81759558830001
 40
1.229312433300543
 50
2.6023045277999999
 51
57.397701851699999
  0
ARC
  8
_0-0_0
  6
CONTINUOUS
 62
    7
 10
163.1227308169
 20
160.28291704040001
 40
0.4611912880260832
 50
242.61513419680003
 51
297.38540474529998
  0
LINE
  8
_0-0_0
  6
CONTINUOUS
 62
    7
 10
163.75912628309999
 20
161.42454832569999
 11
162.76918110529999
 21
160.85320622789999
  0
ARC
  8
_0-0_0
  6
CONTINUOUS
 62
    7
 10
163.09676711930001
 20
160.38893768610001
 40
1.229312433300267
 50
2.6023045276999999
 51
57.397701851699999
  0
LINE
  8
_0-0_0
  6
CONTINUOUS
 62
    7
 10
164.32481181719999
 20
160.44475236540001
 11
163.33486663939999
 21
159.87341026760001
  0
LINE
  8
_0-0_0
  6
CONTINUOUS
 62
    7
 10
162.55704548
 20
160.48578074150001
 11
158.4558262836
 21
162.852779674
  0
LINE
  8
_0-0_0
  6
CONTINUOUS
 62
    7
 10
162.9105988462
 20
156.85183451719999
 11
162.9105988462
 21
159.87340827220001
  0
LINE
  8
_0-0_0
  6
CONTINUOUS
 62
    7
 10
160.36501447769999
 20
158.32100629129999
 11
162.9105988462
 21
156.85183451719999
  0
ARC
  8
_0-0_0
  6
CONTINUOUS
 62
    7
 10
160.00625394119999
 20
157.88088781339999
 40
0.5678145799450981
 50
50.814961718500008
 51
189.22027783760004
  0
LINE
  8
_0-0_0
  6
CONTINUOUS
 62
    7
 10
162.9105988462
 20
152.9319550564
 11
160.36501447769999
 21
154.4011268305
  0
LINE
  8
_0-0_0
  6
CONTINUOUS
 62
    7
 10
162.9105988462
 20
150.89035121410001
 11
162.9105988462
 21
152.9319550564
  0
ARC
  8
_0-0_0
  6
CONTINUOUS
 62
    7
 10
158.3178415287
 20
162.6835031183
 40
0.2183903498190787
 50
50.815011455200008
 51
189.22022810089999
  0
LINE
  8
_0-0_0
  6
CONTINUOUS
 62
    7
 10
163.33486663939999
 20
159.87341026760001
 11
163.33486663939999
 21
156.85183651259999
  0
ARC
  8
_0-0_0
  6
CONTINUOUS
 62
    7
 10
163.1227308169
 20
157.26134328539999
 40
0.4611912880259572
 50
242.61513419680003
 51
297.38540474529998
  0
ARC
  8
_0-0_0
  6
CONTINUOUS
 62
    7
 10
158.9163283684
 20
162.83185735859999
 40
0.4609771289301143
 50
122.60080406270001
 51
177.39862946529999
  0
LINE
  8
_0-0_0
  6
CONTINUOUS
 62
    7
 10
158.6679619089
 20
163.22020516040001
 11
162.76918110529999
 21
160.85320622789999
  0
LINE
  8
_0-0_0
  6
CONTINUOUS
 62
    7
 10
164.32481181719999
 20
157.42317861039999
 11
164.32481181719999
 21
160.44475236540001
  0
LINE
  8
_0-0_0
  6
CONTINUOUS
 62
    7
 10
164.32481181719999
 20
157.42317861039999
 11
163.33486663939999
 21
156.85183651259999
  0
LINE
  8
_0-0_0
  6
CONTINUOUS
 62
    7
 10
159.65790708669999
 20
163.7915472581
 11
158.6679619089
 21
163.22020516040001
  0
LINE
  8
_0-0_0
  6
CONTINUOUS
 62
    7
 10
163.75912628309999
 20
161.42454832569999
 11
159.65790708669999
 21
163.7915472581
  0
ARC
  8
_0-0_0
  6
CONTINUOUS
 62
    7
 10
159.6579075386
 20
158.1994154873
 40
0.461191334548599
 50
242.61516154029999
 51
297.38540306589999
  0
ARC
  8
_0-0_0
  6
CONTINUOUS
 62
    7
 10
163.1227308169
 20
153.34146382450001
 40
0.4611912880256632
 50
242.61513419680003
 51
297.38540474529998
  0
ARC
  8
_0-0_0
  6
CONTINUOUS
 62
    7
 10
163.37110123619999
 20
152.91103266530001
 40
0.460977437169629
 50
122.60082457700001
 51
177.39862178990001
  0
ARC
  8
_0-0_0
  6
CONTINUOUS
 62
    7
 10
162.8743497161
 20
152.9110264979
 40
0.4609923261786341
 50
2.6023097221999993
 51
57.397704681500009
  0
LINE
  8
_0-0_0
  6
CONTINUOUS
 62
    7
 10
163.33486663939999
 20
152.9319570518
 11
163.33486663939999
 21
150.89035320950001
  0
ARC
  8
_0-0_0
  6
CONTINUOUS
 62
    7
 10
163.1227308169
 20
151.29985998230001
 40
0.4611912880260417
 50
242.61513419680003
 51
297.38540474529998
  0
LINE
  8
_0-0_0
  6
CONTINUOUS
 62
    7
 10
164.11267964929999
 20
153.8707227356
 11
163.1227344715
 21
153.29938063789999
  0
ARC
  8
_0-0_0
  6
CONTINUOUS
 62
    7
 10
163.8642948939
 20
153.48236859560001
 40
0.4609923261785463
 50
2.6023097221999993
 51
57.397704681500009
  0
LINE
  8
_0-0_0
  6
CONTINUOUS
 62
    7
 10
164.32481181719999
 20
153.5032991496
 11
163.33486663939999
 21
152.9319570518
  0
LINE
  8
_0-0_0
  6
CONTINUOUS
 62
    7
 10
160.57715010300001
 20
154.76855241199999
 11
163.1227344715
 21
153.29938063789999
  0
ARC
  8
_0-0_0
  6
CONTINUOUS
 62
    7
 10
160.82551686759999
 20
154.38020443939999
 40
0.4609774371695439
 50
122.60082457700001
 51
177.39862178990001
  0
LINE
  8
_0-0_0
  6
CONTINUOUS
 62
    7
 10
164.32481181719999
 20
151.4616953073
 11
164.32481181719999
 21
153.5032991496
  0
LINE
  8
_0-0_0
  6
CONTINUOUS
 62
    7
 10
164.32481181719999
 20
151.4616953073
 11
163.33486663939999
 21
150.89035320950001
  0
LINE
  8
_0-0_0
  6
CONTINUOUS
 62
    7
 10
161.5670952808
 20
155.33989450979999
 11
160.57715010300001
 21
154.76855241199999
  0
LINE
  8
_0-0_0
  6
CONTINUOUS
 62
    7
 10
164.11267964929999
 20
153.8707227356
 11
161.5670952808
 21
155.33989450979999
  0
LINE
  8
_0-0_0
  6
CONTINUOUS
 62
    7
 10
165.10262828450001
 20
160.771299873
 11
165.10262828450001
 21
160.85296388980001
  0
ARC
  8
_0-0_0
  6
CONTINUOUS
 62
    7
 10
165.01640087300001
 20
160.75730263610001
 40
0.0873561052724847
 50
230.81488136339999
 51
9.2203581926999885
  0
LINE
  8
_0-0_0
  6
CONTINUOUS
 62
    7
 10
164.3248107471
 20
161.05688510959999
 11
164.9612068392
 21
160.68959216600001
  0
ARC
  8
_0-0_0
  6
CONTINUOUS
 62
    7
 10
159.7450837312
 20
164.0488377003
 40
0.2995794448445079
 50
182.43188291249999
 51
213.21343538420001
  0
LINE
  8
_0-0_0
  6
CONTINUOUS
 62
    7
 10
159.4457740956
 20
164.11779007569999
 11
159.4457740956
 21
164.03612605890001
  0
ARC
  8
_0-0_0
  6
CONTINUOUS
 62
    7
 10
159.79068376559999
 20
164.17377860120001
 40
0.3494243773189836
 50
50.814950274899999
 51
189.22028928119997
  0
LINE
  8
_0-0_0
  6
CONTINUOUS
 62
    7
 10
164.53694283269999
 20
161.83275980249999
 11
160.01145954739999
 21
164.44462071320001
  0
ARC
  8
_0-0_0
  6
CONTINUOUS
 62
    7
 10
163.8745835636
 20
160.79714920270001
 40
1.229312456583342
 50
2.6023048432000002
 51
57.397696721699994
  0
LINE
  8
_0-0_0
  6
CONTINUOUS
 62
    7
 10
245.85422414429999
 20
208.7646375784
 11
164.53694283269999
 21
161.83275980249999
  0
ARC
  8
_0-0_0
  6
CONTINUOUS
 62
    7
 10
245.1918648752
 20
207.72902697859999
 40
1.229312456583489
 50
2.6023048432000002
 51
57.397696721699994
  0
LINE
  8
_0-0_0
  6
CONTINUOUS
 62
    7
 10
246.41990959610001
 20
207.78484166569999
 11
165.10262828450001
 21
160.85296388980001
  0
LINE
  8
_0-0_0
  6
CONTINUOUS
 62
    7
 10
246.41990959610001
 20
207.70317764890001
 11
246.41990959610001
 21
207.78484166569999
  0
LINE
  8
_0-0_0
  6
CONTINUOUS
 62
    7
 10
246.41990959610001
 20
207.70317764890001
 11
165.10262828450001
 21
160.771299873
  0
LINE
  8
_0-0_0
  6
CONTINUOUS
 62
    7
 10
241.32874085899999
 20
211.37649848909999
 11
160.01145954739999
 21
164.44462071320001
  0
LINE
  8
_0-0_0
  6
CONTINUOUS
 62
    7
 10
245.85422414429999
 20
208.7646375784
 11
241.32874085899999
 21
211.37649848909999
  0
ARC
  8
_0-0_0
  6
CONTINUOUS
 62
    7
 10
246.32162585270001
 20
207.69247270369999
 40
0.0988650092946052
 50
305.09141217209998
 51
6.2160824526999621
  0
ARC
  8
_0-0_0
  6
CONTINUOUS
 62
    7
 10
241.0944686899
 20
211.04938025620001
 40
0.4023553000630252
 50
54.390908883900003
 51
114.3072541106
  0
LINE
  8
_0-0_0
  6
CONTINUOUS
 62
    7
 10
162.91030805770001
 20
154.92375822490001
 11
161.6010253872
 21
155.67139109990001
  0
LINE
  8
_0-0_0
  6
CONTINUOUS
 62
    7
 10
161.6010253872
 20
155.67139109990001
 11
161.52188101429999
 21
155.71667083770001
  0
LINE
  8
_0-0_0
  6
CONTINUOUS
 62
    7
 10
163.5742680653
 20
156.88848864959999
 11
163.7010921307
 21
156.66401241049999
  0
LINE
  8
_0-0_0
  6
CONTINUOUS
 62
    7
 10
163.7010921307
 20
156.66401241049999
 11
163.78283643730001
 21
156.41199790019999
  0
LINE
  8
_0-0_0
  6
CONTINUOUS
 62
    7
 10
163.78283643730001
 20
156.41199790019999
 11
163.8040253538
 21
155.9788570769
  0
LINE
  8
_0-0_0
  6
CONTINUOUS
 62
    7
 10
163.8040253538
 20
155.9788570769
 11
163.80563574199999
 21
155.55089996140001
  0
LINE
  8
_0-0_0
  6
CONTINUOUS
 62
    7
 10
163.80563574199999
 20
155.55089996140001
 11
163.80591084900001
 21
155.338738068
  0
LINE
  8
_0-0_0
  6
CONTINUOUS
 62
    7
 10
163.80591084900001
 20
155.338738068
 11
163.80553004559999
 21
155.2859584046
  0
LINE
  8
_0-0_0
  6
CONTINUOUS
 62
    7
 10
163.80553004559999
 20
155.2859584046
 11
163.8051820872
 21
155.25966181140001
  0
LINE
  8
_0-0_0
  6
CONTINUOUS
 62
    7
 10
163.8051820872
 20
155.25966181140001
 11
163.8003460656
 21
155.13027607910001
  0
LINE
  8
_0-0_0
  6
CONTINUOUS
 62
    7
 10
163.8003460656
 20
155.13027607910001
 11
163.73716942140001
 21
154.90829843660001
  0
LINE
  8
_0-0_0
  6
CONTINUOUS
 62
    7
 10
163.73716942140001
 20
154.90829843660001
 11
163.60349978580001
 21
154.76553509799999
  0
LINE
  8
_0-0_0
  6
CONTINUOUS
 62
    7
 10
163.60349978580001
 20
154.76553509799999
 11
163.47742934230001
 21
154.72196937379999
  0
LINE
  8
_0-0_0
  6
CONTINUOUS
 62
    7
 10
163.47742934230001
 20
154.72196937379999
 11
163.2572167921
 21
154.74513743029999
  0
LINE
  8
_0-0_0
  6
CONTINUOUS
 62
    7
 10
163.2572167921
 20
154.74513743029999
 11
162.91030805770001
 21
154.92375822490001
  0
LINE
  8
_0-0_0
  6
CONTINUOUS
 62
    7
 10
163.41731398339999
 20
156.44495958460001
 11
163.41717964040001
 21
155.45612890710001
  0
ARC
  8
_0-0_0
  6
CONTINUOUS
 62
    7
 10
162.9507077582
 20
156.42243614309999
 40
0.4671495208803653
 50
2.7635662698000001
 51
48.842199751599999
  0
LINE
  8
_0-0_0
  6
CONTINUOUS
 62
    7
 10
163.06616523069999
 20
155.25040361009999
 11
163.06615675200001
 21
155.25040850350001
  0
LINE
  8
_0-0_0
  6
CONTINUOUS
 62
    7
 10
163.06615675200001
 20
155.25040850350001
 11
163.066139671
 21
155.2504183618
  0
LINE
  8
_0-0_0
  6
CONTINUOUS
 62
    7
 10
163.066139671
 20
155.2504183618
 11
163.06607964049999
 21
155.250452913
  0
LINE
  8
_0-0_0
  6
CONTINUOUS
 62
    7
 10
163.06607964049999
 20
155.250452913
 11
163.06585622930001
 21
155.25058175859999
  0
LINE
  8
_0-0_0
  6
CONTINUOUS
 62
    7
 10
163.06585622930001
 20
155.25058175859999
 11
163.0649958409
 21
155.2510781375
  0
LINE
  8
_0-0_0
  6
CONTINUOUS
 62
    7
 10
163.0649958409
 20
155.2510781375
 11
163.0616209444
 21
155.25302546750001
  0
LINE
  8
_0-0_0
  6
CONTINUOUS
 62
    7
 10
163.0616209444
 20
155.25302546750001
 11
163.04825463110001
 21
155.2607390103
  0
LINE
  8
_0-0_0
  6
CONTINUOUS
 62
    7
 10
163.04825463110001
 20
155.2607390103
 11
162.9950559035
 21
155.29144097400001
  0
LINE
  8
_0-0_0
  6
CONTINUOUS
 62
    7
 10
162.9950559035
 20
155.29144097400001
 11
162.782794064
 21
155.41394468710001
  0
LINE
  8
_0-0_0
  6
CONTINUOUS
 62
    7
 10
162.782794064
 20
155.41394468710001
 11
161.93481278690001
 21
155.9033511961
  0
LINE
  8
_0-0_0
  6
CONTINUOUS
 62
    7
 10
161.93481278690001
 20
155.9033511961
 11
161.83706733049999
 21
155.95976470630001
  0
ARC
  8
_0-0_0
  6
CONTINUOUS
 62
    7
 10
163.20157785839999
 20
155.42167677750001
 40
0.2183370733894382
 50
231.66926744240001
 51
9.0788352184000072
  0
LINE
  8
_0-0_0
  6
CONTINUOUS
 62
    7
 10
279.9921684748
 20
221.32846133629999
 11
279.88256691240002
 21
221.3917173509
  0
LINE
  8
_0-0_0
  6
CONTINUOUS
 62
    7
 10
279.88256691240002
 20
221.3917173509
 11
279.6416054769
 21
221.25264761739999
  0
LINE
  8
_0-0_0
  6
CONTINUOUS
 62
    7
 10
279.6416054769
 20
221.25264761739999
 11
279.4648287526
 21
221.3546734535
  0
LINE
  8
_0-0_0
  6
CONTINUOUS
 62
    7
 10
279.4648287526
 20
221.3546734535
 11
279.07677547439999
 21
221.1307103705
  0
LINE
  8
_0-0_0
  6
CONTINUOUS
 62
    7
 10
279.07677547439999
 20
221.1307103705
 11
278.8999987501
 21
221.23273620660001
  0
LINE
  8
_0-0_0
  6
CONTINUOUS
 62
    7
 10
278.8999987501
 20
221.23273620660001
 11
278.5117176155
 21
221.0086416174
  0
LINE
  8
_0-0_0
  6
CONTINUOUS
 62
    7
 10
278.5117176155
 20
221.0086416174
 11
278.33494089120001
 21
221.11066745350001
  0
LINE
  8
_0-0_0
  6
CONTINUOUS
 62
    7
 10
278.33494089120001
 20
221.11066745350001
 11
277.94666041509998
 21
220.88657324440001
  0
LINE
  8
_0-0_0
  6
CONTINUOUS
 62
    7
 10
277.94666041509998
 20
220.88657324440001
 11
277.76988369089997
 21
220.98859908049999
  0
LINE
  8
_0-0_0
  6
CONTINUOUS
 62
    7
 10
277.76988369089997
 20
220.98859908049999
 11
277.38160321480001
 21
220.76450487130001
  0
LINE
  8
_0-0_0
  6
CONTINUOUS
 62
    7
 10
277.38160321480001
 20
220.76450487130001
 11
277.20482665510002
 21
220.8665306124
  0
LINE
  8
_0-0_0
  6
CONTINUOUS
 62
    7
 10
277.20482665510002
 20
220.8665306124
 11
277.02867785310002
 21
220.76486717860001
  0
LINE
  8
_0-0_0
  6
CONTINUOUS
 62
    7
 10
277.02867785310002
 20
220.76486717860001
 11
276.69619190190002
 21
220.69304045480001
  0
LINE
  8
_0-0_0
  6
CONTINUOUS
 62
    7
 10
276.69619190190002
 20
220.69304045480001
 11
278.71878755180001
 21
221.86037180549999
  0
ARC
  8
_0-0_0
  6
CONTINUOUS
 62
    7
 10
278.34751623369999
 20
222.73448579719999
 40
0.9496934568584812
 50
293.01288086450006
 51
2.9756473392000315
  0
LINE
  8
_0-0_0
  6
CONTINUOUS
 62
    7
 10
279.29592920850001
 20
222.78378580899999
 11
279.20117947099999
 21
223.37001908639999
  0
LINE
  8
_0-0_0
  6
CONTINUOUS
 62
    7
 10
278.69034460289998
 20
223.47636918730001
 11
278.75799111790002
 21
223.5056778771
  0
LINE
  8
_0-0_0
  6
CONTINUOUS
 62
    7
 10
278.75799111790002
 20
223.5056778771
 11
278.83712421320001
 21
223.5229235788
  0
LINE
  8
_0-0_0
  6
CONTINUOUS
 62
    7
 10
278.83712421320001
 20
223.5229235788
 11
278.9214523192
 21
223.5267348838
  0
LINE
  8
_0-0_0
  6
CONTINUOUS
 62
    7
 10
278.9214523192
 20
223.5267348838
 11
279.00427252290001
 21
223.5168093945
  0
LINE
  8
_0-0_0
  6
CONTINUOUS
 62
    7
 10
279.00427252290001
 20
223.5168093945
 11
279.07899937920001
 21
223.4939353879
  0
LINE
  8
_0-0_0
  6
CONTINUOUS
 62
    7
 10
279.07899937920001
 20
223.4939353879
 11
279.13969363989997
 21
223.459932192
  0
LINE
  8
_0-0_0
  6
CONTINUOUS
 62
    7
 10
279.13969363989997
 20
223.459932192
 11
279.18152899680001
 21
223.4175024306
  0
LINE
  8
_0-0_0
  6
CONTINUOUS
 62
    7
 10
279.18152899680001
 20
223.4175024306
 11
279.20117947099999
 21
223.37001908639999
  0
LINE
  8
_0-0_0
  6
CONTINUOUS
 62
    7
 10
278.69034460289998
 20
223.47636918730001
 11
279.87817318570001
 21
224.1619187405
  0
LINE
  8
_0-0_0
  6
CONTINUOUS
 62
    7
 10
279.87817318570001
 20
224.1619187405
 11
280.30678021099999
 21
221.51003798650001
  0
LINE
  8
_0-0_0
  6
CONTINUOUS
 62
    7
 10
280.30678021099999
 20
221.51003798650001
 11
279.9921684748
 21
221.32846133629999
  0
LINE
  8
_0-0_0
  6
CONTINUOUS
 62
    7
 10
274.57448423340003
 20
216.24190280709999
 11
275.28158981339999
 21
216.65000539139999
  0
LINE
  8
_0-0_0
  6
CONTINUOUS
 62
    7
 10
274.57448423340003
 20
216.24190280709999
 11
274.57448423340003
 21
222.2850505072
  0
LINE
  8
_0-0_0
  6
CONTINUOUS
 62
    7
 10
274.57448423340003
 20
222.2850505072
 11
275.28197835460003
 21
222.69337733629999
  0
LINE
  8
_0-0_0
  6
CONTINUOUS
 62
    7
 10
275.28197835460003
 20
221.87673564729999
 11
275.28197835460003
 21
222.69337733629999
  0
LINE
  8
_0-0_0
  6
CONTINUOUS
 62
    7
 10
275.28197835460003
 20
221.87673564729999
 11
282.84841010209999
 21
226.24366533599999
  0
LINE
  8
_0-0_0
  6
CONTINUOUS
 62
    7
 10
282.84841010209999
 20
221.8338010139
 11
282.84841010209999
 21
226.24366533599999
  0
LINE
  8
_0-0_0
  6
CONTINUOUS
 62
    7
 10
282.84841010209999
 20
221.8338010139
 11
280.30678029329999
 21
220.36691159489999
  0
LINE
  8
_0-0_0
  6
CONTINUOUS
 62
    7
 10
276.6961928074
 20
218.2830783942
 11
275.28158981339999
 21
217.46664708040001
  0
LINE
  8
_0-0_0
  6
CONTINUOUS
 62
    7
 10
275.28158981339999
 20
217.46664708040001
 11
275.28158981339999
 21
216.65000539139999
  0
LINE
  8
_0-0_0
  6
CONTINUOUS
 62
    7
 10
270.68539687560002
 20
224.52961856939999
 11
274.57448423340003
 21
222.2850505072
  0
LINE
  8
_0-0_0
  6
CONTINUOUS
 62
    7
 10
271.39289099690001
 20
224.93794539850001
 11
270.68539687560002
 21
224.52961856939999
  0
LINE
  8
_0-0_0
  6
CONTINUOUS
 62
    7
 10
271.39289099690001
 20
224.93794539850001
 11
275.28197835460003
 21
222.69337733629999
  0
LINE
  8
_0-0_0
  6
CONTINUOUS
 62
    7
 10
272.99382516700001
 20
219.05014645270001
 11
273.203194967
 21
218.9293096797
  0
LINE
  8
_0-0_0
  6
CONTINUOUS
 62
    7
 10
273.203194967
 20
218.9293096797
 11
273.203194967
 21
218.45915490869999
  0
LINE
  8
_0-0_0
  6
CONTINUOUS
 62
    7
 10
273.203194967
 20
218.45915490869999
 11
273.84291356030002
 21
218.0899443996
  0
LINE
  8
_0-0_0
  6
CONTINUOUS
 62
    7
 10
273.84291356030002
 20
218.0899443996
 11
273.84291356030002
 21
218.56009917060001
  0
LINE
  8
_0-0_0
  6
CONTINUOUS
 62
    7
 10
273.84291356030002
 20
218.56009917060001
 11
274.33308758229998
 21
218.2771975915
  0
LINE
  8
_0-0_0
  6
CONTINUOUS
 62
    7
 10
274.33308758229998
 20
218.2771975915
 11
274.33308758229998
 21
220.81432676060001
  0
LINE
  8
_0-0_0
  6
CONTINUOUS
 62
    7
 10
274.33308758229998
 20
220.81432676060001
 11
272.71302092439998
 21
221.74934043970001
  0
LINE
  8
_0-0_0
  6
CONTINUOUS
 62
    7
 10
272.71302092439998
 20
221.74934043970001
 11
272.71302092439998
 21
220.1350474974
  0
LINE
  8
_0-0_0
  6
CONTINUOUS
 62
    7
 10
271.41696771340003
 20
219.49006737650001
 11
271.5062266713
 21
219.43855199820001
  0
LINE
  8
_0-0_0
  6
CONTINUOUS
 62
    7
 10
272.54686026690001
 20
220.0391486538
 11
272.54686026690001
 21
221.84523926400001
  0
LINE
  8
_0-0_0
  6
CONTINUOUS
 62
    7
 10
272.54686026690001
 20
221.84523926400001
 11
270.92679360900001
 21
222.7802529432
  0
LINE
  8
_0-0_0
  6
CONTINUOUS
 62
    7
 10
270.92679360900001
 20
222.7802529432
 11
270.92679360900001
 21
221.2001576255
  0
LINE
  8
_0-0_0
  6
CONTINUOUS
 62
    7
 10
271.17797137470001
 20
220.09815773470001
 11
271.41696771340003
 21
219.9602221474
  0
LINE
  8
_0-0_0
  6
CONTINUOUS
 62
    7
 10
271.41696771340003
 20
219.9602221474
 11
271.41696771340003
 21
219.49006737650001
  0
LINE
  8
_0-0_0
  6
CONTINUOUS
 62
    7
 10
273.69060077670002
 20
217.56867358170001
 11
272.05876395280001
 21
218.51048035549999
  0
LINE
  8
_0-0_0
  6
CONTINUOUS
 62
    7
 10
271.56928049700002
 20
218.22797720189999
 11
271.56928049700002
 21
217.9763416886
  0
LINE
  8
_0-0_0
  6
CONTINUOUS
 62
    7
 10
271.35128020360003
 20
218.1021595094
 11
271.56928049700002
 21
217.9763416886
  0
LINE
  8
_0-0_0
  6
CONTINUOUS
 62
    7
 10
270.68539687560002
 20
218.96481407900001
 11
270.68539687560002
 21
219.81387088540001
  0
LINE
  8
_0-0_0
  6
CONTINUOUS
 62
    7
 10
270.68539687560002
 20
221.06083670500001
 11
270.68539687560002
 21
224.52961856939999
  0
LINE
  8
_0-0_0
  6
CONTINUOUS
 62
    7
 10
273.69060077670002
 20
216.75203189269999
 11
274.57448423340003
 21
216.24190280709999
  0
LINE
  8
_0-0_0
  6
CONTINUOUS
 62
    7
 10
273.69060077670002
 20
217.56867358170001
 11
273.69060077670002
 21
216.75203189269999
  0
LINE
  8
_0-0_0
  6
CONTINUOUS
 62
    7
 10
277.02867785310002
 20
217.0899801484
 11
277.02867785310002
 21
220.76486717860001
  0
LINE
  8
_0-0_0
  6
CONTINUOUS
 62
    7
 10
277.02867785310002
 20
217.0899801484
 11
276.69619190190002
 21
217.0181534246
  0
LINE
  8
_0-0_0
  6
CONTINUOUS
 62
    7
 10
276.69619190190002
 20
217.0181534246
 11
276.69619190190002
 21
220.69304045480001
  0
LINE
  8
_0-0_0
  6
CONTINUOUS
 62
    7
 10
277.38160321480001
 20
217.08961784120001
 11
277.38160321480001
 21
220.76450487130001
  0
LINE
  8
_0-0_0
  6
CONTINUOUS
 62
    7
 10
277.38160321480001
 20
217.08961784120001
 11
277.20482665510002
 21
217.1916435823
  0
LINE
  8
_0-0_0
  6
CONTINUOUS
 62
    7
 10
277.20482665510002
 20
217.1916435823
 11
277.20482665510002
 21
220.8665306124
  0
LINE
  8
_0-0_0
  6
CONTINUOUS
 62
    7
 10
277.76988369089997
 20
217.31371205030001
 11
277.76988369089997
 21
220.98859908049999
  0
LINE
  8
_0-0_0
  6
CONTINUOUS
 62
    7
 10
277.76988369089997
 20
217.31371205030001
 11
277.38160321480001
 21
217.08961784120001
  0
LINE
  8
_0-0_0
  6
CONTINUOUS
 62
    7
 10
277.20482665510002
 20
217.1916435823
 11
277.02867785310002
 21
217.0899801484
  0
LINE
  8
_0-0_0
  6
CONTINUOUS
 62
    7
 10
277.94666041509998
 20
217.2116862142
 11
277.94666041509998
 21
220.88657324440001
  0
LINE
  8
_0-0_0
  6
CONTINUOUS
 62
    7
 10
277.94666041509998
 20
217.2116862142
 11
277.76988369089997
 21
217.31371205030001
  0
LINE
  8
_0-0_0
  6
CONTINUOUS
 62
    7
 10
278.33494089120001
 20
217.43578042339999
 11
278.33494089120001
 21
221.11066745350001
  0
LINE
  8
_0-0_0
  6
CONTINUOUS
 62
    7
 10
278.33494089120001
 20
217.43578042339999
 11
277.94666041509998
 21
217.2116862142
  0
LINE
  8
_0-0_0
  6
CONTINUOUS
 62
    7
 10
278.8999987501
 20
217.55784917650001
 11
278.8999987501
 21
221.23273620660001
  0
LINE
  8
_0-0_0
  6
CONTINUOUS
 62
    7
 10
278.8999987501
 20
217.55784917650001
 11
278.5117176155
 21
217.33375458719999
  0
LINE
  8
_0-0_0
  6
CONTINUOUS
 62
    7
 10
278.5117176155
 20
217.33375458719999
 11
278.5117176155
 21
221.0086416174
  0
LINE
  8
_0-0_0
  6
CONTINUOUS
 62
    7
 10
278.5117176155
 20
217.33375458719999
 11
278.33494089120001
 21
217.43578042339999
  0
LINE
  8
_0-0_0
  6
CONTINUOUS
 62
    7
 10
279.07677547439999
 20
217.45582334029999
 11
279.07677547439999
 21
221.1307103705
  0
LINE
  8
_0-0_0
  6
CONTINUOUS
 62
    7
 10
279.07677547439999
 20
217.45582334029999
 11
278.8999987501
 21
217.55784917650001
  0
LINE
  8
_0-0_0
  6
CONTINUOUS
 62
    7
 10
279.4648287526
 20
217.6797864234
 11
279.4648287526
 21
221.3546734535
  0
LINE
  8
_0-0_0
  6
CONTINUOUS
 62
    7
 10
279.4648287526
 20
217.6797864234
 11
279.07677547439999
 21
217.45582334029999
  0
LINE
  8
_0-0_0
  6
CONTINUOUS
 62
    7
 10
279.6416054769
 20
217.5777605872
 11
279.6416054769
 21
221.25264761739999
  0
LINE
  8
_0-0_0
  6
CONTINUOUS
 62
    7
 10
279.6416054769
 20
217.5777605872
 11
279.4648287526
 21
217.6797864234
  0
LINE
  8
_0-0_0
  6
CONTINUOUS
 62
    7
 10
279.88256691240002
 20
217.71683032070001
 11
279.88256691240002
 21
221.3917173509
  0
LINE
  8
_0-0_0
  6
CONTINUOUS
 62
    7
 10
279.88256691240002
 20
217.71683032070001
 11
279.6416054769
 21
217.5777605872
  0
LINE
  8
_0-0_0
  6
CONTINUOUS
 62
    7
 10
278.97033714819997
 20
224.40084342310001
 11
282.5058713043
 21
226.44135995560001
  0
LINE
  8
_0-0_0
  6
CONTINUOUS
 62
    7
 10
282.84841010209999
 20
226.24366533599999
 11
282.5058713043
 21
226.44135995560001
  0
LINE
  8
_0-0_0
  6
CONTINUOUS
 62
    7
 10
278.95932274429998
 20
228.48823339820001
 11
272.10037524000001
 21
224.52962483740001
  0
LINE
  8
_0-0_0
  6
CONTINUOUS
 62
    7
 10
279.30186170669998
 20
228.29053868369999
 11
278.95932274429998
 21
228.48823339820001
  0
LINE
  8
_0-0_0
  6
CONTINUOUS
 62
    7
 10
275.76632755050002
 20
226.2500221512
 11
279.30186170669998
 21
228.29053868369999
  0
LINE
  8
_0-0_0
  6
CONTINUOUS
 62
    7
 10
276.80659030319998
 20
225.64963950710001
 11
275.76632755050002
 21
226.2500221512
  0
LINE
  8
_0-0_0
  6
CONTINUOUS
 62
    7
 10
276.80659030319998
 20
225.64963950710001
 11
280.3421244594
 21
227.6901560396
  0
LINE
  8
_0-0_0
  6
CONTINUOUS
 62
    7
 10
281.46560842820003
 20
227.04174267089999
 11
280.3421244594
 21
227.6901560396
  0
LINE
  8
_0-0_0
  6
CONTINUOUS
 62
    7
 10
277.93007427200001
 20
225.00122613849999
 11
281.46560842820003
 21
227.04174267089999
  0
LINE
  8
_0-0_0
  6
CONTINUOUS
 62
    7
 10
278.97033714819997
 20
224.40084342310001
 11
277.93007427200001
 21
225.00122613849999
  0
LINE
  8
_0-0_0
  6
CONTINUOUS
 62
    7
 10
279.9921684748
 20
217.65357430610001
 11
279.9921684748
 21
221.32846133629999
  0
LINE
  8
_0-0_0
  6
CONTINUOUS
 62
    7
 10
279.9921684748
 20
217.65357430610001
 11
279.88256691240002
 21
217.71683032070001
  0
LINE
  8
_0-0_0
  6
CONTINUOUS
 62
    7
 10
280.30678021099999
 20
217.83515095640001
 11
280.30678021099999
 21
221.51003798650001
  0
LINE
  8
_0-0_0
  6
CONTINUOUS
 62
    7
 10
280.30678021099999
 20
217.83515095640001
 11
279.9921684748
 21
217.65357430610001
  0
LINE
  8
_0-0_0
  6
CONTINUOUS
 62
    7
 10
274.33308667680001
 20
218.84300022709999
 11
273.84291356030002
 21
218.56009917060001
  0
LINE
  8
_0-0_0
  6
CONTINUOUS
 62
    7
 10
274.33308743830003
 20
219.11126691370001
 11
273.203194967
 21
218.45915490869999
  0
LINE
  8
_0-0_0
  6
CONTINUOUS
 62
    7
 10
274.33308743830003
 20
219.58142168469999
 11
273.203194967
 21
218.9293096797
  0
LINE
  8
_0-0_0
  6
CONTINUOUS
 62
    7
 10
275.40667828469998
 20
226.43784153550001
 11
271.3942617573
 21
226.65385514319999
  0
LINE
  8
_0-0_0
  6
CONTINUOUS
 62
    7
 10
274.61698793070002
 20
226.0157631841
 11
274.66650323369998
 21
226.01065306500001
  0
LINE
  8
_0-0_0
  6
CONTINUOUS
 62
    7
 10
273.60124130830002
 20
226.07044753930001
 11
274.61698793070002
 21
226.0157631841
  0
ARC
  8
_0-0_0
  6
CONTINUOUS
 62
    7
 10
273.38206608690001
 20
223.11407546949999
 40
2.964485384138273
 50
85.760045227500015
 51
117.7606026653
  0
LINE
  8
_0-0_0
  6
CONTINUOUS
 62
    7
 10
269.97867753200001
 20
224.5700215624
 11
272.00127318189999
 21
225.73735291310001
  0
LINE
  8
_0-0_0
  6
CONTINUOUS
 62
    7
 10
270.10312927310002
 20
224.76191422989999
 11
269.97867753200001
 21
224.5700215624
  0
LINE
  8
_0-0_0
  6
CONTINUOUS
 62
    7
 10
270.27927807520001
 20
224.86357766379999
 11
270.10312927310002
 21
224.76191422989999
  0
LINE
  8
_0-0_0
  6
CONTINUOUS
 62
    7
 10
270.10250135090001
 20
224.9656034999
 11
270.27927807520001
 21
224.86357766379999
  0
LINE
  8
_0-0_0
  6
CONTINUOUS
 62
    7
 10
270.49078182699998
 20
225.189697709
 11
270.10250135090001
 21
224.9656034999
  0
LINE
  8
_0-0_0
  6
CONTINUOUS
 62
    7
 10
270.31400510269998
 20
225.2917235452
 11
270.49078182699998
 21
225.189697709
  0
LINE
  8
_0-0_0
  6
CONTINUOUS
 62
    7
 10
270.7022855788
 20
225.5158177543
 11
270.31400510269998
 21
225.2917235452
  0
LINE
  8
_0-0_0
  6
CONTINUOUS
 62
    7
 10
270.5255088545
 20
225.61784359040001
 11
270.7022855788
 21
225.5158177543
  0
LINE
  8
_0-0_0
  6
CONTINUOUS
 62
    7
 10
270.9137899891
 20
225.84193817970001
 11
270.5255088545
 21
225.61784359040001
  0
LINE
  8
_0-0_0
  6
CONTINUOUS
 62
    7
 10
270.73701326489999
 20
225.94396401579999
 11
270.9137899891
 21
225.84193817970001
  0
LINE
  8
_0-0_0
  6
CONTINUOUS
 62
    7
 10
271.12506654309999
 20
226.16792709879999
 11
270.73701326489999
 21
225.94396401579999
  0
LINE
  8
_0-0_0
  6
CONTINUOUS
 62
    7
 10
270.94828981879999
 20
226.2699529349
 11
271.12506654309999
 21
226.16792709879999
  0
LINE
  8
_0-0_0
  6
CONTINUOUS
 62
    7
 10
271.18925125430002
 20
226.40902266840001
 11
270.94828981879999
 21
226.2699529349
  0
LINE
  8
_0-0_0
  6
CONTINUOUS
 62
    7
 10
271.07965002110001
 20
226.472278493
 11
271.18925125430002
 21
226.40902266840001
  0
LINE
  8
_0-0_0
  6
CONTINUOUS
 62
    7
 10
271.3942617573
 20
226.65385514319999
 11
271.07965002110001
 21
226.472278493
  0
LINE
  8
_0-0_0
  6
CONTINUOUS
 62
    7
 10
278.50178493269999
 20
224.6712665977
 11
279.86997766109999
 21
225.24679215719999
  0
LINE
  8
_0-0_0
  6
CONTINUOUS
 62
    7
 10
279.86508006560001
 20
225.24352754789999
 11
280.14775368959999
 21
225.08038382539999
  0
LINE
  8
_0-0_0
  6
CONTINUOUS
 62
    7
 10
272.54686018460001
 20
220.1421793815
 11
271.41696771340003
 21
219.49006737650001
  0
LINE
  8
_0-0_0
  6
CONTINUOUS
 62
    7
 10
280.87194806740001
 20
225.82081267749999
 11
281.56147577740001
 21
226.21877027869999
  0
LINE
  8
_0-0_0
  6
CONTINUOUS
 62
    7
 10
281.8408366653
 20
226.05753848590001
 11
281.56147577740001
 21
226.21877027869999
  0
LINE
  8
_0-0_0
  6
CONTINUOUS
 62
    7
 10
281.46560842820003
 20
227.04174267089999
 11
281.56147577740001
 21
226.21877027869999
  0
LINE
  8
_0-0_0
  6
CONTINUOUS
 62
    7
 10
272.54686018460001
 20
220.61233415250001
 11
271.41696771340003
 21
219.9602221474
  0
LINE
  8
_0-0_0
  6
CONTINUOUS
 62
    7
 10
269.97867753200001
 20
220.89513453219999
 11
269.97867753200001
 21
224.5700215624
  0
LINE
  8
_0-0_0
  6
CONTINUOUS
 62
    7
 10
269.97867753200001
 20
220.89513453219999
 11
270.68539654630001
 21
221.30301401209999
  0
LINE
  8
_0-0_0
  6
CONTINUOUS
 62
    7
 10
272.27638607699998
 20
218.3848793114
 11
272.27638607699998
 21
218.3844442729
  0
LINE
  8
_0-0_0
  6
CONTINUOUS
 62
    7
 10
271.56928049700002
 20
217.9763416886
 11
272.27638607699998
 21
218.3844442729
  0
LINE
  8
_0-0_0
  6
CONTINUOUS
 62
    7
 10
270.10250135090001
 20
224.76094595870001
 11
270.10250135090001
 21
224.9656034999
  0
LINE
  8
_0-0_0
  6
CONTINUOUS
 62
    7
 10
270.31400510269998
 20
225.08767188249999
 11
270.31400510269998
 21
225.2917235452
  0
LINE
  8
_0-0_0
  6
CONTINUOUS
 62
    7
 10
279.86508006560001
 20
225.24352754789999
 11
280.84908253769999
 21
225.8340094573
  0
LINE
  8
_0-0_0
  6
CONTINUOUS
 62
    7
 10
280.84908253769999
 20
225.8340094573
 11
281.15130900679998
 21
225.6595809044
  0
LINE
  8
_0-0_0
  6
CONTINUOUS
 62
    7
 10
276.33803819069999
 20
225.92006262230001
 11
277.70623091900001
 21
226.4955881818
  0
LINE
  8
_0-0_0
  6
CONTINUOUS
 62
    7
 10
277.70133332350002
 20
226.4923235725
 11
277.9840069681
 21
226.32917983819999
  0
LINE
  8
_0-0_0
  6
CONTINUOUS
 62
    7
 10
270.5255088545
 20
225.41379192779999
 11
270.5255088545
 21
225.61784359040001
  0
LINE
  8
_0-0_0
  6
CONTINUOUS
 62
    7
 10
278.70820128420002
 20
227.0696087259
 11
279.39772899420001
 21
227.4675663271
  0
LINE
  8
_0-0_0
  6
CONTINUOUS
 62
    7
 10
279.39772899420001
 20
227.4675663271
 11
279.67708983059998
 21
227.306334564
  0
LINE
  8
_0-0_0
  6
CONTINUOUS
 62
    7
 10
279.30186170669998
 20
228.29053868369999
 11
279.39772899420001
 21
227.4675663271
  0
LINE
  8
_0-0_0
  6
CONTINUOUS
 62
    7
 10
270.73701326489999
 20
225.7399123532
 11
270.73701326489999
 21
225.94396401579999
  0
LINE
  8
_0-0_0
  6
CONTINUOUS
 62
    7
 10
270.94828981879999
 20
226.06590127230001
 11
270.94828981879999
 21
226.2699529349
  0
LINE
  8
_0-0_0
  6
CONTINUOUS
 62
    7
 10
271.07965002110001
 20
226.34576644309999
 11
271.07965002110001
 21
226.472278493
  0
LINE
  8
_0-0_0
  6
CONTINUOUS
 62
    7
 10
277.70133332350002
 20
226.4923235725
 11
278.68533579569998
 21
227.08280548190001
  0
LINE
  8
_0-0_0
  6
CONTINUOUS
 62
    7
 10
278.68533579569998
 20
227.08280548190001
 11
278.98756228529999
 21
226.9083769172
  0
ARC
  8
_0-0_0
  6
CONTINUOUS
 62
    7
 10
125.7041555677
 20
135.31018372290001
 40
0.4609920644617004
 50
2.6023037279999999
 51
57.397697836899994
  0
LINE
  8
_0-0_0
  6
CONTINUOUS
 62
    7
 10
126.1646722319
 20
134.55530472620001
 11
126.1646722319
 21
135.3311142167
  0
LINE
  8
_0-0_0
  6
CONTINUOUS
 62
    7
 10
125.4545983448
 20
134.96512045470001
 11
126.1646722319
 21
134.55530472620001
  0
ARC
  8
_0-0_0
  6
CONTINUOUS
 62
    7
 10
124.9907214553
 20
134.89623749099999
 40
0.4689633582127821
 50
8.4463618177999997
 51
57.102467220400001
  0
LINE
  8
_0-0_0
  6
CONTINUOUS
 62
    7
 10
125.2454334138
 20
135.28999941079999
 11
121.42705677870001
 21
137.4937571195
  0
LINE
  8
_0-0_0
  6
CONTINUOUS
 62
    7
 10
121.217891683
 20
137.4103153261
 11
121.22727199099999
 21
137.44643305689999
  0
LINE
  8
_0-0_0
  6
CONTINUOUS
 62
    7
 10
121.22727199099999
 20
137.44643305689999
 11
121.2427840069
 21
137.4764838115
  0
LINE
  8
_0-0_0
  6
CONTINUOUS
 62
    7
 10
121.2427840069
 20
137.4764838115
 11
121.2639519323
 21
137.49954545860001
  0
LINE
  8
_0-0_0
  6
CONTINUOUS
 62
    7
 10
121.2639519323
 20
137.49954545860001
 11
121.290126113
 21
137.5149095299
  0
LINE
  8
_0-0_0
  6
CONTINUOUS
 62
    7
 10
121.290126113
 20
137.5149095299
 11
121.3205031248
 21
137.5221049937
  0
LINE
  8
_0-0_0
  6
CONTINUOUS
 62
    7
 10
121.3205031248
 20
137.5221049937
 11
121.3541504686
 21
137.52091100179999
  0
LINE
  8
_0-0_0
  6
CONTINUOUS
 62
    7
 10
121.3541504686
 20
137.52091100179999
 11
121.39003554670001
 21
137.51136393339999
  0
LINE
  8
_0-0_0
  6
CONTINUOUS
 62
    7
 10
121.39003554670001
 20
137.51136393339999
 11
121.42705677870001
 21
137.4937571195
  0
LINE
  8
_0-0_0
  6
CONTINUOUS
 62
    7
 10
120.5078180429
 20
137.82013091210001
 11
121.217891683
 21
137.4103153261
  0
LINE
  8
_0-0_0
  6
CONTINUOUS
 62
    7
 10
120.5078180429
 20
137.82013091210001
 11
120.5078180429
 21
138.59594040260001
  0
ARC
  8
_0-0_0
  6
CONTINUOUS
 62
    7
 10
120.63715910010001
 20
138.61693617169999
 40
0.131034084848542
 50
50.814914330300006
 51
189.2203252258
  0
LINE
  8
_0-0_0
  6
CONTINUOUS
 62
    7
 10
120.7199500462
 20
138.71850186789999
 11
125.9525402286
 21
135.69853761269999
  0
LINE
  8
_0-0_0
  6
CONTINUOUS
 62
    7
 10
125.9525402286
 20
135.69853761269999
 11
131.3972703167
 21
138.8409373941
  0
ARC
  8
_0-0_0
  6
CONTINUOUS
 62
    7
 10
131.14888565589999
 20
138.45258350430001
 40
0.460992064461825
 50
2.6023037279999999
 51
57.397697836899994
  0
LINE
  8
_0-0_0
  6
CONTINUOUS
 62
    7
 10
131.60940231999999
 20
138.4735139981
 11
126.1646722319
 21
135.3311142167
  0
LINE
  8
_0-0_0
  6
CONTINUOUS
 62
    7
 10
126.1646722319
 20
129.69628736109999
 11
131.60940231999999
 21
132.83868714249999
  0
LINE
  8
_0-0_0
  6
CONTINUOUS
 62
    7
 10
126.1646722319
 20
129.69628736109999
 11
126.1646722319
 21
130.47209704170001
  0
LINE
  8
_0-0_0
  6
CONTINUOUS
 62
    7
 10
126.1646722319
 20
130.47209704170001
 11
128.28599687440001
 21
131.6964093556
  0
LINE
  8
_0-0_0
  6
CONTINUOUS
 62
    7
 10
128.28599687440001
 20
131.6964093556
 11
128.28599687440001
 21
135.77961704020001
  0
LINE
  8
_0-0_0
  6
CONTINUOUS
 62
    7
 10
128.28599687440001
 20
135.77961704020001
 11
126.1646722319
 21
134.55530472620001
  0
LINE
  8
_0-0_0
  6
CONTINUOUS
 62
    7
 10
131.60940231999999
 20
132.83868714249999
 11
131.60940231999999
 21
138.4735139981
  0
LINE
  8
_0-0_0
  6
CONTINUOUS
 62
    7
 10
126.1646801344
 20
141.86090164929999
 11
120.7199500462
 21
138.71850186789999
  0
LINE
  8
_0-0_0
  6
CONTINUOUS
 62
    7
 10
131.3972703167
 20
138.8409373941
 11
126.1646801344
 21
141.86090164929999
  0
ARC
  8
_0-0_0
  6
CONTINUOUS
 62
    7
 10
127.33071752630001
 20
132.14449530210001
 40
0.2481739867640783
 50
351.12918009629999
 51
0.1960913751999979
  0
LINE
  8
_0-0_0
  6
CONTINUOUS
 62
    7
 10
127.5788900596
 20
132.145344661
 11
127.5788900596
 21
135.3715137817
  0
LINE
  8
_0-0_0
  6
CONTINUOUS
 62
    7
 10
127.5759229873
 20
132.1062250841
 11
128.28599687440001
 21
131.6964093556
  0
LINE
  8
_0-0_0
  6
CONTINUOUS
 62
    7
 10
127.5759229873
 20
132.1062250841
 11
125.4545983448
 21
130.88191277019999
  0
LINE
  8
_0-0_0
  6
CONTINUOUS
 62
    7
 10
125.4545983448
 20
130.88191277019999
 11
126.1646722319
 21
130.47209704170001
  0
LINE
  8
_0-0_0
  6
CONTINUOUS
 62
    7
 10
124.5736819192
 20
131.18616902580001
 11
124.5736819192
 21
130.36952733679999
  0
LINE
  8
_0-0_0
  6
CONTINUOUS
 62
    7
 10
124.5736819192
 20
131.18616902580001
 11
125.2454334138
 21
130.7984708818
  0
LINE
  8
_0-0_0
  6
CONTINUOUS
 62
    7
 10
125.4545983448
 20
130.88191277019999
 11
125.4452182015
 21
130.8457949443
  0
LINE
  8
_0-0_0
  6
CONTINUOUS
 62
    7
 10
125.4452182015
 20
130.8457949443
 11
125.42970610330001
 21
130.81574404720001
  0
LINE
  8
_0-0_0
  6
CONTINUOUS
 62
    7
 10
125.42970610330001
 20
130.81574404720001
 11
125.40853809550001
 21
130.79268263770001
  0
LINE
  8
_0-0_0
  6
CONTINUOUS
 62
    7
 10
125.40853809550001
 20
130.79268263770001
 11
125.3823639971
 21
130.77731832879999
  0
LINE
  8
_0-0_0
  6
CONTINUOUS
 62
    7
 10
125.3823639971
 20
130.77731832879999
 11
125.35198706769999
 21
130.77012281739999
  0
LINE
  8
_0-0_0
  6
CONTINUOUS
 62
    7
 10
125.35198706769999
 20
130.77012281739999
 11
125.31833972379999
 21
130.77131699949999
  0
LINE
  8
_0-0_0
  6
CONTINUOUS
 62
    7
 10
125.31833972379999
 20
130.77131699949999
 11
125.28245472810001
 21
130.7808640204
  0
LINE
  8
_0-0_0
  6
CONTINUOUS
 62
    7
 10
125.28245472810001
 20
130.7808640204
 11
125.2454334138
 21
130.7984708818
  0
ARC
  8
_0-0_0
  6
CONTINUOUS
 62
    7
 10
126.03533107840001
 20
129.6752917586
 40
0.1310341532133859
 50
230.8149930356
 51
9.2202465205000053
  0
LINE
  8
_0-0_0
  6
CONTINUOUS
 62
    7
 10
124.5736819192
 20
130.36952733679999
 11
125.9525402286
 21
129.57372589569999
  0
LINE
  8
_0-0_0
  6
CONTINUOUS
 62
    7
 10
125.08070546099999
 20
132.51644566760001
 11
127.5788912532
 21
133.9582879468
  0
LINE
  8
_0-0_0
  6
CONTINUOUS
 62
    7
 10
125.08070546099999
 20
132.51644566760001
 11
124.46334171159999
 21
132.87275418600001
  0
LINE
  8
_0-0_0
  6
CONTINUOUS
 62
    7
 10
124.46334171159999
 20
132.87275418600001
 11
127.5788905535
 21
134.79868808649999
  0
LINE
  8
_0-0_0
  6
CONTINUOUS
 62
    7
 10
125.08070546099999
 20
132.1791040638
 11
127.5788912532
 21
133.52195247099999
  0
LINE
  8
_0-0_0
  6
CONTINUOUS
 62
    7
 10
125.08070546099999
 20
132.1791040638
 11
125.08070546099999
 21
132.51644566760001
  0
LINE
  8
_0-0_0
  6
CONTINUOUS
 62
    7
 10
124.46334171159999
 20
132.87275418600001
 11
124.46334171159999
 21
132.5354125822
  0
LINE
  8
_0-0_0
  6
CONTINUOUS
 62
    7
 10
124.46334171159999
 20
132.5354125822
 11
125.08070546099999
 21
132.1791040638
  0
LINE
  8
_0-0_0
  6
CONTINUOUS
 62
    7
 10
121.3918211901
 20
137.51069790459999
 11
121.217891683
 21
137.4103153261
  0
LINE
  8
_0-0_0
  6
CONTINUOUS
 62
    7
 10
127.57888919529999
 20
132.9206099502
 11
124.5736819192
 21
131.18616902580001
  0
LINE
  8
_0-0_0
  6
CONTINUOUS
 62
    7
 10
127.4001300462
 20
135.26834338699999
 11
127.5788852029
 21
135.1651757082
  0
LINE
  8
_0-0_0
  6
CONTINUOUS
 62
    7
 10
138.1501392248
 20
143.1053988845
 11
138.1501392248
 21
138.45054194159999
  0
LINE
  8
_0-0_0
  6
CONTINUOUS
 62
    7
 10
137.44303101060001
 20
141.63566066019999
 11
137.44303101060001
 21
142.45230215909999
  0
ARC
  8
_0-0_0
  6
CONTINUOUS
 62
    7
 10
137.9035337057
 20
142.4313796923
 40
0.4609777454098192
 50
122.6008450913
 51
177.39861411449999
  0
LINE
  8
_0-0_0
  6
CONTINUOUS
 62
    7
 10
137.6551666359
 20
142.81972783559999
 11
138.1501392248
 21
143.1053988845
  0
LINE
  8
_0-0_0
  6
CONTINUOUS
 62
    7
 10
122.9162671031
 20
133.7656408549
 11
125.364709242
 21
135.17877320389999
  0
LINE
  8
_0-0_0
  6
CONTINUOUS
 62
    7
 10
122.9162671031
 20
133.7656408549
 11
122.2989035235
 21
134.1219492754
  0
LINE
  8
_0-0_0
  6
CONTINUOUS
 62
    7
 10
122.2989035235
 20
134.1219492754
 11
124.6988051699
 21
135.60549266839999
  0
LINE
  8
_0-0_0
  6
CONTINUOUS
 62
    7
 10
122.9162671031
 20
133.42829925109999
 11
125.60925760480001
 21
134.87586085500001
  0
LINE
  8
_0-0_0
  6
CONTINUOUS
 62
    7
 10
122.9162671031
 20
133.42829925109999
 11
122.9162671031
 21
133.7656408549
  0
LINE
  8
_0-0_0
  6
CONTINUOUS
 62
    7
 10
122.2989035235
 20
133.78460767160001
 11
122.9162671031
 21
133.42829925109999
  0
LINE
  8
_0-0_0
  6
CONTINUOUS
 62
    7
 10
122.2989035235
 20
134.1219492754
 11
122.2989035235
 21
133.78460767160001
  0
ARC
  8
_0-0_0
  6
CONTINUOUS
 62
    7
 10
136.98251445369999
 20
141.61473032870001
 40
0.4609919500116618
 50
2.6022841728999997
 51
57.397704553100006
  0
LINE
  8
_0-0_0
  6
CONTINUOUS
 62
    7
 10
137.2308990073
 20
142.00308415129999
 11
133.7660758207
 21
144.00279018769999
  0
LINE
  8
_0-0_0
  6
CONTINUOUS
 62
    7
 10
123.3362492533
 20
136.39188082730001
 11
123.3362492533
 21
134.76320385610001
  0
LINE
  8
_0-0_0
  6
CONTINUOUS
 62
    7
 10
122.6291426855
 20
134.9612355415
 11
123.1605034805
 21
134.6545632145
  0
LINE
  8
_0-0_0
  6
CONTINUOUS
 62
    7
 10
122.6291426855
 20
134.9612355415
 11
122.6291426855
 21
136.79998398180001
  0
LINE
  8
_0-0_0
  6
CONTINUOUS
 62
    7
 10
120.5078180429
 20
133.7369232275
 11
121.217891683
 21
133.32710764160001
  0
ARC
  8
_0-0_0
  6
CONTINUOUS
 62
    7
 10
121.6817684757
 20
133.3959905568
 40
0.4689632552220545
 50
188.4463576974
 51
237.10249713959996
  0
LINE
  8
_0-0_0
  6
CONTINUOUS
 62
    7
 10
121.42705677870001
 20
133.00222859050001
 11
122.0988082321
 21
132.61453047020001
  0
LINE
  8
_0-0_0
  6
CONTINUOUS
 62
    7
 10
122.0988082321
 20
132.61453047020001
 11
122.0988082321
 21
131.79788878119999
  0
LINE
  8
_0-0_0
  6
CONTINUOUS
 62
    7
 10
120.7199500462
 20
132.59369015089999
 11
122.0988082321
 21
131.79788878119999
  0
ARC
  8
_0-0_0
  6
CONTINUOUS
 62
    7
 10
120.9683340604
 20
132.98204366740001
 40
0.4609914015167704
 50
182.60226102199999
 51
237.39774054290001
  0
LINE
  8
_0-0_0
  6
CONTINUOUS
 62
    7
 10
120.5078180429
 20
132.96111354690001
 11
120.5078180429
 21
133.7369232275
  0
LINE
  8
_0-0_0
  6
CONTINUOUS
 62
    7
 10
122.0988082321
 20
132.61453047020001
 11
125.8131046243
 21
134.75821876730001
  0
LINE
  8
_0-0_0
  6
CONTINUOUS
 62
    7
 10
127.5435383203
 20
134.94028856259999
 11
127.5788889895
 21
134.96411771960001
  0
LINE
  8
_0-0_0
  6
CONTINUOUS
 62
    7
 10
122.0988082321
 20
131.79788878119999
 11
127.5435383203
 21
134.94028856259999
  0
LINE
  8
_0-0_0
  6
CONTINUOUS
 62
    7
 10
121.217891683
 20
133.32710764160001
 11
122.2989056638
 21
133.95100966090001
  0
LINE
  8
_0-0_0
  6
CONTINUOUS
 62
    7
 10
134.47317584429999
 20
135.1846669336
 11
133.75902910639999
 21
134.77250057890001
  0
LINE
  8
_0-0_0
  6
CONTINUOUS
 62
    7
 10
133.75902910639999
 20
134.77250057890001
 11
133.75902910639999
 21
134.85416497590001
  0
LINE
  8
_0-0_0
  6
CONTINUOUS
 62
    7
 10
133.05896995259999
 20
134.77678564999999
 11
133.75902910639999
 21
134.85416497590001
  0
LINE
  8
_0-0_0
  6
CONTINUOUS
 62
    7
 10
133.05896995259999
 20
134.77678564999999
 11
131.6972684975
 21
133.99088620489999
  0
ARC
  8
_0-0_0
  6
CONTINUOUS
 62
    7
 10
131.94639711400001
 20
134.7268490635
 40
0.3047741771815519
 50
215.1726109677
 51
309.37069748319999
  0
LINE
  8
_0-0_0
  6
CONTINUOUS
 62
    7
 10
133.76607816680001
 20
135.42988218529999
 11
132.1397261132
 21
134.49124092029999
  0
LINE
  8
_0-0_0
  6
CONTINUOUS
 62
    7
 10
134.47317584429999
 20
135.61916195719999
 11
133.76607816680001
 21
135.42988218529999
  0
LINE
  8
_0-0_0
  6
CONTINUOUS
 62
    7
 10
134.47317584429999
 20
135.1846669336
 11
134.47317584429999
 21
135.61916195719999
  0
LINE
  8
_0-0_0
  6
CONTINUOUS
 62
    7
 10
120.5078180429
 20
133.7369232275
 11
122.6291426855
 21
134.9612355415
  0
LINE
  8
_0-0_0
  6
CONTINUOUS
 62
    7
 10
127.4728187485
 20
133.4649352607
 11
127.4728187485
 21
132.85939179229999
  0
LINE
  8
_0-0_0
  6
CONTINUOUS
 62
    7
 10
126.8400575751
 20
132.49419672459999
 11
127.1211981281
 21
133.27592908739999
  0
LINE
  8
_0-0_0
  6
CONTINUOUS
 62
    7
 10
126.0503889118
 20
132.70033747970001
 11
126.6238098332
 21
132.36939035309999
  0
LINE
  8
_0-0_0
  6
CONTINUOUS
 62
    7
 10
126.2671815992
 20
133.98783128740001
 11
126.3282839929
 21
134.15772485599999
  0
LINE
  8
_0-0_0
  6
CONTINUOUS
 62
    7
 10
126.3282839929
 20
134.15772485599999
 11
126.4388173958
 21
134.09393103420001
  0
LINE
  8
_0-0_0
  6
CONTINUOUS
 62
    7
 10
125.06866483899999
 20
133.24694585469999
 11
125.06866483899999
 21
133.26693480629999
  0
LINE
  8
_0-0_0
  6
CONTINUOUS
 62
    7
 10
125.0853877536
 20
133.2572832566
 11
125.06866483899999
 21
133.26693480629999
  0
LINE
  8
_0-0_0
  6
CONTINUOUS
 62
    7
 10
126.41156468379999
 20
132.24689418950001
 11
125.9525482957
 21
132.51181329010001
  0
LINE
  8
_0-0_0
  6
CONTINUOUS
 62
    7
 10
125.9525482957
 20
132.4301492733
 11
125.9525482957
 21
132.51181329010001
  0
ARC
  8
_0-0_0
  6
CONTINUOUS
 62
    7
 10
125.8232071904
 20
132.40915358749999
 40
0.1310341190309272
 50
230.81495368290001
 51
9.2202858732000106
  0
LINE
  8
_0-0_0
  6
CONTINUOUS
 62
    7
 10
125.7404162925
 20
132.30758780799999
 11
125.53754951649999
 21
132.42467139190001
  0
LINE
  8
_0-0_0
  6
CONTINUOUS
 62
    7
 10
125.06866483899999
 20
133.26693480629999
 11
125.5559245547
 21
133.54815440749999
  0
LINE
  8
_0-0_0
  6
CONTINUOUS
 62
    7
 10
133.76607816680001
 20
135.42988218529999
 11
133.4291590638
 21
135.62433342509999
  0
LINE
  8
_0-0_0
  6
CONTINUOUS
 62
    7
 10
126.3282839929
 20
134.15772485599999
 11
126.5535799716
 21
134.28775334650001
  0
LINE
  8
_0-0_0
  6
CONTINUOUS
 62
    7
 10
126.5535799716
 20
134.28775334650001
 11
126.6563810742
 21
134.22842218459999
  0
ARC
  8
_0-0_0
  6
CONTINUOUS
 62
    7
 10
138.00725332850001
 20
138.43243034880001
 40
0.1440291955259051
 50
304.08345672130002
 51
7.2240379034000108
  0
ARC
  8
_0-0_0
  6
CONTINUOUS
 62
    7
 10
133.67822374190001
 20
143.88012064630001
 40
0.1508834124818641
 50
54.390949252799999
 51
114.3072348189
  0
LINE
  8
_0-0_0
  6
CONTINUOUS
 62
    7
 10
137.44303101060001
 20
142.45230215909999
 11
133.5539436528
 21
144.6968702213
  0
LINE
  8
_0-0_0
  6
CONTINUOUS
 62
    7
 10
133.76607927809999
 20
145.06429589780001
 11
137.6551666359
 21
142.81972783559999
  0
ARC
  8
_0-0_0
  6
CONTINUOUS
 62
    7
 10
134.01444634789999
 20
144.67594775449999
 40
0.4609777454094299
 50
122.6008450913
 51
177.39861411449999
  0
LINE
  8
_0-0_0
  6
CONTINUOUS
 62
    7
 10
133.5539436528
 20
143.98174621659999
 11
133.5539436528
 21
144.6968702213
  0
LINE
  8
_0-0_0
  6
CONTINUOUS
 62
    7
 10
134.26105186699999
 20
145.34996694669999
 11
138.1501392248
 21
143.1053988845
  0
LINE
  8
_0-0_0
  6
CONTINUOUS
 62
    7
 10
133.76607927809999
 20
145.06429589780001
 11
134.26105186699999
 21
145.34996694669999
  0
LINE
  8
_0-0_0
  6
CONTINUOUS
 62
    7
 10
133.9466870748
 20
135.9230224181
 11
134.47317584429999
 21
135.61916195719999
  0
LINE
  8
_0-0_0
  6
CONTINUOUS
 62
    7
 10
133.75902910639999
 20
134.77250057890001
 11
133.6402756892
 21
134.84103854240001
  0
LINE
  8
_0-0_0
  6
CONTINUOUS
 62
    7
 10
164.04197263099999
 20
154.03390075230001
 11
161.57127135850001
 21
155.4598541078
  0
LINE
  8
_0-0_0
  6
CONTINUOUS
 62
    7
 10
164.04197263099999
 20
157.15842203829999
 11
164.04197263099999
 21
154.03390075230001
  0
LINE
  8
_0-0_0
  6
CONTINUOUS
 62
    7
 10
164.60765800050001
 20
160.48554315429999
 11
164.40904048300001
 21
160.60017429920001
  0
ARC
  8
_0-0_0
  6
CONTINUOUS
 62
    7
 10
164.44206740640001
 20
160.22663996079999
 40
0.3073289906078111
 50
2.6023722479
 51
57.397629317000003
  0
LINE
  8
_0-0_0
  6
CONTINUOUS
 62
    7
 10
164.74907944579999
 20
152.9724841801
 11
164.74907944579999
 21
160.24059403359999
  0
ARC
  8
_0-0_0
  6
CONTINUOUS
 62
    7
 10
164.6573023032
 20
152.96012181419999
 40
0.0926060040945655
 50
292.3458682232
 51
7.6715567279000023
  0
LINE
  8
_0-0_0
  6
CONTINUOUS
 62
    7
 10
164.4662367199
 20
152.80906905149999
 11
164.69251080180001
 21
152.874469998
  0
LINE
  8
_0-0_0
  6
CONTINUOUS
 62
    7
 10
164.4662367199
 20
152.5640764307
 11
164.4662367199
 21
152.80906905149999
  0
LINE
  8
_0-0_0
  6
CONTINUOUS
 62
    7
 10
164.73044609359999
 20
151.87759972949999
 11
164.4662367199
 21
152.5640764307
  0
ARC
  8
_0-0_0
  6
CONTINUOUS
 62
    7
 10
164.4892669091
 20
151.78085399220001
 40
0.259859840517265
 50
1.0932580458000001
 51
21.857515021000001
  0
LINE
  8
_0-0_0
  6
CONTINUOUS
 62
    7
 10
164.74907944579999
 20
151.25753697549999
 11
164.74907944579999
 21
151.78581206460001
  0
ARC
  8
_0-0_0
  6
CONTINUOUS
 62
    7
 10
164.61973829230001
 20
151.23654137299999
 40
0.1310341532134184
 50
230.8149930356
 51
9.2202465205000053
  0
LINE
  8
_0-0_0
  6
CONTINUOUS
 62
    7
 10
164.23577923389999
 20
151.3087932931
 11
164.53694744250001
 21
151.13497551009999
  0
ARC
  8
_0-0_0
  6
CONTINUOUS
 62
    7
 10
246.4664516638
 20
207.56661880070001
 40
0.307328990607656
 50
2.6023722479
 51
57.397629317000003
  0
LINE
  8
_0-0_0
  6
CONTINUOUS
 62
    7
 10
246.77346370320001
 20
207.58057287349999
 11
164.74907944579999
 21
160.24059403359999
  0
LINE
  8
_0-0_0
  6
CONTINUOUS
 62
    7
 10
246.77346370320001
 20
200.31246302010001
 11
246.77346370320001
 21
207.58057287349999
  0
LINE
  8
_0-0_0
  6
CONTINUOUS
 62
    7
 10
246.77346370320001
 20
200.31246302010001
 11
164.74907944579999
 21
152.9724841801
  0
LINE
  8
_0-0_0
  6
CONTINUOUS
 62
    7
 10
246.6320422579
 20
207.8255219943
 11
246.40199603299999
 21
207.95829206639999
  0
ARC
  8
_0-0_0
  6
CONTINUOUS
 62
    7
 10
246.67085492390001
 20
200.3037152803
 40
0.1029809912118969
 50
306.43453223289998
 51
4.8728730524999921
  0
LINE
  8
_0-0_0
  6
CONTINUOUS
 62
    7
 10
246.49062097730001
 20
199.9040552706
 11
164.4662367199
 21
152.5640764307
  0
LINE
  8
_0-0_0
  6
CONTINUOUS
 62
    7
 10
246.75483035100001
 20
199.21757856939999
 11
246.49062097730001
 21
199.9040552706
  0
LINE
  8
_0-0_0
  6
CONTINUOUS
 62
    7
 10
246.75483035100001
 20
199.21757856939999
 11
164.73044609359999
 21
151.87759972949999
  0
LINE
  8
_0-0_0
  6
CONTINUOUS
 62
    7
 10
246.49062097730001
 20
199.9040552706
 11
246.49062097730001
 21
200.08154353929999
  0
ARC
  8
_0-0_0
  6
CONTINUOUS
 62
    7
 10
246.51365116650001
 20
199.12083283210001
 40
0.2598598405196275
 50
1.0932580459000001
 51
21.857515020899999
  0
LINE
  8
_0-0_0
  6
CONTINUOUS
 62
    7
 10
246.77346370320001
 20
199.12579090450001
 11
164.74907944579999
 21
151.78581206460001
  0
LINE
  8
_0-0_0
  6
CONTINUOUS
 62
    7
 10
246.77346370320001
 20
198.59751581539999
 11
246.77346370320001
 21
199.12579090450001
  0
LINE
  8
_0-0_0
  6
CONTINUOUS
 62
    7
 10
246.77346370320001
 20
198.59751581539999
 11
164.74907944579999
 21
151.25753697549999
  0
ARC
  8
_0-0_0
  6
CONTINUOUS
 62
    7
 10
246.62664244269999
 20
198.58118519370001
 40
0.1477266791977174
 50
304.96056115520003
 51
6.3468020422000198
  0
ARC
  8
_0-0_0
  6
CONTINUOUS
 62
    7
 10
245.5355074613
 20
207.96688415739999
 40
0.8209711730857729
 50
18.248530777100001
 51
49.059245020600002
  0
ARC
  8
_0-0_0
  6
CONTINUOUS
 62
    7
 10
246.45953118349999
 20
208.61811718289999
 40
0.4652687520993912
 50
122.7582209631
 51
174.6261899918
  0
ARC
  8
_0-0_0
  6
CONTINUOUS
 62
    7
 10
246.55973560769999
 20
208.4477611444
 40
0.4696195531102835
 50
248.87820218920001
 51
297.07172353139998
  0
LINE
  8
_0-0_0
  6
CONTINUOUS
 62
    7
 10
246.77346205680001
 20
207.5805718588
 11
246.77346205680001
 21
208.02959427619999
  0
ARC
  8
_0-0_0
  6
CONTINUOUS
 62
    7
 10
242.3609387644
 20
210.98290056549999
 40
0.4685543694460214
 50
122.88174974970001
 51
171.948447241
  0
ARC
  8
_0-0_0
  6
CONTINUOUS
 62
    7
 10
247.28558139200001
 20
209.45805859079999
 40
0.1508906657992878
 50
65.7011592912
 51
125.6081731666
  0
ARC
  8
_0-0_0
  6
CONTINUOUS
 62
    7
 10
247.70117058299999
 20
208.73836042159999
 40
0.1508595033925428
 50
294.36713734940002
 51
354.28829813589999
  0
ARC
  8
_0-0_0
  6
CONTINUOUS
 62
    7
 10
247.70117700520001
 20
205.7167790769
 40
0.150849940108037
 50
294.3661047443
 51
354.30011698229998
  0
ARC
  8
_0-0_0
  6
CONTINUOUS
 62
    7
 10
243.18435754039999
 20
211.8250715435
 40
0.1508765567583403
 50
65.691312346299995
 51
125.60983586300001
  0
ARC
  8
_0-0_0
  6
CONTINUOUS
 62
    7
 10
247.62064719220001
 20
205.56119959259999
 40
0.1439164339510785
 50
304.05583294339999
 51
7.2515898135999759
  0
ARC
  8
_0-0_0
  6
CONTINUOUS
 62
    7
 10
241.8722292546
 20
211.04911478899999
 40
0.4025148009515556
 50
54.397380957499998
 51
114.23361996120002
  0
ARC
  8
_0-0_0
  6
CONTINUOUS
 62
    7
 10
242.86223556039999
 20
211.62061563969999
 40
0.4023556786409414
 50
54.390939956300002
 51
114.30722303819999
  0
LINE
  8
_0-0_0
  6
CONTINUOUS
 62
    7
 10
246.77346205680001
 20
199.12578988990001
 11
246.77346205680001
 21
200.31246219549999
  0
LINE
  8
_0-0_0
  6
CONTINUOUS
 62
    7
 10
246.77346288000001
 20
201.57799618190001
 11
247.55128033509999
 21
202.0269097849
  0
LINE
  8
_0-0_0
  6
CONTINUOUS
 62
    7
 10
246.77346296229999
 20
202.4758233403
 11
247.55128033509999
 21
202.0269097849
  0
ARC
  8
_0-0_0
  6
CONTINUOUS
 62
    7
 10
247.6391302538
 20
201.9042463781
 40
0.1508771671948576
 50
65.691479884699987
 51
125.60974026820001
  0
ARC
  8
_0-0_0
  6
CONTINUOUS
 62
    7
 10
247.70117700520001
 20
201.79689961599999
 40
0.1508499401080745
 50
294.3661047443
 51
354.30011698229998
  0
ARC
  8
_0-0_0
  6
CONTINUOUS
 62
    7
 10
247.70117700520001
 20
199.75529577379999
 40
0.1508499401079383
 50
294.36610474420007
 51
354.30011698240008
  0
ARC
  8
_0-0_0
  6
CONTINUOUS
 62
    7
 10
247.62088697120001
 20
199.5996079567
 40
0.1436923133251641
 50
304.00085390269999
 51
7.3065092947000094
  0
LINE
  8
_0-0_0
  6
CONTINUOUS
 62
    7
 10
159.445775742
 20
156.33024886109999
 11
159.445775742
 21
157.7899065766
  0
LINE
  8
_0-0_0
  6
CONTINUOUS
 62
    7
 10
160.36501447769999
 20
154.4011268305
 11
160.19294470029999
 21
154.51920129070001
  0
LINE
  8
_0-0_0
  6
CONTINUOUS
 62
    7
 10
158.86886720999999
 20
153.22301718739999
 11
162.9105988462
 21
150.89035121410001
  0
LINE
  8
_0-0_0
  6
CONTINUOUS
 62
    7
 10
158.1022728351
 20
162.6485105017
 11
158.1022728351
 21
155.7646717387
  0
LINE
  8
_0-0_0
  6
CONTINUOUS
 62
    7
 10
158.1022728351
 20
154.63344896129999
 11
158.1022728351
 21
153.99254873230001
  0
ARC
  8
_0-0_0
  6
CONTINUOUS
 62
    7
 10
163.84538746769999
 20
161.31792459510001
 40
0.1371481384454502
 50
62.301054673899998
 51
128.973698896
  0
ARC
  8
_0-0_0
  6
CONTINUOUS
 62
    7
 10
164.27252600360001
 20
160.57501831970001
 40
0.140367464751433
 50
291.8694123006
 51
356.82096181719999
  0
ARC
  8
_0-0_0
  6
CONTINUOUS
 62
    7
 10
164.26257269070001
 20
157.56059463189999
 40
0.1508538095177061
 50
294.36695210990001
 51
354.29926961669997
  0
ARC
  8
_0-0_0
  6
CONTINUOUS
 62
    7
 10
159.7457572948
 20
163.66888004590001
 40
0.1508804295686536
 50
65.692160042099999
 51
125.6089881672
  0
ARC
  8
_0-0_0
  6
CONTINUOUS
 62
    7
 10
163.19210132859999
 20
156.83367044560001
 40
0.1439164339511264
 50
304.05583294339999
 51
7.2515898135999759
  0
ARC
  8
_0-0_0
  6
CONTINUOUS
 62
    7
 10
163.07248815360001
 20
156.84231501089999
 40
0.1621689515070073
 50
176.6347364351
 51
232.05309756119999
  0
ARC
  8
_0-0_0
  6
CONTINUOUS
 62
    7
 10
160.52690378509999
 20
158.311486785
 40
0.1621689515740644
 50
176.63473644749999
 51
232.0530975488
  0
ARC
  8
_0-0_0
  6
CONTINUOUS
 62
    7
 10
164.17775057489999
 20
157.4069564106
 40
0.147953265526192
 50
305.01262395800006
 51
6.2947987991000565
  0
ARC
  8
_0-0_0
  6
CONTINUOUS
 62
    7
 10
158.16981494960001
 20
162.7897294551
 40
0.1565398672298526
 50
186.87787021739999
 51
244.43917135410004
  0
ARC
  8
_0-0_0
  6
CONTINUOUS
 62
    7
 10
158.43370427869999
 20
162.8931271296
 40
0.4023141502428784
 50
54.389258642599991
 51
114.3264789577
  0
ARC
  8
_0-0_0
  6
CONTINUOUS
 62
    7
 10
159.4236348746
 20
163.46442859039999
 40
0.4023556786409414
 50
54.390939956300002
 51
114.30722303819999
  0
ARC
  8
_0-0_0
  6
CONTINUOUS
 62
    7
 10
160.3713394438
 20
157.83910019230001
 40
0.5037038408222896
 50
125.86914272670001
 51
185.60441679089999
  0
LINE
  8
_0-0_0
  6
CONTINUOUS
 62
    7
 10
160.48968633729999
 20
158.14753262490001
 11
159.87004337050001
 21
157.78990866699999
  0
ARC
  8
_0-0_0
  6
CONTINUOUS
 62
    7
 10
164.26257269070001
 20
153.6407151711
 40
0.1508538095176723
 50
294.36695210990001
 51
354.29926961680002
  0
ARC
  8
_0-0_0
  6
CONTINUOUS
 62
    7
 10
164.20053000819999
 20
153.74805488039999
 40
0.1508810400767217
 50
65.692327588300003
 51
125.6088925646
  0
LINE
  8
_0-0_0
  6
CONTINUOUS
 62
    7
 10
159.87004337050001
 20
157.78990866699999
 11
159.87004337050001
 21
156.54846464369999
  0
ARC
  8
_0-0_0
  6
CONTINUOUS
 62
    7
 10
164.26257269070001
 20
151.59911132880001
 40
0.1508538095176384
 50
294.36695210980002
 51
354.29926961680002
  0
ARC
  8
_0-0_0
  6
CONTINUOUS
 62
    7
 10
161.65494563959999
 20
155.21722665460001
 40
0.1508810400766301
 50
65.692327588200001
 51
125.6088925646
  0
LINE
  8
_0-0_0
  6
CONTINUOUS
 62
    7
 10
160.85998854830001
 20
157.11934711570001
 11
160.85998854830001
 21
157.9338161794
  0
ARC
  8
_0-0_0
  6
CONTINUOUS
 62
    7
 10
163.07630434660001
 20
150.88255848700001
 40
0.1658886356572552
 50
177.3075024183
 51
231.380391132
  0
ARC
  8
_0-0_0
  6
CONTINUOUS
 62
    7
 10
163.19234110759999
 20
150.87207880970001
 40
0.1436923133252169
 50
304.00085390269999
 51
7.3065092947000094
  0
LINE
  8
_0-0_0
  6
CONTINUOUS
 62
    7
 10
160.47970527210001
 20
154.8325838458
 11
160.57715010300001
 21
154.76855241199999
  0
ARC
  8
_0-0_0
  6
CONTINUOUS
 62
    7
 10
164.1779905567
 20
151.4453646856
 40
0.1477266792169739
 50
304.96056115969992
 51
6.346802037799951
  0
LINE
  8
_0-0_0
  6
CONTINUOUS
 62
    7
 10
161.5670952808
 20
155.33989450979999
 11
161.42914559979999
 21
155.4352030256
  0
LINE
  8
_0-0_0
  6
CONTINUOUS
 62
    7
 10
161.42914559979999
 20
155.4352030256
 11
161.30625905439999
 21
155.54802623419999
  0
LINE
  8
_0-0_0
  6
CONTINUOUS
 62
    7
 10
164.3248869736
 20
161.05684191329999
 11
164.285563964
 21
161.03414682740001
  0
LINE
  8
_0-0_0
  6
CONTINUOUS
 62
    7
 10
278.69034460289998
 20
221.8439560644
 11
278.69034460289998
 21
223.47636918730001
  0
LINE
  8
_0-0_0
  6
CONTINUOUS
 62
    7
 10
279.29592920850001
 20
222.5693710857
 11
279.29592920850001
 21
222.78378580899999
  0
LINE
  8
_0-0_0
  6
CONTINUOUS
 62
    7
 10
279.20117947099999
 20
223.37001908639999
 11
279.20117947099999
 21
222.31024481310001
  0
LINE
  8
_0-0_0
  6
CONTINUOUS
 62
    7
 10
272.00127318189999
 20
224.58682124059999
 11
272.00127318189999
 21
225.73735291310001
  0
LINE
  8
_0-0_0
  6
CONTINUOUS
 62
    7
 10
273.60124130830002
 20
226.07044753930001
 11
273.60124130830002
 21
225.3958425264
  0
LINE
  8
_0-0_0
  6
CONTINUOUS
 62
    7
 10
274.61698793070002
 20
225.98207584549999
 11
274.61698793070002
 21
226.0157631841
  0
ARC
  8
_0-0_0
  6
CONTINUOUS
 62
    7
 10
131.46687678820001
 20
132.8204127427
 40
0.1436923133443706
 50
304.00085390740003
 51
7.3065092900000277
  0
LINE
  8
_0-0_0
  6
CONTINUOUS
 62
    7
 10
125.2454334138
 20
130.7984708818
 11
127.57889368159999
 21
132.14521625149999
  0
ARC
  8
_0-0_0
  6
CONTINUOUS
 62
    7
 10
126.07682799059999
 20
141.73823233280001
 40
0.1508832673941742
 50
54.390879474400002
 51
114.3072326545
  0
ARC
  8
_0-0_0
  6
CONTINUOUS
 62
    7
 10
131.485121773
 20
138.71825932920001
 40
0.150889979698233
 50
65.694318035999999
 51
125.60697406049999
  0
ARC
  8
_0-0_0
  6
CONTINUOUS
 62
    7
 10
131.5471550023
 20
138.6109358985
 40
0.1508625442752638
 50
294.36886475620003
 51
354.29735697040002
  0
ARC
  8
_0-0_0
  6
CONTINUOUS
 62
    7
 10
131.5471550023
 20
132.97610904289999
 40
0.1508625442752258
 50
294.36886475620003
 51
354.2973569705
  0
ARC
  8
_0-0_0
  6
CONTINUOUS
 62
    7
 10
126.2525315906
 20
141.7382235844
 40
0.1508899796981303
 50
65.694318035999999
 51
125.60697406049999
  0
LINE
  8
_0-0_0
  6
CONTINUOUS
 62
    7
 10
131.697267057
 20
134.726297808
 11
138.1501392248
 21
138.45054194159999
  0
LINE
  8
_0-0_0
  6
CONTINUOUS
 62
    7
 10
137.44303101060001
 20
141.63566066019999
 11
131.697267057
 21
138.31952063130001
  0
LINE
  8
_0-0_0
  6
CONTINUOUS
 62
    7
 10
131.6378963061
 20
138.77510954440001
 11
137.2308990073
 21
142.00308415129999
  0
LINE
  8
_0-0_0
  6
CONTINUOUS
 62
    7
 10
133.7660758207
 20
144.00279018769999
 11
128.19762365880001
 21
140.7889848065
  0
LINE
  8
_0-0_0
  6
CONTINUOUS
 62
    7
 10
122.5407767139
 20
133.6450066941
 11
121.42705677870001
 21
133.00222859050001
  0
LINE
  8
_0-0_0
  6
CONTINUOUS
 62
    7
 10
131.8028070101
 20
134.68569216
 11
132.1397261132
 21
134.49124092029999
  0
LINE
  8
_0-0_0
  6
CONTINUOUS
 62
    7
 10
125.9525482957
 20
132.4301492733
 11
126.023291781
 21
132.4709785355
  0
LINE
  8
_0-0_0
  6
CONTINUOUS
 62
    7
 10
246.6320422579
 20
207.8255219943
 11
246.4199092668
 21
207.70309045880001
  0
LINE
  8
_0-0_0
  6
CONTINUOUS
 62
    7
 10
164.9612068392
 20
160.68959216600001
 11
164.60765800050001
 21
160.48554315429999
  0
LINE
  8
_0-0_0
  6
CONTINUOUS
 62
    7
 10
164.39552146969999
 20
161.01607475610001
 11
164.31184943869999
 21
160.96778384589999
  0
ENDSEC
  0
EOF
