  0
SECTION
  2
HEADER
  9
$ACADVER
  1
AC1009
  9
$INSBASE
 10
0
 20
0
 30
0
  9
$EXTMIN
 10
0
 20
0
  9
$EXTMAX
 10
420
 20
297
  9
$LIMMIN
 10
0
 20
0
  9
$LIMMAX
 10
420
 20
297
  9
$LTSCALE
 40
1
  0
ENDSEC
  0
SECTION
  2
TABLES
  0
TABLE
  2
LTYPE
 70
     9
  0
LTYPE
  2
CONTINUOUS
 70
    64
  3
実線
 72
    65
 73
     0
 40
0.0
  0
LTYPE
  2
DASHED1
 70
    64
  3
--  --  --  --  --  --  --  --  
 72
    65
 73
     2
 40
2.5
 49
1.25
 49
-1.25
  0
LTYPE
  2
DASHED2
 70
    64
  3
----    ----    ----    ----    
 72
    65
 73
     2
 40
5.0
 49
2.5
 49
-2.5
  0
LTYPE
  2
DASHED3
 70
    64
  3
------  ------  ------  ------  
 72
    65
 73
     2
 40
5.0
 49
3.75
 49
-1.25
  0
LTYPE
  2
CENTER1
 70
    64
  3
----- - ----- - ----- - ----- - 
 72
    65
 73
     4
 40
10.0
 49
6.25
 49
-1.25
 49
1.25
 49
-1.25
  0
LTYPE
  2
CENTER2
 70
    64
  3
----------  --  ----------  --  
 72
    65
 73
     4
 40
20.0
 49
12.5
 49
-2.5
 49
2.5
 49
-2.5
  0
LTYPE
  2
PHANTOM1
 70
    64
  3
--- - - --- - - --- - - --- - - 
 72
    65
 73
     6
 40
10.0
 49
3.25
 49
-1.25
 49
1.25
 49
-1.25
 49
1.25
 49
-1.25
  0
LTYPE
  2
PHANTOM2
 70
    64
  3
--------  -  -  --------  -  -  
 72
    65
 73
     6
 40
20.0
 49
10.0
 49
-2.5
 49
1.25
 49
-2.5
 49
1.25
 49
-2.5
  0
LTYPE
  2
DOT
 70
    64
  3
-   -   -   -   -   -   -   -   
 72
    65
 73
     2
 40
2.5
 49
0.625
 49
-1.875
  0
LTYPE
  2
DUMMY
 70
    64
  3
ダミー
 72
    65
 73
     0
 40
0.0
  0
LTYPE
  2
RAND1
 70
    64
  3
ランダム線1
 72
    65
 73
     4
 40
10.0
 49
1.0
 49
-2.0
 49
3.0
 49
-4.0
  0
LTYPE
  2
RAND2
 70
    64
  3
ランダム線2
 72
    65
 73
     4
 40
14.0
 49
2.0
 49
-3.0
 49
4.0
 49
-5.0
  0
LTYPE
  2
RAND3
 70
    64
  3
ランダム線3
 72
    65
 73
     4
 40
18.0
 49
3.0
 49
-4.0
 49
5.0
 49
-6.0
  0
LTYPE
  2
RAND4
 70
    64
  3
ランダム線4
 72
    65
 73
     4
 40
22.0
 49
4.0
 49
-5.0
 49
6.0
 49
-7.0
  0
LTYPE
  2
RAND5
 70
    64
  3
ランダム線5
 72
    65
 73
     4
 40
26.0
 49
5.0
 49
-6.0
 49
7.0
 49
-8.0
  0
LTYPE
  2
LONG1
 70
    64
  3
----------  --  ----------  --  
 72
    65
 73
     4
 40
40.0
 49
32.5
 49
-2.5
 49
2.5
 49
-2.5
  0
LTYPE
  2
LONG2
 70
    64
  3
--------  -  -  --------  -  -  
 72
    65
 73
     6
 40
40.0
 49
30.0
 49
-2.5
 49
1.25
 49
-2.5
 49
1.25
 49
-2.5
  0
LTYPE
  2
LONG3
 70
    64
  3
+++++++++++++++..+++++++++++++++
 72
    65
 73
     2
 40
40.0
 49
37.5
 49
-2.5
  0
LTYPE
  2
LONG4
 70
    64
  3
+++++++++++++++..+++++++++++++++
 72
    65
 73
     2
 40
80.0
 49
75.0
 49
-5.0
  0
LTYPE
  2
LONG5
 70
    64
  3
----------  --  ----------  --  
 72
    65
 73
     4
 40
60.0
 49
37.5
 49
-7.5
 49
7.5
 49
-7.5
  0
LTYPE
  2
dashed
 70
   64
  3
-------   -------------   ------
 72
   65
 73
    2
 40
7.5
 49
6
 49
-1.5
  0
LTYPE
  2
dashed_spaced
 70
   64
  3
----        --------        ----
 72
   65
 73
    2
 40
12
 49
6
 49
-6
  0
LTYPE
  2
long_dashed_dotted
 70
   64
  3
------------- --- --------------
 72
   65
 73
    4
 40
15.25
 49
12
 49
-1.5
 49
0.25
 49
-1.5
  0
LTYPE
  2
long_dashed_double-dotted
 70
   64
  3
----------- --- --- ------------
 72
   65
 73
    6
 40
17
 49
12
 49
-1.5
 49
0.25
 49
-1.5
 49
0.25
 49
-1.5
  0
LTYPE
  2
long_dashed_triplicate-dotted
 70
   64
  3
--------- --- --- --- ----------
 72
   65
 73
    8
 40
18.75
 49
12
 49
-1.5
 49
0.25
 49
-1.5
 49
0.25
 49
-1.5
 49
0.25
 49
-1.5
  0
LTYPE
  2
dotted
 70
   64
  3
   -       -       -       -    
 72
   65
 73
    2
 40
1.75
 49
0.25
 49
-1.5
  0
LTYPE
  2
chain
 70
   64
  3
-------------- -- --------------
 72
   65
 73
    4
 40
18.5
 49
12
 49
-1.5
 49
3.5
 49
-1.5
  0
LTYPE
  2
chain_double_dash
 70
   64
  3
------------ -- -- -------------
 72
   65
 73
    6
 40
23.5
 49
12
 49
-1.5
 49
3.5
 49
-1.5
 49
3.5
 49
-1.5
  0
LTYPE
  2
dashed_dotted
 70
   64
  3
-----------     -     ----------
 72
   65
 73
    4
 40
9.25
 49
6
 49
-1.5
 49
0.25
 49
-1.5
  0
LTYPE
  2
double-dashed_dotted
 70
   64
  3
------   -----------   -   -----
 72
   65
 73
    6
 40
16.75
 49
6
 49
-1.5
 49
6
 49
-1.5
 49
0.25
 49
-1.5
  0
LTYPE
  2
dashed_double-dotted
 70
   64
  3
---------    -    -    ---------
 72
   65
 73
    6
 40
11
 49
6
 49
-1.5
 49
0.25
 49
-1.5
 49
0.25
 49
-1.5
  0
LTYPE
  2
double-dashed_double-dotted
 70
   64
  3
-----   ---------   -   -   ----
 72
   65
 73
    8
 40
18.5
 49
6
 49
-1.5
 49
6
 49
-1.5
 49
0.25
 49
-1.5
 49
0.25
 49
-1.5
  0
LTYPE
  2
dashed_triplicate-dotted
 70
   64
  3
-------    -    -    -    ------
 72
   65
 73
    8
 40
12.75
 49
6
 49
-1.5
 49
0.25
 49
-1.5
 49
0.25
 49
-1.5
 49
0.25
 49
-1.5
  0
LTYPE
  2
double-dashed_triplicate-dotted
 70
   64
  3
-----  ---------  -  -  -  -----
 72
   65
 73
   10
 40
20.25
 49
6
 49
-1.5
 49
6
 49
-1.5
 49
0.25
 49
-1.5
 49
0.25
 49
-1.5
 49
0.25
 49
-1.5
  0
LTYPE
  2
undefined
 70
   64
  3
--------------------------------
 72
   65
 73
    0
 40
0
  0
LTYPE
  2
SLD-破線
 70
   64
  3
------     -----------     -----
 72
   65
 73
    2
 40
1.905
 49
1.27
 49
-0.635
  0
LTYPE
  2
SLD-2点鎖線
 70
   64
  3
---------   ---   ---   --------
 72
   65
 73
    6
 40
12.699999999999998
 49
6.3499999999999996
 49
-1.27
 49
1.27
 49
-1.27
 49
1.27
 49
-1.27
  0
LTYPE
  2
SLD-1点鎖線_中心線_
 70
   64
  3
--------------- - --------------
 72
   65
 73
    4
 40
34.290000000000006
 49
30.48
 49
-1.27
 49
1.27
 49
-1.27
  0
LTYPE
  2
SLD-点線
 70
   64
  3
-               -               
 72
   65
 73
    2
 40
0.645
 49
0.01
 49
-0.635
  0
LTYPE
  2
_
 70
   64
  3
                                
 72
   65
 73
    0
 40
0
  0
LTYPE
  2
__22
 70
   64
  3
                                
 72
   65
 73
    0
 40
0
  0
LTYPE
  2
__23
 70
   64
  3
                                
 72
   65
 73
    0
 40
0
  0
LTYPE
  2
__24
 70
   64
  3
                                
 72
   65
 73
    0
 40
0
  0
LTYPE
  2
__25
 70
   64
  3
                                
 72
   65
 73
    0
 40
0
  0
LTYPE
  2
__26
 70
   64
  3
                                
 72
   65
 73
    0
 40
0
  0
LTYPE
  2
__27
 70
   64
  3
                                
 72
   65
 73
    0
 40
0
  0
LTYPE
  2
__28
 70
   64
  3
                                
 72
   65
 73
    0
 40
0
  0
LTYPE
  2
__29
 70
   64
  3
                                
 72
   65
 73
    0
 40
0
  0
LTYPE
  2
__30
 70
   64
  3
                                
 72
   65
 73
    0
 40
0
  0
LTYPE
  2
__31
 70
   64
  3
                                
 72
   65
 73
    0
 40
0
  0
LTYPE
  2
__32
 70
   64
  3
                                
 72
   65
 73
    0
 40
0
  0
ENDTAB
  0
TABLE
  2
STYLE
  5
3
100
AcDbSymbolTable
 70
     1
  0
STYLE
  5
10
100
AcDbSymbolTableRecord
100
AcDbTextStyleTableRecord
  2
STANDARD
 70
     0
 40
0.0
 41
1.0
 50
0.0
 71
     0
 42
0.2
  3
txt
  4
bigfont.shx
  0
STYLE
  5
26
100
AcDbSymbolTableRecord
100
AcDbTextStyleTableRecord
  2
TATEGAKI
 70
    68
 40
0.0
 41
1.0
 50
0.0
 71
     0
 42
1.0
  3
txt
  4
bigfont.shx
  0
ENDTAB
  0
TABLE
  2
LAYER
 70
    2
  0
LAYER
  2
_0-0_0
 70
   64
 62
    7
  6
CONTINUOUS
  0
LAYER
  2
ADD_LINE
 70
   64
 62
    7
  6
CONTINUOUS
  0
ENDTAB
  0
ENDSEC
  0
SECTION
  2
BLOCKS
  0
ENDSEC
  0
SECTION
  2
ENTITIES
  0
LINE
  8
_0-0_0
  6
CONTINUOUS
 62
    7
 10
166.28793700860001
 20
155.51176490579999
 11
165.64753392
 21
155.765957257
  0
ARC
  8
_0-0_0
  6
CONTINUOUS
 62
    7
 10
166.00716855600001
 20
151.79399624530001
 40
2.7242249116429771
 50
90.016205540000001
 51
101.91964335909999
  0
LINE
  8
_0-0_0
  6
CONTINUOUS
 62
    7
 10
175.07718416220001
 20
157.39024067310001
 11
172.6176238164
 21
159.49172221910001
  0
ARC
  8
_0-0_0
  6
CONTINUOUS
 62
    7
 10
174.88127163690001
 20
157.16304193760001
 40
0.3000006847169309
 50
0
 51
49.171380036499997
  0
LINE
  8
_0-0_0
  6
CONTINUOUS
 62
    7
 10
175.18127304859999
 20
154.4162662235
 11
175.18127304859999
 21
157.16304247100001
  0
ARC
  8
_0-0_0
  6
CONTINUOUS
 62
    7
 10
167.4643482749
 20
157.46130887850001
 40
2.9146711311498601
 50
108.23250297960001
 51
142.71368019540003
  0
LINE
  8
_0-0_0
  6
CONTINUOUS
 62
    7
 10
167.0383451827
 20
160.5719136406
 11
166.0483947365
 21
160.00056850230001
  0
ARC
  8
_0-0_0
  6
CONTINUOUS
 62
    7
 10
173.8913221432
 20
153.84492107209999
 40
0.3000000000000088
 50
240.00881341000007
 51
299.99118659000004
  0
LINE
  8
_0-0_0
  6
CONTINUOUS
 62
    7
 10
168.7916157205
 20
156.4418140022
 11
173.74136317700001
 21
153.58509106579999
  0
LINE
  8
_0-0_0
  6
CONTINUOUS
 62
    7
 10
174.0412817973
 20
153.58509011570001
 11
175.0312322435
 21
154.156435254
  0
ARC
  8
_0-0_0
  6
CONTINUOUS
 62
    7
 10
168.9379633902
 20
155.60442403799999
 40
5.3586901909790949
 50
46.002208617699992
 51
106.83890848320002
  0
ARC
  8
_0-0_0
  6
CONTINUOUS
 62
    7
 10
174.88127163690001
 20
154.41626566080001
 40
0.300000000000023
 50
299.99118658999993
 51
359.99999999999994
  0
ARC
  8
_0-0_0
  6
CONTINUOUS
 62
    7
 10
168.16524721010001
 20
155.61252809690001
 40
1.03925580275428
 50
52.935858927700004
 51
113.06250722240003
  0
ARC
  8
_0-0_0
  6
CONTINUOUS
 62
    7
 10
174.35094155100001
 20
150.31247872110001
 40
0.2999999999999842
 50
0
 51
60.008813410000009
  0
LINE
  8
_0-0_0
  6
CONTINUOUS
 62
    7
 10
174.6509425465
 20
148.3525397743
 11
174.6509425465
 21
150.3124794096
  0
LINE
  8
_0-0_0
  6
CONTINUOUS
 62
    7
 10
174.5009004243
 20
150.5723088588
 11
170.08148314069999
 21
153.1229542868
  0
ARC
  8
_0-0_0
  6
CONTINUOUS
 62
    7
 10
173.3609920573
 20
147.78119440009999
 40
0.2999999999999983
 50
240.00881341000007
 51
299.99118659000004
  0
LINE
  8
_0-0_0
  6
CONTINUOUS
 62
    7
 10
173.5109516245
 20
147.52136328629999
 11
174.50090207069999
 21
148.09270842469999
  0
LINE
  8
_0-0_0
  6
CONTINUOUS
 62
    7
 10
166.10051606479999
 20
151.62516488669999
 11
173.2110330042
 21
147.52136423650001
  0
LINE
  8
_0-0_0
  6
CONTINUOUS
 62
    7
 10
173.88493608709999
 20
151.37057422769999
 11
173.50135498469999
 21
151.14919223940001
  0
ARC
  8
_0-0_0
  6
CONTINUOUS
 62
    7
 10
174.35094155100001
 20
148.35253898869999
 40
0.3000000000000088
 50
299.99118658999993
 51
359.99999999999994
  0
ARC
  8
_0-0_0
  6
CONTINUOUS
 62
    7
 10
170.1155899995
 20
156.12292490550001
 40
1.805021796277174
 50
164.47379493310001
 51
198.33666353710001
  0
LINE
  8
_0-0_0
  6
CONTINUOUS
 62
    7
 10
170.08148314069999
 20
153.1229542868
 11
169.87126521760001
 21
153.2593783948
  0
LINE
  8
_0-0_0
  6
CONTINUOUS
 62
    7
 10
169.87126521760001
 20
153.2593783948
 11
169.4951370846
 21
153.5843542293
  0
LINE
  8
_0-0_0
  6
CONTINUOUS
 62
    7
 10
165.1607886923
 20
159.24476738920001
 11
164.0750522889
 21
157.69953710089999
  0
LINE
  8
_0-0_0
  6
CONTINUOUS
 62
    7
 10
164.0534721146
 20
157.39036379180001
 11
164.5094061851
 21
156.49969312659999
  0
ARC
  8
_0-0_0
  6
CONTINUOUS
 62
    7
 10
164.32051784020001
 20
157.5270643794
 40
0.3000000000000189
 50
144.90670204840001
 51
207.10788884550001
  0
ARC
  8
_0-0_0
  6
CONTINUOUS
 62
    7
 10
164.03967863529999
 20
156.2403656237
 40
0.5365582212651479
 50
2.5406459366999998
 51
28.902240318299999
  0
LINE
  8
_0-0_0
  6
CONTINUOUS
 62
    7
 10
164.575709434
 20
154.13255665529999
 11
164.575709434
 21
153.34661350709999
  0
LINE
  8
_0-0_0
  6
CONTINUOUS
 62
    7
 10
164.575709434
 20
156.26415023370001
 11
164.575709434
 21
155.57309366600001
  0
LINE
  8
_0-0_0
  6
CONTINUOUS
 62
    7
 10
258.51619182849998
 20
205.546083694
 11
256.05622713629998
 21
207.6479107886
  0
ARC
  8
_0-0_0
  6
CONTINUOUS
 62
    7
 10
258.31987181689999
 20
205.3192286949
 40
0.2999999999999629
 50
0
 51
49.041904353
  0
LINE
  8
_0-0_0
  6
CONTINUOUS
 62
    7
 10
258.61986846600001
 20
202.57245023210001
 11
258.61986846600001
 21
205.31922647959999
  0
LINE
  8
_0-0_0
  6
CONTINUOUS
 62
    7
 10
250.47694060009999
 20
208.7280976493
 11
250.12109475810001
 21
208.52272293319999
  0
LINE
  8
_0-0_0
  6
CONTINUOUS
 62
    7
 10
257.54205962140003
 20
201.7771624012
 11
258.46982766090002
 21
202.3126192627
  0
ARC
  8
_0-0_0
  6
CONTINUOUS
 62
    7
 10
252.32742560060001
 20
203.66128188030001
 40
5.4643809945842179
 50
46.355026470099993
 51
104.26490365979998
  0
ARC
  8
_0-0_0
  6
CONTINUOUS
 62
    7
 10
258.31987181689999
 20
202.5724524181
 40
0.2999999999999661
 50
299.99118658999993
 51
359.99999999999994
  0
ARC
  8
_0-0_0
  6
CONTINUOUS
 62
    7
 10
257.78954173099999
 20
198.46866547849999
 40
0.300000000000023
 50
0
 51
60.008813410000009
  0
LINE
  8
_0-0_0
  6
CONTINUOUS
 62
    7
 10
258.0895379639
 20
196.50872378290001
 11
258.0895379639
 21
198.4686634183
  0
LINE
  8
_0-0_0
  6
CONTINUOUS
 62
    7
 10
257.93950637850003
 20
198.72849894859999
 11
257.01172911930001
 21
199.26396113120001
  0
LINE
  8
_0-0_0
  6
CONTINUOUS
 62
    7
 10
257.01172944860002
 20
195.71343557180001
 11
257.93949748810002
 21
196.2488924333
  0
ARC
  8
_0-0_0
  6
CONTINUOUS
 62
    7
 10
257.78954173099999
 20
196.5087257461
 40
0.3000000000000114
 50
299.99118658999993
 51
359.99999999999994
  0
LINE
  8
_0-0_0
  6
CONTINUOUS
 62
    7
 10
175.80467630449999
 20
157.2790158805
 11
257.12195761610002
 21
204.2108936564
  0
LINE
  8
_0-0_0
  6
CONTINUOUS
 62
    7
 10
248.7462545169
 20
208.10458828669999
 11
167.4289732053
 21
161.17271051079999
  0
LINE
  8
_0-0_0
  6
CONTINUOUS
 62
    7
 10
137.3388607734
 20
130.7763650453
 11
142.78358262980001
 21
133.91876007580001
  0
ARC
  8
_0-0_0
  6
CONTINUOUS
 62
    7
 10
140.19410440370001
 20
140.46645039680001
 40
0.3000000000000011
 50
21.2048984023
 51
95.122294490100003
  0
LINE
  8
_0-0_0
  6
CONTINUOUS
 62
    7
 10
142.91331062949999
 20
134.28710238950001
 11
140.47379242720001
 21
140.57496174170001
  0
LINE
  8
_0-0_0
  6
CONTINUOUS
 62
    7
 10
140.1673201365
 20
140.7652524298
 11
135.63576408310001
 21
140.35904445450001
  0
ARC
  8
_0-0_0
  6
CONTINUOUS
 62
    7
 10
142.63362279879999
 20
134.1785909944
 40
0.300000000000023
 50
299.99118658999993
 51
21.204898402299946
  0
LINE
  8
_0-0_0
  6
CONTINUOUS
 62
    7
 10
135.51258810729999
 20
140.32007293640001
 11
130.067866251
 21
137.1776779059
  0
LINE
  8
_0-0_0
  6
CONTINUOUS
 62
    7
 10
139.1313313377
 20
131.44188246389999
 11
145.328970752
 21
135.01882024139999
  0
LINE
  8
_0-0_0
  6
CONTINUOUS
 62
    7
 10
142.53449376730001
 20
135.26350376529999
 11
149.08918481859999
 21
139.04651217770001
  0
LINE
  8
_0-0_0
  6
CONTINUOUS
 62
    7
 10
143.5258978681
 20
142.89874417780001
 11
139.76710889189999
 21
140.72937719980001
  0
ARC
  8
_0-0_0
  6
CONTINUOUS
 62
    7
 10
135.66254837950001
 20
140.0602424054
 40
0.2999999999999983
 50
95.122294490100003
 51
119.99118659
  0
LINE
  8
_0-0_0
  6
CONTINUOUS
 62
    7
 10
170.01846010200001
 20
155.7337443282
 11
147.74364256390001
 21
142.8779405272
  0
LINE
  8
_0-0_0
  6
CONTINUOUS
 62
    7
 10
148.3292417431
 20
141.36855960029999
 11
171.41756984860001
 21
154.6938771124
  0
LINE
  8
_0-0_0
  6
CONTINUOUS
 62
    7
 10
171.41756984860001
 20
154.6938771124
 11
171.62265032190001
 21
154.80789337249999
  0
LINE
  8
_0-0_0
  6
CONTINUOUS
 62
    7
 10
258.61987093549999
 20
205.02226574490001
 11
282.94951856009999
 21
219.06400484669999
  0
LINE
  8
_0-0_0
  6
CONTINUOUS
 62
    7
 10
282.3639220151
 20
220.57338729380001
 11
257.63344732450003
 21
206.30031277879999
  0
LINE
  8
_0-0_0
  6
CONTINUOUS
 62
    7
 10
280.81700269959998
 20
220.43471665929999
 11
257.1066608671
 21
206.7504069165
  0
LINE
  8
_0-0_0
  6
CONTINUOUS
 62
    7
 10
169.07087424080001
 20
155.94097611399999
 11
147.50459000719999
 21
143.49409890160001
  0
LINE
  8
_0-0_0
  6
CONTINUOUS
 62
    7
 10
169.35801554650001
 20
156.1149169979
 11
169.07087424080001
 21
155.94097611399999
  0
ARC
  8
_0-0_0
  6
CONTINUOUS
 62
    7
 10
173.4155392431
 20
159.84130196410001
 40
5.577063367998794
 50
255.77694847410001
 51
259.55555960179998
  0
LINE
  8
_0-0_0
  6
CONTINUOUS
 62
    7
 10
175.10555755230001
 20
157.63470259159999
 11
174.91785656249999
 21
157.52637186819999
  0
LINE
  8
_0-0_0
  6
CONTINUOUS
 62
    7
 10
174.94588849729999
 20
150.3434397954
 11
256.97027275469998
 21
197.68341863539999
  0
LINE
  8
_0-0_0
  6
CONTINUOUS
 62
    7
 10
174.9251644309
 20
147.84771504380001
 11
256.94954868830001
 21
195.18769388379999
  0
LINE
  8
_0-0_0
  6
CONTINUOUS
 62
    7
 10
173.34889172359999
 20
151.23718644819999
 11
173.82275664400001
 21
151.51067530770001
  0
LINE
  8
_0-0_0
  6
CONTINUOUS
 62
    7
 10
166.7855277235
 20
154.71217493239999
 11
166.40685746969999
 21
155.2229361318
  0
LINE
  8
_0-0_0
  6
CONTINUOUS
 62
    7
 10
166.40685746969999
 20
155.2229361318
 11
165.86566147720001
 21
155.659611068
  0
LINE
  8
_0-0_0
  6
CONTINUOUS
 62
    7
 10
165.86566147720001
 20
155.659611068
 11
165.32446532
 21
155.84763355480001
  0
LINE
  8
_0-0_0
  6
CONTINUOUS
 62
    7
 10
165.32446532
 20
155.84763355480001
 11
164.86566131250001
 21
155.7583787964
  0
LINE
  8
_0-0_0
  6
CONTINUOUS
 62
    7
 10
164.86566131250001
 20
155.7583787964
 11
164.55909830729999
 21
155.40543495489999
  0
LINE
  8
_0-0_0
  6
CONTINUOUS
 62
    7
 10
164.55909830729999
 20
155.40543495489999
 11
164.451447683
 21
154.84253463740001
  0
LINE
  8
_0-0_0
  6
CONTINUOUS
 62
    7
 10
164.451447683
 20
154.84253463740001
 11
164.55909830729999
 21
154.15537414479999
  0
LINE
  8
_0-0_0
  6
CONTINUOUS
 62
    7
 10
164.55909830729999
 20
154.15537414479999
 11
164.84297807620001
 21
153.50086608020001
  0
LINE
  8
_0-0_0
  6
CONTINUOUS
 62
    7
 10
165.97172747880001
 20
154.74092195630001
 11
166.01424838060001
 21
154.46780039000001
  0
LINE
  8
_0-0_0
  6
CONTINUOUS
 62
    7
 10
166.01424838060001
 20
154.46780039000001
 11
166.1150160624
 21
154.2350167036
  0
LINE
  8
_0-0_0
  6
CONTINUOUS
 62
    7
 10
165.97172747880001
 20
155.19007480920001
 11
165.97172747880001
 21
154.74092195630001
  0
LINE
  8
_0-0_0
  6
CONTINUOUS
 62
    7
 10
165.75959531090001
 20
155.3125058695
 11
165.97172747880001
 21
155.19007480920001
  0
LINE
  8
_0-0_0
  6
CONTINUOUS
 62
    7
 10
165.75959531090001
 20
154.8633530166
 11
165.75959531090001
 21
155.3125058695
  0
LINE
  8
_0-0_0
  6
CONTINUOUS
 62
    7
 10
165.19390985909999
 20
154.53652237910001
 11
165.40952177619999
 21
154.46136992550001
  0
LINE
  8
_0-0_0
  6
CONTINUOUS
 62
    7
 10
165.40952177619999
 20
154.46136992550001
 11
165.5939275739
 21
154.4969848602
  0
LINE
  8
_0-0_0
  6
CONTINUOUS
 62
    7
 10
165.5939275739
 20
154.4969848602
 11
165.71691932190001
 21
154.63896738770001
  0
LINE
  8
_0-0_0
  6
CONTINUOUS
 62
    7
 10
165.71691932190001
 20
154.63896738770001
 11
165.75959531090001
 21
154.8633530166
  0
LINE
  8
_0-0_0
  6
CONTINUOUS
 62
    7
 10
164.80500113150001
 20
154.76097918049999
 11
165.19390985909999
 21
154.53652237910001
  0
LINE
  8
_0-0_0
  6
CONTINUOUS
 62
    7
 10
164.80500113150001
 20
154.51598674990001
 11
164.80500113150001
 21
154.76097918049999
  0
LINE
  8
_0-0_0
  6
CONTINUOUS
 62
    7
 10
165.19390985909999
 20
154.29152994840001
 11
164.80500113150001
 21
154.51598674990001
  0
LINE
  8
_0-0_0
  6
CONTINUOUS
 62
    7
 10
165.5601793081
 20
153.91479540840001
 11
165.40953642880001
 21
154.11778833860001
  0
LINE
  8
_0-0_0
  6
CONTINUOUS
 62
    7
 10
165.40953642880001
 20
154.11778833860001
 11
165.19390985909999
 21
154.29152994840001
  0
LINE
  8
_0-0_0
  6
CONTINUOUS
 62
    7
 10
165.75959531090001
 20
155.3125058695
 11
165.9717256678
 21
155.09677554589999
  0
LINE
  8
_0-0_0
  6
CONTINUOUS
 62
    7
 10
165.75959531090001
 20
154.8633530166
 11
165.9934653745
 21
154.74066067090001
  0
LINE
  8
_0-0_0
  6
CONTINUOUS
 62
    7
 10
164.80500113150001
 20
154.51598674990001
 11
165.33013407109999
 21
154.48904086620001
  0
LINE
  8
_0-0_0
  6
CONTINUOUS
 62
    7
 10
165.5280497448
 20
154.47888504630001
 11
166.02038568610001
 21
154.45362217650001
  0
LINE
  8
_0-0_0
  6
CONTINUOUS
 62
    7
 10
171.22585058480001
 20
158.56543144290001
 11
173.67919130710001
 21
156.4692640852
  0
ARC
  8
_0-0_0
  6
CONTINUOUS
 62
    7
 10
171.7522706659
 20
158.43623816729999
 40
0.5420415151941324
 50
120.23973529720001
 51
166.2110759855
  0
LINE
  8
_0-0_0
  6
CONTINUOUS
 62
    7
 10
173.9418764795
 20
156.80045337769999
 11
171.47928814599999
 21
158.9045217865
  0
ARC
  8
_0-0_0
  6
CONTINUOUS
 62
    7
 10
174.25797500120001
 20
156.2822738676
 40
0.6069829322910654
 50
121.38391797200001
 51
162.14506937599998
  0
LINE
  8
_0-0_0
  6
CONTINUOUS
 62
    7
 10
164.6635800155
 20
155.8604813659
 11
164.6635800155
 21
156.14172040849999
  0
ARC
  8
_0-0_0
  6
CONTINUOUS
 62
    7
 10
163.82356193370001
 20
156.11708386230001
 40
0.8403792817974
 50
1.6799228911000001
 51
28.181267231600007
  0
LINE
  8
_0-0_0
  6
CONTINUOUS
 62
    7
 10
164.5643208946
 20
156.5139635658
 11
164.10838715329999
 21
157.40463402910001
  0
LINE
  8
_0-0_0
  6
CONTINUOUS
 62
    7
 10
164.10838715329999
 20
157.40463402910001
 11
165.1914459148
 21
158.9460545307
  0
LINE
  8
_0-0_0
  6
CONTINUOUS
 62
    7
 10
165.1914459148
 20
158.9460545307
 11
165.71897167579999
 21
159.4435819066
  0
LINE
  8
_0-0_0
  6
CONTINUOUS
 62
    7
 10
165.71897167579999
 20
159.4435819066
 11
166.34039979209999
 21
159.79152363559999
  0
LINE
  8
_0-0_0
  6
CONTINUOUS
 62
    7
 10
166.34039979209999
 20
159.79152363559999
 11
167.04295079600001
 21
159.98272393920001
  0
LINE
  8
_0-0_0
  6
CONTINUOUS
 62
    7
 10
167.04295079600001
 20
159.98272393920001
 11
167.81217659129999
 21
160.01325140520001
  0
LINE
  8
_0-0_0
  6
CONTINUOUS
 62
    7
 10
167.81217659129999
 20
160.01325140520001
 11
168.63225795119999
 21
159.8824777012
  0
LINE
  8
_0-0_0
  6
CONTINUOUS
 62
    7
 10
168.63225795119999
 20
159.8824777012
 11
169.48632979780001
 21
159.59309252989999
  0
LINE
  8
_0-0_0
  6
CONTINUOUS
 62
    7
 10
169.48632979780001
 20
159.59309252989999
 11
170.3568280081
 21
159.15104645580001
  0
LINE
  8
_0-0_0
  6
CONTINUOUS
 62
    7
 10
170.3568280081
 20
159.15104645580001
 11
171.22585058480001
 21
158.56543144290001
  0
LINE
  8
_0-0_0
  6
CONTINUOUS
 62
    7
 10
173.67919130710001
 20
156.4692671274
 11
173.67919130710001
 21
153.72249087989999
  0
LINE
  8
_0-0_0
  6
CONTINUOUS
 62
    7
 10
173.67919130710001
 20
153.72249087989999
 11
168.72944385060001
 21
156.57921381630001
  0
LINE
  8
_0-0_0
  6
CONTINUOUS
 62
    7
 10
168.72944385060001
 20
156.57921381630001
 11
168.28504822080001
 21
156.77513072470001
  0
LINE
  8
_0-0_0
  6
CONTINUOUS
 62
    7
 10
168.28504822080001
 20
156.77513072470001
 11
167.8650653915
 21
156.83915755469999
  0
LINE
  8
_0-0_0
  6
CONTINUOUS
 62
    7
 10
167.8650653915
 20
156.83915755469999
 11
167.49256703739999
 21
156.76777666219999
  0
LINE
  8
_0-0_0
  6
CONTINUOUS
 62
    7
 10
167.49256703739999
 20
156.76777666219999
 11
167.18801629730001
 21
156.5649095805
  0
LINE
  8
_0-0_0
  6
CONTINUOUS
 62
    7
 10
167.18801629730001
 20
156.5649095805
 11
166.96814367959999
 21
156.24170074770001
  0
LINE
  8
_0-0_0
  6
CONTINUOUS
 62
    7
 10
166.96814367959999
 20
156.24170074770001
 11
166.84502779600001
 21
155.81590546300001
  0
LINE
  8
_0-0_0
  6
CONTINUOUS
 62
    7
 10
166.84502779600001
 20
155.81590546300001
 11
166.82543198100001
 21
155.31091480340001
  0
LINE
  8
_0-0_0
  6
CONTINUOUS
 62
    7
 10
166.82543198100001
 20
155.31091480340001
 11
166.91043279019999
 21
154.7544703586
  0
LINE
  8
_0-0_0
  6
CONTINUOUS
 62
    7
 10
164.6635800155
 20
155.8604813659
 11
164.88665538219999
 21
155.9875735894
  0
LINE
  8
_0-0_0
  6
CONTINUOUS
 62
    7
 10
164.88665538219999
 20
155.9875735894
 11
165.14971460789999
 21
156.03456626560001
  0
LINE
  8
_0-0_0
  6
CONTINUOUS
 62
    7
 10
165.14971460789999
 20
156.03456626560001
 11
165.4420140329
 21
155.99954016039999
  0
LINE
  8
_0-0_0
  6
CONTINUOUS
 62
    7
 10
165.4420140329
 20
155.99954016039999
 11
165.75161556239999
 21
155.88392593239999
  0
LINE
  8
_0-0_0
  6
CONTINUOUS
 62
    7
 10
165.75161556239999
 20
155.88392593239999
 11
166.06587497730001
 21
155.6924452399
  0
LINE
  8
_0-0_0
  6
CONTINUOUS
 62
    7
 10
166.06587497730001
 20
155.6924452399
 11
166.371957245
 21
155.43291856409999
  0
LINE
  8
_0-0_0
  6
CONTINUOUS
 62
    7
 10
166.371957245
 20
155.43291856409999
 11
166.65736203829999
 21
155.1159450259
  0
LINE
  8
_0-0_0
  6
CONTINUOUS
 62
    7
 10
166.65736203829999
 20
155.1159450259
 11
166.91043279019999
 21
154.7544703586
  0
LINE
  8
_0-0_0
  6
CONTINUOUS
 62
    7
 10
172.46923859220001
 20
159.4758669249
 11
171.47928814599999
 21
158.9045217865
  0
LINE
  8
_0-0_0
  6
CONTINUOUS
 62
    7
 10
172.46923859220001
 20
159.4758669249
 11
174.93182692569999
 21
157.3717985161
  0
LINE
  8
_0-0_0
  6
CONTINUOUS
 62
    7
 10
174.93182692569999
 20
157.3717985161
 11
173.9418764795
 21
156.80045337769999
  0
ARC
  8
_0-0_0
  6
CONTINUOUS
 62
    7
 10
173.89129333060001
 20
156.87896467260001
 40
0.461372805385352
 50
242.7032193032
 51
297.37715628900003
  0
ARC
  8
_0-0_0
  6
CONTINUOUS
 62
    7
 10
173.6339518451
 20
156.44521721230001
 40
0.4701173403544187
 50
2.9322591340000002
 51
49.080708681600008
  0
LINE
  8
_0-0_0
  6
CONTINUOUS
 62
    7
 10
174.1034536672
 20
153.7224899297
 11
174.1034536672
 21
156.46926617720001
  0
ARC
  8
_0-0_0
  6
CONTINUOUS
 62
    7
 10
173.89132340430001
 20
154.13200834040001
 40
0.4611990645051684
 50
242.61561692530003
 51
297.38412643230004
  0
ARC
  8
_0-0_0
  6
CONTINUOUS
 62
    7
 10
174.6239022913
 20
157.01656235070001
 40
0.4701173403544158
 50
2.9322591340000002
 51
49.080708681600008
  0
LINE
  8
_0-0_0
  6
CONTINUOUS
 62
    7
 10
175.0934041134
 20
157.04061131559999
 11
174.1034536672
 21
156.46926617720001
  0
LINE
  8
_0-0_0
  6
CONTINUOUS
 62
    7
 10
175.0934041134
 20
157.04061131559999
 11
175.0934041134
 21
154.29383506810001
  0
LINE
  8
_0-0_0
  6
CONTINUOUS
 62
    7
 10
175.0934041134
 20
154.29383506810001
 11
174.1034536672
 21
153.7224899297
  0
LINE
  8
_0-0_0
  6
CONTINUOUS
 62
    7
 10
172.46923859220001
 20
159.4758669249
 11
172.5370834938
 21
159.5041725088
  0
LINE
  8
_0-0_0
  6
CONTINUOUS
 62
    7
 10
172.5370834938
 20
159.5041725088
 11
172.5926254668
 21
159.5049006278
  0
LINE
  8
_0-0_0
  6
CONTINUOUS
 62
    7
 10
172.5926254668
 20
159.5049006278
 11
172.61503079740001
 21
159.4885932414
  0
LINE
  8
_0-0_0
  6
CONTINUOUS
 62
    7
 10
166.51877431
 20
160.2199107662
 11
166.41324419899999
 21
160.17914155739999
  0
LINE
  8
_0-0_0
  6
CONTINUOUS
 62
    7
 10
166.41324419899999
 20
160.17914155739999
 11
166.0483947365
 21
160.00056850230001
  0
ARC
  8
_0-0_0
  6
CONTINUOUS
 62
    7
 10
165.35841508070001
 20
159.11202162469999
 40
0.2354225534376354
 50
142.4058382995
 51
224.82755162820004
  0
LINE
  8
_0-0_0
  6
CONTINUOUS
 62
    7
 10
168.72944385060001
 20
152.16934930400001
 11
173.14886113419999
 21
149.61870387600001
  0
LINE
  8
_0-0_0
  6
CONTINUOUS
 62
    7
 10
173.14886113419999
 20
149.61870387600001
 11
173.14886113419999
 21
147.65876424070001
  0
LINE
  8
_0-0_0
  6
CONTINUOUS
 62
    7
 10
167.02086576510001
 20
152.15634045749999
 11
166.90692044299999
 21
152.09057752710001
  0
LINE
  8
_0-0_0
  6
CONTINUOUS
 62
    7
 10
164.7376827363
 20
153.44009563290001
 11
164.6635800155
 21
153.5797256932
  0
ARC
  8
_0-0_0
  6
CONTINUOUS
 62
    7
 10
173.3609932315
 20
150.02822151090001
 40
0.4611992194265722
 50
242.61562689489998
 51
297.38411646280002
  0
ARC
  8
_0-0_0
  6
CONTINUOUS
 62
    7
 10
173.60937200039999
 20
149.59777693870001
 40
0.4609861110571146
 50
122.60216291290001
 51
177.39810514019999
  0
ARC
  8
_0-0_0
  6
CONTINUOUS
 62
    7
 10
173.112607045
 20
149.5977726564
 40
0.4609918397845941
 50
2.6022770723000002
 51
57.397711653700014
  0
LINE
  8
_0-0_0
  6
CONTINUOUS
 62
    7
 10
173.57312349439999
 20
147.65876329049999
 11
173.57312349439999
 21
149.61870292579999
  0
ARC
  8
_0-0_0
  6
CONTINUOUS
 62
    7
 10
173.3609932315
 20
148.06828187560001
 40
0.4611992194265077
 50
242.61562689489998
 51
297.38411646280002
  0
LINE
  8
_0-0_0
  6
CONTINUOUS
 62
    7
 10
174.35094193730001
 20
150.5574715553
 11
173.3609914912
 21
149.98612641689999
  0
ARC
  8
_0-0_0
  6
CONTINUOUS
 62
    7
 10
174.1025574912
 20
150.1691177948
 40
0.4609918397846282
 50
2.6022770723000002
 51
57.397711653700014
  0
LINE
  8
_0-0_0
  6
CONTINUOUS
 62
    7
 10
174.56307394059999
 20
150.1900480642
 11
173.57312349439999
 21
149.61870292579999
  0
ARC
  8
_0-0_0
  6
CONTINUOUS
 62
    7
 10
169.1899547168
 20
152.1484223667
 40
0.4609861110574571
 50
122.60216291300003
 51
177.39810514019999
  0
LINE
  8
_0-0_0
  6
CONTINUOUS
 62
    7
 10
173.3609914912
 20
149.98612641689999
 11
168.9415742075
 21
152.53677184489999
  0
LINE
  8
_0-0_0
  6
CONTINUOUS
 62
    7
 10
174.56307394059999
 20
150.1900480642
 11
174.56307394059999
 21
148.2301084289
  0
LINE
  8
_0-0_0
  6
CONTINUOUS
 62
    7
 10
174.56307394059999
 20
148.2301084289
 11
173.57312349439999
 21
147.65876329049999
  0
LINE
  8
_0-0_0
  6
CONTINUOUS
 62
    7
 10
169.9315246537
 20
153.10811698329999
 11
168.9415742075
 21
152.53677184489999
  0
LINE
  8
_0-0_0
  6
CONTINUOUS
 62
    7
 10
169.9315246537
 20
153.10811698329999
 11
174.35094193730001
 21
150.5574715553
  0
LINE
  8
_0-0_0
  6
CONTINUOUS
 62
    7
 10
166.2493413613
 20
155.52708486860001
 11
166.2742550879
 21
155.52404089309999
  0
ARC
  8
_0-0_0
  6
CONTINUOUS
 62
    7
 10
165.7379217166
 20
154.02758810559999
 40
1.163954823473881
 50
174.84495146670002
 51
202.62986310440002
  0
ARC
  8
_0-0_0
  6
CONTINUOUS
 62
    7
 10
165.0417378553
 20
155.566892209
 40
0.4787462217465798
 50
142.17542556359999
 51
196.34217637059993
  0
LINE
  8
_0-0_0
  6
CONTINUOUS
 62
    7
 10
257.11778672449998
 20
204.6254480938
 11
254.6644460023
 21
206.7216154516
  0
ARC
  8
_0-0_0
  6
CONTINUOUS
 62
    7
 10
255.19103718860001
 20
206.59229424739999
 40
0.5422381869884338
 50
120.2479045263
 51
166.20225721759999
  0
LINE
  8
_0-0_0
  6
CONTINUOUS
 62
    7
 10
254.91788883180001
 20
207.0607088358
 11
257.38047716530002
 21
204.956640427
  0
ARC
  8
_0-0_0
  6
CONTINUOUS
 62
    7
 10
257.68955351059998
 20
204.443982457
 40
0.5986203984181046
 50
121.0853533539
 51
162.4424102662
  0
LINE
  8
_0-0_0
  6
CONTINUOUS
 62
    7
 10
254.91788883180001
 20
207.0607088358
 11
255.90783400960001
 21
207.63205093350001
  0
LINE
  8
_0-0_0
  6
CONTINUOUS
 62
    7
 10
258.37042234310002
 20
205.52798252470001
 11
255.90783400960001
 21
207.63205093350001
  0
LINE
  8
_0-0_0
  6
CONTINUOUS
 62
    7
 10
257.38047716530002
 20
204.956640427
 11
258.37042234310002
 21
205.52798252470001
  0
ARC
  8
_0-0_0
  6
CONTINUOUS
 62
    7
 10
257.0725525309
 20
204.60140426149999
 40
0.4701173403542914
 50
2.9322591340000002
 51
49.080708681600008
  0
ARC
  8
_0-0_0
  6
CONTINUOUS
 62
    7
 10
257.32988843010003
 20
205.03517110749999
 40
0.4613925886870888
 50
242.70453153800003
 51
297.37666530110005
  0
ARC
  8
_0-0_0
  6
CONTINUOUS
 62
    7
 10
258.06249770869999
 20
205.17274635929999
 40
0.4701173403543287
 50
2.9322591340000002
 51
49.080708681600008
  0
LINE
  8
_0-0_0
  6
CONTINUOUS
 62
    7
 10
257.54205435300003
 20
204.62545322650001
 11
258.53199953080002
 21
205.1967953242
  0
LINE
  8
_0-0_0
  6
CONTINUOUS
 62
    7
 10
258.53199953080002
 20
202.45001907669999
 11
258.53199953080002
 21
205.1967953242
  0
LINE
  8
_0-0_0
  6
CONTINUOUS
 62
    7
 10
257.54205435300003
 20
201.87867697900001
 11
258.53199953080002
 21
202.45001907669999
  0
LINE
  8
_0-0_0
  6
CONTINUOUS
 62
    7
 10
256.05363148309999
 20
207.6447802907
 11
256.0312287868
 21
207.66108919729999
  0
LINE
  8
_0-0_0
  6
CONTINUOUS
 62
    7
 10
256.0312287868
 20
207.66108919729999
 11
255.97568944790001
 21
207.6603625987
  0
LINE
  8
_0-0_0
  6
CONTINUOUS
 62
    7
 10
255.97568944790001
 20
207.6603625987
 11
255.90783400960001
 21
207.63205093350001
  0
ARC
  8
_0-0_0
  6
CONTINUOUS
 62
    7
 10
257.5411529086
 20
198.32530180340001
 40
0.4609918397847154
 50
2.6022770723000002
 51
57.397711653700014
  0
LINE
  8
_0-0_0
  6
CONTINUOUS
 62
    7
 10
257.01172418020002
 20
197.7748899751
 11
258.00166935800002
 21
198.34623207280001
  0
LINE
  8
_0-0_0
  6
CONTINUOUS
 62
    7
 10
258.00166935800002
 20
196.3862924375
 11
258.00166935800002
 21
198.34623207280001
  0
LINE
  8
_0-0_0
  6
CONTINUOUS
 62
    7
 10
257.01172418020002
 20
195.8149503397
 11
258.00166935800002
 21
196.3862924375
  0
LINE
  8
_0-0_0
  6
CONTINUOUS
 62
    7
 10
173.05171791679999
 20
160.0330367144
 11
175.73891602559999
 21
157.7083534965
  0
ARC
  8
_0-0_0
  6
CONTINUOUS
 62
    7
 10
175.53311161139999
 20
157.47196671559999
 40
0.3134233033045292
 50
2.9326756349999998
 51
48.956331004599996
  0
LINE
  8
_0-0_0
  6
CONTINUOUS
 62
    7
 10
175.84612443730001
 20
157.48800223500001
 11
175.84612443730001
 21
157.3706156298
  0
ARC
  8
_0-0_0
  6
CONTINUOUS
 62
    7
 10
175.75989660050001
 20
157.35661906429999
 40
0.0873564175777283
 50
230.81512964149996
 51
9.2198788967999743
  0
LINE
  8
_0-0_0
  6
CONTINUOUS
 62
    7
 10
175.7047026628
 20
157.2889081129
 11
175.03295137399999
 21
157.67660613819999
  0
ARC
  8
_0-0_0
  6
CONTINUOUS
 62
    7
 10
174.97775735639999
 20
157.6088957051
 40
0.0873560663063499
 50
50.814874274099999
 51
189.22013426370006
  0
LINE
  8
_0-0_0
  6
CONTINUOUS
 62
    7
 10
174.89152992870001
 20
157.5948988115
 11
174.89152992870001
 21
157.54886421489999
  0
LINE
  8
_0-0_0
  6
CONTINUOUS
 62
    7
 10
166.3970183209
 20
160.2017746978
 11
166.54634987349999
 21
160.4143051563
  0
LINE
  8
_0-0_0
  6
CONTINUOUS
 62
    7
 10
166.54634987349999
 20
160.4143051563
 11
167.1101729614
 21
160.9612469894
  0
LINE
  8
_0-0_0
  6
CONTINUOUS
 62
    7
 10
167.1101729614
 20
160.9612469894
 11
167.77723228529999
 21
161.3453501134
  0
LINE
  8
_0-0_0
  6
CONTINUOUS
 62
    7
 10
167.77723228529999
 20
161.3453501134
 11
168.53352438990001
 21
161.55855088679999
  0
LINE
  8
_0-0_0
  6
CONTINUOUS
 62
    7
 10
168.53352438990001
 20
161.55855088679999
 11
169.3631718085
 21
161.59637346919999
  0
LINE
  8
_0-0_0
  6
CONTINUOUS
 62
    7
 10
169.3631718085
 20
161.59637346919999
 11
170.2487576645
 21
161.45802400810001
  0
LINE
  8
_0-0_0
  6
CONTINUOUS
 62
    7
 10
170.2487576645
 20
161.45802400810001
 11
171.17169048509999
 21
161.14640635410001
  0
LINE
  8
_0-0_0
  6
CONTINUOUS
 62
    7
 10
171.17169048509999
 20
161.14640635410001
 11
172.1125947589
 21
160.66806321409999
  0
LINE
  8
_0-0_0
  6
CONTINUOUS
 62
    7
 10
172.1125947589
 20
160.66806321409999
 11
173.05171791679999
 21
160.0330367144
  0
LINE
  8
_0-0_0
  6
CONTINUOUS
 62
    7
 10
175.73891602559999
 20
157.7083534965
 11
257.05619733719999
 21
204.64023127230001
  0
LINE
  8
_0-0_0
  6
CONTINUOUS
 62
    7
 10
173.05171791679999
 20
160.0330367144
 11
254.36899922840001
 21
206.9649144903
  0
LINE
  8
_0-0_0
  6
CONTINUOUS
 62
    7
 10
254.36899922840001
 20
206.9649144903
 11
257.05619733719999
 21
204.64023127230001
  0
LINE
  8
_0-0_0
  6
CONTINUOUS
 62
    7
 10
175.84612443730001
 20
157.48800223500001
 11
257.1634057489
 21
204.41988001089999
  0
ARC
  8
_0-0_0
  6
CONTINUOUS
 62
    7
 10
256.85039292300002
 20
204.4038444915
 40
0.3134233033046282
 50
2.9326756349999998
 51
48.956331004599996
  0
LINE
  8
_0-0_0
  6
CONTINUOUS
 62
    7
 10
175.84612443730001
 20
157.3706156298
 11
257.1634057489
 21
204.30249340570001
  0
LINE
  8
_0-0_0
  6
CONTINUOUS
 62
    7
 10
257.1634057489
 20
204.41988001089999
 11
257.1634057489
 21
204.30249340570001
  0
ARC
  8
_0-0_0
  6
CONTINUOUS
 62
    7
 10
257.0677362079
 20
204.29060574159999
 40
0.0964052780882554
 50
304.22415049569997
 51
7.0831285259999879
  0
ARC
  8
_0-0_0
  6
CONTINUOUS
 62
    7
 10
250.65966244809999
 20
203.1045146534
 40
5.3536778246082308
 50
46.143253366499998
 51
110.94064656150002
  0
ARC
  8
_0-0_0
  6
CONTINUOUS
 62
    7
 10
134.5901681325
 20
137.24561541969999
 40
0.3558168476995676
 50
15.469914662700003
 51
81.409617493300004
  0
LINE
  8
_0-0_0
  6
CONTINUOUS
 62
    7
 10
135.268969774
 20
136.4748033164
 11
134.93309396500001
 21
137.3405232831
  0
LINE
  8
_0-0_0
  6
CONTINUOUS
 62
    7
 10
134.65402766259999
 20
136.4196801997
 11
135.268969774
 21
136.4748033164
  0
ARC
  8
_0-0_0
  6
CONTINUOUS
 62
    7
 10
134.34314089649999
 20
136.30111485969999
 40
0.3327285998749133
 50
20.875745351900001
 51
82.859981026699998
  0
LINE
  8
_0-0_0
  6
CONTINUOUS
 62
    7
 10
134.3844972492
 20
136.6312632707
 11
131.0776860551
 21
136.33484137970001
  0
LINE
  8
_0-0_0
  6
CONTINUOUS
 62
    7
 10
130.98493211909999
 20
136.0907828558
 11
130.97507518949999
 21
136.13785571770001
  0
LINE
  8
_0-0_0
  6
CONTINUOUS
 62
    7
 10
130.97507518949999
 20
136.13785571770001
 11
130.97162293459999
 21
136.18258366169999
  0
LINE
  8
_0-0_0
  6
CONTINUOUS
 62
    7
 10
130.97162293459999
 20
136.18258366169999
 11
130.97468170920001
 21
136.2235939158
  0
LINE
  8
_0-0_0
  6
CONTINUOUS
 62
    7
 10
130.97468170920001
 20
136.2235939158
 11
130.98415734150001
 21
136.25962772939999
  0
LINE
  8
_0-0_0
  6
CONTINUOUS
 62
    7
 10
130.98415734150001
 20
136.25962772939999
 11
130.9997592487
 21
136.28957887870001
  0
LINE
  8
_0-0_0
  6
CONTINUOUS
 62
    7
 10
130.9997592487
 20
136.28957887870001
 11
131.02100825740001
 21
136.31252851119999
  0
LINE
  8
_0-0_0
  6
CONTINUOUS
 62
    7
 10
131.02100825740001
 20
136.31252851119999
 11
131.04725232609999
 21
136.3277720083
  0
LINE
  8
_0-0_0
  6
CONTINUOUS
 62
    7
 10
131.04725232609999
 20
136.3277720083
 11
131.0776860551
 21
136.33484137970001
  0
LINE
  8
_0-0_0
  6
CONTINUOUS
 62
    7
 10
130.3699901722
 20
136.035659549
 11
130.98493211909999
 21
136.0907828558
  0
LINE
  8
_0-0_0
  6
CONTINUOUS
 62
    7
 10
130.3699901722
 20
136.035659549
 11
130.0341145278
 21
136.90137932549999
  0
LINE
  8
_0-0_0
  6
CONTINUOUS
 62
    7
 10
130.111760218
 20
137.19123235910001
 11
130.077957787
 21
137.18276666259999
  0
LINE
  8
_0-0_0
  6
CONTINUOUS
 62
    7
 10
130.077957787
 20
137.18276666259999
 11
130.0495305609
 21
137.16412019110001
  0
LINE
  8
_0-0_0
  6
CONTINUOUS
 62
    7
 10
130.0495305609
 20
137.16412019110001
 11
130.02757073570001
 21
137.13600972500001
  0
LINE
  8
_0-0_0
  6
CONTINUOUS
 62
    7
 10
130.02757073570001
 20
137.13600972500001
 11
130.01292240090001
 21
137.09951522919999
  0
LINE
  8
_0-0_0
  6
CONTINUOUS
 62
    7
 10
130.01292240090001
 20
137.09951522919999
 11
130.00614844750001
 21
137.0560392484
  0
LINE
  8
_0-0_0
  6
CONTINUOUS
 62
    7
 10
130.00614844750001
 20
137.0560392484
 11
130.00750900040001
 21
137.00725280559999
  0
LINE
  8
_0-0_0
  6
CONTINUOUS
 62
    7
 10
130.00750900040001
 20
137.00725280559999
 11
130.0169520348
 21
136.9550304672
  0
LINE
  8
_0-0_0
  6
CONTINUOUS
 62
    7
 10
130.0169520348
 20
136.9550304672
 11
130.0341145278
 21
136.90137932549999
  0
LINE
  8
_0-0_0
  6
CONTINUOUS
 62
    7
 10
130.111760218
 20
137.19123235910001
 11
134.6433162715
 21
137.59744052459999
  0
LINE
  8
_0-0_0
  6
CONTINUOUS
 62
    7
 10
134.6433162715
 20
137.59744052459999
 11
140.08803812790001
 21
140.7398355551
  0
ARC
  8
_0-0_0
  6
CONTINUOUS
 62
    7
 10
140.03488998890001
 20
140.3880104502
 40
0.3558168476994795
 50
15.469914662700003
 51
81.409617493300004
  0
LINE
  8
_0-0_0
  6
CONTINUOUS
 62
    7
 10
140.3778158213
 20
140.48291831360001
 11
134.93309396500001
 21
137.3405232831
  0
LINE
  8
_0-0_0
  6
CONTINUOUS
 62
    7
 10
137.37261249650001
 20
131.05266362200001
 11
142.81733435289999
 21
134.19505865249999
  0
LINE
  8
_0-0_0
  6
CONTINUOUS
 62
    7
 10
137.37261249650001
 20
131.05266362200001
 11
137.0367366875
 21
131.91838346980001
  0
LINE
  8
_0-0_0
  6
CONTINUOUS
 62
    7
 10
137.0367366875
 20
131.91838346980001
 11
139.1580570495
 21
133.14269331329999
  0
LINE
  8
_0-0_0
  6
CONTINUOUS
 62
    7
 10
139.1580570495
 20
133.14269331329999
 11
137.390290136
 21
137.69911315990001
  0
LINE
  8
_0-0_0
  6
CONTINUOUS
 62
    7
 10
137.390290136
 20
137.69911315990001
 11
135.268969774
 21
136.4748033164
  0
LINE
  8
_0-0_0
  6
CONTINUOUS
 62
    7
 10
142.81733435289999
 20
134.19505865249999
 11
140.3778158213
 21
140.48291831360001
  0
LINE
  8
_0-0_0
  6
CONTINUOUS
 62
    7
 10
135.55648207440001
 20
140.3336273896
 11
130.111760218
 21
137.19123235910001
  0
LINE
  8
_0-0_0
  6
CONTINUOUS
 62
    7
 10
140.08803812790001
 20
140.7398355551
 11
135.55648207440001
 21
140.3336273896
  0
LINE
  8
_0-0_0
  6
CONTINUOUS
 62
    7
 10
138.54311510260001
 20
133.08756995900001
 11
136.42179474060001
 21
131.8632601155
  0
LINE
  8
_0-0_0
  6
CONTINUOUS
 62
    7
 10
138.54311510260001
 20
133.08756995900001
 11
139.1580570495
 21
133.14269331329999
  0
LINE
  8
_0-0_0
  6
CONTINUOUS
 62
    7
 10
136.42179474060001
 20
131.8632601155
 11
137.0367366875
 21
131.91838346980001
  0
LINE
  8
_0-0_0
  6
CONTINUOUS
 62
    7
 10
135.74728711380001
 20
131.56705322639999
 11
136.10084056229999
 21
130.65576919290001
  0
LINE
  8
_0-0_0
  6
CONTINUOUS
 62
    7
 10
135.74728711380001
 20
131.56705322639999
 11
136.32904072229999
 21
131.61920166280001
  0
LINE
  8
_0-0_0
  6
CONTINUOUS
 62
    7
 10
136.42179474060001
 20
131.8632601155
 11
136.43165183479999
 21
131.81618720610001
  0
LINE
  8
_0-0_0
  6
CONTINUOUS
 62
    7
 10
136.43165183479999
 20
131.81618720610001
 11
136.4351039252
 21
131.77145930949999
  0
LINE
  8
_0-0_0
  6
CONTINUOUS
 62
    7
 10
136.4351039252
 20
131.77145930949999
 11
136.43204531520001
 21
131.73044900799999
  0
LINE
  8
_0-0_0
  6
CONTINUOUS
 62
    7
 10
136.43204531520001
 20
131.73044900799999
 11
136.42256951830001
 21
131.69441536069999
  0
LINE
  8
_0-0_0
  6
CONTINUOUS
 62
    7
 10
136.42256951830001
 20
131.69441536069999
 11
136.406967611
 21
131.66446414009999
  0
LINE
  8
_0-0_0
  6
CONTINUOUS
 62
    7
 10
136.406967611
 20
131.66446414009999
 11
136.38571868470001
 21
131.64151448379999
  0
LINE
  8
_0-0_0
  6
CONTINUOUS
 62
    7
 10
136.38571868470001
 20
131.64151448379999
 11
136.359474369
 21
131.62627115309999
  0
LINE
  8
_0-0_0
  6
CONTINUOUS
 62
    7
 10
136.359474369
 20
131.62627115309999
 11
136.32904072229999
 21
131.61920166280001
  0
LINE
  8
_0-0_0
  6
CONTINUOUS
 62
    7
 10
137.29496680630001
 20
130.76281051710001
 11
137.32876890809999
 21
130.77127640660001
  0
LINE
  8
_0-0_0
  6
CONTINUOUS
 62
    7
 10
137.32876890809999
 20
130.77127640660001
 11
137.35719629889999
 21
130.7899227995
  0
LINE
  8
_0-0_0
  6
CONTINUOUS
 62
    7
 10
137.35719629889999
 20
130.7899227995
 11
137.37915612399999
 21
130.8180333592
  0
LINE
  8
_0-0_0
  6
CONTINUOUS
 62
    7
 10
137.37915612399999
 20
130.8180333592
 11
137.39380445879999
 21
130.85452782530001
  0
LINE
  8
_0-0_0
  6
CONTINUOUS
 62
    7
 10
137.39380445879999
 20
130.85452782530001
 11
137.40057857689999
 21
130.89800361600001
  0
LINE
  8
_0-0_0
  6
CONTINUOUS
 62
    7
 10
137.40057857689999
 20
130.89800361600001
 11
137.3992180239
 21
130.9467900587
  0
LINE
  8
_0-0_0
  6
CONTINUOUS
 62
    7
 10
137.3992180239
 20
130.9467900587
 11
137.38977482499999
 21
130.9990124803
  0
LINE
  8
_0-0_0
  6
CONTINUOUS
 62
    7
 10
137.38977482499999
 20
130.9990124803
 11
137.37261249650001
 21
131.05266362200001
  0
LINE
  8
_0-0_0
  6
CONTINUOUS
 62
    7
 10
136.10084056229999
 20
130.65576919290001
 11
137.29496680630001
 21
130.76281051710001
  0
ARC
  8
_0-0_0
  6
CONTINUOUS
 62
    7
 10
138.0987637284
 20
132.9663614724
 40
0.4605861928413407
 50
15.257728782399999
 51
21.259234259899998
  0
LINE
  8
_0-0_0
  6
CONTINUOUS
 62
    7
 10
138.5280067745
 20
133.13336461110001
 11
136.8725510049
 21
137.40030267969999
  0
LINE
  8
_0-0_0
  6
CONTINUOUS
 62
    7
 10
138.51578089579999
 20
133.16487609629999
 11
135.74728711380001
 21
131.56705322639999
  0
LINE
  8
_0-0_0
  6
CONTINUOUS
 62
    7
 10
135.85386431059999
 20
132.7621591697
 11
138.18159293630001
 21
134.0262468391
  0
LINE
  8
_0-0_0
  6
CONTINUOUS
 62
    7
 10
135.85386431059999
 20
132.7621591697
 11
135.70781691939999
 21
133.13859619070001
  0
LINE
  8
_0-0_0
  6
CONTINUOUS
 62
    7
 10
135.70781691939999
 20
133.13859619070001
 11
137.99586099449999
 21
134.5049704772
  0
LINE
  8
_0-0_0
  6
CONTINUOUS
 62
    7
 10
135.70781691939999
 20
133.13859619070001
 11
135.17316438969999
 21
133.09066996280001
  0
LINE
  8
_0-0_0
  6
CONTINUOUS
 62
    7
 10
135.17316438969999
 20
133.09066996280001
 11
137.8968990418
 21
134.7600452289
  0
LINE
  8
_0-0_0
  6
CONTINUOUS
 62
    7
 10
135.17316438969999
 20
133.09066996280001
 11
135.31921161630001
 21
132.71423301300001
  0
LINE
  8
_0-0_0
  6
CONTINUOUS
 62
    7
 10
135.31921161630001
 20
132.71423301300001
 11
135.85386431059999
 21
132.7621591697
  0
LINE
  8
_0-0_0
  6
CONTINUOUS
 62
    7
 10
136.59454372440001
 20
137.23985201249999
 11
137.31457617550001
 21
135.3839681856
  0
LINE
  8
_0-0_0
  6
CONTINUOUS
 62
    7
 10
133.9794057782
 20
132.59413301679999
 11
137.34576775279999
 21
134.42225725579999
  0
LINE
  8
_0-0_0
  6
CONTINUOUS
 62
    7
 10
133.9794057782
 20
132.59413301679999
 11
133.8333584694
 21
132.97056999029999
  0
LINE
  8
_0-0_0
  6
CONTINUOUS
 62
    7
 10
133.8333584694
 20
132.97056999029999
 11
137.69618866979999
 21
135.27737517029999
  0
LINE
  8
_0-0_0
  6
CONTINUOUS
 62
    7
 10
133.8333584694
 20
132.97056999029999
 11
133.2987058162
 21
132.9226437861
  0
LINE
  8
_0-0_0
  6
CONTINUOUS
 62
    7
 10
133.2987058162
 20
132.9226437861
 11
137.58946782800001
 21
135.55244912699999
  0
LINE
  8
_0-0_0
  6
CONTINUOUS
 62
    7
 10
133.2987058162
 20
132.9226437861
 11
133.4447531662
 21
132.54620678890001
  0
LINE
  8
_0-0_0
  6
CONTINUOUS
 62
    7
 10
133.4447531662
 20
132.54620678890001
 11
133.9794057782
 21
132.59413301679999
  0
LINE
  8
_0-0_0
  6
CONTINUOUS
 62
    7
 10
131.4685043147
 20
136.36987422249999
 11
130.98493211909999
 21
136.0907828558
  0
LINE
  8
_0-0_0
  6
CONTINUOUS
 62
    7
 10
146.38924354420001
 20
135.3668022928
 11
145.675091538
 21
134.95463289739999
  0
LINE
  8
_0-0_0
  6
CONTINUOUS
 62
    7
 10
145.675091538
 20
134.95463289739999
 11
145.63973592970001
 21
135.04576152999999
  0
LINE
  8
_0-0_0
  6
CONTINUOUS
 62
    7
 10
144.79825434290001
 20
135.00623838659999
 11
145.63973592970001
 21
135.04576152999999
  0
LINE
  8
_0-0_0
  6
CONTINUOUS
 62
    7
 10
144.79825434290001
 20
135.00623838659999
 11
139.28282094069999
 21
131.82303252759999
  0
LINE
  8
_0-0_0
  6
CONTINUOUS
 62
    7
 10
139.28282094069999
 20
131.82303252759999
 11
139.25895759260001
 21
131.8845398702
  0
ARC
  8
_0-0_0
  6
CONTINUOUS
 62
    7
 10
143.87827980279999
 20
135.3238892947
 40
0.8709200511065277
 50
164.6570680465
 51
197.88101117159999
  0
ARC
  8
_0-0_0
  6
CONTINUOUS
 62
    7
 10
143.54498004480001
 20
135.21769510249999
 40
0.5211154907984062
 50
198.0208826864
 51
295.94206084249998
  0
LINE
  8
_0-0_0
  6
CONTINUOUS
 62
    7
 10
145.39929507369999
 20
135.68772705870001
 11
143.77294828839999
 21
134.74908883430001
  0
LINE
  8
_0-0_0
  6
CONTINUOUS
 62
    7
 10
146.2011349153
 20
135.85165191190001
 11
145.39929507369999
 21
135.68772705870001
  0
LINE
  8
_0-0_0
  6
CONTINUOUS
 62
    7
 10
146.38924354420001
 20
135.3668022928
 11
146.2011349153
 21
135.85165191190001
  0
LINE
  8
_0-0_0
  6
CONTINUOUS
 62
    7
 10
147.10768201670001
 20
144.5171294411
 11
149.1229365417
 21
139.32281073429999
  0
LINE
  8
_0-0_0
  6
CONTINUOUS
 62
    7
 10
146.8601945698
 20
142.9243569137
 11
146.5066411212
 21
143.8356411492
  0
ARC
  8
_0-0_0
  6
CONTINUOUS
 62
    7
 10
146.80425124429999
 20
143.9680101628
 40
0.325719727839317
 50
126.019545357
 51
203.97821743540001
  0
LINE
  8
_0-0_0
  6
CONTINUOUS
 62
    7
 10
146.6127081107
 20
144.23145763209999
 11
147.10768201670001
 21
144.5171294411
  0
LINE
  8
_0-0_0
  6
CONTINUOUS
 62
    7
 10
139.28282094069999
 20
131.82303252759999
 11
139.1297277818
 21
131.80930929670001
  0
LINE
  8
_0-0_0
  6
CONTINUOUS
 62
    7
 10
139.16508306079999
 20
131.71818094919999
 11
139.1297277818
 21
131.80930929670001
  0
LINE
  8
_0-0_0
  6
CONTINUOUS
 62
    7
 10
139.08743737059999
 20
131.42832782049999
 11
139.1212398017
 21
131.43679351700001
  0
LINE
  8
_0-0_0
  6
CONTINUOUS
 62
    7
 10
139.1212398017
 20
131.43679351700001
 11
139.1496668632
 21
131.45544008350001
  0
LINE
  8
_0-0_0
  6
CONTINUOUS
 62
    7
 10
139.1496668632
 20
131.45544008350001
 11
139.17162668829999
 21
131.48355073979999
  0
LINE
  8
_0-0_0
  6
CONTINUOUS
 62
    7
 10
139.17162668829999
 20
131.48355073979999
 11
139.18627502309999
 21
131.52004523560001
  0
LINE
  8
_0-0_0
  6
CONTINUOUS
 62
    7
 10
139.18627502309999
 20
131.52004523560001
 11
139.19304914119999
 21
131.5635210264
  0
LINE
  8
_0-0_0
  6
CONTINUOUS
 62
    7
 10
139.19304914119999
 20
131.5635210264
 11
139.19168858820001
 21
131.61230746909999
  0
LINE
  8
_0-0_0
  6
CONTINUOUS
 62
    7
 10
139.19168858820001
 20
131.61230746909999
 11
139.18224538929999
 21
131.6645298075
  0
LINE
  8
_0-0_0
  6
CONTINUOUS
 62
    7
 10
139.18224538929999
 20
131.6645298075
 11
139.16508306079999
 21
131.71818094919999
  0
LINE
  8
_0-0_0
  6
CONTINUOUS
 62
    7
 10
139.08743737059999
 20
131.42832782049999
 11
138.84248844819999
 21
131.4063706892
  0
ARC
  8
_0-0_0
  6
CONTINUOUS
 62
    7
 10
138.86248941650001
 20
131.68488120110001
 40
0.2792277636314601
 50
215.18078021359997
 51
265.89240954209993
  0
LINE
  8
_0-0_0
  6
CONTINUOUS
 62
    7
 10
143.0078255958
 20
135.35237387410001
 11
143.2559915082
 21
135.4956016367
  0
LINE
  8
_0-0_0
  6
CONTINUOUS
 62
    7
 10
145.39929507369999
 20
135.68772705870001
 11
143.2559915082
 21
135.4956016367
  0
LINE
  8
_0-0_0
  6
CONTINUOUS
 62
    7
 10
132.13775716800001
 20
131.47923974989999
 11
132.7526991149
 21
131.5343629617
  0
ARC
  8
_0-0_0
  6
CONTINUOUS
 62
    7
 10
133.06358598759999
 20
131.65292802479999
 40
0.332728600893517
 50
200.8756942581
 51
262.85999110620003
  0
LINE
  8
_0-0_0
  6
CONTINUOUS
 62
    7
 10
133.02222969280001
 20
131.3227796056
 11
133.60398346599999
 21
131.3749278638
  0
LINE
  8
_0-0_0
  6
CONTINUOUS
 62
    7
 10
133.60398346599999
 20
131.3749278638
 11
133.95753683219999
 21
130.4636438659
  0
LINE
  8
_0-0_0
  6
CONTINUOUS
 62
    7
 10
132.7634106294
 20
130.3566025655
 11
133.95753683219999
 21
130.4636438659
  0
ARC
  8
_0-0_0
  6
CONTINUOUS
 62
    7
 10
132.8165582853
 20
130.70842717740001
 40
0.3558162880947454
 50
195.46985277109999
 51
261.40968255749999
  0
LINE
  8
_0-0_0
  6
CONTINUOUS
 62
    7
 10
132.4736328896
 20
130.61351983380001
 11
132.13775716800001
 21
131.47923974989999
  0
LINE
  8
_0-0_0
  6
CONTINUOUS
 62
    7
 10
133.60398346599999
 20
131.3749278638
 11
138.18456387750001
 21
134.01858781589999
  0
LINE
  8
_0-0_0
  6
CONTINUOUS
 62
    7
 10
133.95753683219999
 20
130.4636438659
 11
135.76962313249999
 21
131.50948075810001
  0
ARC
  8
_0-0_0
  6
CONTINUOUS
 62
    7
 10
146.51727025919999
 20
142.82945076690001
 40
0.3558149230533769
 50
15.469713629999999
 51
81.409818525999995
  0
LINE
  8
_0-0_0
  6
CONTINUOUS
 62
    7
 10
144.8555312515
 20
135.00239575160001
 11
144.7859323166
 21
134.9991270207
  0
LINE
  8
_0-0_0
  6
CONTINUOUS
 62
    7
 10
139.16508306079999
 20
131.71818094919999
 11
144.8555312515
 21
135.00239575160001
  0
LINE
  8
_0-0_0
  6
CONTINUOUS
 62
    7
 10
145.30293055560068
 20
135.01556991875765
 11
145.32524376522312
 21
135.01797920762141
  0
LINE
  8
_0-0_0
  6
CONTINUOUS
 62
    7
 10
145.32524376522312
 20
135.01797920762141
 11
145.32770300399969
 21
135.01941463047072
  0
LINE
  8
_0-0_0
  6
CONTINUOUS
 62
    7
 10
145.32770300399969
 20
135.01941463047072
 11
145.3102335492045
 21
135.01983257270862
  0
LINE
  8
_0-0_0
  6
CONTINUOUS
 62
    7
 10
145.3102335492045
 20
135.01983257270862
 11
145.27336620138161
 21
135.01922033537176
  0
LINE
  8
_0-0_0
  6
CONTINUOUS
 62
    7
 10
145.27336620138161
 20
135.01922033537176
 11
145.2182211562388
 21
135.01759652098173
  0
LINE
  8
_0-0_0
  6
CONTINUOUS
 62
    7
 10
145.2182211562388
 20
135.01759652098173
 11
145.14647396806799
 21
135.01501046831714
  0
LINE
  8
_0-0_0
  6
CONTINUOUS
 62
    7
 10
145.14647396806799
 20
135.01501046831714
 11
145.06030463887595
 21
135.01154075327958
  0
LINE
  8
_0-0_0
  6
CONTINUOUS
 62
    7
 10
145.06030463887595
 20
135.01154075327958
 11
144.96233138012639
 21
135.00729280140473
  0
LINE
  8
_0-0_0
  6
CONTINUOUS
 62
    7
 10
144.96233138012639
 20
135.00729280140473
 11
144.85553105970951
 21
135.0023956845607
  0
LINE
  8
_0-0_0
  6
CONTINUOUS
 62
    7
 10
146.57041687629999
 20
143.1812741553
 11
143.5697919175
 21
142.91229877360001
  0
LINE
  8
_0-0_0
  6
CONTINUOUS
 62
    7
 10
137.71828448439999
 20
132.7046049349
 11
137.72924859189999
 21
133.42741634839999
  0
LINE
  8
_0-0_0
  6
CONTINUOUS
 62
    7
 10
137.72924859189999
 20
133.42741634839999
 11
138.39091130809999
 21
133.48672781880001
  0
LINE
  8
_0-0_0
  6
CONTINUOUS
 62
    7
 10
132.7526991149
 20
131.5343629617
 11
134.8740194769
 21
132.75867280509999
  0
ARC
  8
_0-0_0
  6
CONTINUOUS
 62
    7
 10
135.32233875029999
 20
132.98609094720001
 40
0.5027018821447025
 50
201.2360518445
 51
206.8972346196
  0
LINE
  8
_0-0_0
  6
CONTINUOUS
 62
    7
 10
137.72924859189999
 20
133.42741634839999
 11
137.95454852189999
 21
133.55744711930001
  0
LINE
  8
_0-0_0
  6
CONTINUOUS
 62
    7
 10
137.95454852189999
 20
133.55744711930001
 11
138.34973070909999
 21
133.59287133999999
  0
LINE
  8
_0-0_0
  6
CONTINUOUS
 62
    7
 10
134.25907753000001
 20
132.7035495934
 11
134.8740194769
 21
132.75867280509999
  0
LINE
  8
_0-0_0
  6
CONTINUOUS
 62
    7
 10
132.13775716800001
 20
131.47923974989999
 11
134.25907753000001
 21
132.7035495934
  0
LINE
  8
_0-0_0
  6
CONTINUOUS
 62
    7
 10
149.1229365417
 20
139.32281073429999
 11
149.14009887009999
 21
139.26915959269999
  0
LINE
  8
_0-0_0
  6
CONTINUOUS
 62
    7
 10
149.14009887009999
 20
139.26915959269999
 11
149.14954173979999
 21
139.21693737300001
  0
LINE
  8
_0-0_0
  6
CONTINUOUS
 62
    7
 10
149.14954173979999
 20
139.21693737300001
 11
149.15090262199999
 21
139.16815074019999
  0
LINE
  8
_0-0_0
  6
CONTINUOUS
 62
    7
 10
149.15090262199999
 20
139.16815074019999
 11
149.14412850389999
 21
139.12467494949999
  0
LINE
  8
_0-0_0
  6
CONTINUOUS
 62
    7
 10
149.14412850389999
 20
139.12467494949999
 11
149.12948016920001
 21
139.08818050119999
  0
LINE
  8
_0-0_0
  6
CONTINUOUS
 62
    7
 10
149.12948016920001
 20
139.08818050119999
 11
149.10752034399999
 21
139.06006994000001
  0
LINE
  8
_0-0_0
  6
CONTINUOUS
 62
    7
 10
149.10752034399999
 20
139.06006994000001
 11
149.08918481859999
 21
139.04651217770001
  0
LINE
  8
_0-0_0
  6
CONTINUOUS
 62
    7
 10
133.40303395999999
 20
136.54328518369999
 11
134.51784687360001
 21
133.66985458170001
  0
LINE
  8
_0-0_0
  6
CONTINUOUS
 62
    7
 10
134.76886545650001
 20
133.02285402530001
 11
134.8537722996
 21
132.80400672619999
  0
LINE
  8
_0-0_0
  6
CONTINUOUS
 62
    7
 10
134.25907753000001
 20
132.7035495934
 11
134.24547066279999
 21
132.7386211548
  0
LINE
  8
_0-0_0
  6
CONTINUOUS
 62
    7
 10
134.0059100544
 20
133.35608884929999
 11
132.79066148920001
 21
136.4883922603
  0
LINE
  8
_0-0_0
  6
CONTINUOUS
 62
    7
 10
143.5258978681
 20
142.89874417780001
 11
143.53598956880001
 21
142.90383302960001
  0
LINE
  8
_0-0_0
  6
CONTINUOUS
 62
    7
 10
143.53598956880001
 20
142.90383302960001
 11
143.5697919175
 21
142.91229877360001
  0
LINE
  8
_0-0_0
  6
CONTINUOUS
 62
    7
 10
145.63973592970001
 20
135.04576152999999
 11
145.32709258310001
 21
135.01773610480001
  0
LINE
  8
_0-0_0
  6
CONTINUOUS
 62
    7
 10
144.05783151450001
 20
135.6595264899
 11
146.2011349153
 21
135.85165191190001
  0
LINE
  8
_0-0_0
  6
CONTINUOUS
 62
    7
 10
143.2559915082
 20
135.4956016367
 11
144.05783151450001
 21
135.6595264899
  0
LINE
  8
_0-0_0
  6
CONTINUOUS
 62
    7
 10
146.5066411212
 20
143.8356411492
 11
143.13859277879999
 21
143.53372959519999
  0
LINE
  8
_0-0_0
  6
CONTINUOUS
 62
    7
 10
143.24465976819999
 20
143.9295462682
 11
146.6127081107
 21
144.23145763209999
  0
ARC
  8
_0-0_0
  6
CONTINUOUS
 62
    7
 10
143.4362023125
 20
143.66609889329999
 40
0.325719304998459
 50
126.01947127150001
 51
203.9783052834
  0
LINE
  8
_0-0_0
  6
CONTINUOUS
 62
    7
 10
145.675091538
 20
134.95463289739999
 11
145.13366357309999
 21
134.90609951499999
  0
LINE
  8
_0-0_0
  6
CONTINUOUS
 62
    7
 10
143.41073637900001
 20
142.83227935479999
 11
143.13859277879999
 21
143.53372959519999
  0
LINE
  8
_0-0_0
  6
CONTINUOUS
 62
    7
 10
143.73963367420001
 20
144.21521807729999
 11
147.10768201670001
 21
144.5171294411
  0
LINE
  8
_0-0_0
  6
CONTINUOUS
 62
    7
 10
143.24465976819999
 20
143.9295462682
 11
143.73963367420001
 21
144.21521807729999
  0
LINE
  8
_0-0_0
  6
CONTINUOUS
 62
    7
 10
287.32176462989997
 20
223.3210176991
 11
287.2268469636
 21
223.3125092466
  0
LINE
  8
_0-0_0
  6
CONTINUOUS
 62
    7
 10
287.2268469636
 20
223.3125092466
 11
286.9858828939
 21
223.17343799279999
  0
LINE
  8
_0-0_0
  6
CONTINUOUS
 62
    7
 10
286.9858828939
 20
223.17343799279999
 11
286.83278973509999
 21
223.15971495209999
  0
LINE
  8
_0-0_0
  6
CONTINUOUS
 62
    7
 10
286.83278973509999
 20
223.15971495209999
 11
286.4447331641
 21
222.93574996870001
  0
LINE
  8
_0-0_0
  6
CONTINUOUS
 62
    7
 10
286.4447331641
 20
222.93574996870001
 11
286.29164033450002
 21
222.92202635769999
  0
LINE
  8
_0-0_0
  6
CONTINUOUS
 62
    7
 10
286.29164033450002
 20
222.92202635769999
 11
285.90336249260002
 21
222.6979336688
  0
LINE
  8
_0-0_0
  6
CONTINUOUS
 62
    7
 10
285.90336249260002
 20
222.6979336688
 11
285.75026933380002
 21
222.6842106281
  0
LINE
  8
_0-0_0
  6
CONTINUOUS
 62
    7
 10
285.75026933380002
 20
222.6842106281
 11
285.36199149190003
 21
222.46011793919999
  0
LINE
  8
_0-0_0
  6
CONTINUOUS
 62
    7
 10
285.36199149190003
 20
222.46011793919999
 11
285.20889833299998
 21
222.44639489849999
  0
LINE
  8
_0-0_0
  6
CONTINUOUS
 62
    7
 10
285.20889833299998
 20
222.44639489849999
 11
284.82060995440003
 21
222.22229612839999
  0
LINE
  8
_0-0_0
  6
CONTINUOUS
 62
    7
 10
284.82060995440003
 20
222.22229612839999
 11
284.66751679549998
 21
222.20857270740001
  0
LINE
  8
_0-0_0
  6
CONTINUOUS
 62
    7
 10
284.66751679549998
 20
222.20857270740001
 11
284.49137457889998
 21
222.1069130743
  0
LINE
  8
_0-0_0
  6
CONTINUOUS
 62
    7
 10
284.49137457889998
 20
222.1069130743
 11
284.17282573440002
 21
221.96697917009999
  0
LINE
  8
_0-0_0
  6
CONTINUOUS
 62
    7
 10
284.17282573440002
 20
221.96697917009999
 11
286.1954213843
 21
223.13431052089999
  0
ARC
  8
_0-0_0
  6
CONTINUOUS
 62
    7
 10
285.80225086619998
 20
224.21404797669999
 40
1.1490935688130239
 50
290.00835060029999
 51
334.69369328030001
  0
LINE
  8
_0-0_0
  6
CONTINUOUS
 62
    7
 10
286.84107224939999
 20
223.72285945510001
 11
286.820720096
 21
223.94553461070001
  0
ARC
  8
_0-0_0
  6
CONTINUOUS
 62
    7
 10
286.73250530630003
 20
223.3336968845
 40
0.6181644217511793
 50
81.795630775700005
 51
127.47043648360001
  0
LINE
  8
_0-0_0
  6
CONTINUOUS
 62
    7
 10
286.35644374830002
 20
223.82431379920001
 11
287.54426837990002
 21
224.50986107189999
  0
LINE
  8
_0-0_0
  6
CONTINUOUS
 62
    7
 10
287.54426837990002
 20
224.50986107189999
 11
287.63636978059998
 21
223.50259054860001
  0
LINE
  8
_0-0_0
  6
CONTINUOUS
 62
    7
 10
287.63636978059998
 20
223.50259054860001
 11
287.32176462989997
 21
223.3210176991
  0
LINE
  8
_0-0_0
  6
CONTINUOUS
 62
    7
 10
286.08236476809998
 20
218.00613525040001
 11
284.49137457889998
 21
222.1069130743
  0
LINE
  8
_0-0_0
  6
CONTINUOUS
 62
    7
 10
285.76381592360002
 20
217.86620144130001
 11
284.17282573440002
 21
221.96697917009999
  0
LINE
  8
_0-0_0
  6
CONTINUOUS
 62
    7
 10
286.08236476809998
 20
218.00613525040001
 11
285.76381592360002
 21
217.86620144130001
  0
LINE
  8
_0-0_0
  6
CONTINUOUS
 62
    7
 10
286.41160014360003
 20
218.12151820950001
 11
284.82060995440003
 21
222.22229612839999
  0
LINE
  8
_0-0_0
  6
CONTINUOUS
 62
    7
 10
286.25850698469998
 20
218.10779488349999
 11
284.66751679549998
 21
222.20857270740001
  0
LINE
  8
_0-0_0
  6
CONTINUOUS
 62
    7
 10
286.41160014360003
 20
218.12151820950001
 11
286.25850698469998
 21
218.10779488349999
  0
LINE
  8
_0-0_0
  6
CONTINUOUS
 62
    7
 10
286.79988852219998
 20
218.34561697949999
 11
285.20889833299998
 21
222.44639489849999
  0
LINE
  8
_0-0_0
  6
CONTINUOUS
 62
    7
 10
286.79988852219998
 20
218.34561697949999
 11
286.41160014360003
 21
218.12151820950001
  0
LINE
  8
_0-0_0
  6
CONTINUOUS
 62
    7
 10
286.25850698469998
 20
218.10779488349999
 11
286.08236476809998
 21
218.00613525040001
  0
LINE
  8
_0-0_0
  6
CONTINUOUS
 62
    7
 10
287.34125952300002
 20
218.58343289920001
 11
285.75026933380002
 21
222.6842106281
  0
LINE
  8
_0-0_0
  6
CONTINUOUS
 62
    7
 10
286.95298168110003
 20
218.35934021040001
 11
285.36199149190003
 21
222.46011793919999
  0
LINE
  8
_0-0_0
  6
CONTINUOUS
 62
    7
 10
287.34125952300002
 20
218.58343289920001
 11
286.95298168110003
 21
218.35934021040001
  0
LINE
  8
_0-0_0
  6
CONTINUOUS
 62
    7
 10
286.95298168110003
 20
218.35934021040001
 11
286.79988852219998
 21
218.34561697949999
  0
LINE
  8
_0-0_0
  6
CONTINUOUS
 62
    7
 10
287.49435235250002
 20
218.59715613
 11
285.90336249260002
 21
222.6979336688
  0
LINE
  8
_0-0_0
  6
CONTINUOUS
 62
    7
 10
287.49435235250002
 20
218.59715613
 11
287.34125952300002
 21
218.58343289920001
  0
LINE
  8
_0-0_0
  6
CONTINUOUS
 62
    7
 10
287.8826301945
 20
218.82124881889999
 11
286.29164033450002
 21
222.92202635769999
  0
LINE
  8
_0-0_0
  6
CONTINUOUS
 62
    7
 10
287.8826301945
 20
218.82124881889999
 11
287.49435235250002
 21
218.59715613
  0
LINE
  8
_0-0_0
  6
CONTINUOUS
 62
    7
 10
288.0357233533
 20
218.83497204970001
 11
286.4447331641
 21
222.93574996870001
  0
LINE
  8
_0-0_0
  6
CONTINUOUS
 62
    7
 10
288.0357233533
 20
218.83497204970001
 11
287.8826301945
 21
218.82124881889999
  0
LINE
  8
_0-0_0
  6
CONTINUOUS
 62
    7
 10
288.42377992429999
 20
219.05893703309999
 11
286.83278973509999
 21
223.15971495209999
  0
LINE
  8
_0-0_0
  6
CONTINUOUS
 62
    7
 10
288.42377992429999
 20
219.05893703309999
 11
288.0357233533
 21
218.83497204970001
  0
LINE
  8
_0-0_0
  6
CONTINUOUS
 62
    7
 10
288.5768730831
 20
219.07266026400001
 11
286.9858828939
 21
223.17343799279999
  0
LINE
  8
_0-0_0
  6
CONTINUOUS
 62
    7
 10
288.5768730831
 20
219.07266026400001
 11
288.42377992429999
 21
219.05893703309999
  0
LINE
  8
_0-0_0
  6
CONTINUOUS
 62
    7
 10
288.8178371528
 20
219.21173151779999
 11
287.2268469636
 21
223.3125092466
  0
LINE
  8
_0-0_0
  6
CONTINUOUS
 62
    7
 10
288.8178371528
 20
219.21173151779999
 11
288.5768730831
 21
219.07266026400001
  0
LINE
  8
_0-0_0
  6
CONTINUOUS
 62
    7
 10
288.91275514829999
 20
219.22023978030001
 11
287.32176462989997
 21
223.3210176991
  0
LINE
  8
_0-0_0
  6
CONTINUOUS
 62
    7
 10
288.91275514829999
 20
219.22023978030001
 11
288.8178371528
 21
219.21173151779999
  0
LINE
  8
_0-0_0
  6
CONTINUOUS
 62
    7
 10
289.22736029909998
 20
219.4018126297
 11
287.63636978059998
 21
223.50259054860001
  0
LINE
  8
_0-0_0
  6
CONTINUOUS
 62
    7
 10
289.22736029909998
 20
219.4018126297
 11
288.91275514829999
 21
219.22023978030001
  0
LINE
  8
_0-0_0
  6
CONTINUOUS
 62
    7
 10
281.91131589930001
 20
217.99792089140001
 11
282.33581895750001
 21
218.0359733457
  0
LINE
  8
_0-0_0
  6
CONTINUOUS
 62
    7
 10
282.33581895750001
 20
218.0359733457
 11
282.53936584529998
 21
217.5113312755
  0
LINE
  8
_0-0_0
  6
CONTINUOUS
 62
    7
 10
282.53936584529998
 20
217.5113312755
 11
283.09337843100002
 21
217.56099289310001
  0
LINE
  8
_0-0_0
  6
CONTINUOUS
 62
    7
 10
283.09337843100002
 20
217.56099289310001
 11
282.88983154319999
 21
218.08563493950001
  0
LINE
  8
_0-0_0
  6
CONTINUOUS
 62
    7
 10
282.88983154319999
 20
218.08563493950001
 11
283.31433460139999
 21
218.1236873462
  0
LINE
  8
_0-0_0
  6
CONTINUOUS
 62
    7
 10
283.31433460139999
 20
218.1236873462
 11
282.21592055769997
 21
220.95484994270001
  0
LINE
  8
_0-0_0
  6
CONTINUOUS
 62
    7
 10
282.21592055769997
 20
220.95484994270001
 11
280.81290169089999
 21
220.82908377320001
  0
LINE
  8
_0-0_0
  6
CONTINUOUS
 62
    7
 10
280.81290169089999
 20
220.82908377320001
 11
281.17771616819999
 21
219.88877431040001
  0
LINE
  8
_0-0_0
  6
CONTINUOUS
 62
    7
 10
281.7633149358
 20
218.37939319520001
 11
281.91131589930001
 21
217.99792089140001
  0
LINE
  8
_0-0_0
  6
CONTINUOUS
 62
    7
 10
280.99244759480001
 20
217.37266579530001
 11
281.54646018059998
 21
217.42232738909999
  0
LINE
  8
_0-0_0
  6
CONTINUOUS
 62
    7
 10
281.54646018059998
 20
217.42232738909999
 11
281.34291337510001
 21
217.94696937609999
  0
LINE
  8
_0-0_0
  6
CONTINUOUS
 62
    7
 10
281.34291337510001
 20
217.94696937609999
 11
281.76741651560002
 21
217.9850217828
  0
LINE
  8
_0-0_0
  6
CONTINUOUS
 62
    7
 10
281.76741651560002
 20
217.9850217828
 11
281.64165328310003
 21
218.3091766144
  0
LINE
  8
_0-0_0
  6
CONTINUOUS
 62
    7
 10
281.05605435090001
 20
219.81855794340001
 11
280.6690023484
 21
220.8161846527
  0
LINE
  8
_0-0_0
  6
CONTINUOUS
 62
    7
 10
280.6690023484
 20
220.8161846527
 11
279.26598352280001
 21
220.6904181742
  0
LINE
  8
_0-0_0
  6
CONTINUOUS
 62
    7
 10
279.26598352280001
 20
220.6904181742
 11
279.63079935830001
 21
219.750105123
  0
LINE
  8
_0-0_0
  6
CONTINUOUS
 62
    7
 10
280.81435312299999
 20
217.83170434420001
 11
280.99244759480001
 21
217.37266579530001
  0
LINE
  8
_0-0_0
  6
CONTINUOUS
 62
    7
 10
283.22520652920002
 20
216.86939230359999
 11
281.38808911680002
 21
216.70471342639999
  0
LINE
  8
_0-0_0
  6
CONTINUOUS
 62
    7
 10
281.38808911680002
 20
216.70471342639999
 11
281.74164256530003
 21
215.7934293811
  0
LINE
  8
_0-0_0
  6
CONTINUOUS
 62
    7
 10
280.97617693569998
 20
215.7248133219
 11
281.74164256530003
 21
215.7934293811
  0
LINE
  8
_0-0_0
  6
CONTINUOUS
 62
    7
 10
280.97617693569998
 20
215.7248133219
 11
280.27870178709998
 21
217.52255578730001
  0
LINE
  8
_0-0_0
  6
CONTINUOUS
 62
    7
 10
279.45405029289998
 20
219.64809522909999
 11
278.35988184450002
 21
222.4683147442
  0
LINE
  8
_0-0_0
  6
CONTINUOUS
 62
    7
 10
278.35988184450002
 20
222.4683147442
 11
281.72793035159998
 21
222.7702260131
  0
LINE
  8
_0-0_0
  6
CONTINUOUS
 62
    7
 10
284.3442254428
 20
216.02672456689999
 11
281.72793035159998
 21
222.7702260131
  0
LINE
  8
_0-0_0
  6
CONTINUOUS
 62
    7
 10
283.57875997769997
 20
215.95810834139999
 11
284.3442254428
 21
216.02672456689999
  0
LINE
  8
_0-0_0
  6
CONTINUOUS
 62
    7
 10
283.22520652920002
 20
216.86939230359999
 11
283.57875997769997
 21
215.95810834139999
  0
LINE
  8
_0-0_0
  6
CONTINUOUS
 62
    7
 10
284.3442254428
 20
216.02672456689999
 11
285.0513336569
 21
216.4348286716
  0
LINE
  8
_0-0_0
  6
CONTINUOUS
 62
    7
 10
281.72793035159998
 20
222.7702260131
 11
282.4354284241
 21
223.17855512259999
  0
LINE
  8
_0-0_0
  6
CONTINUOUS
 62
    7
 10
282.78898170799999
 20
222.2672709821
 11
282.4354284241
 21
223.17855512259999
  0
LINE
  8
_0-0_0
  6
CONTINUOUS
 62
    7
 10
282.78898170799999
 20
222.2672709821
 11
290.35541576039998
 21
226.63420200120001
  0
LINE
  8
_0-0_0
  6
CONTINUOUS
 62
    7
 10
292.2646041191
 20
221.71326869329999
 11
290.35541576039998
 21
226.63420200120001
  0
LINE
  8
_0-0_0
  6
CONTINUOUS
 62
    7
 10
292.2646041191
 20
221.71326869329999
 11
289.1788542155
 21
219.93234297879999
  0
LINE
  8
_0-0_0
  6
CONTINUOUS
 62
    7
 10
285.73364437769999
 20
217.9439566922
 11
284.69778020839999
 21
217.34611266939999
  0
LINE
  8
_0-0_0
  6
CONTINUOUS
 62
    7
 10
284.69778020839999
 20
217.34611266939999
 11
285.0513336569
 21
216.4348286716
  0
LINE
  8
_0-0_0
  6
CONTINUOUS
 62
    7
 10
289.13525856910002
 20
220.40908305779999
 11
287.54426837990002
 21
224.50986107189999
  0
LINE
  8
_0-0_0
  6
CONTINUOUS
 62
    7
 10
279.06737991699998
 20
222.87664385369999
 11
278.35988184450002
 21
222.4683147442
  0
LINE
  8
_0-0_0
  6
CONTINUOUS
 62
    7
 10
279.06737991699998
 20
222.87664385369999
 11
282.4354284241
 21
223.17855512259999
  0
LINE
  8
_0-0_0
  6
CONTINUOUS
 62
    7
 10
289.13525856910002
 20
220.40908305779999
 11
289.22736029909998
 21
219.4018126297
  0
LINE
  8
_0-0_0
  6
CONTINUOUS
 62
    7
 10
286.52322738890001
 20
224.56709015409999
 11
290.05876845979998
 21
226.60761067729999
  0
LINE
  8
_0-0_0
  6
CONTINUOUS
 62
    7
 10
290.35541576039998
 20
226.63420200120001
 11
290.05876845979998
 21
226.60761067729999
  0
LINE
  8
_0-0_0
  6
CONTINUOUS
 62
    7
 10
286.98736741789997
 20
226.33229082739999
 11
281.35522083109998
 21
223.08172451530001
  0
LINE
  8
_0-0_0
  6
CONTINUOUS
 62
    7
 10
287.28401471839999
 20
226.35888215119999
 11
286.98736741789997
 21
226.33229082739999
  0
LINE
  8
_0-0_0
  6
CONTINUOUS
 62
    7
 10
283.74847364750002
 20
224.31836162799999
 11
287.28401471839999
 21
226.35888215119999
  0
LINE
  8
_0-0_0
  6
CONTINUOUS
 62
    7
 10
284.64936772049998
 20
224.3991176621
 11
283.74847364750002
 21
224.31836162799999
  0
LINE
  8
_0-0_0
  6
CONTINUOUS
 62
    7
 10
284.64936772049998
 20
224.3991176621
 11
288.18490879140001
 21
226.43963818540001
  0
LINE
  8
_0-0_0
  6
CONTINUOUS
 62
    7
 10
289.1578743869
 20
226.52685483339999
 11
288.18490879140001
 21
226.43963818540001
  0
LINE
  8
_0-0_0
  6
CONTINUOUS
 62
    7
 10
285.62233331599998
 20
224.48633431010001
 11
289.1578743869
 21
226.52685483339999
  0
LINE
  8
_0-0_0
  6
CONTINUOUS
 62
    7
 10
286.52322738890001
 20
224.56709015409999
 11
285.62233331599998
 21
224.48633431010001
  0
LINE
  8
_0-0_0
  6
CONTINUOUS
 62
    7
 10
283.2487330317
 20
218.29277320720001
 11
282.88983154319999
 21
218.08563493950001
  0
LINE
  8
_0-0_0
  6
CONTINUOUS
 62
    7
 10
283.00776484620002
 20
217.78166550590001
 11
282.53936584529998
 21
217.5113312755
  0
LINE
  8
_0-0_0
  6
CONTINUOUS
 62
    7
 10
283.0975178772
 20
218.68253165740001
 11
281.91131589930001
 21
217.99792089140001
  0
LINE
  8
_0-0_0
  6
CONTINUOUS
 62
    7
 10
283.1631194469
 20
218.5134458439
 11
282.33581895750001
 21
218.0359733457
  0
LINE
  8
_0-0_0
  6
CONTINUOUS
 62
    7
 10
281.70181486360002
 20
218.15410764390001
 11
281.34291337510001
 21
217.94696937609999
  0
LINE
  8
_0-0_0
  6
CONTINUOUS
 62
    7
 10
281.46084659569999
 20
217.64300002569999
 11
280.99244759480001
 21
217.37266579530001
  0
LINE
  8
_0-0_0
  6
CONTINUOUS
 62
    7
 10
282.22444376999999
 20
216.77968486410001
 11
282.44875077950002
 21
216.2015334857
  0
LINE
  8
_0-0_0
  6
CONTINUOUS
 62
    7
 10
281.74164256530003
 20
215.7934293811
 11
282.44875077950002
 21
216.2015334857
  0
LINE
  8
_0-0_0
  6
CONTINUOUS
 62
    7
 10
282.1607600465
 20
223.54663755710001
 11
280.51406538840001
 21
223.00632209790001
  0
LINE
  8
_0-0_0
  6
CONTINUOUS
 62
    7
 10
278.35528750869997
 20
221.4454960651
 11
278.6832637471
 21
221.6347859736
  0
LINE
  8
_0-0_0
  6
CONTINUOUS
 62
    7
 10
278.49367355769999
 20
221.5692801269
 11
278.35528750869997
 21
221.4454960651
  0
LINE
  8
_0-0_0
  6
CONTINUOUS
 62
    7
 10
278.66935215900003
 20
221.67067218669999
 11
278.49367355769999
 21
221.5692801269
  0
LINE
  8
_0-0_0
  6
CONTINUOUS
 62
    7
 10
278.5167227801
 20
221.65721643410001
 11
278.66925601150001
 21
221.67088953370001
  0
LINE
  8
_0-0_0
  6
CONTINUOUS
 62
    7
 10
278.64569213660002
 20
221.73165047789999
 11
278.5167227801
 21
221.65721643410001
  0
LINE
  8
_0-0_0
  6
CONTINUOUS
 62
    7
 10
289.1578743869
 20
226.52685483339999
 11
289.32540638099999
 21
226.1843543295
  0
LINE
  8
_0-0_0
  6
CONTINUOUS
 62
    7
 10
279.12607022669999
 20
219.45880321199999
 11
278.35528750869997
 21
221.4454960651
  0
LINE
  8
_0-0_0
  6
CONTINUOUS
 62
    7
 10
278.54038099159999
 20
221.59623714
 11
278.5167227801
 21
221.65721643410001
  0
LINE
  8
_0-0_0
  6
CONTINUOUS
 62
    7
 10
287.28401471839999
 20
226.35888215119999
 11
287.45154671260002
 21
226.01638183750001
  0
LINE
  8
_0-0_0
  6
CONTINUOUS
 62
    7
 10
291.14558388839998
 20
220.3252643653
 11
290.91032215569999
 21
220.93165132210001
  0
LINE
  8
_0-0_0
  6
CONTINUOUS
 62
    7
 10
291.4323530213
 20
221.2329389253
 11
291.29953578930002
 21
220.41411696439999
  0
LINE
  8
_0-0_0
  6
CONTINUOUS
 62
    7
 10
291.29953578930002
 20
220.41411696439999
 11
291.14558388839998
 21
220.3252643653
  0
LINE
  8
_0-0_0
  6
CONTINUOUS
 62
    7
 10
291.14558388839998
 20
220.3252643653
 11
289.6232064637
 21
220.18879876220001
  0
ARC
  8
_0-0_0
  6
CONTINUOUS
 62
    7
 10
170.852466905
 20
160.96705254299999
 40
6.6413094341165024
 50
269.3782028416
 51
281.8277579681
  0
LINE
  8
_0-0_0
  6
CONTINUOUS
 62
    7
 10
168.97295335940001
 20
155.93483667230001
 11
168.8785263911
 21
156.26367967159999
  0
LINE
  8
_0-0_0
  6
CONTINUOUS
 62
    7
 10
168.8785263911
 20
156.26367967159999
 11
168.8845487806
 21
156.3881754841
  0
ARC
  8
_0-0_0
  6
CONTINUOUS
 62
    7
 10
169.7194121117
 20
156.12149901250001
 40
0.4829418067335257
 50
172.70639270820001
 51
204.39563746479999
  0
LINE
  8
_0-0_0
  6
CONTINUOUS
 62
    7
 10
175.1805861867
 20
157.18329531149999
 11
175.37624502829999
 21
157.07037175209999
  0
ARC
  8
_0-0_0
  6
CONTINUOUS
 62
    7
 10
175.2106554293
 20
156.81146870960001
 40
0.3073283272348019
 50
2.6023851935
 51
57.397770438099997
  0
LINE
  8
_0-0_0
  6
CONTINUOUS
 62
    7
 10
175.51766680290001
 20
156.8254228216
 11
175.51766680290001
 21
154.2319846952
  0
ARC
  8
_0-0_0
  6
CONTINUOUS
 62
    7
 10
175.36740956189999
 20
154.21720400660001
 40
0.1509824731834789
 50
305.70952806049996
 51
5.618066962100011
  0
LINE
  8
_0-0_0
  6
CONTINUOUS
 62
    7
 10
175.45553444559999
 20
154.0946082804
 11
175.049468658
 21
153.85999936939999
  0
ARC
  8
_0-0_0
  6
CONTINUOUS
 62
    7
 10
175.13759281599999
 20
153.73740431109999
 40
0.1509815072346064
 50
125.70945237730001
 51
185.61843018260004
  0
LINE
  8
_0-0_0
  6
CONTINUOUS
 62
    7
 10
174.9873366301
 20
153.7226227646
 11
174.9873366301
 21
150.43503944970001
  0
ARC
  8
_0-0_0
  6
CONTINUOUS
 62
    7
 10
174.89555883290001
 20
150.4226773785
 40
0.0926066134387572
 50
292.3461510958
 51
7.6713219758000291
  0
LINE
  8
_0-0_0
  6
CONTINUOUS
 62
    7
 10
174.93076798609999
 20
150.33702517250001
 11
174.70449373950001
 21
150.27162413089999
  0
LINE
  8
_0-0_0
  6
CONTINUOUS
 62
    7
 10
174.70449373950001
 20
150.27162413089999
 11
174.70449373950001
 21
150.0266317002
  0
LINE
  8
_0-0_0
  6
CONTINUOUS
 62
    7
 10
174.70449373950001
 20
150.0266317002
 11
174.96870311320001
 21
149.3401548089
  0
ARC
  8
_0-0_0
  6
CONTINUOUS
 62
    7
 10
174.72752353289999
 20
149.2434085303
 40
0.259860409403518
 50
1.0933540561000001
 51
21.8575932854
  0
LINE
  8
_0-0_0
  6
CONTINUOUS
 62
    7
 10
174.9873366301
 20
149.248367049
 11
174.9873366301
 21
147.985114858
  0
ARC
  8
_0-0_0
  6
CONTINUOUS
 62
    7
 10
174.8579953247
 20
147.96411945349999
 40
0.1310342714113834
 50
230.81493508969999
 51
9.2201504542999668
  0
LINE
  8
_0-0_0
  6
CONTINUOUS
 62
    7
 10
174.77520429750001
 20
147.8625535827
 11
174.43866204139999
 21
148.05678732710001
  0
LINE
  8
_0-0_0
  6
CONTINUOUS
 62
    7
 10
173.95542438640001
 20
150.8871275111
 11
173.95560153490001
 21
151.09093347340001
  0
LINE
  8
_0-0_0
  6
CONTINUOUS
 62
    7
 10
173.95560153490001
 20
151.09093347340001
 11
173.8723295696
 21
151.40254473799999
  0
LINE
  8
_0-0_0
  6
CONTINUOUS
 62
    7
 10
173.8723295696
 20
151.40254473799999
 11
173.7055304532
 21
151.70277044509999
  0
LINE
  8
_0-0_0
  6
CONTINUOUS
 62
    7
 10
173.7055304532
 20
151.70277044509999
 11
173.482450806
 21
151.9425689617
  0
LINE
  8
_0-0_0
  6
CONTINUOUS
 62
    7
 10
173.482450806
 20
151.9425689617
 11
173.23953085919999
 21
152.0827690406
  0
LINE
  8
_0-0_0
  6
CONTINUOUS
 62
    7
 10
173.23953085919999
 20
152.0827690406
 11
173.01645121199999
 21
152.10046921470001
  0
LINE
  8
_0-0_0
  6
CONTINUOUS
 62
    7
 10
173.01645121199999
 20
152.10046921470001
 11
172.84965209559999
 21
151.99277812310001
  0
LINE
  8
_0-0_0
  6
CONTINUOUS
 62
    7
 10
172.84965209559999
 20
151.99277812310001
 11
172.76638013039999
 21
151.77728688689999
  0
LINE
  8
_0-0_0
  6
CONTINUOUS
 62
    7
 10
172.76638013039999
 20
151.77728688689999
 11
172.76655727880001
 21
151.57327644380001
  0
LINE
  8
_0-0_0
  6
CONTINUOUS
 62
    7
 10
172.78653455579999
 20
151.46022925540001
 11
172.8889612758
 21
151.17556555850001
  0
LINE
  8
_0-0_0
  6
CONTINUOUS
 62
    7
 10
172.8889612758
 20
151.17556555850001
 11
172.9088186976
 21
151.1247506963
  0
LINE
  8
_0-0_0
  6
CONTINUOUS
 62
    7
 10
172.9088186976
 20
151.1247506963
 11
172.9184937043
 21
151.07500984059999
  0
LINE
  8
_0-0_0
  6
CONTINUOUS
 62
    7
 10
172.9184937043
 20
151.07500984059999
 11
172.9172342379
 21
151.03021114149999
  0
LINE
  8
_0-0_0
  6
CONTINUOUS
 62
    7
 10
172.9172342379
 20
151.03021114149999
 11
172.90513743380001
 21
150.99383930970001
  0
LINE
  8
_0-0_0
  6
CONTINUOUS
 62
    7
 10
172.90513743380001
 20
150.99383930970001
 11
172.88314468140001
 21
150.968722765
  0
LINE
  8
_0-0_0
  6
CONTINUOUS
 62
    7
 10
172.88314468140001
 20
150.968722765
 11
172.87786908140001
 21
150.96533799580001
  0
LINE
  8
_0-0_0
  6
CONTINUOUS
 62
    7
 10
170.32958352790001
 20
152.97976412240001
 11
174.1741635667
 21
153.32439184879999
  0
ARC
  8
_0-0_0
  6
CONTINUOUS
 62
    7
 10
174.14996974269999
 20
153.45413150909999
 40
0.1319762121508908
 50
280.56317607540001
 51
9.2501394454999879
  0
LINE
  8
_0-0_0
  6
CONTINUOUS
 62
    7
 10
174.280229733
 20
153.47534602100001
 11
174.280229733
 21
153.72299773829999
  0
LINE
  8
_0-0_0
  6
CONTINUOUS
 62
    7
 10
175.51766680290001
 20
156.8254228216
 11
257.54205106030003
 21
204.1654016615
  0
ARC
  8
_0-0_0
  6
CONTINUOUS
 62
    7
 10
257.23503968680001
 20
204.15144754950001
 40
0.3073283272345813
 50
2.6023851935
 51
57.397770438099997
  0
LINE
  8
_0-0_0
  6
CONTINUOUS
 62
    7
 10
175.51766680290001
 20
154.2319846952
 11
257.54205106030003
 21
201.5719635351
  0
LINE
  8
_0-0_0
  6
CONTINUOUS
 62
    7
 10
257.54205106030003
 20
204.1654016615
 11
257.54205106030003
 21
201.5719635351
  0
LINE
  8
_0-0_0
  6
CONTINUOUS
 62
    7
 10
257.11048610009999
 20
204.5778053361
 11
257.40062928579999
 21
204.4103505921
  0
LINE
  8
_0-0_0
  6
CONTINUOUS
 62
    7
 10
175.45553444559999
 20
154.0946082804
 11
257.4799187031
 21
201.43458712029999
  0
ARC
  8
_0-0_0
  6
CONTINUOUS
 62
    7
 10
257.39179381939999
 20
201.55718284650001
 40
0.1509824731827771
 50
305.70952806039998
 51
5.6180669621999826
  0
LINE
  8
_0-0_0
  6
CONTINUOUS
 62
    7
 10
175.049468658
 20
153.85999936939999
 11
257.07385291539998
 21
201.19997820930001
  0
LINE
  8
_0-0_0
  6
CONTINUOUS
 62
    7
 10
257.4799187031
 20
201.43458712029999
 11
257.07385291539998
 21
201.19997820930001
  0
LINE
  8
_0-0_0
  6
CONTINUOUS
 62
    7
 10
174.9873366301
 20
153.7226227646
 11
257.01172088750002
 21
201.0626016045
  0
ARC
  8
_0-0_0
  6
CONTINUOUS
 62
    7
 10
257.16197707340001
 20
201.07738315110001
 40
0.1509815072348093
 50
125.70945237730001
 51
185.61843018249999
  0
LINE
  8
_0-0_0
  6
CONTINUOUS
 62
    7
 10
174.9873366301
 20
150.43503944970001
 11
257.01172088750002
 21
197.77501828960001
  0
LINE
  8
_0-0_0
  6
CONTINUOUS
 62
    7
 10
257.01172088750002
 20
201.0626016045
 11
257.01172088750002
 21
197.77501828960001
  0
ARC
  8
_0-0_0
  6
CONTINUOUS
 62
    7
 10
256.91459675030001
 20
197.7637889017
 40
0.0977711469663919
 50
304.71204171689999
 51
6.5951926350000125
  0
LINE
  8
_0-0_0
  6
CONTINUOUS
 62
    7
 10
174.96870311320001
 20
149.3401548089
 11
256.99308737059999
 21
196.68013364879999
  0
LINE
  8
_0-0_0
  6
CONTINUOUS
 62
    7
 10
174.70449373950001
 20
150.0266317002
 11
256.7288779969
 21
197.36661054020001
  0
LINE
  8
_0-0_0
  6
CONTINUOUS
 62
    7
 10
256.7288779969
 20
197.36661054020001
 11
256.99308737059999
 21
196.68013364879999
  0
LINE
  8
_0-0_0
  6
CONTINUOUS
 62
    7
 10
256.7288779969
 20
197.54409880879999
 11
256.7288779969
 21
197.36661054020001
  0
LINE
  8
_0-0_0
  6
CONTINUOUS
 62
    7
 10
174.9873366301
 20
149.248367049
 11
257.01172088750002
 21
196.58834588889999
  0
ARC
  8
_0-0_0
  6
CONTINUOUS
 62
    7
 10
256.75190779029998
 20
196.58338737029999
 40
0.2598604093991486
 50
1.0933540559000001
 51
21.857593285599993
  0
LINE
  8
_0-0_0
  6
CONTINUOUS
 62
    7
 10
174.9873366301
 20
147.985114858
 11
257.01172088750002
 21
195.3250936979
  0
LINE
  8
_0-0_0
  6
CONTINUOUS
 62
    7
 10
257.01172088750002
 20
196.58834588889999
 11
257.01172088750002
 21
195.3250936979
  0
ARC
  8
_0-0_0
  6
CONTINUOUS
 62
    7
 10
256.86895594039999
 20
195.30692748039999
 40
0.1439160921446442
 50
304.05567103020002
 51
7.2516675512000068
  0
ARC
  8
_0-0_0
  6
CONTINUOUS
 62
    7
 10
175.018562879
 20
157.27033671749999
 40
0.1334826662221795
 50
63.971858895899999
 51
130.52591277420004
  0
ARC
  8
_0-0_0
  6
CONTINUOUS
 62
    7
 10
175.03347936430001
 20
157.17636673370001
 40
0.148393089778417
 50
293.81747840309998
 51
354.84845565490002
  0
ARC
  8
_0-0_0
  6
CONTINUOUS
 62
    7
 10
175.03116984900001
 20
154.4312480271
 40
0.1508490138468613
 50
294.36574981720003
 51
354.30018424079998
  0
ARC
  8
_0-0_0
  6
CONTINUOUS
 62
    7
 10
167.7652500319
 20
154.909456683
 40
5.4547799492276194
 50
47.087730986499999
 51
103.2094077598
  0
ARC
  8
_0-0_0
  6
CONTINUOUS
 62
    7
 10
168.88790905959999
 20
155.73345514389999
 40
5.1799196093737274
 50
46.259990593200001
 51
110.92000788040001
  0
ARC
  8
_0-0_0
  6
CONTINUOUS
 62
    7
 10
173.82317393630001
 20
153.70487545680001
 40
0.1450561982534422
 50
173.02486386449999
 51
235.66756964309999
  0
ARC
  8
_0-0_0
  6
CONTINUOUS
 62
    7
 10
173.95686962280001
 20
153.70605161770001
 40
0.1475028819520801
 50
304.90900362920001
 51
6.398562863200044
  0
ARC
  8
_0-0_0
  6
CONTINUOUS
 62
    7
 10
168.8734264798
 20
156.56159839310001
 40
0.145056198208585
 50
173.0248638537
 51
235.66756965389999
  0
ARC
  8
_0-0_0
  6
CONTINUOUS
 62
    7
 10
174.9511164477
 20
154.27545269309999
 40
0.1434701764529887
 50
303.94620568350001
 51
7.3613608088999474
  0
ARC
  8
_0-0_0
  6
CONTINUOUS
 62
    7
 10
170.3995475415
 20
154.98485543309999
 40
3.2735792492294591
 50
223.4316251086
 51
239.32440305590001
  0
LINE
  8
_0-0_0
  6
CONTINUOUS
 62
    7
 10
173.14886113419999
 20
147.65876424070001
 11
166.18846402529999
 21
151.67592395290001
  0
LINE
  8
_0-0_0
  6
CONTINUOUS
 62
    7
 10
164.6635800155
 20
153.39732727040001
 11
164.6635800155
 21
153.5797256932
  0
LINE
  8
_0-0_0
  6
CONTINUOUS
 62
    7
 10
168.9415742075
 20
152.53677184489999
 11
168.46345821770001
 21
152.89210547190001
  0
LINE
  8
_0-0_0
  6
CONTINUOUS
 62
    7
 10
168.46345821770001
 20
152.89210547190001
 11
168.39968777089999
 21
152.95212094839999
  0
ARC
  8
_0-0_0
  6
CONTINUOUS
 62
    7
 10
168.6592362195
 20
155.4468418813
 40
1.452268160805579
 50
128.61270079869999
 51
201.18998305860001
  0
ARC
  8
_0-0_0
  6
CONTINUOUS
 62
    7
 10
174.43879185599999
 20
150.4348081485
 40
0.1508771671948971
 50
65.691479884699987
 51
125.60974026820001
  0
ARC
  8
_0-0_0
  6
CONTINUOUS
 62
    7
 10
174.5008397478
 20
150.32746054489999
 40
0.150848548514792
 50
294.36579998559995
 51
354.30042174099992
  0
ARC
  8
_0-0_0
  6
CONTINUOUS
 62
    7
 10
174.5008397478
 20
148.3675209095
 40
0.1508485485148095
 50
294.36579998559995
 51
354.30042174099992
  0
ARC
  8
_0-0_0
  6
CONTINUOUS
 62
    7
 10
170.01937457240001
 20
152.98545357649999
 40
0.1508771671947775
 50
65.691479884699987
 51
125.60974026820001
  0
ARC
  8
_0-0_0
  6
CONTINUOUS
 62
    7
 10
170.3159751936
 20
156.0063206056
 40
2.0849788764356938
 50
162.38185540480001
 51
194.24569882150004
  0
LINE
  8
_0-0_0
  6
CONTINUOUS
 62
    7
 10
169.38963821710001
 20
153.5234660868
 11
169.5062282346
 21
153.4161192425
  0
LINE
  8
_0-0_0
  6
CONTINUOUS
 62
    7
 10
169.5062282346
 20
153.4161192425
 11
169.9315246537
 21
153.10811698329999
  0
ARC
  8
_0-0_0
  6
CONTINUOUS
 62
    7
 10
173.42557649470001
 20
147.6427605369
 40
0.148412281295771
 50
305.11759715900001
 51
6.1900288926999902
  0
ARC
  8
_0-0_0
  6
CONTINUOUS
 62
    7
 10
173.28896646300001
 20
147.6393942194
 40
0.1414379753615853
 50
172.12856886700001
 51
236.56380508129996
  0
ARC
  8
_0-0_0
  6
CONTINUOUS
 62
    7
 10
174.4198235225
 20
148.21216152310001
 40
0.1443702660123933
 50
304.1666199636
 51
7.1410060881000126
  0
ARC
  8
_0-0_0
  6
CONTINUOUS
 62
    7
 10
164.27928140009999
 20
157.57328691469999
 40
0.240101310674068
 50
148.27650605439999
 51
224.62179427039999
  0
LINE
  8
_0-0_0
  6
CONTINUOUS
 62
    7
 10
164.10838715329999
 20
157.40463402910001
 11
164.08075956490001
 21
157.39456052610001
  0
LINE
  8
_0-0_0
  6
CONTINUOUS
 62
    7
 10
164.08075956490001
 20
157.39456052610001
 11
164.06234764819999
 21
157.389580145
  0
LINE
  8
_0-0_0
  6
CONTINUOUS
 62
    7
 10
164.06234764819999
 20
157.389580145
 11
164.05385374119999
 21
157.3898816281
  0
LINE
  8
_0-0_0
  6
CONTINUOUS
 62
    7
 10
164.05385374119999
 20
157.3898816281
 11
164.0534721146
 21
157.39036379180001
  0
LINE
  8
_0-0_0
  6
CONTINUOUS
 62
    7
 10
164.5643208946
 20
156.5139635658
 11
164.53669330610001
 21
156.5038900628
  0
LINE
  8
_0-0_0
  6
CONTINUOUS
 62
    7
 10
164.53669330610001
 20
156.5038900628
 11
164.5182813895
 21
156.49890969960001
  0
LINE
  8
_0-0_0
  6
CONTINUOUS
 62
    7
 10
164.5182813895
 20
156.49890969960001
 11
164.50978781169999
 21
156.49921098670001
  0
LINE
  8
_0-0_0
  6
CONTINUOUS
 62
    7
 10
164.50978781169999
 20
156.49921098670001
 11
164.5094061851
 21
156.49969312659999
  0
ARC
  8
_0-0_0
  6
CONTINUOUS
 62
    7
 10
164.72588887480001
 20
156.27922538269999
 40
0.1509636110456932
 50
185.8461295841
 51
245.62286835820001
  0
LINE
  8
_0-0_0
  6
CONTINUOUS
 62
    7
 10
254.6644460023
 20
206.7216154516
 11
254.55969297370001
 21
206.7999393959
  0
LINE
  8
_0-0_0
  6
CONTINUOUS
 62
    7
 10
257.11778672449998
 20
204.5735918158
 11
257.11778672449998
 21
204.62545113600001
  0
LINE
  8
_0-0_0
  6
CONTINUOUS
 62
    7
 10
257.54205435300003
 20
204.62545322650001
 11
257.54205435300003
 21
204.16540387750001
  0
LINE
  8
_0-0_0
  6
CONTINUOUS
 62
    7
 10
258.37042234310002
 20
205.52798252470001
 11
258.41104070979998
 21
205.54768470849999
  0
LINE
  8
_0-0_0
  6
CONTINUOUS
 62
    7
 10
258.41104070979998
 20
205.54768470849999
 11
258.44815430260002
 21
205.5586076868
  0
LINE
  8
_0-0_0
  6
CONTINUOUS
 62
    7
 10
258.44815430260002
 20
205.5586076868
 11
258.48032881170002
 21
205.56032529250001
  0
LINE
  8
_0-0_0
  6
CONTINUOUS
 62
    7
 10
258.48032881170002
 20
205.56032529250001
 11
258.50634592950001
 21
205.55278286629999
  0
LINE
  8
_0-0_0
  6
CONTINUOUS
 62
    7
 10
258.50634592950001
 20
205.55278286629999
 11
258.51615494999999
 21
205.546106925
  0
ARC
  8
_0-0_0
  6
CONTINUOUS
 62
    7
 10
258.4774017881
 20
205.32872754569999
 40
0.1427831382885038
 50
292.48132519839999
 51
356.18460885960002
  0
ARC
  8
_0-0_0
  6
CONTINUOUS
 62
    7
 10
258.4697936979
 20
202.5874116304
 40
0.1508186973557517
 50
294.35910892829997
 51
354.30682512969997
  0
ARC
  8
_0-0_0
  6
CONTINUOUS
 62
    7
 10
251.02860948540001
 20
202.72995178900001
 40
5.8208204260091971
 50
48.074260118500007
 51
94.465152020700003
  0
LINE
  8
_0-0_0
  6
CONTINUOUS
 62
    7
 10
255.90783400960001
 20
207.63205093350001
 11
255.00679991359999
 21
208.24051938549999
  0
LINE
  8
_0-0_0
  6
CONTINUOUS
 62
    7
 10
255.00679991359999
 20
208.24051938549999
 11
254.10409253840001
 21
208.69990104639999
  0
LINE
  8
_0-0_0
  6
CONTINUOUS
 62
    7
 10
254.10409253840001
 20
208.69990104639999
 11
253.21835013399999
 21
209.0007105908
  0
LINE
  8
_0-0_0
  6
CONTINUOUS
 62
    7
 10
253.21835013399999
 20
209.0007105908
 11
252.36786056369999
 21
209.13673794639999
  0
LINE
  8
_0-0_0
  6
CONTINUOUS
 62
    7
 10
252.36786056369999
 20
209.13673794639999
 11
251.57018399930001
 21
209.105174027
  0
LINE
  8
_0-0_0
  6
CONTINUOUS
 62
    7
 10
251.57018399930001
 20
209.105174027
 11
250.84179006260001
 21
208.9066707044
  0
LINE
  8
_0-0_0
  6
CONTINUOUS
 62
    7
 10
250.84179006260001
 20
208.9066707044
 11
250.47694060009999
 21
208.7280976493
  0
ARC
  8
_0-0_0
  6
CONTINUOUS
 62
    7
 10
258.38541548640001
 20
202.4335807647
 40
0.1475028819567255
 50
304.90900363029994
 51
6.3985628620999542
  0
LINE
  8
_0-0_0
  6
CONTINUOUS
 62
    7
 10
257.01172418020002
 20
197.7748899751
 11
257.01172418020002
 21
196.58834810490001
  0
LINE
  8
_0-0_0
  6
CONTINUOUS
 62
    7
 10
257.01172780220003
 20
198.26474652190001
 11
257.78953735480002
 21
198.71365556390001
  0
LINE
  8
_0-0_0
  6
CONTINUOUS
 62
    7
 10
257.78953735480002
 20
198.71365556390001
 11
257.01171989969998
 21
199.16256916680001
  0
ARC
  8
_0-0_0
  6
CONTINUOUS
 62
    7
 10
257.87739845969998
 20
198.5909795641
 40
0.1508939186962765
 50
65.694623571600005
 51
125.61040930760001
  0
ARC
  8
_0-0_0
  6
CONTINUOUS
 62
    7
 10
257.93946359620003
 20
198.4836241486
 40
0.1508182326355267
 50
294.35915918519993
 51
354.30706254149993
  0
ARC
  8
_0-0_0
  6
CONTINUOUS
 62
    7
 10
257.93946359620003
 20
196.5236845133
 40
0.1508182326357246
 50
294.35915918519993
 51
354.30706254139994
  0
ARC
  8
_0-0_0
  6
CONTINUOUS
 62
    7
 10
257.8541223583
 20
196.37028968390001
 40
0.1484122812961881
 50
305.1175971591
 51
6.1900288926000187
  0
LINE
  8
_0-0_0
  6
CONTINUOUS
 62
    7
 10
174.89152992870001
 20
157.5948988115
 11
175.03302743579999
 21
157.67656341719999
  0
LINE
  8
_0-0_0
  6
CONTINUOUS
 62
    7
 10
142.81733435289999
 20
134.19505865249999
 11
142.83449668130001
 21
134.14140751080001
  0
LINE
  8
_0-0_0
  6
CONTINUOUS
 62
    7
 10
142.83449668130001
 20
134.14140751080001
 11
142.84393988030001
 21
134.08918508919999
  0
LINE
  8
_0-0_0
  6
CONTINUOUS
 62
    7
 10
142.84393988030001
 20
134.08918508919999
 11
142.84530043320001
 21
134.04039864649999
  0
LINE
  8
_0-0_0
  6
CONTINUOUS
 62
    7
 10
142.84530043320001
 20
134.04039864649999
 11
142.8385263152
 21
133.99692285579999
  0
LINE
  8
_0-0_0
  6
CONTINUOUS
 62
    7
 10
142.8385263152
 20
133.99692285579999
 11
142.8238779804
 21
133.96042838970001
  0
LINE
  8
_0-0_0
  6
CONTINUOUS
 62
    7
 10
142.8238779804
 20
133.96042838970001
 11
142.80191815520001
 21
133.9323178299
  0
LINE
  8
_0-0_0
  6
CONTINUOUS
 62
    7
 10
142.80191815520001
 20
133.9323178299
 11
142.78358262980001
 21
133.91876007580001
  0
LINE
  8
_0-0_0
  6
CONTINUOUS
 62
    7
 10
136.32904072229999
 20
131.61920166280001
 11
136.4066297777
 21
131.6639818129
  0
LINE
  8
_0-0_0
  6
CONTINUOUS
 62
    7
 10
140.08803812790001
 20
140.7398355551
 11
140.13146107099999
 21
140.75846745449999
  0
LINE
  8
_0-0_0
  6
CONTINUOUS
 62
    7
 10
140.13146107099999
 20
140.75846745449999
 11
140.1673201365
 21
140.7652524298
  0
LINE
  8
_0-0_0
  6
CONTINUOUS
 62
    7
 10
140.3778158213
 20
140.48291831360001
 11
140.41567077069999
 21
140.506486795
  0
LINE
  8
_0-0_0
  6
CONTINUOUS
 62
    7
 10
140.41567077069999
 20
140.506486795
 11
140.4450110688
 21
140.5285167408
  0
LINE
  8
_0-0_0
  6
CONTINUOUS
 62
    7
 10
140.4450110688
 20
140.5285167408
 11
140.46470928740001
 21
140.548161865
  0
LINE
  8
_0-0_0
  6
CONTINUOUS
 62
    7
 10
140.46470928740001
 20
140.548161865
 11
140.4740079359
 21
140.56466652329999
  0
LINE
  8
_0-0_0
  6
CONTINUOUS
 62
    7
 10
140.4740079359
 20
140.56466652329999
 11
140.47379242720001
 21
140.57496174170001
  0
LINE
  8
_0-0_0
  6
CONTINUOUS
 62
    7
 10
142.81733435289999
 20
134.19505865249999
 11
142.85518913760001
 21
134.21862741909999
  0
LINE
  8
_0-0_0
  6
CONTINUOUS
 62
    7
 10
142.85518913760001
 20
134.21862741909999
 11
142.8845296003
 21
134.24065741250001
  0
LINE
  8
_0-0_0
  6
CONTINUOUS
 62
    7
 10
142.8845296003
 20
134.24065741250001
 11
142.90422765439999
 21
134.26030251290001
  0
LINE
  8
_0-0_0
  6
CONTINUOUS
 62
    7
 10
142.90422765439999
 20
134.26030251290001
 11
142.91352630279999
 21
134.2768071237
  0
LINE
  8
_0-0_0
  6
CONTINUOUS
 62
    7
 10
142.91352630279999
 20
134.2768071237
 11
142.91331062949999
 21
134.28710238950001
  0
LINE
  8
_0-0_0
  6
CONTINUOUS
 62
    7
 10
135.55648207440001
 20
140.3336273896
 11
135.59990501749999
 21
140.35225947910001
  0
LINE
  8
_0-0_0
  6
CONTINUOUS
 62
    7
 10
135.59990501749999
 20
140.35225947910001
 11
135.63576408310001
 21
140.35904445450001
  0
LINE
  8
_0-0_0
  6
CONTINUOUS
 62
    7
 10
142.4530838366
 20
135.4733373274
 11
149.1229365417
 21
139.32281073429999
  0
LINE
  8
_0-0_0
  6
CONTINUOUS
 62
    7
 10
146.8601945698
 20
142.9243569137
 11
140.89744876180001
 21
139.4829868512
  0
LINE
  8
_0-0_0
  6
CONTINUOUS
 62
    7
 10
143.39536981910001
 20
134.71524276459999
 11
143.77294828839999
 21
134.74908883430001
  0
LINE
  8
_0-0_0
  6
CONTINUOUS
 62
    7
 10
135.45410515680001
 20
132.7263248324
 11
133.02222969280001
 21
131.3227796056
  0
LINE
  8
_0-0_0
  6
CONTINUOUS
 62
    7
 10
140.76299274179999
 20
139.8295472495
 11
146.57041687629999
 21
143.1812741553
  0
LINE
  8
_0-0_0
  6
CONTINUOUS
 62
    7
 10
135.51258810729999
 20
140.32007293640001
 11
135.52267964340001
 21
140.3251616931
  0
LINE
  8
_0-0_0
  6
CONTINUOUS
 62
    7
 10
135.52267964340001
 20
140.3251616931
 11
135.55648207440001
 21
140.3336273896
  0
LINE
  8
_0-0_0
  6
CONTINUOUS
 62
    7
 10
143.5697919175
 20
142.91229877360001
 11
139.79127031370001
 21
140.73154320450001
  0
LINE
  8
_0-0_0
  6
CONTINUOUS
 62
    7
 10
134.8537722996
 20
132.80400672619999
 11
135.2056016786
 21
133.00706335999999
  0
LINE
  8
_0-0_0
  6
CONTINUOUS
 62
    7
 10
286.53834971110001
 20
223.35545107569999
 11
286.35644374830002
 21
223.82431379920001
  0
LINE
  8
_0-0_0
  6
CONTINUOUS
 62
    7
 10
171.54724220130001
 20
154.85141507969999
 11
171.46646480269999
 21
154.73003095510001
  0
LINE
  8
_0-0_0
  6
CONTINUOUS
 62
    7
 10
171.46646480269999
 20
154.73003095510001
 11
171.41756984860001
 21
154.6938771124
  0
LINE
  8
_0-0_0
  6
CONTINUOUS
 62
    7
 10
175.37624502829999
 20
157.07037175209999
 11
175.73257555910001
 21
157.276026204
  0
LINE
  8
_0-0_0
  6
CONTINUOUS
 62
    7
 10
257.1606135202
 20
204.27182664739999
 11
257.40062928579999
 21
204.4103505921
  0
LINE
  8
_0-0_0
  6
CONTINUOUS
 62
    7
 10
174.96507025240001
 20
157.48602910299999
 11
175.1641140129
 21
157.60090625199999
  0
LINE
  8
_0-0_0
  6
CONTINUOUS
 62
    7
 10
174.1741635667
 20
153.32439184879999
 11
174.25175328060001
 21
153.36917237899999
  0
LINE
  8
_0-0_0
  6
CONTINUOUS
 62
    7
 10
169.95261279229999
 20
153.20658587669999
 11
172.07060519960001
 21
154.42897500710001
  0
LINE
  8
_0-0_0
  6
CONTINUOUS
 62
    7
 10
172.8889612758
 20
151.17556555850001
 11
173.73331543379999
 21
151.66288049950001
  0
LINE
  8
_0-0_0
  6
CONTINUOUS
 62
    7
 10
169.64615278759999
 20
153.45387507379999
 11
171.25090458139999
 21
154.3800498528
  0
ENDSEC
  0
EOF
