  0
SECTION
  2
HEADER
  9
$ACADVER
  1
AC1009
  9
$INSBASE
 10
0
 20
0
 30
0
  9
$EXTMIN
 10
0
 20
0
  9
$EXTMAX
 10
840
 20
594
  9
$LIMMIN
 10
0
 20
0
  9
$LIMMAX
 10
840
 20
594
  9
$LTSCALE
 40
2
  0
ENDSEC
  0
SECTION
  2
TABLES
  0
TABLE
  2
LTYPE
 70
     9
  0
LTYPE
  2
CONTINUOUS
 70
    64
  3
実線
 72
    65
 73
     0
 40
0.0
  0
LTYPE
  2
DASHED1
 70
    64
  3
--  --  --  --  --  --  --  --  
 72
    65
 73
     2
 40
2.5
 49
1.25
 49
-1.25
  0
LTYPE
  2
DASHED2
 70
    64
  3
----    ----    ----    ----    
 72
    65
 73
     2
 40
5.0
 49
2.5
 49
-2.5
  0
LTYPE
  2
DASHED3
 70
    64
  3
------  ------  ------  ------  
 72
    65
 73
     2
 40
5.0
 49
3.75
 49
-1.25
  0
LTYPE
  2
CENTER1
 70
    64
  3
----- - ----- - ----- - ----- - 
 72
    65
 73
     4
 40
10.0
 49
6.25
 49
-1.25
 49
1.25
 49
-1.25
  0
LTYPE
  2
CENTER2
 70
    64
  3
----------  --  ----------  --  
 72
    65
 73
     4
 40
20.0
 49
12.5
 49
-2.5
 49
2.5
 49
-2.5
  0
LTYPE
  2
PHANTOM1
 70
    64
  3
--- - - --- - - --- - - --- - - 
 72
    65
 73
     6
 40
10.0
 49
3.25
 49
-1.25
 49
1.25
 49
-1.25
 49
1.25
 49
-1.25
  0
LTYPE
  2
PHANTOM2
 70
    64
  3
--------  -  -  --------  -  -  
 72
    65
 73
     6
 40
20.0
 49
10.0
 49
-2.5
 49
1.25
 49
-2.5
 49
1.25
 49
-2.5
  0
LTYPE
  2
DOT
 70
    64
  3
-   -   -   -   -   -   -   -   
 72
    65
 73
     2
 40
2.5
 49
0.625
 49
-1.875
  0
LTYPE
  2
DUMMY
 70
    64
  3
ダミー
 72
    65
 73
     0
 40
0.0
  0
LTYPE
  2
RAND1
 70
    64
  3
ランダム線1
 72
    65
 73
     4
 40
10.0
 49
1.0
 49
-2.0
 49
3.0
 49
-4.0
  0
LTYPE
  2
RAND2
 70
    64
  3
ランダム線2
 72
    65
 73
     4
 40
14.0
 49
2.0
 49
-3.0
 49
4.0
 49
-5.0
  0
LTYPE
  2
RAND3
 70
    64
  3
ランダム線3
 72
    65
 73
     4
 40
18.0
 49
3.0
 49
-4.0
 49
5.0
 49
-6.0
  0
LTYPE
  2
RAND4
 70
    64
  3
ランダム線4
 72
    65
 73
     4
 40
22.0
 49
4.0
 49
-5.0
 49
6.0
 49
-7.0
  0
LTYPE
  2
RAND5
 70
    64
  3
ランダム線5
 72
    65
 73
     4
 40
26.0
 49
5.0
 49
-6.0
 49
7.0
 49
-8.0
  0
LTYPE
  2
LONG1
 70
    64
  3
----------  --  ----------  --  
 72
    65
 73
     4
 40
40.0
 49
32.5
 49
-2.5
 49
2.5
 49
-2.5
  0
LTYPE
  2
LONG2
 70
    64
  3
--------  -  -  --------  -  -  
 72
    65
 73
     6
 40
40.0
 49
30.0
 49
-2.5
 49
1.25
 49
-2.5
 49
1.25
 49
-2.5
  0
LTYPE
  2
LONG3
 70
    64
  3
+++++++++++++++..+++++++++++++++
 72
    65
 73
     2
 40
40.0
 49
37.5
 49
-2.5
  0
LTYPE
  2
LONG4
 70
    64
  3
+++++++++++++++..+++++++++++++++
 72
    65
 73
     2
 40
80.0
 49
75.0
 49
-5.0
  0
LTYPE
  2
LONG5
 70
    64
  3
----------  --  ----------  --  
 72
    65
 73
     4
 40
60.0
 49
37.5
 49
-7.5
 49
7.5
 49
-7.5
  0
LTYPE
  2
dashed
 70
   64
  3
-------   -------------   ------
 72
   65
 73
    2
 40
7.5
 49
6
 49
-1.5
  0
LTYPE
  2
dashed_spaced
 70
   64
  3
----        --------        ----
 72
   65
 73
    2
 40
12
 49
6
 49
-6
  0
LTYPE
  2
long_dashed_dotted
 70
   64
  3
------------- --- --------------
 72
   65
 73
    4
 40
15.25
 49
12
 49
-1.5
 49
0.25
 49
-1.5
  0
LTYPE
  2
long_dashed_double-dotted
 70
   64
  3
----------- --- --- ------------
 72
   65
 73
    6
 40
17
 49
12
 49
-1.5
 49
0.25
 49
-1.5
 49
0.25
 49
-1.5
  0
LTYPE
  2
long_dashed_triplicate-dotted
 70
   64
  3
--------- --- --- --- ----------
 72
   65
 73
    8
 40
18.75
 49
12
 49
-1.5
 49
0.25
 49
-1.5
 49
0.25
 49
-1.5
 49
0.25
 49
-1.5
  0
LTYPE
  2
dotted
 70
   64
  3
   -       -       -       -    
 72
   65
 73
    2
 40
1.75
 49
0.25
 49
-1.5
  0
LTYPE
  2
chain
 70
   64
  3
-------------- -- --------------
 72
   65
 73
    4
 40
18.5
 49
12
 49
-1.5
 49
3.5
 49
-1.5
  0
LTYPE
  2
chain_double_dash
 70
   64
  3
------------ -- -- -------------
 72
   65
 73
    6
 40
23.5
 49
12
 49
-1.5
 49
3.5
 49
-1.5
 49
3.5
 49
-1.5
  0
LTYPE
  2
dashed_dotted
 70
   64
  3
-----------     -     ----------
 72
   65
 73
    4
 40
9.25
 49
6
 49
-1.5
 49
0.25
 49
-1.5
  0
LTYPE
  2
double-dashed_dotted
 70
   64
  3
------   -----------   -   -----
 72
   65
 73
    6
 40
16.75
 49
6
 49
-1.5
 49
6
 49
-1.5
 49
0.25
 49
-1.5
  0
LTYPE
  2
dashed_double-dotted
 70
   64
  3
---------    -    -    ---------
 72
   65
 73
    6
 40
11
 49
6
 49
-1.5
 49
0.25
 49
-1.5
 49
0.25
 49
-1.5
  0
LTYPE
  2
double-dashed_double-dotted
 70
   64
  3
-----   ---------   -   -   ----
 72
   65
 73
    8
 40
18.5
 49
6
 49
-1.5
 49
6
 49
-1.5
 49
0.25
 49
-1.5
 49
0.25
 49
-1.5
  0
LTYPE
  2
dashed_triplicate-dotted
 70
   64
  3
-------    -    -    -    ------
 72
   65
 73
    8
 40
12.75
 49
6
 49
-1.5
 49
0.25
 49
-1.5
 49
0.25
 49
-1.5
 49
0.25
 49
-1.5
  0
LTYPE
  2
double-dashed_triplicate-dotted
 70
   64
  3
-----  ---------  -  -  -  -----
 72
   65
 73
   10
 40
20.25
 49
6
 49
-1.5
 49
6
 49
-1.5
 49
0.25
 49
-1.5
 49
0.25
 49
-1.5
 49
0.25
 49
-1.5
  0
LTYPE
  2
undefined
 70
   64
  3
--------------------------------
 72
   65
 73
    0
 40
0
  0
LTYPE
  2
_
 70
   64
  3
                                
 72
   65
 73
    0
 40
0
  0
LTYPE
  2
__18
 70
   64
  3
                                
 72
   65
 73
    0
 40
0
  0
LTYPE
  2
__19
 70
   64
  3
                                
 72
   65
 73
    0
 40
0
  0
LTYPE
  2
__20
 70
   64
  3
                                
 72
   65
 73
    0
 40
0
  0
LTYPE
  2
__21
 70
   64
  3
                                
 72
   65
 73
    0
 40
0
  0
LTYPE
  2
__22
 70
   64
  3
                                
 72
   65
 73
    0
 40
0
  0
LTYPE
  2
__23
 70
   64
  3
                                
 72
   65
 73
    0
 40
0
  0
LTYPE
  2
__24
 70
   64
  3
                                
 72
   65
 73
    0
 40
0
  0
LTYPE
  2
__25
 70
   64
  3
                                
 72
   65
 73
    0
 40
0
  0
LTYPE
  2
__26
 70
   64
  3
                                
 72
   65
 73
    0
 40
0
  0
LTYPE
  2
__27
 70
   64
  3
                                
 72
   65
 73
    0
 40
0
  0
LTYPE
  2
__28
 70
   64
  3
                                
 72
   65
 73
    0
 40
0
  0
LTYPE
  2
__29
 70
   64
  3
                                
 72
   65
 73
    0
 40
0
  0
LTYPE
  2
__30
 70
   64
  3
                                
 72
   65
 73
    0
 40
0
  0
LTYPE
  2
__31
 70
   64
  3
                                
 72
   65
 73
    0
 40
0
  0
LTYPE
  2
__32
 70
   64
  3
                                
 72
   65
 73
    0
 40
0
  0
ENDTAB
  0
TABLE
  2
STYLE
  5
3
100
AcDbSymbolTable
 70
     1
  0
STYLE
  5
10
100
AcDbSymbolTableRecord
100
AcDbTextStyleTableRecord
  2
STANDARD
 70
     0
 40
0.0
 41
1.0
 50
0.0
 71
     0
 42
0.2
  3
txt
  4
bigfont.shx
  0
STYLE
  5
26
100
AcDbSymbolTableRecord
100
AcDbTextStyleTableRecord
  2
TATEGAKI
 70
    68
 40
0.0
 41
1.0
 50
0.0
 71
     0
 42
1.0
  3
txt
  4
bigfont.shx
  0
ENDTAB
  0
TABLE
  2
LAYER
 70
    7
  0
LAYER
  2
_0-0_1
 70
   64
 62
    7
  6
CONTINUOUS
  0
LAYER
  2
_1-0_
 70
   64
 62
    7
  6
CONTINUOUS
  0
LAYER
  2
_1-6_23
 70
   64
 62
    7
  6
CONTINUOUS
  0
LAYER
  2
_2-0_
 70
   64
 62
    7
  6
CONTINUOUS
  0
LAYER
  2
_3-0_
 70
   64
 62
    7
  6
CONTINUOUS
  0
LAYER
  2
_4-0_
 70
   64
 62
    7
  6
CONTINUOUS
  0
LAYER
  2
ADD_LINE
 70
   64
 62
    7
  6
CONTINUOUS
  0
ENDTAB
  0
ENDSEC
  0
SECTION
  2
BLOCKS
  0
ENDSEC
  0
SECTION
  2
ENTITIES
  0
LINE
  8
_1-6_23
  6
CONTINUOUS
 62
    7
 10
818.24613889818374
 20
96.813026878876087
 11
628.2461548981837
 21
96.813026878876087
  0
LINE
  8
_1-6_23
  6
CONTINUOUS
 62
    7
 10
818.24613889818374
 20
106.81302687887609
 11
628.2461548981837
 21
106.81302687887609
  0
LINE
  8
_1-6_23
  6
CONTINUOUS
 62
    7
 10
818.24613889818374
 20
116.81302687887609
 11
628.2461548981837
 21
116.81302687887609
  0
LINE
  8
_0-0_1
  6
CONTINUOUS
 62
    7
 10
103.07751563907476
 20
514.41951494752732
 11
63.510081428548517
 21
514.41951494752732
  0
TEXT
  8
_0-0_1
 62
    7
 10
63.953847392080775
 20
515.04673914601426
 40
9.9999999999999716
 41
1.0000000000000013
 50
0
  1
◆外形図
  0
TEXT
  8
_0-0_1
 62
    7
 10
64.00822186560606
 20
184.74056006602689
 40
10
 41
1.0000000000000013
 50
0
  1
◆型式内容
  0
LINE
  8
_0-0_1
  6
CONTINUOUS
 62
    7
 10
64.5684695864432
 20
183.92324281811977
 11
115.37110116539054
 21
183.92324281811977
  0
LINE
  8
_0-0_1
  6
CONTINUOUS
 62
    7
 10
58.250197536428061
 20
196.81301095214616
 11
818.24613889818363
 21
196.81301095214616
  0
LINE
  8
_0-0_1
  6
CONTINUOUS
 62
    7
 10
658.29444089818355
 20
510.01928487887608
 11
658.29444089818344
 21
351.13943188292455
  0
LINE
  8
_0-0_1
  6
CONTINUOUS
 62
    7
 10
58.248172549031608
 20
351.13943188292455
 11
818.24613889818363
 21
351.13943188292455
  0
LINE
  8
_1-6_23
  6
CONTINUOUS
 62
    7
 10
818.24613889818374
 20
126.81302687887609
 11
628.2461548981837
 21
126.81302687887609
  0
LINE
  8
_0-0_1
  6
CONTINUOUS
 62
    7
 10
588.14017489818366
 20
519.70761887887602
 11
583.64019089818362
 21
510.70761487887603
  0
LINE
  8
_0-0_1
  6
CONTINUOUS
 62
    7
 10
588.14017489818366
 20
519.70761887887602
 11
592.64017489818366
 21
510.70761487887603
  0
LINE
  8
_0-0_1
  6
CONTINUOUS
 62
    7
 10
578.29442489818371
 20
520.01924487887607
 11
578.29442489818371
 21
510.01928487887614
  0
LINE
  8
_0-0_1
  6
CONTINUOUS
 62
    7
 10
598.29444089818367
 20
520.01924487887607
 11
598.29444089818367
 21
510.01928487887614
  0
LINE
  8
_0-0_1
  6
CONTINUOUS
 62
    7
 10
658.29444089818367
 20
520.01924487887607
 11
658.29444089818367
 21
510.01928487887614
  0
LINE
  8
_0-0_1
  6
CONTINUOUS
 62
    7
 10
578.29442489818371
 20
530.81302887887614
 11
578.29442489818371
 21
520.01924487887607
  0
LINE
  8
_0-0_1
  6
CONTINUOUS
 62
    7
 10
598.29444089818367
 20
530.81302887887614
 11
598.29444089818367
 21
520.01924487887607
  0
LINE
  8
_0-0_1
  6
CONTINUOUS
 62
    7
 10
658.29444089818367
 20
530.81302887887614
 11
658.29444089818367
 21
520.01924487887607
  0
LINE
  8
_0-0_1
  6
CONTINUOUS
 62
    7
 10
778.29444089818367
 20
530.81302887887614
 11
778.29444089818367
 21
510.01928487887614
  0
LINE
  8
_0-0_1
  6
CONTINUOUS
 62
    7
 10
798.29444089818355
 20
530.81302887887614
 11
798.29444089818355
 21
510.01928487887614
  0
LINE
  8
_0-0_1
  6
CONTINUOUS
 62
    7
 10
818.24613889818374
 20
520.01924487887607
 11
578.29445689818363
 21
520.01924487887607
  0
LINE
  8
_0-0_1
  6
CONTINUOUS
 62
    7
 10
578.29442489818371
 20
510.01928487887614
 11
818.24613889818374
 21
510.01928487887614
  0
TEXT
  8
_0-0_1
 62
    7
 10
581.92572491889473
 20
522.33613221977896
 40
6
 41
1
 50
0
  1
Ｎｏ
  0
TEXT
  8
_0-0_1
 62
    7
 10
612.62840636708427
 20
522.43485466816537
 40
6
 41
1.0000000000000007
 50
0
  1
年　月　日
  0
TEXT
  8
_0-0_1
 62
    7
 10
694.07442628591548
 20
522.2867709955857
 40
6
 41
1.0000000000000011
 50
0
  1
訂　正　記　事
  0
TEXT
  8
_0-0_1
 62
    7
 10
780.90081964180854
 20
521.01571947261004
 40
8.0000000000000284
 41
0.9999999999999973
 50
0
  1
担当
  0
TEXT
  8
_0-0_1
 62
    7
 10
800.250419525555
 20
521.11444192099657
 40
8
 41
1.0000000000000009
 50
0
  1
検印
  0
TEXT
  8
_0-0_1
 62
    7
 10
586.18730158730159
 20
510.7492063492063
 40
8
 41
1
 50
0
  1
1
  0
LINE
  8
_0-0_1
  6
CONTINUOUS
 62
    7
 10
583.64019089818362
 20
510.70761487887603
 11
592.64017489818366
 21
510.70761487887603
  0
LINE
  8
_0-0_1
  6
CONTINUOUS
 62
    7
 10
58.246204898183635
 20
530.81302887887614
 11
818.24613889818374
 21
530.81302887887614
  0
LINE
  8
_0-0_1
  6
CONTINUOUS
 62
    7
 10
58.252538898183673
 20
16.813014878876174
 11
58.246204898183635
 21
530.81302887887614
  0
LINE
  8
_0-0_1
  6
CONTINUOUS
 62
    7
 10
818.24613889818374
 20
16.813014878876174
 11
58.246204898183635
 21
16.813014878876174
  0
LINE
  8
_0-0_1
  6
CONTINUOUS
 62
    7
 10
818.24613889818374
 20
530.81302887887614
 11
818.24613889818374
 21
16.813014878876174
  0
LINE
  8
_0-0_1
  6
CONTINUOUS
 62
    7
 10
728.24613889818374
 20
56.813022878876097
 11
728.24613889818374
 21
16.813014878876174
  0
LINE
  8
_0-0_1
  6
CONTINUOUS
 62
    7
 10
728.24613889818374
 20
76.813026878876087
 11
728.24613889818374
 21
56.813022878876097
  0
LINE
  8
_0-0_1
  6
CONTINUOUS
 62
    7
 10
718.2461548981837
 20
56.813022878876097
 11
718.2461548981837
 21
16.813014878876174
  0
LINE
  8
_0-0_1
  6
CONTINUOUS
 62
    7
 10
648.29209689818367
 20
49.37143087887614
 11
648.29209689818367
 21
43.371436878876125
  0
LINE
  8
_0-0_1
  6
CONTINUOUS
 62
    7
 10
648.29209689818367
 20
49.37143087887614
 11
662.29209289818368
 21
52.371428878876088
  0
LINE
  8
_0-0_1
  6
CONTINUOUS
 62
    7
 10
662.29209289818368
 20
52.371428878876088
 11
662.29209289818368
 21
40.371426878876093
  0
LINE
  8
_0-0_1
  6
CONTINUOUS
 62
    7
 10
648.29209689818367
 20
43.371436878876125
 11
662.29209289818368
 21
40.371426878876093
  0
LINE
  8
_0-0_1
  6
CENTER1
 62
    7
 10
666.29205689818377
 20
46.371432878876135
 11
630.2920868981837
 21
46.371432878876135
  0
LINE
  8
_0-0_1
  6
CENTER1
 62
    7
 10
638.29206489818375
 20
54.37143487887613
 11
638.29206489818375
 21
38.371428878876088
  0
LINE
  8
_0-0_1
  6
CONTINUOUS
 62
    7
 10
718.2461548981837
 20
76.813026878876087
 11
718.2461548981837
 21
16.813014878876174
  0
LINE
  8
_0-0_1
  6
CONTINUOUS
 62
    7
 10
778.2461548981837
 20
76.813026878876087
 11
778.2461548981837
 21
56.813022878876097
  0
LINE
  8
_0-0_1
  6
CONTINUOUS
 62
    7
 10
788.24623889818372
 20
76.813026878876087
 11
788.24623889818372
 21
56.813022878876097
  0
LINE
  8
_0-0_1
  6
CONTINUOUS
 62
    7
 10
668.24618889818362
 20
56.813022878876097
 11
668.24618889818362
 21
36.813016878876169
  0
LINE
  8
_0-0_1
  6
CONTINUOUS
 62
    7
 10
678.24617289818366
 20
56.813022878876097
 11
678.24617289818366
 21
36.813016878876169
  0
LINE
  8
_0-0_1
  6
CONTINUOUS
 62
    7
 10
698.24623889818372
 20
76.813026878876087
 11
698.24623889818372
 21
56.813022878876097
  0
LINE
  8
_0-0_1
  6
CONTINUOUS
 62
    7
 10
688.2461548981837
 20
76.813026878876087
 11
688.2461548981837
 21
56.813022878876097
  0
LINE
  8
_0-0_1
  6
CONTINUOUS
 62
    7
 10
668.24618889818362
 20
76.813026878876087
 11
668.24618889818362
 21
56.813022878876097
  0
LINE
  8
_0-0_1
  6
CONTINUOUS
 62
    7
 10
658.2461548981837
 20
76.813026878876087
 11
658.2461548981837
 21
56.813022878876097
  0
LINE
  8
_0-0_1
  6
CONTINUOUS
 62
    7
 10
638.24613889818374
 20
76.813026878876087
 11
638.24613889818374
 21
56.813022878876097
  0
LINE
  8
_0-0_1
  6
CONTINUOUS
 62
    7
 10
818.24613889818374
 20
76.813026878876087
 11
628.2461548981837
 21
76.813026878876087
  0
LINE
  8
_0-0_1
  6
CONTINUOUS
 62
    7
 10
818.24613889818374
 20
56.813022878876097
 11
628.2461548981837
 21
56.813022878876097
  0
LINE
  8
_0-0_1
  6
CONTINUOUS
 62
    7
 10
818.24613889818374
 20
36.813016878876169
 11
628.2461548981837
 21
36.813016878876169
  0
CIRCLE
  8
_0-0_1
  6
CONTINUOUS
 62
    7
 10
638.29206489818375
 20
46.371432878876135
 40
6
  0
CIRCLE
  8
_0-0_1
  6
CONTINUOUS
 62
    7
 10
638.29206489818375
 20
46.371432878876135
 40
3
  0
LINE
  8
_0-0_1
  6
CONTINUOUS
 62
    7
 10
818.24613889818374
 20
86.813026878876087
 11
628.2461548981837
 21
86.813026878876087
  0
LINE
  8
_0-0_1
  6
CONTINUOUS
 62
    7
 10
668.24618889818362
 20
76.813026878876087
 11
668.24618889818362
 21
86.813026878876087
  0
TEXT
  8
_0-0_1
 62
    7
 10
639.72501689818364
 20
77.604776878876123
 40
8
 41
1.0000000000000009
 50
0
  1
出図
  0
LINE
  8
_0-0_1
  6
CONTINUOUS
 62
    7
 10
728.2461548981837
 20
76.813026878876087
 11
728.2461548981837
 21
86.813026878876087
  0
TEXT
  8
_0-0_1
 62
    7
 10
691.57108889818369
 20
78.605196878876143
 40
6
 41
2
 50
0
  1
.   .
  0
LINE
  8
_0-0_1
  6
CONTINUOUS
 62
    7
 10
798.24613889818363
 20
86.813026878876087
 11
798.24613889818363
 21
76.813026878876087
  0
TEXT
  8
_0-0_1
 62
    7
 10
632.96866889818375
 20
72.802968878876129
 40
6
 41
1
 50
0
  1
設計
  7
TATEGAKI
  0
TEXT
  8
_0-0_1
 62
    7
 10
662.87419089818377
 20
72.802968878876129
 40
6
 41
1
 50
0
  1
製図
  7
TATEGAKI
  0
TEXT
  8
_0-0_1
 62
    7
 10
692.60065489818362
 20
72.802968878876129
 40
6
 41
1
 50
0
  1
検図
  7
TATEGAKI
  0
TEXT
  8
_0-0_1
 62
    7
 10
723.30341689818374
 20
72.965028878876126
 40
5.9999999999999822
 41
1.0000000000000029
 50
0
  1
作図
  7
TATEGAKI
  0
TEXT
  8
_0-0_1
 62
    7
 10
783.29835889818378
 20
72.840602878876098
 40
6
 41
1
 50
0
  1
尺度
  7
TATEGAKI
  0
TEXT
  8
_0-0_1
 62
    7
 10
673.51938089818373
 20
53.368536878876171
 40
6
 41
1
 50
0
  1
材質
  7
TATEGAKI
  0
TEXT
  8
_0-0_1
 62
    7
 10
723.27120889818366
 20
53.368536878876171
 40
6
 41
1
 50
0
  1
品名
  7
TATEGAKI
  0
TEXT
  8
_0-0_1
 62
    7
 10
723.69572689818369
 20
33.065162878876151
 40
6
 41
1
 50
0
  1
図番
  7
TATEGAKI
  0
TEXT
  8
_0-0_1
 62
    7
 10
695.22081778077472
 20
42.37764287887606
 40
8.0000000000000568
 41
0.9999999999999964
 50
0
  1
-
  0
TEXT
  8
_0-0_1
 62
    7
 10
796.43533678380822
 20
63.037782337899785
 40
6
 41
1
 50
0
  1
1：2
  0
TEXT
  8
_0-0_1
 62
    7
 10
641.53094567047697
 20
21.576153643551322
 40
8
 41
0.9999999999999994
 50
0
  1
ＦＫＫ株式会社
  0
LINE
  8
_0-0_1
  6
CONTINUOUS
 62
    7
 10
628.2461548981837
 20
86.425776182987988
 11
628.2461548981837
 21
16.813014878876174
  0
LINE
  8
_1-0_
  6
CONTINUOUS
 62
    7
 10
504.01174031704562
 20
120.74284121895695
 11
504.01174031704562
 21
40.742841218956983
  0
LINE
  8
_1-0_
  6
CONTINUOUS
 62
    7
 10
447.79615534399693
 20
120.74284121895695
 11
447.79615534399693
 21
40.742841218956983
  0
TEXT
  8
_1-0_
 62
    7
 10
453.15057401006936
 20
106.67824631890275
 40
11.199999999999989
 41
1.0000000000000004
 50
0
  1
入力電流
  0
LINE
  8
_1-0_
  6
CONTINUOUS
 62
    7
 10
392.31873320809285
 20
120.74284121895695
 11
392.31873320809285
 21
40.742841218956983
  0
TEXT
  8
_1-0_
 62
    7
 10
397.71153174739413
 20
106.67824631890275
 40
11.199999999999989
 41
1.0000000000000009
 50
0
  1
入力電力
  0
TEXT
  8
_1-0_
 62
    7
 10
369.16020923789614
 20
106.40058943281585
 40
11.200000000000017
 41
0.9999999999999976
 50
0
  1
Ra
  0
LINE
  8
_1-0_
  6
CONTINUOUS
 62
    7
 10
353.47160391403065
 20
120.74284121895695
 11
353.47160391403065
 21
40.742841218956983
  0
LINE
  8
_1-0_
  6
CONTINUOUS
 62
    7
 10
244.50583838848092
 20
120.74284121895695
 11
244.50583838848092
 21
40.742841218956983
  0
LINE
  8
_1-0_
  6
CONTINUOUS
 62
    7
 10
74.72867713211275
 20
88.742841218956983
 11
353.46282380971599
 21
88.742841218956983
  0
LINE
  8
_1-0_
  6
CONTINUOUS
 62
    7
 10
392.38697932278154
 20
88.742841218956983
 11
559.90037099802862
 21
88.742841218956983
  0
LINE
  8
_1-0_
  6
CONTINUOUS
 62
    7
 10
74.72867713211275
 20
72.742841218956983
 11
353.46282380971599
 21
72.742841218956983
  0
LINE
  8
_1-0_
  6
CONTINUOUS
 62
    7
 10
392.27480596395429
 20
72.742841218956983
 11
559.90037099802862
 21
72.742841218956983
  0
LINE
  8
_1-0_
  6
CONTINUOUS
 62
    7
 10
74.72867713211275
 20
56.742841218957039
 11
353.68717052737048
 21
56.742841218957039
  0
LINE
  8
_1-0_
  6
CONTINUOUS
 62
    7
 10
392.49915268160885
 20
56.742841218957039
 11
559.90037099802862
 21
56.742841218957039
  0
LINE
  8
_1-0_
  6
CONTINUOUS
 62
    7
 10
74.72867713211275
 20
120.74284121895695
 11
74.72867713211275
 21
40.742841218956983
  0
LINE
  8
_1-0_
  6
CONTINUOUS
 62
    7
 10
74.72867713211275
 20
40.742841218956983
 11
559.90037099802862
 21
40.742841218956983
  0
LINE
  8
_1-0_
  6
CONTINUOUS
 62
    7
 10
74.72867713211275
 20
120.74284121895695
 11
559.90037099802862
 21
120.74284121895695
  0
LINE
  8
_1-0_
  6
CONTINUOUS
 62
    7
 10
559.90037099802862
 20
120.74284121895695
 11
559.90037099802862
 21
40.742841218956983
  0
TEXT
  8
_1-0_
 62
    7
 10
75.401409424706173
 20
122.12406751117976
 40
12
 41
0.9999999999999994
 50
0
  1
◆ 代表特性　定格入力DC24V　LXSW使用
  0
TEXT
  8
_1-0_
 62
    7
 10
107.79151985306396
 20
106.55826265958285
 40
11.199999999999989
 41
0.9999999999999995
 50
0
  1
型式
  0
TEXT
  8
_1-0_
 62
    7
 10
515.29900074665636
 20
110.29331556963569
 40
9.9999999999999716
 41
1.0000000000000031
 50
0
  1
全光束
  0
TEXT
  8
_1-0_
 62
    7
 10
520.32757217522783
 20
104.42664890296905
 40
6
 41
1.0000000000000007
 50
0
  1
N:5000K
  0
LINE
  8
_1-0_
  6
CONTINUOUS
 62
    7
 10
559.90037099802862
 20
120.74284121895695
 11
614.1942388418945
 21
120.74284121895695
  0
LINE
  8
_1-0_
  6
CONTINUOUS
 62
    7
 10
614.1942388418945
 20
120.74284121895695
 11
614.1942388418945
 21
40.742841218956983
  0
LINE
  8
_1-0_
  6
CONTINUOUS
 62
    7
 10
559.90037099802862
 20
40.742841218956983
 11
614.1942388418945
 21
40.742841218956983
  0
TEXT
  8
_1-0_
 62
    7
 10
560.27677852443412
 20
108.61712509344522
 40
8
 41
1
 50
0
  1
最大連結長さ
  0
LINE
  8
_1-0_
  6
CONTINUOUS
 62
    7
 10
559.90037099802862
 20
104.74284121895693
 11
613.63550868316429
 21
104.74284121895693
  0
LINE
  8
_1-0_
  6
CONTINUOUS
 62
    7
 10
299.55931820697384
 20
120.97902985534995
 11
299.55931820697384
 21
40.742841218956983
  0
TEXT
  8
_1-0_
 62
    7
 10
301.23550868316431
 20
105.70707218339226
 40
11.200000000000017
 41
0.9999999999999965
 50
0
  1
LED PKG数
  0
TEXT
  8
_1-0_
 62
    7
 10
201.19081194543148
 20
106.52501931124348
 40
11.200000000000017
 41
0.9999999999999965
 50
0
  1
全長
  0
TEXT
  8
_1-0_
 62
    7
 10
262.17950234085856
 20
106.15650758679982
 40
11.200000000000017
 41
0.9999999999999965
 50
0
  1
重量
  0
TEXT
  8
_1-0_
 62
    7
 10
599.89540607346999
 20
68.388553664873797
 40
10
 41
1
 50
0
  1
㎜
  0
LINE
  8
_1-0_
  6
CONTINUOUS
 62
    7
 10
178.538048231913
 20
120.74284121895695
 11
178.538048231913
 21
40.742841218956983
  0
TEXT
  8
_1-0_
 62
    7
 10
653.34078509162612
 20
118.00135445619003
 40
7.0000000000000284
 41
0.9999999999999954
 50
0
  1
接続コネクタ（出力側）
  0
TEXT
  8
_1-0_
 62
    7
 10
653.34078509162612
 20
108.01179187909565
 40
6.9999999999998579
 41
1.0000000000000202
 50
0
  1
接続コネクタ（入力側）
  0
TEXT
  8
_1-0_
 62
    7
 10
669.97882144036555
 20
87.83692227157573
 40
8
 41
1
 50
0
  1
樹脂カバー
  0
TEXT
  8
_1-0_
 62
    7
 10
660.75977382131794
 20
97.614700049353502
 40
8
 41
1
 50
0
  1
アルミフレーム
  0
TEXT
  8
_1-0_
 62
    7
 10
805.75413008234091
 20
87.88736318868331
 40
8
 41
1
 50
0
  1
1
  0
TEXT
  8
_1-0_
 62
    7
 10
742.02472094891823
 20
116.9032110523251
 40
3.9999999999999432
 41
1.0000000000000142
 50
0
  1
リード線：AWG22
  0
TEXT
  8
_1-0_
 62
    7
 10
742.30811279507691
 20
111.94385374454765
 40
3.9999999999999716
 41
0.8000000000000047
 50
0
  1
日本圧着端子SMR-02V-N相当（PA66)
  0
TEXT
  8
_1-0_
 62
    7
 10
742.16641687199751
 20
122.14596020626118
 40
4.0000000000000284
 41
0.7999999999999938
 50
0
  1
日本圧着端子SMP-02V-NC相当（PA66）
  0
TEXT
  8
_1-0_
 62
    7
 10
742.13067329221735
 20
107.32069652201662
 40
3.9999999999999432
 41
1.0000000000000142
 50
0
  1
リード線：AWG22
  0
TEXT
  8
_1-0_
 62
    7
 10
805.87829233983643
 20
118.0898323244858
 40
8
 41
1
 50
0
  1
1
  0
TEXT
  8
_1-0_
 62
    7
 10
806.06453572607984
 20
107.47395930861279
 40
8
 41
1
 50
0
  1
1
  0
TEXT
  8
_1-0_
 62
    7
 10
805.78517064671473
 20
97.69618153083502
 40
8
 41
1
 50
0
  1
1
  0
TEXT
  8
_1-0_
 62
    7
 10
742.6056585949807
 20
97.343095111081908
 40
4
 41
1
 50
0
  1
アルミ : A6063SS-T5
  0
TEXT
  8
_1-0_
 62
    7
 10
633.85386131502855
 20
107.90919184722145
 40
7
 41
1
 50
0
  1
③
  0
TEXT
  8
_1-0_
 62
    7
 10
633.85386131502855
 20
97.98758578438202
 40
7
 41
1
 50
0
  1
②
  0
TEXT
  8
_1-0_
 62
    7
 10
633.85386131502855
 20
87.917896048962916
 40
7
 41
1
 50
0
  1
①
  0
TEXT
  8
_1-0_
 62
    7
 10
633.85386131502855
 20
117.97888158264055
 40
7
 41
1
 50
0
  1
④
  0
TEXT
  8
_1-0_
 62
    7
 10
634.11101310164054
 20
127.69053724418453
 40
7
 41
1
 50
0
  1
⑤
  0
TEXT
  8
_1-0_
 62
    7
 10
412.70702543801389
 20
171.69478529332767
 40
10
 41
0.9999999999999996
 50
0
  1
⑤　電源コネクター仕様
  0
TEXT
  8
_1-0_
 62
    7
 10
412.98639051737894
 20
147.66938846793084
 40
10
 41
0.9999999999999996
 50
0
  1
⑥　固定仕様
  0
TEXT
  8
_1-0_
 62
    7
 10
74.497021761917438
 20
28.309060472902274
 40
7
 41
1
 50
0
  1
発光色  D:6500K / DN:5700K / N:5000K / NW:4500K / W:4000K 
  0
TEXT
  8
_1-0_
 62
    7
 10
310.4706480766996
 20
28.872036057221408
 40
7
 41
1
 50
0
  1
全光束比率  D:6500K(97%) / DN:5700K(99%) / N:5000K(100%) / NW:4500K(99%) / W:4000K(97%)
  0
TEXT
  8
_1-0_
 62
    7
 10
310.82875115332115
 20
20.350970017636655
 40
7
 41
1
 50
0
  1
N色基準
  0
TEXT
  8
_1-0_
 62
    7
 10
352.51622910746579
 20
20.009523809523785
 40
7
 41
1
 50
0
  1
WW:3500K(93%) / L30:3000K(93%) / L27:2700K(90%) / L25:2500K(77%)
  0
LINE
  8
_1-0_
  6
CONTINUOUS
 62
    7
 10
74.72867713211275
 20
104.74284121895693
 11
559.90037099802862
 21
104.74284121895693
  0
TEXT
  8
_0-0_1
 62
    7
 10
730.60920675689022
 20
38.181355194112314
 40
8
 41
1
 50
0
  1
仕様図
  0
TEXT
  8
_1-0_
 62
    7
 10
744.28405610984885
 20
20.34579670058281
 40
12
 41
1
 50
0
  1
F5207030
  0
TEXT
  8
_1-0_
 62
    7
 10
731.44058085547772
 20
47.177170799170199
 40
8
 41
1
 50
0
  1
LXSW-FGO モジュール
  0
TEXT
  8
_3-0_
 62
    7
 10
716.08315505541384
 20
492.47019824102472
 40
8
 41
1
 50
0
  1
A-A 断面図
  0
TEXT
  8
_3-0_
 62
    7
 10
716.91674615964109
 20
469.02125686121781
 40
8
 41
1
 50
0
  1
S = 2 : 1
  0
ARC
  8
_2-0_
  6
CONTINUOUS
 62
    2
 10
319.09275345299511
 20
479.26117479192982
 40
21.534623313903559
 50
315.60640298124792
 51
56.046281077863661
  0
ARC
  8
_2-0_
  6
CONTINUOUS
 62
    2
 10
345.60614382232734
 20
453.30314839436903
 40
15.570349443572795
 50
135.60640298124798
 51
234.19178192632754
  0
ARC
  8
_2-0_
  6
CONTINUOUS
 62
    2
 10
319.09275345299511
 20
479.26117479192982
 40
19.539423313903555
 50
315.60640298124792
 51
56.046281077863661
  0
ARC
  8
_2-0_
  6
CONTINUOUS
 62
    2
 10
345.60614382232734
 20
453.30314839436903
 40
17.565549443572795
 50
135.60640298124798
 51
234.19178192632754
  0
ARC
  8
_2-0_
  6
CONTINUOUS
 62
    2
 10
345.60614382232734
 20
374.67286274418871
 40
15.570349443572795
 50
135.60640298124798
 51
234.19178192632754
  0
ARC
  8
_2-0_
  6
CONTINUOUS
 62
    2
 10
345.60614382232734
 20
374.67286274418871
 40
17.565549443572795
 50
135.60640298124798
 51
234.19178192632754
  0
LINE
  8
_2-0_
  6
CONTINUOUS
 62
    7
 10
334.31945897612042
 20
388.38603298285807
 11
166.11319146245614
 21
388.38603298285807
  0
LINE
  8
_2-0_
  6
CONTINUOUS
 62
    7
 10
331.84734574873039
 20
385.59275298285814
 11
166.11319146245614
 21
385.59275298285814
  0
LINE
  8
_2-0_
  6
CONTINUOUS
 62
    7
 10
330.36081891398771
 20
383.39803298285807
 11
166.11319146245614
 21
383.39803298285807
  0
LINE
  8
_2-0_
  6
CONTINUOUS
 62
    7
 10
162.92087146245609
 20
387.61197594296914
 11
133.64067704849418
 21
387.61197594296914
  0
ARC
  8
_2-0_
  6
CONTINUOUS
 62
    2
 10
319.09275345299511
 20
400.63088914174955
 40
21.534623313903559
 50
315.60640298124792
 51
56.046281077863661
  0
ARC
  8
_2-0_
  6
CONTINUOUS
 62
    2
 10
319.09275345299511
 20
400.63088914174955
 40
19.539423313903555
 50
315.60640298124792
 51
56.046281077863661
  0
LINE
  8
_2-0_
  6
CONTINUOUS
 62
    4
 10
162.92087146245609
 20
427.23590782360407
 11
168.70251708829198
 21
428.78509509996968
  0
LINE
  8
_2-0_
  6
CONTINUOUS
 62
    4
 10
162.92087146245609
 20
427.23590782360407
 11
168.70251708829198
 21
425.68672054723839
  0
LINE
  8
_2-0_
  6
CONTINUOUS
 62
    4
 10
162.92087146245609
 20
426.23830782360403
 11
162.92087146245609
 21
444.03590782360402
  0
LINE
  8
_2-0_
  6
CONTINUOUS
 62
    4
 10
104.72174094295303
 20
427.23590782360407
 11
162.92087146245609
 21
427.23590782360407
  0
LINE
  8
_2-0_
  6
CONTINUOUS
 62
    4
 10
104.72174094295303
 20
427.23590782360407
 11
110.50338656878893
 21
428.78509509996968
  0
LINE
  8
_2-0_
  6
CONTINUOUS
 62
    4
 10
104.72174094295303
 20
427.23590782360407
 11
110.50338656878893
 21
425.68672054723839
  0
LINE
  8
_2-0_
  6
CONTINUOUS
 62
    4
 10
162.92087146245609
 20
427.23590782360407
 11
157.13922583662026
 21
428.78509509996968
  0
LINE
  8
_2-0_
  6
CONTINUOUS
 62
    4
 10
162.92087146245609
 20
427.23590782360407
 11
157.13922583662026
 21
425.68672054723839
  0
LINE
  8
_2-0_
  6
CONTINUOUS
 62
    4
 10
104.72174094295303
 20
426.23830782360403
 11
104.72174094295303
 21
444.03590782360402
  0
LINE
  8
_2-0_
  6
CONTINUOUS
 62
    4
 10
162.92087146245609
 20
426.23830782360403
 11
162.92087146245609
 21
444.03590782360402
  0
TEXT
  8
_2-0_
 62
    7
 10
127.73563716340226
 20
427.90355782360405
 40
8
 41
1
 50
0
  1
50
  0
LINE
  8
ADD_LINE
  6
DOT
 62
    9
 10
586.62919604595936
 20
468.22805527041271
 11
104.72174094295303
 21
468.22805527041271
  0
ARC
  8
_2-0_
  6
CONTINUOUS
 62
    2
 10
125.73325999804774
 20
472.92542593384019
 40
8.6925014238031562
 50
320.661199489333
 51
54.386441387944416
  0
ARC
  8
_2-0_
  6
CONTINUOUS
 62
    2
 10
139.78957542890618
 20
461.4045603958748
 40
9.4819406924123637
 50
140.66119948933292
 51
214.56691244988951
  0
ARC
  8
_2-0_
  6
CONTINUOUS
 62
    2
 10
139.78957542890618
 20
461.4045603958748
 40
11.477140692412364
 50
140.66119948933292
 51
214.56691244988951
  0
ARC
  8
_2-0_
  6
CONTINUOUS
 62
    2
 10
125.73325999804774
 20
472.92542593384019
 40
6.6973014238031556
 50
320.661199489333
 51
54.386441387944416
  0
LINE
  8
_2-0_
  6
CONTINUOUS
 62
    7
 10
162.92087146245609
 20
469.22565527041274
 11
133.59908977251285
 21
469.22565527041274
  0
LINE
  8
_2-0_
  6
CONTINUOUS
 62
    7
 10
131.31587080297732
 20
469.22565527041274
 11
104.72174094295315
 21
469.22565527041274
  0
LINE
  8
_2-0_
  6
CONTINUOUS
 62
    7
 10
162.92087146245609
 20
472.81701527041264
 11
134.42508536047171
 21
472.81701527041264
  0
LINE
  8
_2-0_
  6
CONTINUOUS
 62
    7
 10
132.4296839309639
 20
472.81701527041264
 11
104.72174094295315
 21
472.81701527041264
  0
LINE
  8
_2-0_
  6
CONTINUOUS
 62
    7
 10
162.92087146245609
 20
467.23045527041268
 11
132.30852281545282
 21
467.23045527041268
  0
LINE
  8
_2-0_
  6
CONTINUOUS
 62
    7
 10
129.90101095350025
 20
467.23045527041268
 11
104.72174094295315
 21
467.23045527041268
  0
LINE
  8
_2-0_
  6
CONTINUOUS
 62
    7
 10
162.92087146245609
 20
463.63909527041278
 11
130.57469327073943
 21
463.63909527041278
  0
LINE
  8
_2-0_
  6
CONTINUOUS
 62
    7
 10
128.53206183273841
 20
463.63909527041278
 11
104.72174094295315
 21
463.63909527041278
  0
LINE
  8
ADD_LINE
  6
DOT
 62
    9
 10
104.72174094295315
 20
473.01731464541274
 11
104.72174094295315
 21
463.43879589541268
  0
LINE
  8
_2-0_
  6
CONTINUOUS
 62
    7
 10
104.72174094295315
 20
461.28382402041268
 11
104.72174094295315
 21
475.17228652041274
  0
LINE
  8
_2-0_
  6
CONTINUOUS
 62
    7
 10
67.68792444295326
 20
458.88958402041271
 11
67.68792444295326
 21
477.56652652041271
  0
LINE
  8
_2-0_
  6
CONTINUOUS
 62
    7
 10
82.053364442953239
 20
461.28382402041268
 11
104.72174094295315
 21
461.28382402041268
  0
LINE
  8
_2-0_
  6
CONTINUOUS
 62
    7
 10
104.72174094295315
 20
475.17228652041274
 11
82.053364442953239
 21
475.17228652041274
  0
LINE
  8
_2-0_
  6
CONTINUOUS
 62
    7
 10
103.72414094295317
 20
461.28382402041268
 11
103.72414094295317
 21
475.17228652041274
  0
LINE
  8
ADD_LINE
  6
DOT
 62
    9
 10
67.68792444295326
 20
468.22805527041271
 11
104.72174094295315
 21
468.22805527041271
  0
LINE
  8
_2-0_
  6
CONTINUOUS
 62
    7
 10
77.66392444295326
 20
473.57612652041269
 11
67.68792444295326
 21
473.57612652041269
  0
LINE
  8
_2-0_
  6
CONTINUOUS
 62
    7
 10
73.67352444295318
 20
472.21845527041279
 11
96.019764442953203
 21
472.21845527041279
  0
LINE
  8
_2-0_
  6
CONTINUOUS
 62
    7
 10
77.66392444295326
 20
472.21845527041279
 11
77.66392444295326
 21
473.57612652041269
  0
LINE
  8
_2-0_
  6
CONTINUOUS
 62
    7
 10
73.67352444295318
 20
470.22325527041278
 11
96.019764442953203
 21
470.22325527041278
  0
LINE
  8
_2-0_
  6
CONTINUOUS
 62
    7
 10
67.68792444295326
 20
462.87998402041268
 11
77.66392444295326
 21
462.87998402041268
  0
LINE
  8
_2-0_
  6
CONTINUOUS
 62
    7
 10
73.67352444295318
 20
464.2376552704128
 11
96.019764442953203
 21
464.2376552704128
  0
LINE
  8
_2-0_
  6
CONTINUOUS
 62
    7
 10
77.66392444295326
 20
462.87998402041268
 11
77.66392444295326
 21
464.2376552704128
  0
LINE
  8
_2-0_
  6
CONTINUOUS
 62
    7
 10
73.67352444295318
 20
466.23285527041276
 11
96.019764442953203
 21
466.23285527041276
  0
LINE
  8
_2-0_
  6
CONTINUOUS
 62
    7
 10
73.67352444295318
 20
464.2376552704128
 11
73.67352444295318
 21
472.21845527041279
  0
LINE
  8
_2-0_
  6
CONTINUOUS
 62
    7
 10
96.019764442953203
 20
464.2376552704128
 11
96.019764442953203
 21
472.21845527041279
  0
LINE
  8
_2-0_
  6
CONTINUOUS
 62
    7
 10
82.053364442953239
 20
475.57132652041275
 11
82.053364442953239
 21
472.21845527041279
  0
LINE
  8
_2-0_
  6
CONTINUOUS
 62
    7
 10
80.058164442953228
 20
477.56652652041271
 11
67.68792444295326
 21
477.56652652041271
  0
ARC
  8
_2-0_
  6
CONTINUOUS
 62
    7
 10
80.058164442953228
 20
475.57132652041275
 40
1.9952000000000005
 50
0
 51
90.000000000000014
  0
LINE
  8
_2-0_
  6
CONTINUOUS
 62
    7
 10
82.053364442953239
 20
460.88478402041272
 11
82.053364442953239
 21
464.2376552704128
  0
LINE
  8
_2-0_
  6
CONTINUOUS
 62
    7
 10
80.058164442953228
 20
458.88958402041271
 11
67.68792444295326
 21
458.88958402041271
  0
ARC
  8
_2-0_
  6
CONTINUOUS
 62
    7
 10
80.058164442953228
 20
460.88478402041272
 40
1.9952000000000005
 50
270
 51
0
  0
LINE
  8
ADD_LINE
  6
DOT
 62
    9
 10
168.00577436544381
 20
468.22805527041271
 11
104.72174094295315
 21
468.22805527041271
  0
LINE
  8
_2-0_
  6
CONTINUOUS
 62
    7
 10
82.053364442953239
 20
391.80189594296922
 11
82.053364442953239
 21
379.83069594296921
  0
LINE
  8
_2-0_
  6
CONTINUOUS
 62
    7
 10
82.053364442953239
 20
391.80189594296922
 11
67.68792444295326
 21
391.80189594296922
  0
ARC
  8
_2-0_
  6
CONTINUOUS
 62
    2
 10
125.73325999804774
 20
391.2220087119519
 40
8.6925014238031562
 50
320.661199489333
 51
54.386441387944416
  0
ARC
  8
_2-0_
  6
CONTINUOUS
 62
    2
 10
139.78957542890618
 20
379.70114317398645
 40
9.4819406924123637
 50
140.66119948933292
 51
214.56691244988951
  0
ARC
  8
_2-0_
  6
CONTINUOUS
 62
    2
 10
139.78957542890618
 20
379.70114317398645
 40
11.477140692412364
 50
140.66119948933292
 51
214.56691244988951
  0
ARC
  8
_2-0_
  6
CONTINUOUS
 62
    2
 10
125.73325999804774
 20
391.2220087119519
 40
6.6973014238031556
 50
320.661199489333
 51
54.386441387944416
  0
LINE
  8
_2-0_
  6
CONTINUOUS
 62
    7
 10
131.37431572974788
 20
387.61197594296914
 11
104.72174094295315
 21
387.61197594296914
  0
LINE
  8
_2-0_
  6
CONTINUOUS
 62
    7
 10
129.15628273701412
 20
384.02061594296919
 11
104.72174094295315
 21
384.02061594296919
  0
LINE
  8
_2-0_
  6
CONTINUOUS
 62
    7
 10
82.053364442953239
 20
379.83069594296921
 11
67.68792444295326
 21
379.83069594296921
  0
LINE
  8
_2-0_
  6
CONTINUOUS
 62
    7
 10
104.72174094295315
 20
389.80669594296921
 11
82.053364442953239
 21
389.80669594296921
  0
LINE
  8
_2-0_
  6
CONTINUOUS
 62
    7
 10
104.72174094295315
 20
381.82589594296917
 11
82.053364442953239
 21
381.82589594296917
  0
LINE
  8
_2-0_
  6
CONTINUOUS
 62
    7
 10
103.72414094295317
 20
389.80669594296921
 11
103.72414094295317
 21
381.82589594296917
  0
LINE
  8
_2-0_
  6
CONTINUOUS
 62
    7
 10
104.72174094295315
 20
389.80669594296921
 11
104.72174094295315
 21
381.82589594296917
  0
LINE
  8
_2-0_
  6
CONTINUOUS
 62
    7
 10
96.019764442953203
 20
393.79709594296924
 11
73.67352444295318
 21
393.79709594296924
  0
LINE
  8
_2-0_
  6
CONTINUOUS
 62
    7
 10
73.67352444295318
 20
393.79709594296924
 11
73.67352444295318
 21
391.80189594296922
  0
LINE
  8
_2-0_
  6
CONTINUOUS
 62
    7
 10
96.019764442953203
 20
390.80429594296925
 11
82.053364442953239
 21
390.80429594296925
  0
LINE
  8
_2-0_
  6
CONTINUOUS
 62
    7
 10
96.019764442953203
 20
393.79709594296924
 11
96.019764442953203
 21
390.80429594296925
  0
LINE
  8
_2-0_
  6
CONTINUOUS
 62
    7
 10
85.046164442953227
 20
390.80429594296925
 11
85.046164442953227
 21
389.80669594296921
  0
LINE
  8
_2-0_
  6
CONTINUOUS
 62
    7
 10
77.065364442953182
 20
388.80909594296918
 11
77.065364442953182
 21
382.8234959429692
  0
LINE
  8
_2-0_
  6
CONTINUOUS
 62
    7
 10
77.065364442953182
 20
388.80909594296918
 11
67.68792444295326
 21
388.80909594296918
  0
LINE
  8
_2-0_
  6
CONTINUOUS
 62
    7
 10
67.68792444295326
 20
391.80189594296922
 11
67.68792444295326
 21
388.80909594296918
  0
LINE
  8
_2-0_
  6
CONTINUOUS
 62
    7
 10
77.065364442953182
 20
382.8234959429692
 11
67.68792444295326
 21
382.8234959429692
  0
LINE
  8
_2-0_
  6
CONTINUOUS
 62
    7
 10
67.68792444295326
 20
382.8234959429692
 11
67.68792444295326
 21
379.83069594296921
  0
LINE
  8
_2-0_
  6
CONTINUOUS
 62
    7
 10
162.92087146245609
 20
384.02061594296919
 11
131.34864216934051
 21
384.02061594296919
  0
LINE
  8
_2-0_
  6
CONTINUOUS
 62
    7
 10
162.92087146245609
 20
387.61197594296914
 11
133.6406770484943
 21
387.61197594296914
  0
LINE
  8
_2-0_
  6
CONTINUOUS
 62
    2
 10
166.64683956057405
 20
451.56813527041311
 11
199.96667956057308
 21
484.88797527041208
  0
LINE
  8
_2-0_
  6
CONTINUOUS
 62
    2
 10
166.11319146245552
 20
453.85612607194184
 11
197.14504066092587
 21
484.88797527041214
  0
LINE
  8
_2-0_
  6
CONTINUOUS
 62
    2
 10
166.11319146245705
 20
456.67776497158695
 11
194.3234017612819
 21
484.88797527041186
  0
LINE
  8
_2-0_
  6
CONTINUOUS
 62
    2
 10
166.11319146245677
 20
459.49940387123399
 11
191.50176286163486
 21
484.88797527041208
  0
LINE
  8
_2-0_
  6
CONTINUOUS
 62
    2
 10
166.1131914624566
 20
462.32104277088115
 11
188.68012396198782
 21
484.88797527041231
  0
LINE
  8
_2-0_
  6
CONTINUOUS
 62
    2
 10
166.11319146245637
 20
465.14268167052813
 11
185.85848506234078
 21
484.88797527041254
  0
LINE
  8
_2-0_
  6
CONTINUOUS
 62
    2
 10
166.11319146245609
 20
467.96432057017512
 11
183.03684616269373
 21
484.88797527041277
  0
LINE
  8
_2-0_
  6
CONTINUOUS
 62
    2
 10
166.11319146245586
 20
470.78595946982216
 11
180.21520726304669
 21
484.88797527041299
  0
LINE
  8
_2-0_
  6
CONTINUOUS
 62
    2
 10
166.11319146245631
 20
473.60759836946988
 11
177.39356836339857
 21
484.8879752704122
  0
LINE
  8
_2-0_
  6
CONTINUOUS
 62
    2
 10
166.11319146245614
 20
476.4292372691134
 11
174.5719294637554
 21
484.88797527041265
  0
LINE
  8
_2-0_
  6
CONTINUOUS
 62
    2
 10
166.113191462457
 20
479.25087616876147
 11
171.75029056410739
 21
484.88797527041186
  0
LINE
  8
_2-0_
  6
CONTINUOUS
 62
    2
 10
166.11319146245677
 20
482.07251506840862
 11
168.92865166446035
 21
484.88797527041214
  0
LINE
  8
_2-0_
  6
CONTINUOUS
 62
    2
 10
169.46847846022115
 20
451.56813527041282
 11
202.78831846022121
 21
484.88797527041294
  0
LINE
  8
_2-0_
  6
CONTINUOUS
 62
    2
 10
172.29011735986813
 20
451.56813527041265
 11
205.6099573598683
 21
484.88797527041265
  0
LINE
  8
_2-0_
  6
CONTINUOUS
 62
    2
 10
175.11175625951518
 20
451.56813527041237
 11
208.43159625951523
 21
484.88797527041243
  0
LINE
  8
_2-0_
  6
CONTINUOUS
 62
    2
 10
177.93339515916227
 20
451.5681352704122
 11
211.25323515916227
 21
484.8879752704122
  0
LINE
  8
_2-0_
  6
CONTINUOUS
 62
    2
 10
180.75503405880937
 20
451.56813527041203
 11
214.07487405880937
 21
484.88797527041197
  0
LINE
  8
_2-0_
  6
CONTINUOUS
 62
    2
 10
183.57667295845641
 20
451.56813527041174
 11
216.89651295845641
 21
484.88797527041174
  0
LINE
  8
_2-0_
  6
CONTINUOUS
 62
    2
 10
186.39831185810152
 20
451.56813527041328
 11
219.7181518581005
 21
484.88797527041231
  0
LINE
  8
_2-0_
  6
CONTINUOUS
 62
    2
 10
189.21995075774856
 20
451.56813527041299
 11
222.5397907577476
 21
484.88797527041203
  0
LINE
  8
_2-0_
  6
CONTINUOUS
 62
    2
 10
192.04158965739566
 20
451.56813527041277
 11
225.36142965739566
 21
484.88797527041282
  0
LINE
  8
_2-0_
  6
CONTINUOUS
 62
    2
 10
194.86322855704265
 20
451.56813527041254
 11
228.1830685570427
 21
484.88797527041265
  0
LINE
  8
_2-0_
  6
CONTINUOUS
 62
    2
 10
197.68486745668991
 20
451.56813527041248
 11
231.00470745668974
 21
484.88797527041237
  0
LINE
  8
_2-0_
  6
CONTINUOUS
 62
    2
 10
200.58250146118928
 20
451.56813527041282
 11
233.90234146118934
 21
484.88797527041294
  0
LINE
  8
_2-0_
  6
CONTINUOUS
 62
    2
 10
203.40414036083632
 20
451.56813527041265
 11
236.72398036083644
 21
484.88797527041265
  0
LINE
  8
_2-0_
  6
CONTINUOUS
 62
    2
 10
206.22577926048336
 20
451.56813527041237
 11
239.54561926048342
 21
484.88797527041243
  0
LINE
  8
_2-0_
  6
CONTINUOUS
 62
    2
 10
209.04741816013046
 20
451.5681352704122
 11
242.3672581601304
 21
484.8879752704122
  0
LINE
  8
_2-0_
  6
CONTINUOUS
 62
    2
 10
211.86905705977756
 20
451.56813527041203
 11
245.1888970597775
 21
484.88797527041197
  0
LINE
  8
_2-0_
  6
CONTINUOUS
 62
    2
 10
214.6906959594246
 20
451.56813527041174
 11
248.01053595942454
 21
484.88797527041174
  0
LINE
  8
_2-0_
  6
CONTINUOUS
 62
    2
 10
217.51233485906971
 20
451.56813527041328
 11
250.83217485906869
 21
484.88797527041231
  0
LINE
  8
_2-0_
  6
CONTINUOUS
 62
    2
 10
220.3339737587167
 20
451.56813527041299
 11
253.65381375871578
 21
484.88797527041203
  0
LINE
  8
_2-0_
  6
CONTINUOUS
 62
    2
 10
223.15561265836379
 20
451.56813527041277
 11
256.47545265836385
 21
484.88797527041282
  0
LINE
  8
_2-0_
  6
CONTINUOUS
 62
    2
 10
225.97725155801083
 20
451.56813527041254
 11
259.29709155801089
 21
484.88797527041265
  0
LINE
  8
_2-0_
  6
CONTINUOUS
 62
    2
 10
228.79889045765805
 20
451.56813527041248
 11
262.11873045765793
 21
484.88797527041237
  0
LINE
  8
_2-0_
  6
CONTINUOUS
 62
    2
 10
231.83957431798234
 20
451.56813527041282
 11
265.1594143179824
 21
484.88797527041294
  0
LINE
  8
_2-0_
  6
CONTINUOUS
 62
    2
 10
234.66121321762932
 20
451.56813527041265
 11
267.98105321762944
 21
484.88797527041265
  0
LINE
  8
_2-0_
  6
CONTINUOUS
 62
    2
 10
237.48285211727637
 20
451.56813527041237
 11
270.80269211727642
 21
484.88797527041243
  0
LINE
  8
_2-0_
  6
CONTINUOUS
 62
    2
 10
240.30449101692346
 20
451.5681352704122
 11
273.62433101692346
 21
484.8879752704122
  0
LINE
  8
_2-0_
  6
CONTINUOUS
 62
    2
 10
243.12612991657056
 20
451.56813527041203
 11
276.44596991657056
 21
484.88797527041197
  0
LINE
  8
_2-0_
  6
CONTINUOUS
 62
    2
 10
245.9477688162176
 20
451.56813527041174
 11
279.2676088162176
 21
484.88797527041174
  0
LINE
  8
_2-0_
  6
CONTINUOUS
 62
    2
 10
248.76940771586271
 20
451.56813527041328
 11
282.08924771586169
 21
484.88797527041231
  0
LINE
  8
_2-0_
  6
CONTINUOUS
 62
    2
 10
251.59104661550975
 20
451.56813527041299
 11
284.91088661550879
 21
484.88797527041203
  0
LINE
  8
_2-0_
  6
CONTINUOUS
 62
    2
 10
254.4126855151568
 20
451.56813527041277
 11
287.73252551515691
 21
484.88797527041282
  0
LINE
  8
_2-0_
  6
CONTINUOUS
 62
    2
 10
257.23432441480384
 20
451.56813527041254
 11
290.55416441480389
 21
484.88797527041265
  0
LINE
  8
_2-0_
  6
CONTINUOUS
 62
    2
 10
260.05596331445105
 20
451.56813527041248
 11
293.37580331445093
 21
484.88797527041237
  0
LINE
  8
_2-0_
  6
CONTINUOUS
 62
    2
 10
262.98811567180036
 20
451.56813527041282
 11
296.30795567180041
 21
484.88797527041294
  0
LINE
  8
_2-0_
  6
CONTINUOUS
 62
    2
 10
265.8097545714474
 20
451.56813527041265
 11
299.12959457144751
 21
484.88797527041265
  0
LINE
  8
_2-0_
  6
CONTINUOUS
 62
    2
 10
268.63139347109444
 20
451.56813527041237
 11
301.9512334710945
 21
484.88797527041243
  0
LINE
  8
_2-0_
  6
CONTINUOUS
 62
    2
 10
271.45303237074154
 20
451.5681352704122
 11
304.77287237074154
 21
484.8879752704122
  0
LINE
  8
_2-0_
  6
CONTINUOUS
 62
    2
 10
274.27467127038864
 20
451.56813527041203
 11
307.59451127038858
 21
484.88797527041197
  0
LINE
  8
_2-0_
  6
CONTINUOUS
 62
    2
 10
277.09631017003562
 20
451.56813527041174
 11
310.41615017003562
 21
484.88797527041174
  0
LINE
  8
_2-0_
  6
CONTINUOUS
 62
    2
 10
279.91794906968073
 20
451.56813527041328
 11
313.23778906967976
 21
484.88797527041231
  0
LINE
  8
_2-0_
  6
CONTINUOUS
 62
    2
 10
282.73958796932777
 20
451.56813527041299
 11
316.05942796932686
 21
484.88797527041203
  0
LINE
  8
_2-0_
  6
CONTINUOUS
 62
    2
 10
285.56122686897487
 20
451.56813527041277
 11
318.88106686897493
 21
484.88797527041282
  0
LINE
  8
_2-0_
  6
CONTINUOUS
 62
    2
 10
288.38286576862191
 20
451.56813527041254
 11
321.70270576862197
 21
484.88797527041265
  0
LINE
  8
_2-0_
  6
CONTINUOUS
 62
    2
 10
291.20450466826912
 20
451.56813527041248
 11
324.52434466826901
 21
484.88797527041237
  0
LINE
  8
_2-0_
  6
CONTINUOUS
 62
    2
 10
294.13665702561843
 20
451.56813527041282
 11
327.45649702561849
 21
484.88797527041294
  0
LINE
  8
_2-0_
  6
CONTINUOUS
 62
    2
 10
296.95829592526547
 20
451.56813527041265
 11
330.27813592526559
 21
484.88797527041265
  0
LINE
  8
_2-0_
  6
CONTINUOUS
 62
    2
 10
299.77993482491252
 20
451.56813527041237
 11
333.09977482491252
 21
484.88797527041243
  0
LINE
  8
_2-0_
  6
CONTINUOUS
 62
    2
 10
302.60157372455956
 20
451.5681352704122
 11
335.92141372455956
 21
484.8879752704122
  0
LINE
  8
_2-0_
  6
CONTINUOUS
 62
    2
 10
331.03700768170552
 20
451.56813527041237
 11
364.35684768170557
 21
484.88797527041243
  0
LINE
  8
_2-0_
  6
CONTINUOUS
 62
    2
 10
333.85864658135262
 20
451.5681352704122
 11
367.17848658135262
 21
484.8879752704122
  0
LINE
  8
_2-0_
  6
CONTINUOUS
 62
    2
 10
336.68028548099971
 20
451.56813527041203
 11
370.00012548099971
 21
484.88797527041197
  0
LINE
  8
_2-0_
  6
CONTINUOUS
 62
    2
 10
339.50192438064676
 20
451.56813527041174
 11
372.8217643806467
 21
484.88797527041174
  0
LINE
  8
_2-0_
  6
CONTINUOUS
 62
    2
 10
342.32356328029186
 20
451.56813527041328
 11
375.64340328029084
 21
484.88797527041231
  0
LINE
  8
_2-0_
  6
CONTINUOUS
 62
    2
 10
345.14520217993891
 20
451.56813527041299
 11
378.46504217993794
 21
484.88797527041203
  0
LINE
  8
_2-0_
  6
CONTINUOUS
 62
    2
 10
347.96684107958595
 20
451.56813527041277
 11
381.286681079586
 21
484.88797527041282
  0
LINE
  8
_2-0_
  6
CONTINUOUS
 62
    2
 10
350.78847997923299
 20
451.56813527041254
 11
384.10831997923304
 21
484.88797527041265
  0
LINE
  8
_2-0_
  6
CONTINUOUS
 62
    2
 10
353.61011887888026
 20
451.56813527041248
 11
386.92995887888009
 21
484.88797527041237
  0
LINE
  8
_2-0_
  6
CONTINUOUS
 62
    2
 10
356.75933424217948
 20
451.56813527041282
 11
390.07917424217953
 21
484.88797527041294
  0
LINE
  8
_2-0_
  6
CONTINUOUS
 62
    2
 10
359.58097314182646
 20
451.56813527041265
 11
392.90081314182663
 21
484.88797527041265
  0
LINE
  8
_2-0_
  6
CONTINUOUS
 62
    2
 10
362.4026120414735
 20
451.56813527041237
 11
395.72245204147356
 21
484.88797527041243
  0
LINE
  8
_2-0_
  6
CONTINUOUS
 62
    2
 10
365.2242509411206
 20
451.5681352704122
 11
398.5440909411206
 21
484.8879752704122
  0
LINE
  8
_2-0_
  6
CONTINUOUS
 62
    2
 10
368.0458898407677
 20
451.56813527041203
 11
401.3657298407677
 21
484.88797527041197
  0
LINE
  8
_2-0_
  6
CONTINUOUS
 62
    2
 10
370.86752874041474
 20
451.56813527041174
 11
404.18736874041474
 21
484.88797527041174
  0
LINE
  8
_2-0_
  6
CONTINUOUS
 62
    2
 10
373.68916764005985
 20
451.56813527041328
 11
407.00900764005883
 21
484.88797527041231
  0
LINE
  8
_2-0_
  6
CONTINUOUS
 62
    2
 10
376.51080653970689
 20
451.56813527041299
 11
409.83064653970592
 21
484.88797527041203
  0
LINE
  8
_2-0_
  6
CONTINUOUS
 62
    2
 10
379.33244543935399
 20
451.56813527041277
 11
412.65228543935405
 21
484.88797527041282
  0
LINE
  8
_2-0_
  6
CONTINUOUS
 62
    2
 10
382.15408433900097
 20
451.56813527041254
 11
415.47392433900109
 21
484.88797527041265
  0
LINE
  8
_2-0_
  6
CONTINUOUS
 62
    2
 10
384.97572323864824
 20
451.56813527041248
 11
418.29556323864807
 21
484.88797527041237
  0
LINE
  8
_2-0_
  6
CONTINUOUS
 62
    2
 10
388.01640709897254
 20
451.56813527041282
 11
421.33624709897259
 21
484.88797527041294
  0
LINE
  8
_2-0_
  6
CONTINUOUS
 62
    2
 10
390.83804599861958
 20
451.56813527041265
 11
424.15788599861969
 21
484.88797527041265
  0
LINE
  8
_2-0_
  6
CONTINUOUS
 62
    2
 10
393.65968489826656
 20
451.56813527041237
 11
426.97952489826662
 21
484.88797527041243
  0
LINE
  8
_2-0_
  6
CONTINUOUS
 62
    2
 10
396.48132379791366
 20
451.5681352704122
 11
429.80116379791366
 21
484.8879752704122
  0
LINE
  8
_2-0_
  6
CONTINUOUS
 62
    2
 10
399.30296269756076
 20
451.56813527041203
 11
432.62280269756076
 21
484.88797527041197
  0
LINE
  8
_2-0_
  6
CONTINUOUS
 62
    2
 10
402.1246015972078
 20
451.56813527041174
 11
435.4444415972078
 21
484.88797527041174
  0
LINE
  8
_2-0_
  6
CONTINUOUS
 62
    2
 10
404.94624049685291
 20
451.56813527041328
 11
438.26608049685188
 21
484.88797527041231
  0
LINE
  8
_2-0_
  6
CONTINUOUS
 62
    2
 10
407.76787939649995
 20
451.56813527041299
 11
441.08771939649898
 21
484.88797527041203
  0
LINE
  8
_2-0_
  6
CONTINUOUS
 62
    2
 10
410.58951829614705
 20
451.56813527041277
 11
443.9093582961471
 21
484.88797527041282
  0
LINE
  8
_2-0_
  6
CONTINUOUS
 62
    2
 10
413.41115719579409
 20
451.56813527041254
 11
446.73099719579415
 21
484.88797527041265
  0
LINE
  8
_2-0_
  6
CONTINUOUS
 62
    2
 10
416.2327960954413
 20
451.56813527041248
 11
449.55263609544113
 21
484.88797527041237
  0
LINE
  8
_2-0_
  6
CONTINUOUS
 62
    2
 10
419.38201145874052
 20
451.56813527041282
 11
452.70185145874058
 21
484.88797527041294
  0
LINE
  8
_2-0_
  6
CONTINUOUS
 62
    2
 10
422.20365035838756
 20
451.56813527041265
 11
455.52349035838768
 21
484.88797527041265
  0
LINE
  8
_2-0_
  6
CONTINUOUS
 62
    2
 10
425.0252892580346
 20
451.56813527041237
 11
458.34512925803466
 21
484.88797527041243
  0
LINE
  8
_2-0_
  6
CONTINUOUS
 62
    2
 10
427.84692815768165
 20
451.5681352704122
 11
461.16676815768164
 21
484.8879752704122
  0
LINE
  8
_2-0_
  6
CONTINUOUS
 62
    2
 10
305.42321262420671
 20
451.56813527041203
 11
337.74089235782253
 21
483.88581500402779
  0
LINE
  8
_2-0_
  6
CONTINUOUS
 62
    2
 10
330.07193672056712
 20
453.42470320892119
 11
361.53520878205859
 21
484.88797527041265
  0
LINE
  8
_2-0_
  6
CONTINUOUS
 62
    2
 10
330.44750169003021
 20
456.6219070780316
 11
358.71356988241149
 21
484.88797527041294
  0
LINE
  8
_2-0_
  6
CONTINUOUS
 62
    2
 10
325.39372988241144
 20
451.56813527041282
 11
327.86032425520114
 21
454.03472964320247
  0
LINE
  8
_2-0_
  6
CONTINUOUS
 62
    2
 10
322.3530460220872
 20
451.56813527041248
 11
328.58836271483113
 21
457.80345196315642
  0
LINE
  8
_2-0_
  6
CONTINUOUS
 62
    2
 10
332.62312752390983
 20
461.83821677223511
 11
355.67288602208703
 21
484.88797527041237
  0
LINE
  8
_2-0_
  6
CONTINUOUS
 62
    2
 10
319.53140712243999
 20
451.56813527041254
 11
330.62711317811295
 21
462.6638413260855
  0
LINE
  8
_2-0_
  6
CONTINUOUS
 62
    2
 10
338.94304064720643
 20
470.97976879517904
 11
352.85124712243999
 21
484.88797527041265
  0
LINE
  8
_2-0_
  6
CONTINUOUS
 62
    2
 10
340.36579648314802
 20
475.22416353076784
 11
350.029608222793
 21
484.88797527041282
  0
LINE
  8
_2-0_
  6
CONTINUOUS
 62
    2
 10
316.70976822279295
 20
451.56813527041277
 11
337.03942549551061
 21
471.89779254313044
  0
LINE
  8
_2-0_
  6
CONTINUOUS
 62
    2
 10
313.88812932314585
 20
451.56813527041299
 11
338.24658321188303
 21
475.92658915915018
  0
LINE
  8
_2-0_
  6
CONTINUOUS
 62
    2
 10
340.71056172124406
 20
478.39056766851121
 11
347.20796932314488
 21
484.88797527041203
  0
LINE
  8
_2-0_
  6
CONTINUOUS
 62
    2
 10
340.68573018293603
 20
481.1873750298505
 11
344.38633042349784
 21
484.88797527041231
  0
LINE
  8
_2-0_
  6
CONTINUOUS
 62
    2
 10
311.06649042349886
 20
451.56813527041328
 11
338.49894925587807
 21
479.00059410279255
  0
LINE
  8
_2-0_
  6
CONTINUOUS
 62
    2
 10
308.2448515238537
 20
451.56813527041174
 11
338.44331798620487
 21
481.76660173276292
  0
LINE
  8
_2-0_
  6
CONTINUOUS
 62
    2
 10
340.29130186822567
 20
483.61458561478372
 11
341.5646915238537
 21
484.88797527041174
  0
LINE
  8
_2-0_
  6
CONTINUOUS
 62
    2
 10
166.11319146245637
 20
397.42334807900448
 11
168.63272379746502
 21
399.94288041401308
  0
LINE
  8
_2-0_
  6
CONTINUOUS
 62
    2
 10
166.11319146245654
 20
394.60170917935733
 11
171.45436269711206
 21
399.94288041401285
  0
LINE
  8
_2-0_
  6
CONTINUOUS
 62
    2
 10
166.11319146245665
 20
391.78007027971012
 11
174.27600159675916
 21
399.94288041401262
  0
LINE
  8
_2-0_
  6
CONTINUOUS
 62
    2
 10
166.11319146245597
 20
388.9584313800658
 11
177.09764049640319
 21
399.94288041401308
  0
LINE
  8
_2-0_
  6
CONTINUOUS
 62
    2
 10
168.36243196489551
 20
388.38603298285807
 11
179.91927939605029
 21
399.94288041401285
  0
LINE
  8
_2-0_
  6
CONTINUOUS
 62
    2
 10
171.18407086454249
 20
388.38603298285784
 11
182.74091829569744
 21
399.94288041401273
  0
LINE
  8
_2-0_
  6
CONTINUOUS
 62
    2
 10
174.00570976418959
 20
388.38603298285756
 11
185.56255719534448
 21
399.94288041401245
  0
LINE
  8
_2-0_
  6
CONTINUOUS
 62
    2
 10
176.82734866383765
 20
388.38603298285841
 11
188.38419609499255
 21
399.94288041401325
  0
LINE
  8
_2-0_
  6
CONTINUOUS
 62
    2
 10
179.6489875634847
 20
388.38603298285824
 11
191.20583499463959
 21
399.94288041401308
  0
LINE
  8
_2-0_
  6
CONTINUOUS
 62
    2
 10
182.47062646313179
 20
388.38603298285796
 11
194.02747389428663
 21
399.94288041401285
  0
LINE
  8
_2-0_
  6
CONTINUOUS
 62
    2
 10
185.29226536277974
 20
388.38603298285864
 11
196.84911279393458
 21
399.94288041401342
  0
LINE
  8
_2-0_
  6
CONTINUOUS
 62
    2
 10
188.11390426242286
 20
388.38603298285818
 11
199.6707516935777
 21
399.9428804140129
  0
LINE
  8
_2-0_
  6
CONTINUOUS
 62
    2
 10
190.93554316207008
 20
388.38603298285807
 11
202.49239059322497
 21
399.9428804140129
  0
LINE
  8
_2-0_
  6
CONTINUOUS
 62
    2
 10
193.75718206171712
 20
388.38603298285784
 11
205.31402949287201
 21
399.94288041401273
  0
LINE
  8
_2-0_
  6
CONTINUOUS
 62
    2
 10
196.57882096136416
 20
388.38603298285756
 11
208.13566839252007
 21
399.94288041401353
  0
LINE
  8
_2-0_
  6
CONTINUOUS
 62
    2
 10
199.40045986101228
 20
388.38603298285841
 11
210.95730729216717
 21
399.94288041401325
  0
LINE
  8
_2-0_
  6
CONTINUOUS
 62
    2
 10
202.22209876065932
 20
388.38603298285824
 11
213.77894619181416
 21
399.94288041401308
  0
LINE
  8
_2-0_
  6
CONTINUOUS
 62
    2
 10
205.04373766030631
 20
388.38603298285796
 11
216.6005850914612
 21
399.94288041401285
  0
LINE
  8
_2-0_
  6
CONTINUOUS
 62
    2
 10
207.86537655995028
 20
388.38603298285824
 11
219.42222399110511
 21
399.94288041401308
  0
LINE
  8
_2-0_
  6
CONTINUOUS
 62
    2
 10
210.68701545959738
 20
388.38603298285796
 11
222.2438628907521
 21
399.94288041401279
  0
LINE
  8
_2-0_
  6
CONTINUOUS
 62
    2
 10
213.45690440909527
 20
388.38603298285807
 11
225.01375184025011
 21
399.94288041401285
  0
LINE
  8
_2-0_
  6
CONTINUOUS
 62
    2
 10
216.27854330874231
 20
388.38603298285784
 11
227.83539073989726
 21
399.94288041401273
  0
LINE
  8
_2-0_
  6
CONTINUOUS
 62
    2
 10
219.10018220838941
 20
388.38603298285756
 11
230.65702963954431
 21
399.94288041401245
  0
LINE
  8
_2-0_
  6
CONTINUOUS
 62
    2
 10
221.92182110803742
 20
388.38603298285841
 11
233.47866853919237
 21
399.94288041401325
  0
LINE
  8
_2-0_
  6
CONTINUOUS
 62
    2
 10
224.74346000768452
 20
388.38603298285824
 11
236.30030743883941
 21
399.94288041401308
  0
LINE
  8
_2-0_
  6
CONTINUOUS
 62
    2
 10
227.56509890733162
 20
388.38603298285796
 11
239.12194633848645
 21
399.94288041401285
  0
LINE
  8
_2-0_
  6
CONTINUOUS
 62
    2
 10
230.38673780697957
 20
388.38603298285864
 11
241.9435852381344
 21
399.94288041401342
  0
LINE
  8
_2-0_
  6
CONTINUOUS
 62
    2
 10
233.20837670662263
 20
388.38603298285818
 11
244.76522413777752
 21
399.9428804140129
  0
LINE
  8
_2-0_
  6
CONTINUOUS
 62
    2
 10
236.03001560626984
 20
388.38603298285807
 11
247.58686303742473
 21
399.9428804140129
  0
LINE
  8
_2-0_
  6
CONTINUOUS
 62
    2
 10
238.85165450591688
 20
388.38603298285784
 11
250.40850193707183
 21
399.94288041401273
  0
LINE
  8
_2-0_
  6
CONTINUOUS
 62
    2
 10
241.67329340556398
 20
388.38603298285756
 11
253.23014083671984
 21
399.94288041401353
  0
LINE
  8
_2-0_
  6
CONTINUOUS
 62
    2
 10
244.4949323052121
 20
388.38603298285841
 11
256.05177973636694
 21
399.94288041401325
  0
LINE
  8
_2-0_
  6
CONTINUOUS
 62
    2
 10
247.31657120485909
 20
388.38603298285824
 11
258.87341863601398
 21
399.94288041401308
  0
LINE
  8
_2-0_
  6
CONTINUOUS
 62
    2
 10
250.13821010450613
 20
388.38603298285796
 11
261.69505753566102
 21
399.94288041401285
  0
LINE
  8
_2-0_
  6
CONTINUOUS
 62
    2
 10
252.95984900415004
 20
388.38603298285824
 11
264.51669643530494
 21
399.94288041401308
  0
LINE
  8
_2-0_
  6
CONTINUOUS
 62
    2
 10
255.78148790379714
 20
388.38603298285796
 11
267.33833533495192
 21
399.94288041401279
  0
LINE
  8
_2-0_
  6
CONTINUOUS
 62
    2
 10
258.57450355469871
 20
388.38603298285807
 11
270.13135098585354
 21
399.94288041401285
  0
LINE
  8
_2-0_
  6
CONTINUOUS
 62
    2
 10
261.39614245434575
 20
388.38603298285784
 11
272.9529898855007
 21
399.94288041401273
  0
LINE
  8
_2-0_
  6
CONTINUOUS
 62
    2
 10
264.21778135399285
 20
388.38603298285756
 11
275.77462878514774
 21
399.94288041401245
  0
LINE
  8
_2-0_
  6
CONTINUOUS
 62
    2
 10
267.03942025364086
 20
388.38603298285841
 11
278.59626768479581
 21
399.94288041401325
  0
LINE
  8
_2-0_
  6
CONTINUOUS
 62
    2
 10
269.86105915328795
 20
388.38603298285824
 11
281.41790658444285
 21
399.94288041401308
  0
LINE
  8
_2-0_
  6
CONTINUOUS
 62
    2
 10
272.68269805293505
 20
388.38603298285796
 11
284.23954548408983
 21
399.94288041401285
  0
LINE
  8
_2-0_
  6
CONTINUOUS
 62
    2
 10
275.504336952583
 20
388.38603298285864
 11
287.06118438373778
 21
399.94288041401342
  0
LINE
  8
_2-0_
  6
CONTINUOUS
 62
    2
 10
278.32597585222607
 20
388.38603298285818
 11
289.88282328338096
 21
399.9428804140129
  0
LINE
  8
_2-0_
  6
CONTINUOUS
 62
    2
 10
281.14761475187328
 20
388.38603298285807
 11
292.70446218302817
 21
399.9428804140129
  0
LINE
  8
_2-0_
  6
CONTINUOUS
 62
    2
 10
283.96925365152032
 20
388.38603298285784
 11
295.52610108267527
 21
399.94288041401273
  0
LINE
  8
_2-0_
  6
CONTINUOUS
 62
    2
 10
286.79089255116742
 20
388.38603298285756
 11
298.34773998232328
 21
399.94288041401353
  0
LINE
  8
_2-0_
  6
CONTINUOUS
 62
    2
 10
289.61253145081548
 20
388.38603298285841
 11
301.16937888197037
 21
399.94288041401325
  0
LINE
  8
_2-0_
  6
CONTINUOUS
 62
    2
 10
292.43417035046252
 20
388.38603298285824
 11
303.99101778161742
 21
399.94288041401308
  0
LINE
  8
_2-0_
  6
CONTINUOUS
 62
    2
 10
295.25580925010956
 20
388.38603298285796
 11
306.81265668126446
 21
399.94288041401285
  0
LINE
  8
_2-0_
  6
CONTINUOUS
 62
    2
 10
298.07744814975348
 20
388.38603298285824
 11
309.63429558090837
 21
399.94288041401308
  0
LINE
  8
_2-0_
  6
CONTINUOUS
 62
    2
 10
300.89908704940058
 20
388.38603298285796
 11
312.45593448055536
 21
399.94288041401279
  0
LINE
  8
_2-0_
  6
CONTINUOUS
 62
    2
 10
303.69210270030209
 20
388.38603298285807
 11
315.24895013145692
 21
399.94288041401285
  0
LINE
  8
_2-0_
  6
CONTINUOUS
 62
    2
 10
306.51374159994919
 20
388.38603298285784
 11
318.07058903110408
 21
399.94288041401273
  0
LINE
  8
_2-0_
  6
CONTINUOUS
 62
    2
 10
309.33538049959623
 20
388.38603298285756
 11
320.89222793075112
 21
399.94288041401245
  0
LINE
  8
_2-0_
  6
CONTINUOUS
 62
    2
 10
312.15701939924429
 20
388.38603298285841
 11
323.71386683039918
 21
399.94288041401325
  0
LINE
  8
_2-0_
  6
CONTINUOUS
 62
    2
 10
314.97865829889133
 20
388.38603298285824
 11
326.53550573004622
 21
399.94288041401308
  0
LINE
  8
_2-0_
  6
CONTINUOUS
 62
    2
 10
317.80029719853849
 20
388.38603298285796
 11
329.35714462969327
 21
399.94288041401285
  0
LINE
  8
_2-0_
  6
CONTINUOUS
 62
    2
 10
320.62193609818644
 20
388.38603298285864
 11
332.17878352934122
 21
399.94288041401342
  0
LINE
  8
_2-0_
  6
CONTINUOUS
 62
    2
 10
323.4435749978295
 20
388.38603298285818
 11
335.00042242898439
 21
399.9428804140129
  0
LINE
  8
_2-0_
  6
CONTINUOUS
 62
    2
 10
326.26521389747666
 20
388.38603298285807
 11
337.82206132863155
 21
399.9428804140129
  0
LINE
  8
_2-0_
  6
CONTINUOUS
 62
    2
 10
337.55176949606596
 20
388.38603298285824
 11
349.10861692722085
 21
399.94288041401308
  0
LINE
  8
_2-0_
  6
CONTINUOUS
 62
    2
 10
340.373408395713
 20
388.38603298285796
 11
351.93025582686784
 21
399.94288041401285
  0
LINE
  8
_2-0_
  6
CONTINUOUS
 62
    2
 10
343.19504729535686
 20
388.38603298285824
 11
354.75189472651175
 21
399.94288041401308
  0
LINE
  8
_2-0_
  6
CONTINUOUS
 62
    2
 10
346.01668619500401
 20
388.38603298285796
 11
357.57353362615873
 21
399.94288041401279
  0
LINE
  8
_2-0_
  6
CONTINUOUS
 62
    2
 10
348.96059682632563
 20
388.38603298285807
 11
360.51744425748046
 21
399.94288041401285
  0
LINE
  8
_2-0_
  6
CONTINUOUS
 62
    2
 10
351.78223572597267
 20
388.38603298285784
 11
363.33908315712762
 21
399.94288041401273
  0
LINE
  8
_2-0_
  6
CONTINUOUS
 62
    2
 10
354.60387462561971
 20
388.38603298285756
 11
366.1607220567746
 21
399.94288041401245
  0
LINE
  8
_2-0_
  6
CONTINUOUS
 62
    2
 10
357.42551352526777
 20
388.38603298285841
 11
368.98236095642272
 21
399.94288041401325
  0
LINE
  8
_2-0_
  6
CONTINUOUS
 62
    2
 10
360.24715242491487
 20
388.38603298285824
 11
371.80399985606977
 21
399.94288041401308
  0
LINE
  8
_2-0_
  6
CONTINUOUS
 62
    2
 10
363.06879132456197
 20
388.38603298285796
 11
374.62563875571675
 21
399.94288041401285
  0
LINE
  8
_2-0_
  6
CONTINUOUS
 62
    2
 10
365.89043022420992
 20
388.38603298285864
 11
377.4472776553647
 21
399.94288041401342
  0
LINE
  8
_2-0_
  6
CONTINUOUS
 62
    2
 10
368.71206912385298
 20
388.38603298285818
 11
380.26891655500788
 21
399.9428804140129
  0
LINE
  8
_2-0_
  6
CONTINUOUS
 62
    2
 10
371.5337080235002
 20
388.38603298285807
 11
383.09055545465509
 21
399.9428804140129
  0
LINE
  8
_2-0_
  6
CONTINUOUS
 62
    2
 10
374.35534692314724
 20
388.38603298285784
 11
385.91219435430219
 21
399.94288041401273
  0
LINE
  8
_2-0_
  6
CONTINUOUS
 62
    2
 10
377.17698582279434
 20
388.38603298285756
 11
388.73383325395019
 21
399.94288041401353
  0
LINE
  8
_2-0_
  6
CONTINUOUS
 62
    2
 10
379.9986247224424
 20
388.38603298285841
 11
391.55547215359729
 21
399.94288041401325
  0
LINE
  8
_2-0_
  6
CONTINUOUS
 62
    2
 10
382.82026362208944
 20
388.38603298285824
 11
394.37711105324433
 21
399.94288041401308
  0
LINE
  8
_2-0_
  6
CONTINUOUS
 62
    2
 10
385.64190252173648
 20
388.38603298285796
 11
397.19874995289132
 21
399.94288041401285
  0
LINE
  8
_2-0_
  6
CONTINUOUS
 62
    2
 10
388.4635414213804
 20
388.38603298285824
 11
400.02038885253529
 21
399.94288041401308
  0
LINE
  8
_2-0_
  6
CONTINUOUS
 62
    2
 10
391.2851803210275
 20
388.38603298285796
 11
402.84202775218222
 21
399.94288041401279
  0
LINE
  8
_2-0_
  6
CONTINUOUS
 62
    2
 10
394.07819597192906
 20
388.38603298285807
 11
405.63504340308384
 21
399.94288041401285
  0
LINE
  8
_2-0_
  6
CONTINUOUS
 62
    2
 10
396.8998348715761
 20
388.38603298285784
 11
408.456682302731
 21
399.94288041401273
  0
LINE
  8
_2-0_
  6
CONTINUOUS
 62
    2
 10
399.72147377122315
 20
388.38603298285756
 11
411.27832120237804
 21
399.94288041401245
  0
LINE
  8
_2-0_
  6
CONTINUOUS
 62
    2
 10
402.54311267087121
 20
388.38603298285841
 11
414.09996010202616
 21
399.94288041401325
  0
LINE
  8
_2-0_
  6
CONTINUOUS
 62
    2
 10
405.36475157051831
 20
388.38603298285824
 11
416.92159900167314
 21
399.94288041401308
  0
LINE
  8
_2-0_
  6
CONTINUOUS
 62
    2
 10
408.18639047016541
 20
388.38603298285796
 11
419.74323790132019
 21
399.94288041401285
  0
LINE
  8
_2-0_
  6
CONTINUOUS
 62
    2
 10
411.00802936981336
 20
388.38603298285864
 11
422.56487680096814
 21
399.94288041401342
  0
LINE
  8
_2-0_
  6
CONTINUOUS
 62
    2
 10
413.82966826945642
 20
388.38603298285818
 11
425.38651570061131
 21
399.9428804140129
  0
LINE
  8
_2-0_
  6
CONTINUOUS
 62
    2
 10
416.65130716910363
 20
388.38603298285807
 11
428.20815460025852
 21
399.9428804140129
  0
LINE
  8
_2-0_
  6
CONTINUOUS
 62
    2
 10
419.47294606875067
 20
388.38603298285784
 11
431.02979349990562
 21
399.94288041401273
  0
LINE
  8
_2-0_
  6
CONTINUOUS
 62
    2
 10
422.29458496839777
 20
388.38603298285756
 11
433.85143239955363
 21
399.94288041401353
  0
LINE
  8
_2-0_
  6
CONTINUOUS
 62
    2
 10
425.11622386804584
 20
388.38603298285841
 11
436.67307129920073
 21
399.94288041401325
  0
LINE
  8
_2-0_
  6
CONTINUOUS
 62
    2
 10
427.93786276769288
 20
388.38603298285824
 11
439.49471019884771
 21
399.94288041401308
  0
LINE
  8
_2-0_
  6
CONTINUOUS
 62
    2
 10
339.17495726240594
 20
392.83085964884543
 11
346.28697802757381
 21
399.94288041401325
  0
LINE
  8
_2-0_
  6
CONTINUOUS
 62
    2
 10
331.90849169677085
 20
388.38603298285756
 11
337.38314527731063
 21
393.86068656339739
  0
LINE
  8
_2-0_
  6
CONTINUOUS
 62
    2
 10
340.30011937548426
 20
396.77766066157108
 11
343.46533912792665
 21
399.94288041401353
  0
LINE
  8
_2-0_
  6
CONTINUOUS
 62
    2
 10
329.0868527971237
 20
388.38603298285784
 11
338.34162315620762
 21
397.64080334194171
  0
TEXT
  8
_2-0_
 62
    7
 10
314.18233716340234
 20
429.83141962034665
 40
8
 41
1
 50
0
  1
全長
  0
LINE
  8
_2-0_
  6
CONTINUOUS
 62
    7
 10
369.54449369720044
 20
498.56042452254798
 11
369.54449369720044
 21
441.36396580254791
  0
LINE
  8
_2-0_
  6
CONTINUOUS
 62
    7
 10
378.07286734303347
 20
498.56042452254798
 11
369.54449369720044
 21
498.56042452254798
  0
LINE
  8
_2-0_
  6
CONTINUOUS
 62
    7
 10
369.54449369720044
 20
441.36396580254791
 11
378.07286734303347
 21
441.36396580254791
  0
TEXT
  8
_2-0_
 62
    7
 10
380.67109865514641
 20
495.03668634354989
 40
8
 41
1
 50
0
  1
A
  0
TEXT
  8
_2-0_
 62
    7
 10
380.67109865514641
 20
438.00839309855496
 40
8
 41
1
 50
0
  1
A
  0
LINE
  8
_2-0_
  6
CONTINUOUS
 62
    4
 10
502.64695146245617
 20
427.23590782360407
 11
496.86530583662039
 21
428.78509509996968
  0
LINE
  8
_2-0_
  6
CONTINUOUS
 62
    4
 10
502.64695146245617
 20
427.23590782360407
 11
496.86530583662039
 21
425.68672054723839
  0
LINE
  8
_2-0_
  6
CONTINUOUS
 62
    4
 10
502.64695146245617
 20
426.23830782360403
 11
502.64695146245617
 21
444.03590782360402
  0
LINE
  8
ADD_LINE
  6
DOT
 62
    9
 10
509.16748576151008
 20
468.22805527041271
 11
560.84608198195929
 21
468.22805527041271
  0
ARC
  8
_2-0_
  6
CONTINUOUS
 62
    2
 10
525.77824749600609
 20
461.4045603958748
 40
9.4819406924123637
 50
325.43308755011049
 51
39.33880051066707
  0
ARC
  8
_2-0_
  6
CONTINUOUS
 62
    2
 10
525.77824749600609
 20
461.4045603958748
 40
11.477140692412364
 50
325.43308755011049
 51
39.33880051066707
  0
ARC
  8
_2-0_
  6
CONTINUOUS
 62
    2
 10
539.83456292686458
 20
472.92542593384019
 40
6.6973014238031556
 50
125.61355861205558
 51
219.33880051066703
  0
LINE
  8
_2-0_
  6
CONTINUOUS
 62
    7
 10
502.64695146245617
 20
469.22565527041274
 11
531.96873315239952
 21
469.22565527041274
  0
LINE
  8
_2-0_
  6
CONTINUOUS
 62
    7
 10
534.25195212193501
 20
469.22565527041274
 11
560.84608198195929
 21
469.22565527041274
  0
LINE
  8
_2-0_
  6
CONTINUOUS
 62
    7
 10
502.64695146245617
 20
472.81701527041264
 11
531.14273756444061
 21
472.81701527041264
  0
LINE
  8
_2-0_
  6
CONTINUOUS
 62
    7
 10
533.13813899394847
 20
472.81701527041264
 11
560.84608198195929
 21
472.81701527041264
  0
LINE
  8
_2-0_
  6
CONTINUOUS
 62
    7
 10
502.64695146245617
 20
467.23045527041268
 11
533.25930010945945
 21
467.23045527041268
  0
LINE
  8
_2-0_
  6
CONTINUOUS
 62
    7
 10
535.66681197141213
 20
467.23045527041268
 11
560.84608198195929
 21
467.23045527041268
  0
LINE
  8
_2-0_
  6
CONTINUOUS
 62
    7
 10
502.64695146245617
 20
463.63909527041278
 11
534.99312965417289
 21
463.63909527041278
  0
LINE
  8
_2-0_
  6
CONTINUOUS
 62
    7
 10
537.03576109217397
 20
463.63909527041278
 11
560.84608198195929
 21
463.63909527041278
  0
LINE
  8
_2-0_
  6
CONTINUOUS
 62
    7
 10
560.84608198195929
 20
465.7426078752174
 11
560.84608198195929
 21
468.13684787521743
  0
LINE
  8
_2-0_
  6
CONTINUOUS
 62
    7
 10
560.84608198195929
 20
462.15124787521739
 11
560.84608198195929
 21
474.1224478752174
  0
LINE
  8
_2-0_
  6
CONTINUOUS
 62
    7
 10
584.39977167120128
 20
462.15124787521739
 11
584.39977167120128
 21
474.1224478752174
  0
LINE
  8
_2-0_
  6
CONTINUOUS
 62
    7
 10
560.84608198195929
 20
474.1224478752174
 11
584.39977167120128
 21
474.1224478752174
  0
LINE
  8
_2-0_
  6
CONTINUOUS
 62
    7
 10
584.39977167120128
 20
462.15124787521739
 11
560.84608198195929
 21
462.15124787521739
  0
LINE
  8
_2-0_
  6
CONTINUOUS
 62
    7
 10
563.24032198195914
 20
462.15124787521739
 11
563.24032198195914
 21
474.1224478752174
  0
LINE
  8
_2-0_
  6
CONTINUOUS
 62
    7
 10
576.01993167120099
 20
469.33396787521741
 11
576.01993167120099
 21
471.72820787521744
  0
LINE
  8
_2-0_
  6
CONTINUOUS
 62
    7
 10
576.01993167120099
 20
464.54548787521742
 11
576.01993167120099
 21
466.93972787521739
  0
LINE
  8
_2-0_
  6
CONTINUOUS
 62
    7
 10
576.01993167120099
 20
464.54548787521742
 11
584.39977167120128
 21
464.54548787521742
  0
LINE
  8
_2-0_
  6
CONTINUOUS
 62
    7
 10
576.01993167120099
 20
466.93972787521739
 11
584.39977167120128
 21
466.93972787521739
  0
LINE
  8
_2-0_
  6
CONTINUOUS
 62
    7
 10
576.01993167120099
 20
469.33396787521741
 11
584.39977167120128
 21
469.33396787521741
  0
LINE
  8
_2-0_
  6
CONTINUOUS
 62
    7
 10
576.01993167120099
 20
471.72820787521744
 11
584.39977167120128
 21
471.72820787521744
  0
LINE
  8
_2-0_
  6
CONTINUOUS
 62
    7
 10
573.26029354620118
 20
476.50823521210543
 11
566.43484094932603
 21
476.15519456054301
  0
LINE
  8
_2-0_
  6
CONTINUOUS
 62
    7
 10
566.43484094932603
 20
476.15519456054301
 11
573.84869463213863
 21
478.80299944726175
  0
LINE
  8
_2-0_
  6
CONTINUOUS
 62
    7
 10
576.67890845660554
 20
474.1224478752174
 11
573.26029354620118
 21
476.50823521210543
  0
LINE
  8
_2-0_
  6
CONTINUOUS
 62
    7
 10
573.84869463213863
 20
478.80299944726175
 11
578.21169475440229
 21
474.1224478752174
  0
LINE
  8
_2-0_
  6
CONTINUOUS
 62
    7
 10
573.84869463213863
 20
457.4706963031731
 11
578.21169475440229
 21
462.15124787521739
  0
LINE
  8
_2-0_
  6
CONTINUOUS
 62
    7
 10
566.43484094932603
 20
460.11850118989184
 11
573.84869463213863
 21
457.4706963031731
  0
LINE
  8
_2-0_
  6
CONTINUOUS
 62
    7
 10
573.26029354620118
 20
459.76546053832942
 11
566.43484094932603
 21
460.11850118989184
  0
LINE
  8
_2-0_
  6
CONTINUOUS
 62
    7
 10
576.67890845660554
 20
462.15124787521739
 11
573.26029354620118
 21
459.76546053832942
  0
ARC
  8
_2-0_
  6
CONTINUOUS
 62
    2
 10
539.83456292686458
 20
472.92542593384019
 40
8.6925014238031562
 50
125.61355861205558
 51
219.33880051066703
  0
ARC
  8
_2-0_
  6
CONTINUOUS
 62
    2
 10
525.77824749600609
 20
379.70114317398645
 40
9.4819406924123637
 50
325.43308755011049
 51
39.33880051066707
  0
ARC
  8
_2-0_
  6
CONTINUOUS
 62
    2
 10
525.77824749600609
 20
379.70114317398645
 40
11.477140692412364
 50
325.43308755011049
 51
39.33880051066707
  0
LINE
  8
_2-0_
  6
CONTINUOUS
 62
    7
 10
502.64695146245617
 20
387.61197594296914
 11
531.92714587641808
 21
387.61197594296914
  0
LINE
  8
_2-0_
  6
CONTINUOUS
 62
    7
 10
534.19350719516444
 20
387.61197594296914
 11
560.84608198195917
 21
387.61197594296914
  0
LINE
  8
_2-0_
  6
CONTINUOUS
 62
    7
 10
502.64695146245617
 20
384.02061594296919
 11
534.21918075557176
 21
384.02061594296919
  0
LINE
  8
_2-0_
  6
CONTINUOUS
 62
    7
 10
536.41154018789814
 20
384.02061594296919
 11
560.84608198195917
 21
384.02061594296919
  0
LINE
  8
_2-0_
  6
CONTINUOUS
 62
    7
 10
560.84608198195917
 20
391.80189594296922
 11
560.84608198195917
 21
379.83069594296921
  0
LINE
  8
_2-0_
  6
CONTINUOUS
 62
    7
 10
560.84608198195917
 20
379.83069594296921
 11
584.39977167120105
 21
379.83069594296921
  0
LINE
  8
_2-0_
  6
CONTINUOUS
 62
    7
 10
584.39977167120105
 20
391.80189594296922
 11
584.39977167120105
 21
379.83069594296921
  0
LINE
  8
_2-0_
  6
CONTINUOUS
 62
    7
 10
560.84608198195917
 20
391.80189594296922
 11
584.39977167120105
 21
391.80189594296922
  0
LINE
  8
_2-0_
  6
CONTINUOUS
 62
    7
 10
578.21169475440229
 20
388.60957594296917
 11
578.21169475440229
 21
383.02301594296921
  0
LINE
  8
_2-0_
  6
CONTINUOUS
 62
    7
 10
566.43484094932592
 20
388.60957594296917
 11
578.21169475440229
 21
388.60957594296917
  0
LINE
  8
_2-0_
  6
CONTINUOUS
 62
    7
 10
566.43484094932592
 20
383.02301594296921
 11
578.21169475440229
 21
383.02301594296921
  0
LINE
  8
_2-0_
  6
CONTINUOUS
 62
    7
 10
566.43484094932592
 20
388.60957594296917
 11
566.43484094932592
 21
383.02301594296921
  0
LINE
  8
_2-0_
  6
CONTINUOUS
 62
    7
 10
573.84869463213852
 20
388.60957594296917
 11
573.84869463213852
 21
383.02301594296921
  0
ARC
  8
_2-0_
  6
CONTINUOUS
 62
    2
 10
539.83456292686446
 20
391.2220087119519
 40
6.6973014238031556
 50
125.61355861205558
 51
219.33880051066703
  0
ARC
  8
_2-0_
  6
CONTINUOUS
 62
    2
 10
539.83456292686446
 20
391.2220087119519
 40
8.6925014238031562
 50
125.61355861205558
 51
219.33880051066703
  0
LINE
  8
_2-0_
  6
CONTINUOUS
 62
    2
 10
452.33028318422646
 20
451.56813527041282
 11
485.65012318422652
 21
484.88797527041294
  0
LINE
  8
_2-0_
  6
CONTINUOUS
 62
    2
 10
455.1519220838735
 20
451.56813527041265
 11
488.47176208387361
 21
484.88797527041265
  0
LINE
  8
_2-0_
  6
CONTINUOUS
 62
    2
 10
457.97356098352054
 20
451.56813527041237
 11
491.2934009835206
 21
484.88797527041243
  0
LINE
  8
_2-0_
  6
CONTINUOUS
 62
    2
 10
460.79519988316764
 20
451.5681352704122
 11
494.11503988316758
 21
484.8879752704122
  0
LINE
  8
_2-0_
  6
CONTINUOUS
 62
    2
 10
463.61683878281468
 20
451.56813527041203
 11
496.93667878281474
 21
484.88797527041197
  0
LINE
  8
_2-0_
  6
CONTINUOUS
 62
    2
 10
486.73458944959145
 20
451.56813527041265
 11
499.17512827802096
 21
464.00867409884211
  0
LINE
  8
_2-0_
  6
CONTINUOUS
 62
    2
 10
489.55622834923849
 20
451.56813527041237
 11
499.28356969214485
 21
461.29547661331878
  0
LINE
  8
_2-0_
  6
CONTINUOUS
 62
    2
 10
492.37786724888565
 20
451.5681352704122
 11
499.22921385180632
 21
458.41948187333298
  0
LINE
  8
_2-0_
  6
CONTINUOUS
 62
    2
 10
495.19950614853269
 20
451.56813527041203
 11
499.28338951444277
 21
455.65201863632211
  0
LINE
  8
_2-0_
  6
CONTINUOUS
 62
    2
 10
498.02114504817973
 20
451.56813527041174
 11
499.28329942559174
 21
452.83028964782375
  0
LINE
  8
_2-0_
  6
CONTINUOUS
 62
    2
 10
469.26011658210683
 20
451.56813527041328
 11
499.42161188053865
 21
481.7296305688451
  0
LINE
  8
_2-0_
  6
CONTINUOUS
 62
    2
 10
472.08175548175387
 20
451.56813527041299
 11
499.51934257338212
 21
479.00572236204118
  0
LINE
  8
_2-0_
  6
CONTINUOUS
 62
    2
 10
474.90339438140097
 20
451.56813527041277
 11
499.55302015612887
 21
476.21776104514066
  0
LINE
  8
_2-0_
  6
CONTINUOUS
 62
    2
 10
477.72503328104801
 20
451.56813527041254
 11
499.39453840858584
 21
473.23764039795037
  0
LINE
  8
_2-0_
  6
CONTINUOUS
 62
    2
 10
480.54667218069523
 20
451.56813527041248
 11
499.33213632618777
 21
470.35359941590502
  0
LINE
  8
_2-0_
  6
CONTINUOUS
 62
    2
 10
483.91295054994447
 20
451.56813527041282
 11
499.41394775839728
 21
467.0691324788657
  0
LINE
  8
_2-0_
  6
CONTINUOUS
 62
    2
 10
465.14726492046486
 20
388.38603298285824
 11
476.70411235161976
 21
399.94288041401308
  0
LINE
  8
_2-0_
  6
CONTINUOUS
 62
    2
 10
467.96890382011196
 20
388.38603298285796
 11
479.5257512512668
 21
399.94288041401285
  0
LINE
  8
_2-0_
  6
CONTINUOUS
 62
    2
 10
470.79054271975997
 20
388.38603298285864
 11
482.34739015091475
 21
399.94288041401342
  0
LINE
  8
_2-0_
  6
CONTINUOUS
 62
    2
 10
473.61218161940303
 20
388.38603298285818
 11
485.16902905055787
 21
399.9428804140129
  0
LINE
  8
_2-0_
  6
CONTINUOUS
 62
    2
 10
476.43382051905024
 20
388.38603298285807
 11
487.99066795020508
 21
399.9428804140129
  0
LINE
  8
_2-0_
  6
CONTINUOUS
 62
    2
 10
479.25545941869728
 20
388.38603298285784
 11
490.81230684985223
 21
399.94288041401273
  0
LINE
  8
_2-0_
  6
CONTINUOUS
 62
    2
 10
482.07709831834438
 20
388.38603298285756
 11
493.63394574950024
 21
399.94288041401353
  0
LINE
  8
_2-0_
  6
CONTINUOUS
 62
    2
 10
484.89873721799245
 20
388.38603298285841
 11
496.45558464914734
 21
399.94288041401325
  0
LINE
  8
_2-0_
  6
CONTINUOUS
 62
    2
 10
487.72037611763949
 20
388.38603298285824
 11
499.27722354879438
 21
399.94288041401308
  0
LINE
  8
_2-0_
  6
CONTINUOUS
 62
    2
 10
490.54201501728647
 20
388.38603298285796
 11
499.54671266678088
 21
397.39073063235236
  0
LINE
  8
_2-0_
  6
CONTINUOUS
 62
    2
 10
493.36365391693045
 20
388.38603298285824
 11
499.45253244277944
 21
394.47491150870724
  0
LINE
  8
_2-0_
  6
CONTINUOUS
 62
    2
 10
496.18529281657754
 20
388.38603298285796
 11
499.44614386641956
 21
391.64688403269997
  0
LINE
  8
_2-0_
  6
CONTINUOUS
 62
    2
 10
498.40161648313256
 20
388.38603298285796
 11
499.41301428038105
 21
389.39743078010645
  0
LINE
  8
_2-0_
  6
CONTINUOUS
 62
    4
 10
561.0347805327084
 20
427.23590782360407
 11
555.25313490687267
 21
428.78509509996968
  0
LINE
  8
_2-0_
  6
CONTINUOUS
 62
    4
 10
561.0347805327084
 20
427.23590782360407
 11
555.25313490687267
 21
425.68672054723839
  0
LINE
  8
_2-0_
  6
CONTINUOUS
 62
    4
 10
561.0347805327084
 20
426.23830782360403
 11
561.0347805327084
 21
460.76942021305638
  0
LINE
  8
_2-0_
  6
CONTINUOUS
 62
    4
 10
502.59800317214928
 20
427.23590782360407
 11
508.37964879798517
 21
428.78509509996968
  0
LINE
  8
_2-0_
  6
CONTINUOUS
 62
    4
 10
502.59800317214928
 20
427.23590782360407
 11
508.37964879798517
 21
425.68672054723839
  0
TEXT
  8
_2-0_
 62
    7
 10
527.85983456427482
 20
427.90355782360405
 40
8
 41
1
 50
0
  1
50
  0
LINE
  8
_2-0_
  6
CONTINUOUS
 62
    4
 10
162.92087146245609
 20
427.23590782360407
 11
560.66993378376799
 21
427.23590782360407
  0
LINE
  8
_2-0_
  6
CONTINUOUS
 62
    7
 10
499.50662087883859
 20
388.38603298285807
 11
336.80725313319425
 21
388.38603298285807
  0
LINE
  8
_2-0_
  6
CONTINUOUS
 62
    7
 10
499.69309439379265
 20
385.59275298285814
 11
334.48033716340234
 21
385.59275298285814
  0
LINE
  8
_2-0_
  6
CONTINUOUS
 62
    7
 10
499.13367384893053
 20
383.39803298285807
 11
332.71012947287784
 21
383.39803298285807
  0
LINE
  8
_2-0_
  6
CONTINUOUS
 62
    2
 10
430.60200440744779
 20
388.38603298285824
 11
442.15885183860269
 21
399.94288041401308
  0
LINE
  8
_2-0_
  6
CONTINUOUS
 62
    2
 10
433.42364330709489
 20
388.38603298285796
 11
444.98049073824973
 21
399.94288041401285
  0
LINE
  8
_2-0_
  6
CONTINUOUS
 62
    2
 10
436.24528220674284
 20
388.38603298285864
 11
447.80212963789768
 21
399.94288041401342
  0
LINE
  8
_2-0_
  6
CONTINUOUS
 62
    2
 10
439.06692110638591
 20
388.38603298285818
 11
450.6237685375408
 21
399.9428804140129
  0
LINE
  8
_2-0_
  6
CONTINUOUS
 62
    2
 10
441.88856000603312
 20
388.38603298285807
 11
453.44540743718801
 21
399.9428804140129
  0
LINE
  8
_2-0_
  6
CONTINUOUS
 62
    2
 10
444.71019890568016
 20
388.38603298285784
 11
456.26704633683511
 21
399.94288041401273
  0
LINE
  8
_2-0_
  6
CONTINUOUS
 62
    2
 10
447.53183780532726
 20
388.38603298285756
 11
459.08868523648312
 21
399.94288041401353
  0
LINE
  8
_2-0_
  6
CONTINUOUS
 62
    2
 10
450.35347670497538
 20
388.38603298285841
 11
461.91032413613021
 21
399.94288041401325
  0
LINE
  8
_2-0_
  6
CONTINUOUS
 62
    2
 10
453.17511560462236
 20
388.38603298285824
 11
464.73196303577726
 21
399.94288041401308
  0
LINE
  8
_2-0_
  6
CONTINUOUS
 62
    2
 10
455.98384318059709
 20
388.38603298285841
 11
467.54069061175193
 21
399.94288041401325
  0
LINE
  8
_2-0_
  6
CONTINUOUS
 62
    2
 10
458.80548208024408
 20
388.38603298285824
 11
470.36232951139897
 21
399.94288041401308
  0
LINE
  8
_2-0_
  6
CONTINUOUS
 62
    2
 10
461.89101746351423
 20
388.38603298285824
 11
473.44786489466912
 21
399.94288041401308
  0
LINE
  8
_2-0_
  6
CONTINUOUS
 62
    2
 10
430.61803034575041
 20
451.56813527041248
 11
463.93787034575024
 21
484.88797527041237
  0
LINE
  8
_2-0_
  6
CONTINUOUS
 62
    2
 10
433.76724570904963
 20
451.56813527041282
 11
467.08708570904969
 21
484.88797527041294
  0
LINE
  8
_2-0_
  6
CONTINUOUS
 62
    2
 10
436.58888460869667
 20
451.56813527041265
 11
469.90872460869679
 21
484.88797527041265
  0
LINE
  8
_2-0_
  6
CONTINUOUS
 62
    2
 10
439.41052350834372
 20
451.56813527041237
 11
472.73036350834377
 21
484.88797527041243
  0
LINE
  8
_2-0_
  6
CONTINUOUS
 62
    2
 10
442.50864593111845
 20
451.56813527041248
 11
475.82848593111828
 21
484.88797527041237
  0
LINE
  8
_2-0_
  6
CONTINUOUS
 62
    2
 10
445.65786129441767
 20
451.56813527041282
 11
478.97770129441773
 21
484.88797527041294
  0
LINE
  8
_2-0_
  6
CONTINUOUS
 62
    2
 10
448.47950019406471
 20
451.56813527041265
 11
481.79934019406483
 21
484.88797527041265
  0
TEXT
  8
_0-0_1
 62
    7
 10
613.24389683144727
 20
511.74724101103595
 40
6
 41
1
 50
0
  1
.　　.
  0
ARC
  8
_2-0_
  6
CONTINUOUS
 62
    7
 10
640.33685292398047
 20
451.96727022974244
 40
0.3990400000000001
 50
270
 51
0
  0
ARC
  8
_2-0_
  6
CONTINUOUS
 62
    7
 10
632.75509292398056
 20
463.24010275007788
 40
1.9952000000000005
 50
180
 51
270
  0
LINE
  8
ADD_LINE
  6
DOT
 62
    9
 10
640.7358929239806
 20
460.24730275007789
 11
640.7358929239806
 21
476.20890275007793
  0
LINE
  8
_2-0_
  6
CONTINUOUS
 62
    7
 10
630.7598929239806
 20
468.2281027500776
 11
630.7598929239806
 21
463.24010275007788
  0
ARC
  8
_2-0_
  6
CONTINUOUS
 62
    7
 10
640.33685292398047
 20
484.48893527041275
 40
0.3990400000000001
 50
0
 51
90
  0
ARC
  8
_2-0_
  6
CONTINUOUS
 62
    7
 10
632.75509292398056
 20
473.21610275007731
 40
1.9952000000000005
 50
90
 51
180
  0
CIRCLE
  8
_2-0_
  6
CONTINUOUS
 62
    7
 10
634.24697047064717
 20
480.69807901024507
 40
3.9904000000000011
  0
CIRCLE
  8
_2-0_
  6
CONTINUOUS
 62
    7
 10
634.24697047064717
 20
480.69807901024507
 40
3.9904000000000011
  0
LINE
  8
_2-0_
  6
CENTER2
 62
    2
 10
630.25657047064715
 20
480.69807901024507
 11
638.23737047064719
 21
480.69807901024507
  0
LINE
  8
_2-0_
  6
CENTER2
 62
    2
 10
634.24697047064717
 20
484.68847901024498
 11
634.24697047064717
 21
476.70767901024504
  0
LINE
  8
_2-0_
  6
CONTINUOUS
 62
    7
 10
630.7598929239806
 20
468.2281027500776
 11
630.7598929239806
 21
473.21610275007731
  0
LINE
  8
_2-0_
  6
CONTINUOUS
 62
    7
 10
640.33685292398047
 20
451.56823022974243
 11
630.80356704893484
 21
451.56823022974243
  0
ARC
  8
_2-0_
  6
CONTINUOUS
 62
    7
 10
636.34645292398045
 20
468.2281027500776
 40
17.557760000000005
 50
179.99999999999903
 51
251.59726300928438
  0
ARC
  8
_2-0_
  6
CONTINUOUS
 62
    7
 10
636.34645292398045
 20
468.2281027500776
 40
17.557760000000005
 50
108.40273699071562
 51
180.00000000000097
  0
LINE
  8
_2-0_
  6
CONTINUOUS
 62
    7
 10
640.33685292398047
 20
484.88797527041265
 11
630.80356704893484
 21
484.88797527041265
  0
LINE
  8
_2-0_
  6
CONTINUOUS
 62
    7
 10
631.8527304706472
 20
481.17692701024509
 11
633.7681224706472
 21
481.17692701024509
  0
LINE
  8
_2-0_
  6
CONTINUOUS
 62
    7
 10
633.7681224706472
 20
483.09231901024509
 11
633.7681224706472
 21
481.17692701024509
  0
LINE
  8
_2-0_
  6
CONTINUOUS
 62
    7
 10
633.7681224706472
 20
483.09231901024509
 11
634.72581847064725
 21
483.09231901024509
  0
LINE
  8
_2-0_
  6
CONTINUOUS
 62
    7
 10
634.72581847064725
 20
483.09231901024509
 11
634.72581847064725
 21
481.17692701024509
  0
LINE
  8
_2-0_
  6
CONTINUOUS
 62
    7
 10
634.72581847064725
 20
481.17692701024509
 11
636.64121047064714
 21
481.17692701024509
  0
LINE
  8
_2-0_
  6
CONTINUOUS
 62
    7
 10
636.64121047064714
 20
481.17692701024509
 11
636.64121047064714
 21
480.21923101024504
  0
LINE
  8
_2-0_
  6
CONTINUOUS
 62
    7
 10
634.72581847064725
 20
480.21923101024504
 11
636.64121047064714
 21
480.21923101024504
  0
LINE
  8
_2-0_
  6
CONTINUOUS
 62
    7
 10
634.72581847064725
 20
480.21923101024504
 11
634.72581847064725
 21
478.30383901024504
  0
LINE
  8
_2-0_
  6
CONTINUOUS
 62
    7
 10
633.7681224706472
 20
478.30383901024504
 11
634.72581847064725
 21
478.30383901024504
  0
LINE
  8
_2-0_
  6
CONTINUOUS
 62
    7
 10
633.7681224706472
 20
480.21923101024504
 11
633.7681224706472
 21
478.30383901024504
  0
LINE
  8
_2-0_
  6
CONTINUOUS
 62
    7
 10
631.8527304706472
 20
480.21923101024504
 11
633.7681224706472
 21
480.21923101024504
  0
LINE
  8
_2-0_
  6
CONTINUOUS
 62
    7
 10
631.8527304706472
 20
481.17692701024509
 11
631.8527304706472
 21
480.21923101024504
  0
LINE
  8
_2-0_
  6
CONTINUOUS
 62
    7
 10
640.7358929239806
 20
476.2089027500773
 11
640.7358929239806
 21
460.24730275007789
  0
LINE
  8
ADD_LINE
  6
DOT
 62
    9
 10
612.6936932692355
 20
468.2281027500776
 11
645.58389326923555
 21
468.2281027500776
  0
LINE
  8
_2-0_
  6
CONTINUOUS
 62
    4
 10
640.7358929239806
 20
427.23590782360407
 11
646.51753854981632
 21
428.78509509996968
  0
LINE
  8
_2-0_
  6
CONTINUOUS
 62
    4
 10
640.7358929239806
 20
427.23590782360407
 11
646.51753854981632
 21
425.68672054723839
  0
LINE
  8
_2-0_
  6
CONTINUOUS
 62
    4
 10
618.78869292398053
 20
427.23590782360407
 11
613.0070472981447
 21
428.78509509996968
  0
LINE
  8
_2-0_
  6
CONTINUOUS
 62
    4
 10
618.78869292398053
 20
427.23590782360407
 11
613.0070472981447
 21
425.68672054723839
  0
LINE
  8
_2-0_
  6
CONTINUOUS
 62
    4
 10
640.7358929239806
 20
426.23830782360403
 11
640.7358929239806
 21
444.03590782360402
  0
LINE
  8
_2-0_
  6
CONTINUOUS
 62
    4
 10
618.78869292398053
 20
426.23830782360403
 11
618.78869292398053
 21
444.03590782360402
  0
TEXT
  8
_2-0_
 62
    7
 10
625.51229292398057
 20
428.22390782360401
 40
8
 41
1
 50
0
  1
11
  0
LINE
  8
_2-0_
  6
CONTINUOUS
 62
    4
 10
650.79819326923553
 20
427.23590782360407
 11
610.88874326923542
 21
427.23590782360407
  0
LINE
  8
_2-0_
  6
CONTINUOUS
 62
    4
 10
605.50073899702215
 20
451.56823022974243
 11
605.50073899702215
 21
484.88797527041277
  0
LINE
  8
_2-0_
  6
CONTINUOUS
 62
    4
 10
605.50073899702215
 20
451.56823022974243
 11
603.95155172065643
 21
457.34987585557826
  0
LINE
  8
_2-0_
  6
CONTINUOUS
 62
    4
 10
605.50073899702215
 20
451.56823022974243
 11
607.04992627338777
 21
457.34987585557826
  0
LINE
  8
_2-0_
  6
CONTINUOUS
 62
    4
 10
605.50073899702215
 20
484.88797527041277
 11
603.95155172065643
 21
479.10632964457693
  0
LINE
  8
_2-0_
  6
CONTINUOUS
 62
    4
 10
605.50073899702215
 20
484.88797527041277
 11
607.04992627338777
 21
479.10632964457693
  0
LINE
  8
_2-0_
  6
CONTINUOUS
 62
    4
 10
604.50313899702212
 20
451.56823022974243
 11
625.74998899702211
 21
451.56823022974243
  0
LINE
  8
_2-0_
  6
CONTINUOUS
 62
    4
 10
604.50313899702212
 20
484.88797527041277
 11
625.74998899702211
 21
484.88797527041277
  0
TEXT
  8
_2-0_
 62
    7
 10
604.5127389970221
 20
459.47810275007765
 40
8
 41
1
 50
90
  1
16.7
  0
LINE
  8
_2-0_
  6
CONTINUOUS
 62
    7
 10
636.93589292398053
 20
461.28957270264686
 11
636.93589292398053
 21
475.2771005602176
  0
LINE
  8
_2-0_
  6
CONTINUOUS
 62
    7
 10
635.13589292398046
 20
461.28957270264686
 11
635.13589292398046
 21
475.2771005602176
  0
LINE
  8
_2-0_
  6
CONTINUOUS
 62
    7
 10
631.13589292398046
 20
462.2113243118676
 11
631.13589292398046
 21
474.28422831499137
  0
LINE
  8
_2-0_
  6
CONTINUOUS
 62
    7
 10
338.62006016514761
 20
399.94288041401342
 11
166.11319146245614
 21
399.94288041401342
  0
LINE
  8
_2-0_
  6
CONTINUOUS
 62
    7
 10
166.1887407528904
 20
399.54288041401344
 11
162.92087146245609
 21
399.54288041401344
  0
LINE
  8
_2-0_
  6
CONTINUOUS
 62
    7
 10
162.92087146245609
 20
399.54288041401344
 11
162.92087146245609
 21
378.81003298285805
  0
LINE
  8
_2-0_
  6
CONTINUOUS
 62
    7
 10
328.44275004773237
 20
378.41003298285807
 11
166.11319146245614
 21
378.41003298285807
  0
LINE
  8
_2-0_
  6
CONTINUOUS
 62
    7
 10
166.11319146245614
 20
399.94288041401342
 11
166.11319146245614
 21
378.41003298285807
  0
LINE
  8
_2-0_
  6
CONTINUOUS
 62
    7
 10
166.10211815200546
 20
378.81003298285805
 11
162.92087146245609
 21
378.81003298285805
  0
LINE
  8
_2-0_
  6
CONTINUOUS
 62
    7
 10
337.80446582293234
 20
484.88797527041265
 11
166.11319146245614
 21
484.88797527041265
  0
LINE
  8
_2-0_
  6
CONTINUOUS
 62
    7
 10
166.13733630008957
 20
484.48797527041268
 11
162.92087146245609
 21
484.48797527041268
  0
LINE
  8
_2-0_
  6
CONTINUOUS
 62
    7
 10
162.92087146245609
 20
484.48797527041268
 11
162.92087146245609
 21
451.96813527041269
  0
LINE
  8
_2-0_
  6
CONTINUOUS
 62
    7
 10
328.12649117376765
 20
451.56813527041265
 11
166.11319146245614
 21
451.56813527041265
  0
LINE
  8
_2-0_
  6
CONTINUOUS
 62
    7
 10
166.11319146245614
 20
484.88797527041265
 11
166.11319146245614
 21
451.56813527041265
  0
LINE
  8
_2-0_
  6
CONTINUOUS
 62
    7
 10
166.16160024155715
 20
451.96813527041269
 11
162.92087146245609
 21
451.96813527041269
  0
LINE
  8
_2-0_
  6
CONTINUOUS
 62
    7
 10
499.45463146245623
 20
484.88797527041265
 11
339.87926633147146
 21
484.88797527041265
  0
LINE
  8
_2-0_
  6
CONTINUOUS
 62
    7
 10
499.45463146245623
 20
451.56813527041265
 11
330.13276309106283
 21
451.56813527041265
  0
LINE
  8
_2-0_
  6
CONTINUOUS
 62
    7
 10
499.45463146245623
 20
484.88797527041265
 11
499.45463146245623
 21
451.56813527041265
  0
LINE
  8
_2-0_
  6
CONTINUOUS
 62
    7
 10
502.64695146245617
 20
451.96813527041269
 11
499.56507936672131
 21
451.96813527041269
  0
LINE
  8
_2-0_
  6
CONTINUOUS
 62
    7
 10
502.64695146245617
 20
484.48797527041268
 11
499.41728053838312
 21
484.48797527041268
  0
LINE
  8
_2-0_
  6
CONTINUOUS
 62
    7
 10
502.64695146245617
 20
484.48797527041268
 11
502.64695146245617
 21
451.96813527041269
  0
LINE
  8
_2-0_
  6
CONTINUOUS
 62
    2
 10
466.43847768246172
 20
451.56813527041174
 11
499.14716318117053
 21
484.27682076912049
  0
LINE
  8
_2-0_
  6
CONTINUOUS
 62
    7
 10
499.45463146245623
 20
399.94288041401342
 11
340.61638338064154
 21
399.94288041401342
  0
LINE
  8
_2-0_
  6
CONTINUOUS
 62
    7
 10
502.64695146245617
 20
399.54288041401344
 11
499.58316186042566
 21
399.54288041401344
  0
LINE
  8
_2-0_
  6
CONTINUOUS
 62
    7
 10
502.64695146245617
 20
399.54288041401344
 11
502.64695146245617
 21
378.81003298285805
  0
LINE
  8
_2-0_
  6
CONTINUOUS
 62
    7
 10
499.45463146245623
 20
399.94288041401342
 11
499.45463146245623
 21
378.41003298285807
  0
LINE
  8
_2-0_
  6
CONTINUOUS
 62
    7
 10
499.45463146245623
 20
378.41003298285807
 11
330.49094152787649
 21
378.41003298285807
  0
LINE
  8
_2-0_
  6
CONTINUOUS
 62
    7
 10
502.64695146245617
 20
378.81003298285805
 11
499.4586276624741
 21
378.81003298285805
  0
ARC
  8
_2-0_
  6
CONTINUOUS
 62
    7
 10
636.34645292398045
 20
468.2281027500776
 40
17.157760000000007
 50
108.40273699071562
 51
180.00000000000097
  0
ARC
  8
_2-0_
  6
CONTINUOUS
 62
    7
 10
636.34645292398045
 20
468.2281027500776
 40
17.157760000000007
 50
179.99999999999903
 51
251.59726300928438
  0
ARC
  8
_2-0_
  6
CONTINUOUS
 62
    7
 10
639.33931669605408
 20
460.2333314262039
 40
0.9976000000000002
 50
0
 51
89.999999999999986
  0
LINE
  8
_2-0_
  6
CONTINUOUS
 62
    7
 10
632.75509292398056
 20
461.24490275007787
 11
639.4802348694775
 21
461.24490275007787
  0
ARC
  8
_2-0_
  6
CONTINUOUS
 62
    7
 10
639.33436816166386
 20
476.2238699597051
 40
0.9976000000000002
 50
270
 51
0
  0
LINE
  8
_2-0_
  6
CONTINUOUS
 62
    7
 10
632.75509292398056
 20
475.21130275007727
 11
639.39318140794921
 21
475.21130275007727
  0
LINE
  8
_2-0_
  6
CONTINUOUS
 62
    7
 10
632.66608645596341
 20
484.48797527041268
 11
630.80356704893484
 21
484.48797527041268
  0
LINE
  8
_2-0_
  6
CONTINUOUS
 62
    7
 10
640.7358929239806
 20
482.48797527041268
 11
640.34878692528707
 21
482.48797527041268
  0
LINE
  8
_2-0_
  6
CONTINUOUS
 62
    7
 10
640.7358929239806
 20
482.48797527041268
 11
640.7358929239806
 21
484.48893527041275
  0
LINE
  8
_2-0_
  6
CONTINUOUS
 62
    7
 10
640.7358929239806
 20
478.88797527041265
 11
640.33648033602685
 21
478.88797527041265
  0
LINE
  8
_2-0_
  6
CONTINUOUS
 62
    7
 10
640.7358929239806
 20
476.2089027500773
 11
640.7358929239806
 21
478.88797527041265
  0
LINE
  8
_2-0_
  6
CONTINUOUS
 62
    7
 10
640.7358929239806
 20
457.56823022974243
 11
640.37434986785911
 21
457.56823022974243
  0
LINE
  8
_2-0_
  6
CONTINUOUS
 62
    7
 10
640.7358929239806
 20
460.24730275007789
 11
640.7358929239806
 21
457.56823022974243
  0
LINE
  8
_2-0_
  6
CONTINUOUS
 62
    7
 10
640.7358929239806
 20
453.9682302297424
 11
640.34766667334475
 21
453.9682302297424
  0
LINE
  8
_2-0_
  6
CONTINUOUS
 62
    7
 10
640.7358929239806
 20
453.9682302297424
 11
640.7358929239806
 21
451.96727022974244
  0
ARC
  8
_2-0_
  6
CONTINUOUS
 62
    7
 10
639.93635922407566
 20
484.08396336367196
 40
0.3990400000000001
 50
0
 51
90
  0
LINE
  8
_2-0_
  6
CONTINUOUS
 62
    7
 10
639.92790456936166
 20
484.48797527041268
 11
635.59576812535659
 21
484.48797527041268
  0
LINE
  8
_2-0_
  6
CONTINUOUS
 62
    7
 10
640.33589292398051
 20
476.2089027500773
 11
640.33589292398051
 21
484.0881906910289
  0
ARC
  8
_2-0_
  6
CONTINUOUS
 62
    7
 10
639.92638275576121
 20
452.36972467778014
 40
0.3990400000000001
 50
270
 51
0
  0
LINE
  8
_2-0_
  6
CONTINUOUS
 62
    7
 10
640.33589292398051
 20
460.24730275007789
 11
640.33589292398051
 21
452.35932631468074
  0
LINE
  8
_2-0_
  6
CONTINUOUS
 62
    7
 10
639.91598439266181
 20
451.9682302297424
 11
630.91980142933028
 21
451.9682302297424
  0
TEXT
  8
_1-0_
 62
    7
 10
806.06453572607984
 20
127.58824502289849
 40
8
 41
1
 50
0
  1
2
  0
TEXT
  8
_1-0_
 62
    7
 10
664.35659921814329
 20
127.82104925570272
 40
8
 41
1
 50
0
  1
樹脂端板
  0
LINE
  8
_1-6_23
  6
CONTINUOUS
 62
    7
 10
628.2461548981837
 20
136.81302687887609
 11
628.2461548981837
 21
87.311010257945725
  0
LINE
  8
_1-0_
  6
CONTINUOUS
 62
    7
 10
818.24613889818374
 20
136.81302687887609
 11
628.2461548981837
 21
136.81302687887609
  0
LINE
  8
_1-0_
  6
CONTINUOUS
 62
    7
 10
648.26590889818351
 20
136.37271559814283
 11
648.26590889818351
 21
86.813026878876087
  0
LINE
  8
_1-0_
  6
CONTINUOUS
 62
    7
 10
740.09278889818358
 20
87.073472447832046
 11
740.09278889818358
 21
136.00138298923244
  0
LINE
  8
_1-0_
  6
CONTINUOUS
 62
    7
 10
798.24613889818363
 20
136.35404524350488
 11
798.24613889818363
 21
86.813026878876087
  0
LINE
  8
_2-0_
  6
CONTINUOUS
 62
    7
 10
104.42299604595934
 20
497.78060700241963
 11
80.044096045959236
 21
473.40170700241964
  0
LINE
  8
_2-0_
  6
CONTINUOUS
 62
    7
 10
392.42119604595933
 20
366.03815700241961
 11
369.57319604595932
 21
381.49415700241957
  0
LINE
  8
_2-0_
  6
CONTINUOUS
 62
    7
 10
289.9939894649948
 20
502.1531884471658
 11
272.13319604595938
 21
478.93415700241962
  0
LINE
  8
_2-0_
  6
CONTINUOUS
 62
    7
 10
553.98811564595576
 20
497.90987378444959
 11
567.02175418549427
 21
470.96392444428011
  0
TEXT
  8
_2-0_
 62
    7
 10
102.42788026643996
 20
497.74055700241962
 40
12
 41
1
 50
0
  1
③
  0
TEXT
  8
_2-0_
 62
    7
 10
288.45243504889856
 20
502.44455700241963
 40
12
 41
1
 50
0
  1
①
  0
TEXT
  8
_2-0_
 62
    7
 10
546.21411636866537
 20
497.74055700241962
 40
12
 41
1
 50
0
  1
④
  0
TEXT
  8
_2-0_
 62
    7
 10
393.45036056504989
 20
358.63655700241964
 40
12
 41
1
 50
0
  1
②
  0
TEXT
  8
_2-0_
 62
    7
 10
144.04571021715913
 20
497.74055700241962
 40
12
 41
1
 50
0
  1
⑤
  0
LINE
  8
_2-0_
  6
CONTINUOUS
 62
    7
 10
152.30644357422568
 20
497.74773940904242
 11
164.41751512993946
 21
481.11520113919545
  0
TEXT
  8
_2-0_
 62
    7
 10
505.92452830188677
 20
497.74055700241962
 40
12
 41
1
 50
0
  1
⑤
  0
LINE
  8
_2-0_
  6
CONTINUOUS
 62
    7
 10
507.40306158775365
 20
497.74773940904237
 11
500.9438234247063
 21
480.30779636881454
  0
LINE
  8
_3-0_
  6
CONTINUOUS
 62
    7
 10
701.67377596233723
 20
416.64081819729296
 11
703.62980018664985
 21
414.68479397297966
  0
ARC
  8
_3-0_
  6
CONTINUOUS
 62
    7
 10
702.49842933675177
 20
413.55342312308068
 40
1.6000000000000669
 50
337.50000000002029
 51
45.000000000021714
  0
ARC
  8
_3-0_
  6
CONTINUOUS
 62
    7
 10
702.49842933675154
 20
413.55342312308176
 40
1.6000000000007213
 50
269.99999999998994
 51
337.49999999999102
  0
LINE
  8
_3-0_
  6
CONTINUOUS
 62
    7
 10
702.49842933675131
 20
411.953423123081
 11
695.40759974957928
 21
411.953423123081
  0
ARC
  8
_3-0_
  6
CONTINUOUS
 62
    7
 10
695.40759974957928
 20
410.75342312308095
 40
1.1999999999999946
 50
89.999999999999687
 51
180.00000000000026
  0
LINE
  8
_3-0_
  6
CONTINUOUS
 62
    7
 10
694.20759974957923
 20
410.75342312308095
 11
694.20759974957923
 21
407.55342312308102
  0
ARC
  8
_3-0_
  6
CONTINUOUS
 62
    7
 10
695.40759974957928
 20
407.55342312308102
 40
1.2000000000000055
 50
180.00000000000026
 51
269.99999999999977
  0
LINE
  8
_3-0_
  6
CONTINUOUS
 62
    7
 10
695.40759974957928
 20
406.35342312308103
 11
695.80759974957937
 21
406.35342312308103
  0
LINE
  8
_3-0_
  6
CONTINUOUS
 62
    7
 10
695.80759974957937
 20
406.35342312308103
 11
695.80759974957937
 21
401.953423123081
  0
LINE
  8
_3-0_
  6
CONTINUOUS
 62
    7
 10
695.80759974957937
 20
401.953423123081
 11
695.40759974957928
 21
401.953423123081
  0
ARC
  8
_3-0_
  6
CONTINUOUS
 62
    7
 10
695.40759974957928
 20
400.75342312308095
 40
1.1999999999999951
 50
89.999999999999744
 51
180.00000000000026
  0
LINE
  8
_3-0_
  6
CONTINUOUS
 62
    7
 10
694.20759974957923
 20
400.75342312308095
 11
694.20759974957923
 21
392.75342312308095
  0
ARC
  8
_3-0_
  6
CONTINUOUS
 62
    7
 10
695.00759974957941
 20
392.75342312308095
 40
0.7999999999999946
 50
179.99999999999963
 51
270.0000000000004
  0
LINE
  8
_3-0_
  6
CONTINUOUS
 62
    7
 10
695.00759974957941
 20
391.953423123081
 11
698.20760854957939
 21
391.953423123081
  0
ARC
  8
_3-0_
  6
CONTINUOUS
 62
    7
 10
698.20760854957916
 20
392.75342152308104
 40
0.7999984000000579
 50
270.00000000000881
 51
346.86575542600957
  0
ARC
  8
_3-0_
  6
CONTINUOUS
 62
    7
 10
698.20760854347441
 20
392.75342152450486
 40
0.7999984062688506
 50
346.8657554260559
 51
63.731509769493428
  0
ARC
  8
_3-0_
  6
CONTINUOUS
 62
    7
 10
699.09276297110796
 20
394.54687789454351
 40
1.1999976217251023
 50
187.12501703124599
 51
243.7315107334104
  0
LINE
  8
_3-0_
  6
CONTINUOUS
 62
    7
 10
697.90203188073383
 20
394.39803649384459
 11
697.40761014957843
 21
398.35341032308105
  0
LINE
  8
_3-0_
  6
CONTINUOUS
 62
    7
 10
697.40761014957843
 20
398.35341032308105
 11
698.9682867847996
 21
401.55327162373766
  0
LINE
  8
_3-0_
  6
CONTINUOUS
 62
    7
 10
698.9682867847996
 20
401.55327162373766
 11
699.31640231366487
 21
401.55327162373766
  0
ARC
  8
_3-0_
  6
CONTINUOUS
 62
    7
 10
699.31640231366487
 20
402.35327162373784
 40
0.8000000000001581
 50
270.00000000000739
 51
334.20345973514259
  0
ARC
  8
_3-0_
  6
CONTINUOUS
 62
    7
 10
699.31640231366509
 20
402.35327162373795
 40
0.7999999999999515
 50
334.20345973512434
 51
38.40691947026761
  0
ARC
  8
_3-0_
  6
CONTINUOUS
 62
    7
 10
702.60759974957864
 20
404.96248978974813
 40
3.4000000000001025
 50
132.80230649010022
 51
218.40691947029237
  0
ARC
  8
_3-0_
  6
CONTINUOUS
 62
    7
 10
702.60759974957864
 20
404.96248978974768
 40
3.4000000000004662
 50
47.197693509904497
 51
132.80230649009548
  0
ARC
  8
_3-0_
  6
CONTINUOUS
 62
    7
 10
702.60759974957887
 20
404.96248978974836
 40
3.3999999999998289
 50
321.59308052970789
 51
47.197693509900198
  0
ARC
  8
_3-0_
  6
CONTINUOUS
 62
    7
 10
705.89879718549241
 20
402.35327162373807
 40
0.8000000000003627
 50
141.59308052973827
 51
205.7965402648752
  0
ARC
  8
_3-0_
  6
CONTINUOUS
 62
    7
 10
705.89879718549241
 20
402.35327162373795
 40
0.8000000000002688
 50
205.79654026486239
 51
269.99999999998761
  0
LINE
  8
_3-0_
  6
CONTINUOUS
 62
    7
 10
705.89879718549219
 20
401.55327162373766
 11
706.24691271435745
 21
401.55327162373766
  0
LINE
  8
_3-0_
  6
CONTINUOUS
 62
    7
 10
706.24691271435745
 20
401.55327162373766
 11
707.80758934957862
 21
398.35341032308105
  0
LINE
  8
_3-0_
  6
CONTINUOUS
 62
    7
 10
707.80758934957862
 20
398.35341032308105
 11
707.31316763047971
 21
394.39803649233551
  0
ARC
  8
_3-0_
  6
CONTINUOUS
 62
    7
 10
706.12243655989096
 20
394.54687787616012
 40
1.1999975999992827
 50
296.26848914804782
 51
352.87498365105034
  0
ARC
  8
_3-0_
  6
CONTINUOUS
 62
    7
 10
707.00759095750823
 20
392.75342151576803
 40
0.7999984060597444
 50
116.26848878631858
 51
193.13424393489348
  0
ARC
  8
_3-0_
  6
CONTINUOUS
 62
    7
 10
707.00759094957948
 20
392.75342152308122
 40
0.7999984000001876
 50
193.13424457399779
 51
269.9999999999838
  0
LINE
  8
_3-0_
  6
CONTINUOUS
 62
    7
 10
707.00759094957925
 20
391.953423123081
 11
748.20760854957939
 21
391.953423123081
  0
ARC
  8
_3-0_
  6
CONTINUOUS
 62
    7
 10
748.20760854957916
 20
392.75342152308122
 40
0.7999984000001716
 50
270.00000000001529
 51
346.86575542600309
  0
ARC
  8
_3-0_
  6
CONTINUOUS
 62
    7
 10
748.2076085416503
 20
392.75342151576797
 40
0.7999984060597844
 50
346.86575606510883
 51
63.731511213679156
  0
ARC
  8
_3-0_
  6
CONTINUOUS
 62
    7
 10
749.09276293926689
 20
394.54687787616149
 40
1.1999976000001584
 50
187.12501634900906
 51
243.73151085201226
  0
LINE
  8
_3-0_
  6
CONTINUOUS
 62
    7
 10
747.90203186867757
 20
394.39803649233551
 11
747.40761014957843
 21
398.35341032308105
  0
LINE
  8
_3-0_
  6
CONTINUOUS
 62
    7
 10
747.40761014957843
 20
398.35341032308105
 11
748.9682867847996
 21
401.55327162373766
  0
LINE
  8
_3-0_
  6
CONTINUOUS
 62
    7
 10
748.9682867847996
 20
401.55327162373766
 11
749.31640231366487
 21
401.55327162373766
  0
ARC
  8
_3-0_
  6
CONTINUOUS
 62
    7
 10
749.31640231366487
 20
402.35327162373784
 40
0.8000000000001581
 50
270.00000000000739
 51
334.20345973514259
  0
ARC
  8
_3-0_
  6
CONTINUOUS
 62
    7
 10
749.31640231366509
 20
402.35327162373795
 40
0.7999999999999515
 50
334.20345973512434
 51
38.40691947026761
  0
ARC
  8
_3-0_
  6
CONTINUOUS
 62
    7
 10
752.60759974957853
 20
404.96248978974813
 40
3.4000000000001025
 50
132.80230649010022
 51
218.40691947029237
  0
ARC
  8
_3-0_
  6
CONTINUOUS
 62
    7
 10
752.60759974957853
 20
404.96248978974768
 40
3.4000000000004604
 50
47.197693509904433
 51
132.80230649009559
  0
ARC
  8
_3-0_
  6
CONTINUOUS
 62
    7
 10
752.60759974957875
 20
404.96248978974836
 40
3.3999999999998765
 50
321.59308052970863
 51
47.197693509899459
  0
ARC
  8
_3-0_
  6
CONTINUOUS
 62
    7
 10
755.89879718549241
 20
402.35327162373807
 40
0.8000000000003449
 50
141.59308052973748
 51
205.796540264876
  0
ARC
  8
_3-0_
  6
CONTINUOUS
 62
    7
 10
755.89879718549241
 20
402.35327162373784
 40
0.8000000000001922
 50
205.79654026485895
 51
269.99999999999108
  0
LINE
  8
_3-0_
  6
CONTINUOUS
 62
    7
 10
755.89879718549219
 20
401.55327162373766
 11
756.24691271435745
 21
401.55327162373766
  0
LINE
  8
_3-0_
  6
CONTINUOUS
 62
    7
 10
756.24691271435745
 20
401.55327162373766
 11
757.80758934957862
 21
398.35341032308105
  0
LINE
  8
_3-0_
  6
CONTINUOUS
 62
    7
 10
757.80758934957862
 20
398.35341032308105
 11
757.31316761842481
 21
394.39803649384459
  0
ARC
  8
_3-0_
  6
CONTINUOUS
 62
    7
 10
756.12243652805
 20
394.54687789454482
 40
1.1999976217259078
 50
296.26848926652781
 51
352.87498296869654
  0
ARC
  8
_3-0_
  6
CONTINUOUS
 62
    7
 10
757.00759095568367
 20
392.75342152450577
 40
0.7999984062684526
 50
116.26849023058816
 51
193.1342445740141
  0
ARC
  8
_3-0_
  6
CONTINUOUS
 62
    7
 10
757.00759094957925
 20
392.75342152308099
 40
0.7999983999999519
 50
193.1342445739844
 51
269.99999999999721
  0
LINE
  8
_3-0_
  6
CONTINUOUS
 62
    7
 10
757.00759094957925
 20
391.953423123081
 11
760.20759974957923
 21
391.953423123081
  0
ARC
  8
_3-0_
  6
CONTINUOUS
 62
    7
 10
760.20759974957923
 20
392.75342312308095
 40
0.8000000000000062
 50
270.00000000000045
 51
359.99999999999955
  0
LINE
  8
_3-0_
  6
CONTINUOUS
 62
    7
 10
761.0075997495793
 20
392.75342312308095
 11
761.0075997495793
 21
400.75342312308095
  0
ARC
  8
_3-0_
  6
CONTINUOUS
 62
    7
 10
759.80759974957937
 20
400.75342312308095
 40
1.2000000000000073
 50
0.000000000000336
 51
89.999999999999659
  0
LINE
  8
_3-0_
  6
CONTINUOUS
 62
    7
 10
759.80759974957937
 20
401.953423123081
 11
759.40759974957928
 21
401.953423123081
  0
LINE
  8
_3-0_
  6
CONTINUOUS
 62
    7
 10
759.40759974957928
 20
401.953423123081
 11
759.40759974957928
 21
406.35342312308103
  0
LINE
  8
_3-0_
  6
CONTINUOUS
 62
    7
 10
759.40759974957928
 20
406.35342312308103
 11
759.80759974957937
 21
406.35342312308103
  0
ARC
  8
_3-0_
  6
CONTINUOUS
 62
    7
 10
759.80759974957937
 20
407.55342312308102
 40
1.1999999999999937
 50
269.99999999999972
 51
0.0000000000002926
  0
LINE
  8
_3-0_
  6
CONTINUOUS
 62
    7
 10
761.0075997495793
 20
407.55342312308102
 11
761.0075997495793
 21
410.75342312308095
  0
ARC
  8
_3-0_
  6
CONTINUOUS
 62
    7
 10
759.80759974957937
 20
410.75342312308095
 40
1.2000000000000073
 50
0.000000000000336
 51
89.999999999999659
  0
LINE
  8
_3-0_
  6
CONTINUOUS
 62
    7
 10
759.80759974957937
 20
411.953423123081
 11
752.71677016240585
 21
411.953423123081
  0
ARC
  8
_3-0_
  6
CONTINUOUS
 62
    7
 10
752.71677016240631
 20
413.55342312308062
 40
1.5999999999995851
 50
202.49999999998178
 51
269.99999999998511
  0
ARC
  8
_3-0_
  6
CONTINUOUS
 62
    7
 10
752.71677016240608
 20
413.55342312308181
 40
1.5999999999998371
 50
135.0000000000249
 51
202.50000000002507
  0
LINE
  8
_3-0_
  6
CONTINUOUS
 62
    7
 10
751.58539931250721
 20
414.68479397297966
 11
753.5414235368213
 21
416.64081819729296
  0
ARC
  8
_3-0_
  6
CONTINUOUS
 62
    7
 10
752.93490993464422
 20
417.16248978974727
 40
0.7999999999997334
 50
319.30067361377223
 51
20.349663193237713
  0
ARC
  8
_3-0_
  6
CONTINUOUS
 62
    7
 10
752.93490993464377
 20
417.16248978974824
 40
0.7999999999997796
 50
20.349663193158097
 51
89.999999999997087
  0
LINE
  8
_3-0_
  6
CONTINUOUS
 62
    7
 10
752.93490993464377
 20
417.96248978974808
 11
750.25528080926028
 21
417.96248978974808
  0
ARC
  8
_3-0_
  6
CONTINUOUS
 62
    7
 10
750.25528080926006
 20
417.16248978974761
 40
0.8000000000004317
 50
89.999999999978726
 51
156.99999999997928
  0
LINE
  8
_3-0_
  6
CONTINUOUS
 62
    7
 10
749.5188769264978
 20
417.47507469253952
 11
744.2711958668167
 21
405.11231285300056
  0
ARC
  8
_3-0_
  6
CONTINUOUS
 62
    7
 10
745.00759974957896
 20
404.79972795021064
 40
0.7999999999996578
 50
157.00000000010158
 51
180.00000000010334
  0
LINE
  8
_3-0_
  6
CONTINUOUS
 62
    7
 10
744.20759974957923
 20
404.79972795020922
 11
744.20759974957923
 21
395.77282757430777
  0
LINE
  8
_3-0_
  6
CONTINUOUS
 62
    7
 10
744.20759974957923
 20
395.77282757430777
 11
711.00759974957941
 21
395.77282757430777
  0
LINE
  8
_3-0_
  6
CONTINUOUS
 62
    7
 10
711.00759974957941
 20
395.77282757430777
 11
711.00759974957941
 21
404.79972795020922
  0
ARC
  8
_3-0_
  6
CONTINUOUS
 62
    7
 10
710.207599749579
 20
404.79972795020711
 40
0.8000000000002508
 50
0.0000000001508273
 51
23.000000000156529
  0
LINE
  8
_3-0_
  6
CONTINUOUS
 62
    7
 10
710.94400363234035
 20
405.11231285300056
 11
705.69632257265926
 21
417.47507469253952
  0
ARC
  8
_3-0_
  6
CONTINUOUS
 62
    7
 10
704.95991868989722
 20
417.16248978974772
 40
0.8000000000003633
 50
23.000000000017511
 51
90.000000000024528
  0
LINE
  8
_3-0_
  6
CONTINUOUS
 62
    7
 10
704.95991868989677
 20
417.96248978974808
 11
702.2802895645134
 21
417.96248978974808
  0
ARC
  8
_3-0_
  6
CONTINUOUS
 62
    7
 10
702.2802895645134
 20
417.16248978974824
 40
0.7999999999997857
 50
90.000000000003212
 51
159.65033680684158
  0
ARC
  8
_3-0_
  6
CONTINUOUS
 62
    7
 10
702.28028956451385
 20
417.16248978974846
 40
0.8000000000001027
 50
159.65033680686815
 51
220.6993263863238
  0
LINE
  8
_3-0_
  6
CENTER1
 62
    2
 10
727.60759974957932
 20
419.30363212737575
 11
727.60759974957932
 21
387.9034794594491
  0
LINE
  8
_3-0_
  6
CENTER1
 62
    2
 10
707.02692613289923
 20
404.96248978974768
 11
697.98530624516866
 21
404.96248978974768
  0
LINE
  8
_3-0_
  6
CENTER1
 62
    2
 10
702.60759974957864
 20
408.71674969979534
 11
702.60759974957864
 21
400.81691008471915
  0
LINE
  8
_3-0_
  6
CENTER1
 62
    2
 10
752.60759974957853
 20
408.84894697325166
 11
752.60759974957853
 21
401.40632467974723
  0
LINE
  8
_3-0_
  6
CENTER1
 62
    2
 10
748.72800873113499
 20
404.96248978974768
 11
756.60679782496015
 21
404.96248978974768
  0
LINE
  8
_3-0_
  6
CENTER1
 62
    2
 10
727.60759974957864
 20
436.79818916930844
 11
727.60759974957864
 21
408.37156527195475
  0
LINE
  8
_3-0_
  6
CONTINUOUS
 62
    7
 10
703.05333540226582
 20
412.48973690048916
 11
702.12441269099531
 21
411.95342312308094
  0
LINE
  8
_3-0_
  6
CONTINUOUS
 62
    7
 10
702.12441269099531
 20
411.95342312308094
 11
695.56767568965608
 21
411.95342312308094
  0
ARC
  8
_3-0_
  6
CONTINUOUS
 62
    7
 10
695.56767568965563
 20
412.75342312308101
 40
0.8000000000001062
 50
158.21760701737551
 51
270.00000000003178
  0
ARC
  8
_3-0_
  6
CONTINUOUS
 62
    7
 10
727.41563402568022
 20
400.02649977506888
 40
35.096749526439673
 50
89.686612555830521
 51
158.21760701735334
  0
ARC
  8
_3-0_
  6
CONTINUOUS
 62
    7
 10
727.79956547347797
 20
400.02649977507036
 40
35.096749526438167
 50
21.782392982645028
 51
90.313387444168796
  0
ARC
  8
_3-0_
  6
CONTINUOUS
 62
    7
 10
759.64752380950222
 20
412.75342312308055
 40
0.7999999999996445
 50
270.00000000002365
 51
21.782392982673318
  0
LINE
  8
_3-0_
  6
CONTINUOUS
 62
    7
 10
759.64752380950245
 20
411.95342312308094
 11
753.09078680816333
 21
411.95342312308094
  0
LINE
  8
_3-0_
  6
CONTINUOUS
 62
    7
 10
753.09078680816333
 20
411.95342312308094
 11
752.16186409689124
 21
412.4897369004895
  0
ARC
  8
_3-0_
  6
CONTINUOUS
 62
    7
 10
752.71677016240574
 20
413.55342312307835
 40
1.1997287700435333
 50
232.03124999992372
 51
242.44975679193587
  0
ARC
  8
_3-0_
  6
CONTINUOUS
 62
    7
 10
752.71677016240642
 20
413.55342312308073
 40
1.199728770045777
 50
139.21874999998309
 51
232.03124999996788
  0
LINE
  8
_3-0_
  6
CONTINUOUS
 62
    7
 10
751.80832492431955
 20
414.33705337458525
 11
751.87344911657283
 21
414.40715835209522
  0
LINE
  8
_3-0_
  6
CONTINUOUS
 62
    7
 10
751.87344911657283
 20
414.40715835209522
 11
753.82426624929519
 21
416.35797548481821
  0
LINE
  8
_3-0_
  6
CONTINUOUS
 62
    7
 10
753.82426624929519
 20
416.35797548481821
 11
753.88656591202323
 21
416.431739386819
  0
ARC
  8
_3-0_
  6
CONTINUOUS
 62
    7
 10
752.93490993464479
 20
417.16248978974897
 40
1.199852178671369
 50
322.48033460287695
 51
15.898200484932554
  0
LINE
  8
_3-0_
  6
CONTINUOUS
 62
    7
 10
754.08886766362139
 20
417.49116411244177
 11
754.03118176587031
 21
417.65006166188033
  0
ARC
  8
_3-0_
  6
CONTINUOUS
 62
    7
 10
752.93490993464366
 20
417.16248978974807
 40
1.1998075922562277
 50
23.9773236848519
 51
84.921368390811693
  0
LINE
  8
_3-0_
  6
CONTINUOUS
 62
    7
 10
753.04112028424447
 20
418.35758711635935
 11
750.18225043769507
 21
418.36008708903353
  0
LINE
  8
_3-0_
  6
CONTINUOUS
 62
    7
 10
750.18225043769507
 20
418.36008708903353
 11
748.10066077988472
 21
418.36008708903353
  0
ARC
  8
_3-0_
  6
CONTINUOUS
 62
    7
 10
748.10066077988427
 20
419.16008708903382
 40
0.8000000000002993
 50
223.3041895647354
 51
270.00000000002967
  0
ARC
  8
_3-0_
  6
CONTINUOUS
 62
    7
 10
727.79956547347763
 20
400.02649977506957
 40
27.096749526439137
 50
43.304189564695612
 51
90.405912812021398
  0
ARC
  8
_3-0_
  6
CONTINUOUS
 62
    7
 10
727.4156340256809
 20
400.02649977506962
 40
27.096749526439091
 50
89.594087187978545
 51
136.69581043530442
  0
ARC
  8
_3-0_
  6
CONTINUOUS
 62
    7
 10
707.11453871927426
 20
419.16008708903394
 40
0.8000000000003508
 50
269.99999999997192
 51
316.69581043526301
  0
LINE
  8
_3-0_
  6
CONTINUOUS
 62
    7
 10
707.11453871927392
 20
418.36008708903353
 11
705.03294906146198
 21
418.36008708903353
  0
LINE
  8
_3-0_
  6
CONTINUOUS
 62
    7
 10
705.03294906146198
 20
418.36008708903353
 11
702.17407921491417
 21
418.35758711635935
  0
ARC
  8
_3-0_
  6
CONTINUOUS
 62
    7
 10
702.28028956451419
 20
417.16248978974693
 40
1.1998075922573255
 50
95.078631609146541
 51
156.02267631511023
  0
LINE
  8
_3-0_
  6
CONTINUOUS
 62
    7
 10
701.18401773328674
 20
417.65006166188033
 11
701.12633183553726
 21
417.49116411244177
  0
ARC
  8
_3-0_
  6
CONTINUOUS
 62
    7
 10
702.28028956451317
 20
417.1624897897475
 40
1.1998521786711043
 50
164.10179951499245
 51
217.51966539704617
  0
LINE
  8
_3-0_
  6
CONTINUOUS
 62
    7
 10
701.32863358713394
 20
416.431739386819
 11
701.39093324986197
 21
416.35797548481821
  0
LINE
  8
_3-0_
  6
CONTINUOUS
 62
    7
 10
701.39093324986197
 20
416.35797548481821
 11
703.34175038258559
 21
414.40715835209522
  0
LINE
  8
_3-0_
  6
CONTINUOUS
 62
    7
 10
703.34175038258559
 20
414.40715835209522
 11
703.40687457483887
 21
414.33705337458525
  0
ARC
  8
_3-0_
  6
CONTINUOUS
 62
    7
 10
702.49842933675143
 20
413.55342312308142
 40
1.1997287700458805
 50
307.96874999998465
 51
40.781249999968907
  0
ARC
  8
_3-0_
  6
CONTINUOUS
 62
    7
 10
702.49842933675279
 20
413.55342312307283
 40
1.1997287700382462
 50
297.55024320811685
 51
307.96875000018451
  0
LINE
  8
_3-0_
  6
CONTINUOUS
 62
    7
 10
722.60759974957978
 20
405.07888076930067
 11
732.60759974957978
 21
405.07888076930067
  0
LINE
  8
_3-0_
  6
CONTINUOUS
 62
    7
 10
732.60759974957978
 20
405.07888076930067
 11
732.60759974957978
 21
401.57204745259162
  0
LINE
  8
_3-0_
  6
CONTINUOUS
 62
    7
 10
722.60759974957978
 20
405.07888076930067
 11
722.60759974957978
 21
401.57204745259162
  0
LINE
  8
_3-0_
  6
CONTINUOUS
 62
    4
 10
687.46648151382135
 20
391.95342312308094
 11
687.46648151382135
 21
411.95342312308094
  0
LINE
  8
_3-0_
  6
CONTINUOUS
 62
    4
 10
687.46648151382135
 20
391.95342312308094
 11
686.69002437851373
 21
394.85120060194816
  0
LINE
  8
_3-0_
  6
CONTINUOUS
 62
    4
 10
687.46648151382135
 20
391.95342312308094
 11
688.24293864912897
 21
394.85120060194816
  0
LINE
  8
_3-0_
  6
CONTINUOUS
 62
    4
 10
687.46648151382135
 20
411.95342312308094
 11
686.69002437851373
 21
409.05564564421371
  0
LINE
  8
_3-0_
  6
CONTINUOUS
 62
    4
 10
687.46648151382135
 20
411.95342312308094
 11
688.24293864912897
 21
409.05564564421371
  0
LINE
  8
_3-0_
  6
CONTINUOUS
 62
    4
 10
686.96648151382135
 20
391.95342312308094
 11
692.03193910362597
 21
391.95342312308094
  0
LINE
  8
_3-0_
  6
CONTINUOUS
 62
    4
 10
686.96648151382135
 20
411.95342312308094
 11
692.03193910362597
 21
411.95342312308094
  0
LINE
  8
_3-0_
  6
CONTINUOUS
 62
    4
 10
687.46648151382135
 20
411.95342312308094
 11
687.46648151382135
 21
435.12272430823612
  0
LINE
  8
_3-0_
  6
CONTINUOUS
 62
    4
 10
687.46648151382135
 20
411.95342312308094
 11
686.69002437851373
 21
414.85120060194811
  0
LINE
  8
_3-0_
  6
CONTINUOUS
 62
    4
 10
687.46648151382135
 20
411.95342312308094
 11
688.24293864912897
 21
414.85120060194811
  0
LINE
  8
_3-0_
  6
CONTINUOUS
 62
    4
 10
687.46648151382135
 20
435.12272430823612
 11
686.69002437851373
 21
432.22494682936895
  0
LINE
  8
_3-0_
  6
CONTINUOUS
 62
    4
 10
687.46648151382135
 20
435.12272430823612
 11
688.24293864912897
 21
432.22494682936895
  0
LINE
  8
_3-0_
  6
CONTINUOUS
 62
    4
 10
686.96648151382135
 20
435.12272430823612
 11
713.59819812527792
 21
435.12272430823612
  0
LINE
  8
_3-0_
  6
CONTINUOUS
 62
    7
 10
741.60759974957978
 20
401.57204745259162
 11
741.60759974957978
 21
395.77282757430777
  0
LINE
  8
_3-0_
  6
CONTINUOUS
 62
    7
 10
713.60759974957978
 20
401.57204745259162
 11
713.60759974957978
 21
395.77282757430777
  0
LINE
  8
_3-0_
  6
CONTINUOUS
 62
    7
 10
713.60759974957978
 20
395.77282757430777
 11
741.60759974957978
 21
395.77282757430777
  0
LINE
  8
_3-0_
  6
CONTINUOUS
 62
    7
 10
713.60759974957978
 20
397.57204745259162
 11
741.60759974957978
 21
397.57204745259162
  0
LINE
  8
_3-0_
  6
CONTINUOUS
 62
    7
 10
713.60759974957978
 20
401.57204745259162
 11
741.60759974957978
 21
401.57204745259162
  0
CIRCLE
  8
_3-0_
  6
CONTINUOUS
 62
    7
 10
702.64827782754287
 20
397.17888284906815
 40
4.7999999999999998
  0
CIRCLE
  8
_3-0_
  6
CONTINUOUS
 62
    7
 10
752.56692167161577
 20
397.17888284906815
 40
4.7999999999999998
  0
LINE
  8
_3-0_
  6
CONTINUOUS
 62
    4
 10
694.20759974957934
 20
379.06595798080235
 11
761.0075997495793
 21
379.06595798080235
  0
LINE
  8
_3-0_
  6
CONTINUOUS
 62
    4
 10
694.20759974957934
 20
379.06595798080235
 11
697.10537722844651
 21
379.84241511610992
  0
LINE
  8
_3-0_
  6
CONTINUOUS
 62
    4
 10
694.20759974957934
 20
379.06595798080235
 11
697.10537722844651
 21
378.28950084549479
  0
LINE
  8
_3-0_
  6
CONTINUOUS
 62
    4
 10
761.0075997495793
 20
379.06595798080235
 11
758.10982227071213
 21
379.84241511610992
  0
LINE
  8
_3-0_
  6
CONTINUOUS
 62
    4
 10
761.0075997495793
 20
379.06595798080235
 11
758.10982227071213
 21
378.28950084549479
  0
TEXT
  8
_3-0_
 62
    7
 10
718.85759974957932
 20
380.5627216833343
 40
8
 41
1
 50
0
  1
16.7
  0
LINE
  8
_3-0_
  6
CONTINUOUS
 62
    4
 10
694.20759974957934
 20
378.56595798080235
 11
694.20759974957934
 21
390.75761839708326
  0
LINE
  8
_3-0_
  6
CONTINUOUS
 62
    4
 10
761.0075997495793
 20
378.56595798080235
 11
761.0075997495793
 21
391.29419190833323
  0
LINE
  8
_3-0_
  6
CONTINUOUS
 62
    4
 10
675.8424127339091
 20
391.953423123081
 11
675.8424127339091
 21
435.12272430823617
  0
LINE
  8
_3-0_
  6
CONTINUOUS
 62
    4
 10
675.8424127339091
 20
391.953423123081
 11
675.06595559860148
 21
394.85120060194822
  0
LINE
  8
_3-0_
  6
CONTINUOUS
 62
    4
 10
675.8424127339091
 20
391.953423123081
 11
676.61886986921661
 21
394.85120060194822
  0
LINE
  8
_3-0_
  6
CONTINUOUS
 62
    4
 10
675.8424127339091
 20
435.12272430823617
 11
675.06595559860148
 21
432.22494682936895
  0
LINE
  8
_3-0_
  6
CONTINUOUS
 62
    4
 10
675.8424127339091
 20
435.12272430823617
 11
676.61886986921661
 21
432.22494682936895
  0
TEXT
  8
_3-0_
 62
    7
 10
673.38019825886465
 20
407.03807371565858
 40
8
 41
1
 50
90
  1
11
  0
LINE
  8
_3-0_
  6
CONTINUOUS
 62
    4
 10
673.82232312098517
 20
435.12272430823617
 11
692.17929275238293
 21
435.12272430823617
  0
LINE
  8
_3-0_
  6
CONTINUOUS
 62
    4
 10
673.82232312098517
 20
391.953423123081
 11
692.17929275238293
 21
391.953423123081
  0
TEXT
  8
_3-0_
 62
    7
 10
686.31026485737539
 20
399.95342312308094
 40
8
 41
1
 50
90
  1
5
  0
TEXT
  8
_3-0_
 62
    7
 10
686.06402387902733
 20
421.72366973232403
 40
8
 41
1
 50
90
  1
6
  0
LINE
  8
_3-0_
  6
CONTINUOUS
 62
    2
 10
726.51672927671825
 20
427.10833511078624
 11
733.98269719204097
 21
434.57430302610885
  0
LINE
  8
_3-0_
  6
CONTINUOUS
 62
    2
 10
725.01047563568181
 20
427.01629503212314
 11
732.76447797192975
 21
434.77029736837096
  0
LINE
  8
_3-0_
  6
CONTINUOUS
 62
    2
 10
723.40472065556378
 20
426.82475361437844
 11
731.50686453581955
 21
434.92689749463409
  0
LINE
  8
_3-0_
  6
CONTINUOUS
 62
    2
 10
721.67362783739418
 20
426.50787435858126
 11
730.20637999149255
 21
435.04062651267952
  0
LINE
  8
_3-0_
  6
CONTINUOUS
 62
    2
 10
719.7753432350014
 20
426.02380331856091
 11
728.85880146261331
 21
435.10726154617271
  0
LINE
  8
_3-0_
  6
CONTINUOUS
 62
    2
 10
717.63308905431495
 20
425.29576270024779
 11
727.46054691831637
 21
435.12322056424915
  0
LINE
  8
_3-0_
  6
CONTINUOUS
 62
    2
 10
703.90395534523191
 20
412.98084255353808
 11
704.33601076318757
 21
413.41289797149363
  0
LINE
  8
_3-0_
  6
CONTINUOUS
 62
    2
 10
715.0711067333001
 20
424.14799394160616
 11
726.01854422144038
 21
435.09543142974644
  0
LINE
  8
_3-0_
  6
CONTINUOUS
 62
    2
 10
701.46232235240109
 20
411.95342312308054
 11
703.62890398200079
 21
414.12000475268019
  0
LINE
  8
_3-0_
  6
CONTINUOUS
 62
    2
 10
711.37187045270059
 20
421.86297122337999
 11
724.51181478937883
 21
435.00291556005828
  0
LINE
  8
_3-0_
  6
CONTINUOUS
 62
    2
 10
700.04810879002798
 20
411.95342312308071
 11
702.92179720081401
 21
414.82711153386674
  0
LINE
  8
_3-0_
  6
CONTINUOUS
 62
    2
 10
706.45601717478485
 20
418.36133150783752
 11
722.93012109131882
 21
434.83543542437161
  0
LINE
  8
_3-0_
  6
CONTINUOUS
 62
    2
 10
698.63389522765476
 20
411.95342312308082
 11
702.21469041962723
 21
415.53421831505324
  0
LINE
  8
_3-0_
  6
CONTINUOUS
 62
    2
 10
705.04056585420199
 20
418.36009374962805
 11
721.25961694520151
 21
434.57914484062763
  0
LINE
  8
_3-0_
  6
CONTINUOUS
 62
    2
 10
697.21968166528154
 20
411.95342312308094
 11
701.50758363844034
 21
416.24132509623979
  0
LINE
  8
_3-0_
  6
CONTINUOUS
 62
    2
 10
703.62511453361913
 20
418.35885599141852
 11
719.48076271319655
 21
434.21450417099601
  0
LINE
  8
_3-0_
  6
CONTINUOUS
 62
    2
 10
695.80546810291025
 20
411.95342312308117
 11
701.08240302641775
 21
417.23035804658866
  0
LINE
  8
_3-0_
  6
CONTINUOUS
 62
    2
 10
702.21242130767109
 20
418.360376327842
 11
717.56436165023865
 21
433.71231667040962
  0
LINE
  8
_3-0_
  6
CONTINUOUS
 62
    2
 10
694.84600773195928
 20
412.40817631450352
 11
715.46310035344391
 21
433.02526893598821
  0
LINE
  8
_3-0_
  6
CONTINUOUS
 62
    2
 10
695.37563946408295
 20
414.35202160900059
 11
713.09011219174658
 21
432.06649433666422
  0
LINE
  8
_3-0_
  6
CONTINUOUS
 62
    2
 10
696.80525828129498
 20
417.19585398858595
 11
710.24627981216122
 21
430.63687551945219
  0
LINE
  8
_3-0_
  6
CONTINUOUS
 62
    2
 10
699.52019384947357
 20
421.32500311913788
 11
706.1171306816093
 21
427.9219399512736
  0
LINE
  8
_3-0_
  6
CONTINUOUS
 62
    2
 10
759.44507840969925
 20
411.95342312308105
 11
760.42664694849782
 21
412.93499166187968
  0
LINE
  8
_3-0_
  6
CONTINUOUS
 62
    2
 10
758.03086484732546
 20
411.9534231230806
 11
760.01966124234548
 21
413.94221951810061
  0
LINE
  8
_3-0_
  6
CONTINUOUS
 62
    2
 10
756.61665128495224
 20
411.95342312308071
 11
759.58070285551491
 21
414.91747469364338
  0
LINE
  8
_3-0_
  6
CONTINUOUS
 62
    2
 10
755.20243772257891
 20
411.95342312308077
 11
759.1175031356878
 21
415.8684885361896
  0
LINE
  8
_3-0_
  6
CONTINUOUS
 62
    2
 10
753.78822416020569
 20
411.95342312308082
 11
758.63080737259895
 21
416.79600633547409
  0
LINE
  8
_3-0_
  6
CONTINUOUS
 62
    2
 10
752.63636889964164
 20
412.21578142489011
 11
758.12126297899101
 21
417.70067550423948
  0
LINE
  8
_3-0_
  6
CONTINUOUS
 62
    2
 10
751.73979342747293
 20
412.73341951509485
 11
757.58943017200897
 21
418.58305625963078
  0
LINE
  8
_3-0_
  6
CONTINUOUS
 62
    2
 10
750.84321795530559
 20
413.25105760529891
 11
757.03579072119044
 21
419.44363037118376
  0
LINE
  8
_3-0_
  6
CONTINUOUS
 62
    2
 10
753.96147915834945
 20
417.78353237071616
 11
756.46075510977141
 21
420.28280832213807
  0
LINE
  8
_3-0_
  6
CONTINUOUS
 62
    2
 10
753.11277377745182
 20
418.34904055219187
 11
755.86466837588921
 21
421.1009351506292
  0
LINE
  8
_3-0_
  6
CONTINUOUS
 62
    2
 10
751.70960675192032
 20
418.3600870890337
 11
755.2478148392496
 21
421.89829517636292
  0
LINE
  8
_3-0_
  6
CONTINUOUS
 62
    2
 10
750.29539318954699
 20
418.36008708903375
 11
754.61042187145665
 21
422.67511577094331
  0
LINE
  8
_3-0_
  6
CONTINUOUS
 62
    2
 10
748.88117962717376
 20
418.36008708903375
 11
753.95266283086619
 21
423.43157029272618
  0
LINE
  8
_3-0_
  6
CONTINUOUS
 62
    2
 10
747.61515752355103
 20
418.50827854778436
 11
753.27465925261538
 21
424.1677802768487
  0
LINE
  8
_3-0_
  6
CONTINUOUS
 62
    2
 10
746.91961849729864
 20
419.2269530839053
 11
752.57648235953036
 21
424.88381694613702
  0
LINE
  8
_3-0_
  6
CONTINUOUS
 62
    2
 10
746.19797477590396
 20
419.91952292488213
 11
751.85815393823157
 21
425.57970208720974
  0
LINE
  8
_3-0_
  6
CONTINUOUS
 62
    2
 10
745.45016677053741
 20
420.58592848188891
 11
751.11964660574574
 21
426.25540831709725
  0
LINE
  8
_3-0_
  6
CONTINUOUS
 62
    2
 10
744.67602667238975
 20
421.22600194611465
 11
750.36088347430666
 21
426.9108587480315
  0
LINE
  8
_3-0_
  6
CONTINUOUS
 62
    2
 10
743.87527496027428
 20
421.83946379637246
 11
749.58173720468255
 21
427.54592604078073
  0
LINE
  8
_3-0_
  6
CONTINUOUS
 62
    2
 10
743.04751447230842
 20
422.42591687077993
 11
748.78202842065673
 21
428.16043081912824
  0
LINE
  8
_3-0_
  6
CONTINUOUS
 62
    2
 10
742.19222174238507
 20
422.98483770322991
 11
747.96152343804931
 21
428.75413939889415
  0
LINE
  8
_3-0_
  6
CONTINUOUS
 62
    2
 10
741.30873514675727
 20
423.5155646699755
 11
747.11993123995433
 21
429.3267607631725
  0
LINE
  8
_3-0_
  6
CONTINUOUS
 62
    2
 10
740.39623920627241
 20
424.0172822918621
 11
746.25689960438319
 21
429.87794268997288
  0
LINE
  8
_3-0_
  6
CONTINUOUS
 62
    2
 10
739.45374412202432
 20
424.48900076998734
 11
745.37201025961519
 21
430.40726690757822
  0
LINE
  8
_3-0_
  6
CONTINUOUS
 62
    2
 10
738.48005925116536
 20
424.92952946150172
 11
744.46477290428209
 21
430.91424311461844
  0
LINE
  8
_3-0_
  6
CONTINUOUS
 62
    2
 10
737.47375870101837
 20
425.33744247372812
 11
743.53461788037964
 21
431.39830165308933
  0
LINE
  8
_3-0_
  6
CONTINUOUS
 62
    2
 10
736.43313644680006
 20
425.71103378188309
 11
742.58088722462787
 21
431.8587845597109
  0
LINE
  8
_3-0_
  6
CONTINUOUS
 62
    2
 10
735.35614721965862
 20
426.04825811711498
 11
741.60282374088035
 21
432.29493463833671
  0
LINE
  8
_3-0_
  6
CONTINUOUS
 62
    2
 10
729.31751945716246
 20
427.08069816648373
 11
736.31209102873834
 21
434.07526973805955
  0
LINE
  8
_3-0_
  6
CONTINUOUS
 62
    2
 10
727.94546424091891
 20
427.12285651261345
 11
735.16442088032034
 21
434.34181315201488
  0
LINE
  8
_3-0_
  6
CONTINUOUS
 62
    2
 10
734.24032762800812
 20
426.34665208783787
 11
740.5995576260442
 21
432.7058820858739
  0
LINE
  8
_3-0_
  6
CONTINUOUS
 62
    2
 10
733.08268914961695
 20
426.60322717181998
 11
739.57009003288874
 21
433.09062805509177
  0
LINE
  8
_3-0_
  6
CONTINUOUS
 62
    2
 10
731.87957001076097
 20
426.81432159533557
 11
738.51327274810808
 21
433.44802433268262
  0
LINE
  8
_3-0_
  6
CONTINUOUS
 62
    2
 10
730.62642513165679
 20
426.97539027860472
 11
737.42778287805083
 21
433.77674802499871
  0
LINE
  8
_3-0_
  6
CENTER1
 62
    2
 10
702.60759974957864
 20
402.7210788434333
 11
702.60759974957864
 21
391.03371082850748
  0
LINE
  8
_3-0_
  6
CENTER1
 62
    2
 10
708.39977898195639
 20
397.15022126849658
 11
696.16087225171941
 21
397.15022126849658
  0
LINE
  8
_3-0_
  6
CENTER1
 62
    2
 10
752.63435898326293
 20
402.7210788434333
 11
752.63435898326293
 21
391.03371082850748
  0
LINE
  8
_3-0_
  6
CENTER1
 62
    2
 10
758.42653821564068
 20
397.15022126849658
 11
746.18763148540381
 21
397.15022126849658
  0
LINE
  8
_3-0_
  6
CONTINUOUS
 62
    7
 10
757.25697919985691
 20
436.73121283577234
 11
744.552989624877
 21
425.63758813649406
  0
LINE
  8
_3-0_
  6
CONTINUOUS
 62
    7
 10
765.51719914559499
 20
388.91353642634203
 11
753.30473589637279
 21
396.32331990669485
  0
LINE
  8
_3-0_
  6
CONTINUOUS
 62
    7
 10
702.50457342599964
 20
440.48873087907623
 11
728.15768375833341
 21
405.54742542641475
  0
TEXT
  8
_3-0_
 62
    7
 10
750.1668310341671
 20
438.39059567321942
 40
8
 41
1
 50
0
  1
樹脂カバー
  0
TEXT
  8
_3-0_
 62
    7
 10
687.44955354725607
 20
443.3174948137904
 40
8
 41
1
 50
0
  1
LED基板
  0
TEXT
  8
_3-0_
 62
    7
 10
767.55764260083561
 20
382.74193872206303
 40
8
 41
1
 50
0
  1
マグネット
  0
TEXT
  8
_3-0_
 62
    7
 10
768.09749379243533
 20
374.99054069500124
 40
6
 41
1
 50
0
  1
(オプション)
  0
TEXT
  8
_3-0_
 62
    7
 10
759.79768843228294
 20
423.30103367325353
 40
8
 41
1
 50
0
  1
アルミフレーム
  0
LINE
  8
_3-0_
  6
CONTINUOUS
 62
    7
 10
778.8802860936139
 20
422.72953509529128
 11
758.20208089711207
 21
407.66910818916853
  0
LINE
  8
_4-0_
  6
CONTINUOUS
 62
    7
 10
735.69804298993563
 20
337.1299421573093
 11
735.69804298993563
 21
332.5202519327554
  0
LINE
  8
_4-0_
  6
CONTINUOUS
 62
    7
 10
755.98382367086901
 20
332.52025193275472
 11
760.59351389542303
 21
337.12994215730885
  0
LINE
  8
_4-0_
  6
CONTINUOUS
 62
    7
 10
752.39172122244099
 20
332.52025193275489
 11
757.00141144699501
 21
337.12994215730907
  0
LINE
  8
_4-0_
  6
CONTINUOUS
 62
    7
 10
748.79961877401297
 20
332.52025193275517
 11
753.40930899856721
 21
337.12994215730942
  0
LINE
  8
_4-0_
  6
CONTINUOUS
 62
    7
 10
745.20751632558495
 20
332.52025193275551
 11
749.81720655013919
 21
337.12994215730976
  0
LINE
  8
_4-0_
  6
CONTINUOUS
 62
    7
 10
741.61541387715693
 20
332.52025193275574
 11
746.22510410171117
 21
337.12994215730998
  0
LINE
  8
_4-0_
  6
CONTINUOUS
 62
    7
 10
738.02331142872754
 20
332.52025193275472
 11
742.63300165328315
 21
337.12994215731021
  0
LINE
  8
_4-0_
  6
CONTINUOUS
 62
    7
 10
735.69804298993586
 20
333.78708594239129
 11
739.04089920485376
 21
337.12994215730919
  0
LINE
  8
_4-0_
  6
CONTINUOUS
 62
    7
 10
735.69804298993563
 20
337.1299421573093
 11
775.69804298993563
 21
337.1299421573093
  0
LINE
  8
_4-0_
  6
CONTINUOUS
 62
    7
 10
775.69804298993563
 20
332.5202519327554
 11
735.69804298993563
 21
332.5202519327554
  0
LINE
  8
_4-0_
  6
CONTINUOUS
 62
    7
 10
759.57592611929454
 20
332.52025193275426
 11
763.9606851628962
 21
336.90501097635581
  0
LINE
  8
_4-0_
  6
CONTINUOUS
 62
    7
 10
770.66380044161747
 20
332.52025193275517
 11
775.27349066617171
 21
337.12994215730942
  0
LINE
  8
_4-0_
  6
CONTINUOUS
 62
    7
 10
767.07169799318967
 20
332.52025193275551
 11
771.68138821774369
 21
337.12994215730976
  0
LINE
  8
_4-0_
  6
CONTINUOUS
 62
    7
 10
763.47959554476165
 20
332.52025193275574
 11
768.08928576931567
 21
337.12994215730998
  0
LINE
  8
_4-0_
  6
CONTINUOUS
 62
    7
 10
775.69804298993563
 20
337.1299421573093
 11
775.69804298993563
 21
332.5202519327554
  0
LINE
  8
_4-0_
  6
CONTINUOUS
 62
    7
 10
774.25590289004549
 20
332.52025193275489
 11
775.63896426016527
 21
333.90331330287461
  0
LINE
  8
_4-0_
  6
CONTINUOUS
 62
    4
 10
735.69804298993563
 20
320.50730017930806
 11
775.69804298993563
 21
320.50730017930806
  0
LINE
  8
_4-0_
  6
CONTINUOUS
 62
    4
 10
735.69804298993563
 20
320.50730017930806
 11
741.4935979476702
 21
322.06021444992319
  0
LINE
  8
_4-0_
  6
CONTINUOUS
 62
    4
 10
735.69804298993563
 20
320.50730017930806
 11
741.4935979476702
 21
318.95438590869293
  0
LINE
  8
_4-0_
  6
CONTINUOUS
 62
    4
 10
775.69804298993563
 20
320.50730017930806
 11
769.90248803220129
 21
318.95438590869293
  0
LINE
  8
_4-0_
  6
CONTINUOUS
 62
    4
 10
775.69804298993563
 20
320.50730017930806
 11
769.90248803220129
 21
322.06021444992319
  0
LINE
  8
_4-0_
  6
CONTINUOUS
 62
    4
 10
735.69804298993563
 20
319.50730017930806
 11
735.69804298993563
 21
330.25521758763841
  0
LINE
  8
_4-0_
  6
CONTINUOUS
 62
    4
 10
775.69804298993563
 20
319.50730017930806
 11
775.69804298993563
 21
330.25521758763841
  0
TEXT
  8
_4-0_
 62
    7
 10
751.44804298993563
 20
321.50730017930806
 40
8
 41
1
 50
0
  1
20
  0
TEXT
  8
_4-0_
 62
    7
 10
719.02998230632784
 20
323.19930831351513
 40
8
 41
1
 50
90
  1
Φ2.3
  0
LINE
  8
_4-0_
  6
CONTINUOUS
 62
    4
 10
801.54695216215828
 20
275.07616680695276
 11
801.54695216215828
 21
288.88220913499504
  0
LINE
  8
_4-0_
  6
CONTINUOUS
 62
    4
 10
736.6197140669201
 20
275.07616680695276
 11
736.6197140669201
 21
288.88220913499504
  0
LINE
  8
_4-0_
  6
CONTINUOUS
 62
    4
 10
801.54695216215828
 20
276.34616680695274
 11
794.1865973658355
 21
278.31836793063394
  0
LINE
  8
_4-0_
  6
CONTINUOUS
 62
    4
 10
801.54695216215828
 20
276.34616680695274
 11
794.1865973658355
 21
274.37396568327148
  0
LINE
  8
_4-0_
  6
CONTINUOUS
 62
    4
 10
736.6197140669201
 20
276.34616680695274
 11
743.98006886324265
 21
274.37396568327148
  0
LINE
  8
_4-0_
  6
CONTINUOUS
 62
    4
 10
736.6197140669201
 20
276.34616680695274
 11
743.98006886324265
 21
278.31836793063394
  0
LINE
  8
_4-0_
  6
CONTINUOUS
 62
    4
 10
736.6197140669201
 20
276.34616680695274
 11
801.54695216215828
 21
276.34616680695274
  0
LINE
  8
_4-0_
  6
CONTINUOUS
 62
    7
 10
770.85139901134039
 20
293.33259376986655
 11
801.54695216215828
 21
293.33259376986655
  0
LINE
  8
_4-0_
  6
CONTINUOUS
 62
    7
 10
736.6197140669201
 20
293.33259376986655
 11
767.88938961575082
 21
293.33259376986655
  0
LINE
  8
_4-0_
  6
CONTINUOUS
 62
    7
 10
770.69642519776812
 20
297.90459376986655
 11
801.54695216215828
 21
297.90459376986655
  0
LINE
  8
_4-0_
  6
CONTINUOUS
 62
    7
 10
736.6197140669201
 20
297.90459376986655
 11
767.77099677706155
 21
297.90459376986655
  0
ARC
  8
_4-0_
  6
CONTINUOUS
 62
    7
 10
771.99409465578674
 20
295.75279405349767
 40
4.7397043908516867
 50
152.9997428828153
 51
209.99998474121088
  0
LINE
  8
_4-0_
  6
CONTINUOUS
 62
    7
 10
770.69642519776812
 20
297.90459376986655
 11
770.08909207445913
 21
296.85266518742719
  0
LINE
  8
_4-0_
  6
CONTINUOUS
 62
    7
 10
770.08909207445913
 20
294.65294514143164
 11
770.85139901134039
 21
293.33259376986655
  0
LINE
  8
_4-0_
  6
CONTINUOUS
 62
    7
 10
767.88938313939525
 20
293.38294342054661
 11
767.88938496173523
 21
293.38294026419499
  0
ARC
  8
_4-0_
  6
CONTINUOUS
 62
    7
 10
771.99409465578674
 20
295.75279405349767
 40
2.1997045948560632
 50
150
 51
209.99998474121094
  0
LINE
  8
_4-0_
  6
CONTINUOUS
 62
    7
 10
801.54695216215828
 20
297.90459376986655
 11
801.54695216215828
 21
293.33259376986655
  0
LINE
  8
_4-0_
  6
CONTINUOUS
 62
    7
 10
736.6197140669201
 20
297.90459376986655
 11
736.6197140669201
 21
293.33259376986655
  0
TEXT
  8
_4-0_
 62
    7
 10
718.38405849002311
 20
284.20046970412301
 40
8
 41
1
 50
90
  1
Φ2.1
  0
TEXT
  8
_4-0_
 62
    7
 10
740.97284431706021
 20
280.88390969052443
 40
6
 41
1
 50
0
  1
ピッチにより変動
  0
TEXT
  8
_4-0_
 62
    7
 10
737.92995890902193
 20
305.73414052283647
 40
6
 41
1
 50
0
  1
※1 マグネットスペーサー
  0
LINE
  8
_4-0_
  6
CONTINUOUS
 62
    4
 10
517.91076937677917
 20
274.34971056175044
 11
523.70632433451351
 21
275.90262483236558
  0
LINE
  8
_4-0_
  6
CONTINUOUS
 62
    4
 10
517.91076937677917
 20
274.34971056175044
 11
523.70632433451351
 21
272.79679629113531
  0
LINE
  8
_4-0_
  6
CONTINUOUS
 62
    4
 10
517.91076937677917
 20
273.34971056175044
 11
517.91076937677917
 21
284.6448689811167
  0
LINE
  8
_4-0_
  6
CONTINUOUS
 62
    4
 10
617.91076937677917
 20
274.34971056175044
 11
612.11521441904483
 21
272.79679629113531
  0
LINE
  8
_4-0_
  6
CONTINUOUS
 62
    4
 10
617.91076937677917
 20
274.34971056175044
 11
612.11521441904483
 21
275.90262483236558
  0
LINE
  8
_4-0_
  6
CONTINUOUS
 62
    4
 10
617.91076937677917
 20
273.34971056175044
 11
617.91076937677917
 21
284.42582305730048
  0
TEXT
  8
_4-0_
 62
    7
 10
560.65690467396394
 20
275.75605301908024
 40
8
 41
1
 50
0
  1
50
  0
LINE
  8
_4-0_
  6
CONTINUOUS
 62
    4
 10
517.91076937677917
 20
274.34971056175044
 11
618.40266423982985
 21
274.34971056175044
  0
TEXT
  8
_4-0_
 62
    7
 10
610.812712069697
 20
326.66474986889187
 40
6
 41
1
 50
0
  1
マグネット
  0
ARC
  8
_4-0_
  6
CONTINUOUS
 62
    2
 10
648.90772659117147
 20
310.12934130919678
 40
16.18982306077352
 50
315.60640298124792
 51
56.046281077863661
  0
ARC
  8
_4-0_
  6
CONTINUOUS
 62
    2
 10
668.84060828423412
 20
290.61398465505624
 40
11.705856137409377
 50
135.60640298124798
 51
234.19178192632754
  0
ARC
  8
_4-0_
  6
CONTINUOUS
 62
    2
 10
646.20980187811801
 20
310.12934130919678
 40
14.68982306077352
 50
315.60640298124792
 51
56.046281077863661
  0
ARC
  8
_4-0_
  6
CONTINUOUS
 62
    2
 10
666.14268357118044
 20
290.61398465505624
 40
13.205856137409377
 50
135.60640298124798
 51
234.19178192632754
  0
TEXT
  8
_4-0_
 62
    7
 10
477.60326402796574
 20
273.74403943321744
 40
6
 41
1
 50
0
  1
マグネット
  0
LINE
  8
_4-0_
  6
CONTINUOUS
 62
    4
 10
517.91076937677917
 20
207.13631187239369
 11
523.70632433451351
 21
208.68922614300882
  0
LINE
  8
_4-0_
  6
CONTINUOUS
 62
    4
 10
517.91076937677917
 20
207.13631187239369
 11
523.70632433451351
 21
205.58339760177856
  0
LINE
  8
_4-0_
  6
CONTINUOUS
 62
    4
 10
517.91076937677917
 20
206.13631187239369
 11
517.91076937677917
 21
217.43147029175995
  0
LINE
  8
_4-0_
  6
CONTINUOUS
 62
    4
 10
717.91076937677917
 20
206.13631187239369
 11
717.91076937677917
 21
217.43147029175995
  0
LINE
  8
_4-0_
  6
CONTINUOUS
 62
    4
 10
517.91076937677917
 20
207.13631187239369
 11
717.15598741707208
 21
207.13631187239369
  0
LINE
  8
_4-0_
  6
CONTINUOUS
 62
    4
 10
717.97396428231718
 20
207.13631187239369
 11
712.17840932458284
 21
205.58339760177856
  0
LINE
  8
_4-0_
  6
CONTINUOUS
 62
    4
 10
717.97396428231718
 20
207.13631187239369
 11
712.17840932458284
 21
208.68922614300882
  0
TEXT
  8
_4-0_
 62
    7
 10
605.85410062461938
 20
208.54265432972349
 40
8
 41
1
 50
0
  1
100
  0
TEXT
  8
_4-0_
 62
    7
 10
705.2461983901137
 20
259.4513511795351
 40
6
 41
1
 50
0
  1
マグネット
  0
TEXT
  8
_4-0_
 62
    7
 10
477.60326402796574
 20
206.4724724606011
 40
6
 41
1
 50
0
  1
マグネット
  0
TEXT
  8
_4-0_
 62
    7
 10
439.88569083740441
 20
256.35120804576104
 40
8
 41
1
 50
0
  1
・100mmピッチ
  0
TEXT
  8
_4-0_
 62
    7
 10
439.88569083740441
 20
324.58323525328575
 40
8
 41
1
 50
0
  1
・50mmピッチ
  0
TEXT
  8
_4-0_
 62
    7
 10
575.77657885786471
 20
327.22788747063169
 40
6
 41
1
 50
0
  1
※1
  0
TEXT
  8
_4-0_
 62
    7
 10
431.86878230878528
 20
336.8465267831287
 40
10
 41
1
 50
0
  1
オプション品：マグネット
  0
LINE
  8
_4-0_
  6
CONTINUOUS
 62
    7
 10
457.8504294912122
 20
318.87861081153244
 11
453.91076937677911
 21
318.87861081153244
  0
LINE
  8
_4-0_
  6
CONTINUOUS
 62
    7
 10
453.91076937677911
 20
318.87861081153244
 11
453.91076937677911
 21
286.27861081153242
  0
LINE
  8
_4-0_
  6
CONTINUOUS
 62
    7
 10
457.8504294912122
 20
286.27861081153242
 11
453.91076937677911
 21
286.27861081153242
  0
LINE
  8
_4-0_
  6
CONTINUOUS
 62
    7
 10
457.91076937677911
 20
319.27861081153242
 11
457.91076937677911
 21
285.87861081153244
  0
LINE
  8
_4-0_
  6
CONTINUOUS
 62
    7
 10
497.91076937677911
 20
291.79370044155121
 11
497.91076937677911
 21
288.15697118124399
  0
LINE
  8
_4-0_
  6
CONTINUOUS
 62
    7
 10
537.91076937677917
 20
291.85068254432662
 11
537.91076937677917
 21
288.29020624584098
  0
LINE
  8
_4-0_
  6
CONTINUOUS
 62
    7
 10
497.96526986693397
 20
288.7474529118756
 11
500.93888824624509
 21
291.72107129118672
  0
LINE
  8
_4-0_
  6
CONTINUOUS
 62
    7
 10
500.17057320073167
 20
288.12432912092675
 11
503.80614542939026
 21
291.75990134958522
  0
LINE
  8
_4-0_
  6
CONTINUOUS
 62
    7
 10
505.84315640845676
 20
288.14005807915828
 11
509.45518664151763
 21
291.7520883122192
  0
LINE
  8
_4-0_
  6
CONTINUOUS
 62
    7
 10
503.01628253996836
 20
288.14161133541666
 11
506.55943840698473
 21
291.68476720243302
  0
LINE
  8
_4-0_
  6
CONTINUOUS
 62
    7
 10
508.63717792547624
 20
288.1056524714312
 11
512.29395277327512
 21
291.76242731923008
  0
LINE
  8
_4-0_
  6
CONTINUOUS
 62
    7
 10
511.51541917513515
 20
288.15546659634333
 11
515.04724575086971
 21
291.68729317207794
  0
LINE
  8
_4-0_
  6
CONTINUOUS
 62
    7
 10
514.42027911001719
 20
288.23189940647887
 11
517.91450293401476
 21
291.72612323047645
  0
LINE
  8
_4-0_
  6
CONTINUOUS
 62
    7
 10
517.33434289924935
 20
288.31753607096607
 11
520.69240272565526
 21
291.67559589737186
  0
LINE
  8
_4-0_
  6
CONTINUOUS
 62
    7
 10
520.0573995751447
 20
288.21132152348298
 11
523.56396619545717
 21
291.71788814379545
  0
LINE
  8
_4-0_
  6
CONTINUOUS
 62
    7
 10
522.79883429733513
 20
288.12432912092675
 11
526.31725917305175
 21
291.64275399664325
  0
LINE
  8
_4-0_
  6
CONTINUOUS
 62
    7
 10
525.64454363657183
 20
288.14161133541666
 11
529.15602530480919
 21
291.65309300365413
  0
LINE
  8
_4-0_
  6
CONTINUOUS
 62
    7
 10
528.47141750506012
 20
288.14005807915828
 11
531.99479143656686
 21
291.66343201066496
  0
LINE
  8
_4-0_
  6
CONTINUOUS
 62
    7
 10
531.26543902207982
 20
288.1056524714312
 11
534.91903072248738
 21
291.75924417183887
  0
LINE
  8
_4-0_
  6
CONTINUOUS
 62
    7
 10
534.1436802717385
 20
288.15546659634333
 11
537.70081475146958
 21
291.71260107607435
  0
LINE
  8
_4-0_
  6
CONTINUOUS
 62
    7
 10
537.04854020662083
 20
288.23189940647887
 11
537.94689520694783
 21
289.13025440680599
  0
LINE
  8
_4-0_
  6
CONTINUOUS
 62
    7
 10
497.92427761815412
 20
290.77727070317599
 11
498.99176958179913
 21
291.84476266682083
  0
LINE
  8
_4-0_
  6
CONTINUOUS
 62
    7
 10
500.48125700654481
 20
288.95875335278674
 11
492.2265968811991
 21
281.39198157121984
  0
LINE
  8
_4-0_
  6
CONTINUOUS
 62
    7
 10
637.91076937677917
 20
316.77676177147509
 11
637.91076937677917
 21
313.50713221343528
  0
LINE
  8
_4-0_
  6
CONTINUOUS
 62
    7
 10
600.17057320073172
 20
313.341255088521
 11
603.57581094958437
 21
316.74649283737364
  0
LINE
  8
_4-0_
  6
CONTINUOUS
 62
    7
 10
603.01628253996842
 20
313.35853730301091
 11
606.40423807433081
 21
316.74649283737341
  0
LINE
  8
_4-0_
  6
CONTINUOUS
 62
    7
 10
605.84315640845671
 20
313.35698404675259
 11
609.23266519907725
 21
316.74649283737318
  0
LINE
  8
_4-0_
  6
CONTINUOUS
 62
    7
 10
597.96526986693402
 20
313.9643788794699
 11
600.74738382483679
 21
316.74649283737278
  0
LINE
  8
_4-0_
  6
CONTINUOUS
 62
    7
 10
597.91076937677917
 20
316.77676177147509
 11
597.91076937677917
 21
313.3738971488383
  0
LINE
  8
_4-0_
  6
CONTINUOUS
 62
    7
 10
608.63717792547618
 20
313.32257843902551
 11
612.06109232382369
 21
316.74649283737295
  0
LINE
  8
_4-0_
  6
CONTINUOUS
 62
    7
 10
611.51541917513509
 20
313.37239256393764
 11
614.88951944857013
 21
316.74649283737273
  0
LINE
  8
_4-0_
  6
CONTINUOUS
 62
    7
 10
614.42027911001719
 20
313.44882537407318
 11
617.71794657331657
 21
316.74649283737256
  0
LINE
  8
_4-0_
  6
CONTINUOUS
 62
    7
 10
617.09888022049995
 20
313.29899935981086
 11
620.69240272565503
 21
316.89252186496617
  0
LINE
  8
_4-0_
  6
CONTINUOUS
 62
    7
 10
622.79883429733513
 20
313.341255088521
 11
626.20407204618778
 21
316.74649283737364
  0
LINE
  8
_4-0_
  6
CONTINUOUS
 62
    7
 10
625.64454363657183
 20
313.35853730301091
 11
629.03249917093422
 21
316.74649283737341
  0
LINE
  8
_4-0_
  6
CONTINUOUS
 62
    7
 10
628.47141750506012
 20
313.35698404675259
 11
631.86092629568066
 21
316.74649283737318
  0
LINE
  8
_4-0_
  6
CONTINUOUS
 62
    7
 10
631.26543902207982
 20
313.32257843902551
 11
634.6893534204271
 21
316.74649283737295
  0
LINE
  8
_4-0_
  6
CONTINUOUS
 62
    7
 10
634.1436802717385
 20
313.37239256393764
 11
637.51778054517354
 21
316.74649283737273
  0
LINE
  8
_4-0_
  6
CONTINUOUS
 62
    7
 10
620.0573995751447
 20
313.42824749107723
 11
623.3756449214402
 21
316.74649283737278
  0
LINE
  8
_4-0_
  6
CONTINUOUS
 62
    7
 10
637.04854020662083
 20
313.44882537407318
 11
637.83260209234163
 21
314.23288725979415
  0
LINE
  8
_4-0_
  6
CONTINUOUS
 62
    7
 10
597.92427761815406
 20
315.99419667077024
 11
598.7083395038751
 21
316.77825855649121
  0
LINE
  8
_4-0_
  6
CONTINUOUS
 62
    7
 10
625.76265816236219
 20
324.86059883294911
 11
618.35473620844334
 21
315.52085799821231
  0
LINE
  8
_4-0_
  6
CONTINUOUS
 62
    7
 10
578.75777020389842
 20
324.67935788340674
 11
551.67428317292161
 21
290.53310859193454
  0
LINE
  8
_4-0_
  6
CONTINUOUS
 62
    7
 10
653.52049787612373
 20
285.87861081153244
 11
457.91076937677911
 21
285.87861081153244
  0
LINE
  8
_4-0_
  6
CONTINUOUS
 62
    7
 10
653.14086733181864
 20
288.27861081153247
 11
457.91076937677911
 21
288.27861081153247
  0
LINE
  8
_4-0_
  6
CONTINUOUS
 62
    7
 10
652.50814975797687
 20
291.87861081153244
 11
457.91076937677911
 21
291.87861081153244
  0
LINE
  8
_4-0_
  6
CONTINUOUS
 62
    7
 10
660.35384767361461
 20
313.27861081153242
 11
457.91076937677911
 21
313.27861081153242
  0
LINE
  8
_4-0_
  6
CONTINUOUS
 62
    7
 10
659.08841252593106
 20
316.87861081153244
 11
457.91076937677911
 21
316.87861081153244
  0
LINE
  8
_4-0_
  6
CONTINUOUS
 62
    7
 10
657.82297737824751
 20
319.27861081153242
 11
457.91076937677911
 21
319.27861081153242
  0
LINE
  8
_4-0_
  6
CONTINUOUS
 62
    7
 10
698.31690210411932
 20
319.27861081153242
 11
662.6316309394449
 21
319.27861081153242
  0
LINE
  8
_4-0_
  6
CONTINUOUS
 62
    7
 10
698.06381507458264
 20
316.87861081153244
 11
663.77052257236005
 21
316.87861081153244
  0
LINE
  8
_4-0_
  6
CONTINUOUS
 62
    7
 10
697.81072804504595
 20
313.27861081153242
 11
665.03595772004348
 21
313.27861081153242
  0
LINE
  8
_4-0_
  6
CONTINUOUS
 62
    7
 10
697.55764101550926
 20
291.87861081153244
 11
657.56989034871083
 21
291.87861081153244
  0
LINE
  8
_4-0_
  6
CONTINUOUS
 62
    7
 10
697.30455398597257
 20
288.27861081153247
 11
657.56989034871083
 21
288.27861081153247
  0
LINE
  8
_4-0_
  6
CONTINUOUS
 62
    7
 10
697.81072804504595
 20
285.87861081153244
 11
658.329151437321
 21
285.87861081153244
  0
LINE
  8
_4-0_
  6
CONTINUOUS
 62
    7
 10
457.8504294912122
 20
252.30899679910658
 11
453.91076937677911
 21
252.30899679910658
  0
LINE
  8
_4-0_
  6
CONTINUOUS
 62
    7
 10
453.91076937677911
 20
252.30899679910658
 11
453.91076937677911
 21
219.70899679910656
  0
LINE
  8
_4-0_
  6
CONTINUOUS
 62
    7
 10
457.8504294912122
 20
219.70899679910656
 11
453.91076937677911
 21
219.70899679910656
  0
LINE
  8
_4-0_
  6
CONTINUOUS
 62
    7
 10
457.91076937677911
 20
252.70899679910656
 11
457.91076937677911
 21
219.30899679910658
  0
LINE
  8
_4-0_
  6
CONTINUOUS
 62
    7
 10
497.91076937677911
 20
225.22408642912535
 11
497.91076937677911
 21
221.58735716881813
  0
LINE
  8
_4-0_
  6
CONTINUOUS
 62
    7
 10
537.91076937677917
 20
225.28106853190076
 11
537.91076937677917
 21
221.72059223341512
  0
LINE
  8
_4-0_
  6
CONTINUOUS
 62
    7
 10
497.96526986693397
 20
222.17783889944974
 11
500.93888824624509
 21
225.15145727876086
  0
LINE
  8
_4-0_
  6
CONTINUOUS
 62
    7
 10
500.17057320073167
 20
221.55471510850089
 11
503.80614542939026
 21
225.19028733715936
  0
LINE
  8
_4-0_
  6
CONTINUOUS
 62
    7
 10
505.84315640845676
 20
221.57044406673242
 11
509.45518664151763
 21
225.18247429979334
  0
LINE
  8
_4-0_
  6
CONTINUOUS
 62
    7
 10
503.01628253996836
 20
221.5719973229908
 11
506.55943840698473
 21
225.11515319000716
  0
LINE
  8
_4-0_
  6
CONTINUOUS
 62
    7
 10
508.63717792547624
 20
221.53603845900534
 11
512.29395277327512
 21
225.19281330680423
  0
LINE
  8
_4-0_
  6
CONTINUOUS
 62
    7
 10
511.51541917513515
 20
221.58585258391747
 11
515.04724575086971
 21
225.11767915965208
  0
LINE
  8
_4-0_
  6
CONTINUOUS
 62
    7
 10
514.42027911001719
 20
221.66228539405301
 11
517.91450293401476
 21
225.15650921805059
  0
LINE
  8
_4-0_
  6
CONTINUOUS
 62
    7
 10
517.33434289924935
 20
221.74792205854021
 11
520.69240272565526
 21
225.105981884946
  0
LINE
  8
_4-0_
  6
CONTINUOUS
 62
    7
 10
520.0573995751447
 20
221.64170751105712
 11
523.56396619545717
 21
225.14827413136959
  0
LINE
  8
_4-0_
  6
CONTINUOUS
 62
    7
 10
522.79883429733513
 20
221.55471510850089
 11
526.31725917305175
 21
225.07313998421739
  0
LINE
  8
_4-0_
  6
CONTINUOUS
 62
    7
 10
525.64454363657183
 20
221.5719973229908
 11
529.15602530480919
 21
225.08347899122828
  0
LINE
  8
_4-0_
  6
CONTINUOUS
 62
    7
 10
528.47141750506012
 20
221.57044406673242
 11
531.99479143656686
 21
225.0938179982391
  0
LINE
  8
_4-0_
  6
CONTINUOUS
 62
    7
 10
531.26543902207982
 20
221.53603845900534
 11
534.91903072248738
 21
225.18963015941301
  0
LINE
  8
_4-0_
  6
CONTINUOUS
 62
    7
 10
534.1436802717385
 20
221.58585258391747
 11
537.70081475146958
 21
225.14298706364849
  0
LINE
  8
_4-0_
  6
CONTINUOUS
 62
    7
 10
537.04854020662083
 20
221.66228539405301
 11
537.94689520694783
 21
222.56064039438013
  0
LINE
  8
_4-0_
  6
CONTINUOUS
 62
    7
 10
497.92427761815412
 20
224.20765669075013
 11
498.99176958179913
 21
225.27514865439497
  0
LINE
  8
_4-0_
  6
CONTINUOUS
 62
    7
 10
500.48125700654481
 20
222.38913934036088
 11
492.2265968811991
 21
214.82236755879399
  0
ARC
  8
_4-0_
  6
CONTINUOUS
 62
    2
 10
753.11659057371924
 20
243.55972729677092
 40
16.18982306077352
 50
315.60640298124792
 51
56.046281077863661
  0
ARC
  8
_4-0_
  6
CONTINUOUS
 62
    2
 10
773.04947226678178
 20
224.04437064263038
 40
11.705856137409377
 50
135.60640298124798
 51
234.19178192632754
  0
ARC
  8
_4-0_
  6
CONTINUOUS
 62
    2
 10
750.41866586066578
 20
243.55972729677092
 40
14.68982306077352
 50
315.60640298124792
 51
56.046281077863661
  0
ARC
  8
_4-0_
  6
CONTINUOUS
 62
    2
 10
770.35154755372821
 20
224.04437064263038
 40
13.205856137409377
 50
135.60640298124798
 51
234.19178192632754
  0
LINE
  8
_4-0_
  6
CONTINUOUS
 62
    7
 10
802.64309698373859
 20
252.70899679910656
 11
766.95782581906406
 21
252.70899679910656
  0
LINE
  8
_4-0_
  6
CONTINUOUS
 62
    7
 10
802.39000995420179
 20
250.30899679910658
 11
768.0967174519792
 21
250.30899679910658
  0
LINE
  8
_4-0_
  6
CONTINUOUS
 62
    7
 10
802.13692292466521
 20
246.70899679910656
 11
769.36215259966275
 21
246.70899679910656
  0
LINE
  8
_4-0_
  6
CONTINUOUS
 62
    7
 10
801.88383589512841
 20
225.30899679910658
 11
761.89608522833009
 21
225.30899679910658
  0
LINE
  8
_4-0_
  6
CONTINUOUS
 62
    7
 10
801.63074886559184
 20
221.70899679910661
 11
761.89608522833009
 21
221.70899679910661
  0
LINE
  8
_4-0_
  6
CONTINUOUS
 62
    7
 10
802.13692292466521
 20
219.30899679910658
 11
762.65534631694015
 21
219.30899679910658
  0
LINE
  8
_4-0_
  6
CONTINUOUS
 62
    7
 10
761.41238120178411
 20
252.70899679910656
 11
457.91076937677911
 21
252.70899679910656
  0
LINE
  8
_4-0_
  6
CONTINUOUS
 62
    7
 10
763.62284159554463
 20
250.30899679910658
 11
457.91076937677911
 21
250.30899679910658
  0
LINE
  8
_4-0_
  6
CONTINUOUS
 62
    7
 10
764.06493367429675
 20
246.70899679910656
 11
457.91076937677911
 21
246.70899679910656
  0
LINE
  8
_4-0_
  6
CONTINUOUS
 62
    7
 10
757.21250645363909
 20
225.30899679910658
 11
457.91076937677911
 21
225.30899679910658
  0
LINE
  8
_4-0_
  6
CONTINUOUS
 62
    7
 10
757.65459853239122
 20
221.70899679910661
 11
457.91076937677911
 21
221.70899679910661
  0
LINE
  8
_4-0_
  6
CONTINUOUS
 62
    7
 10
757.65459853239122
 20
219.30899679910658
 11
457.91076937677911
 21
219.30899679910658
  0
LINE
  8
_4-0_
  6
CONTINUOUS
 62
    7
 10
697.91076937677917
 20
250.33780177466593
 11
697.91076937677917
 21
246.70107251435871
  0
LINE
  8
_4-0_
  6
CONTINUOUS
 62
    7
 10
737.91076937677917
 20
250.39478387744134
 11
737.91076937677917
 21
246.8343075789557
  0
LINE
  8
_4-0_
  6
CONTINUOUS
 62
    7
 10
697.96526986693402
 20
247.29155424499032
 11
700.93888824624514
 21
250.26517262430144
  0
LINE
  8
_4-0_
  6
CONTINUOUS
 62
    7
 10
700.17057320073172
 20
246.66843045404147
 11
703.8061454293902
 21
250.30400268269995
  0
LINE
  8
_4-0_
  6
CONTINUOUS
 62
    7
 10
705.84315640845671
 20
246.684159412273
 11
709.45518664151768
 21
250.29618964533393
  0
LINE
  8
_4-0_
  6
CONTINUOUS
 62
    7
 10
703.01628253996842
 20
246.68571266853138
 11
706.55943840698478
 21
250.22886853554775
  0
LINE
  8
_4-0_
  6
CONTINUOUS
 62
    7
 10
708.63717792547618
 20
246.64975380454592
 11
712.29395277327512
 21
250.30652865234481
  0
LINE
  8
_4-0_
  6
CONTINUOUS
 62
    7
 10
711.51541917513509
 20
246.69956792945806
 11
715.04724575086971
 21
250.23139450519267
  0
LINE
  8
_4-0_
  6
CONTINUOUS
 62
    7
 10
714.42027911001719
 20
246.7760007395936
 11
717.91450293401476
 21
250.27022456359117
  0
LINE
  8
_4-0_
  6
CONTINUOUS
 62
    7
 10
717.33434289924935
 20
246.8616374040808
 11
720.69240272565526
 21
250.21969723048659
  0
LINE
  8
_4-0_
  6
CONTINUOUS
 62
    7
 10
720.0573995751447
 20
246.7554228565977
 11
723.56396619545717
 21
250.26198947691017
  0
LINE
  8
_4-0_
  6
CONTINUOUS
 62
    7
 10
722.79883429733513
 20
246.66843045404147
 11
726.31725917305175
 21
250.18685532975798
  0
LINE
  8
_4-0_
  6
CONTINUOUS
 62
    7
 10
725.64454363657183
 20
246.68571266853138
 11
729.15602530480919
 21
250.19719433676886
  0
LINE
  8
_4-0_
  6
CONTINUOUS
 62
    7
 10
728.47141750506012
 20
246.684159412273
 11
731.99479143656686
 21
250.20753334377969
  0
LINE
  8
_4-0_
  6
CONTINUOUS
 62
    7
 10
731.26543902207982
 20
246.64975380454592
 11
734.91903072248738
 21
250.3033455049536
  0
LINE
  8
_4-0_
  6
CONTINUOUS
 62
    7
 10
734.1436802717385
 20
246.69956792945806
 11
737.70081475146958
 21
250.25670240918907
  0
LINE
  8
_4-0_
  6
CONTINUOUS
 62
    7
 10
737.04854020662083
 20
246.7760007395936
 11
737.94689520694783
 21
247.67435573992071
  0
LINE
  8
_4-0_
  6
CONTINUOUS
 62
    7
 10
697.92427761815406
 20
249.32137203629071
 11
698.99176958179919
 21
250.38886399993555
  0
LINE
  8
_4-0_
  6
CONTINUOUS
 62
    7
 10
720.19614448277889
 20
257.64720014359233
 11
713.88122279049878
 21
249.68548937444015
  0
LINE
  8
_4-0_
  6
CONTINUOUS
 62
    7
 10
636.43314785205803
 20
258.10974387098088
 11
609.34966082108122
 21
223.96349457950868
  0
TEXT
  8
_4-0_
 62
    7
 10
633.17700423796362
 20
259.37669389028042
 40
6
 41
1
 50
0
  1
※1
  0
TEXT
  8
_0-0_1
 62
    7
 10
63.037579667993896
 20
337.84396591312247
 40
10.000000000000021
 41
0.9999999999999973
 50
0
  1
◆付属品/オプション品
  0
TEXT
  8
_4-0_
 62
    7
 10
177.71510421811718
 20
338.6389207161576
 40
8
 41
1
 50
0
  1
S = 1 : 1
  0
TEXT
  8
_1-0_
 62
    7
 10
487.49568277635444
 20
90.780400198783582
 40
10
 41
1
 50
0
  1
[A]
  0
TEXT
  8
_1-0_
 62
    7
 10
431.51585763330098
 20
90.493298795830924
 40
9.9999999999999716
 41
1.0000000000000029
 50
0
  1
[W]
  0
TEXT
  8
_1-0_
 62
    7
 10
360.4023280392127
 20
66.775279693998357
 40
10.000000000000057
 41
0.9999999999999943
 50
0
  1
80以上
  0
TEXT
  8
_1-0_
 62
    7
 10
227.20294565120986
 20
91.434754341897815
 40
8
 41
0.9999999999999994
 50
0
  1
[mm]
  0
TEXT
  8
_1-0_
 62
    7
 10
339.10555692136285
 20
91.803549468290953
 40
9.9999999999999716
 41
1.0000000000000029
 50
0
  1
個
  0
TEXT
  8
_1-0_
 62
    7
 10
339.43148284728875
 20
76.15910502384645
 40
9.9999999999999716
 41
1.0000000000000029
 50
0
  1
個
  0
TEXT
  8
_1-0_
 62
    7
 10
339.43148284728875
 20
60.514660579402062
 40
9.9999999999999716
 41
1.0000000000000029
 50
0
  1
個
  0
TEXT
  8
_1-0_
 62
    7
 10
339.86605074852332
 20
43.970039768114589
 40
9.9999999999999716
 41
1.0000000000000029
 50
0
  1
個
  0
TEXT
  8
_1-0_
 62
    7
 10
431.66615652313868
 20
73.960420913678831
 40
10
 41
1.0000000000000002
 50
0
  1
[W]
  0
TEXT
  8
_1-0_
 62
    7
 10
431.57848217073337
 20
58.241662018148077
 40
10
 41
1
 50
0
  1
[W]
  0
TEXT
  8
_1-0_
 62
    7
 10
431.90412976538181
 20
42.460278585184824
 40
10
 41
1.0000000000000002
 50
0
  1
[W]
  0
TEXT
  8
_1-0_
 62
    7
 10
487.49568277635444
 20
75.517989839674897
 40
10
 41
1
 50
0
  1
[A]
  0
TEXT
  8
_1-0_
 62
    7
 10
487.49568277635444
 20
59.873545395230394
 40
10
 41
1
 50
0
  1
[A]
  0
TEXT
  8
_1-0_
 62
    7
 10
487.49568277635444
 20
44.229100950786005
 40
10
 41
1
 50
0
  1
[A]
  0
TEXT
  8
_1-0_
 62
    7
 10
287.25889174787437
 20
90.931133369554914
 40
11.200000000000017
 41
0.9999999999999965
 50
0
  1
ｇ
  0
TEXT
  8
_1-0_
 62
    7
 10
287.25889174787437
 20
74.727958766380311
 40
11.200000000000017
 41
0.9999999999999965
 50
0
  1
ｇ
  0
TEXT
  8
_1-0_
 62
    7
 10
287.25889174787437
 20
59.083514321935809
 40
11.200000000000017
 41
0.9999999999999965
 50
0
  1
ｇ
  0
TEXT
  8
_1-0_
 62
    7
 10
287.25889174787437
 20
43.159704798126313
 40
11.200000000000017
 41
0.9999999999999965
 50
0
  1
ｇ
  0
TEXT
  8
_1-0_
 62
    7
 10
205.17243855461436
 20
91.610009037017733
 40
10
 41
1
 50
0
  1
505
  0
TEXT
  8
_1-0_
 62
    7
 10
318.79073688142103
 20
91.529627429815719
 40
10
 41
1
 50
0
  1
108
  0
TEXT
  8
_1-0_
 62
    7
 10
318.79073688142103
 20
76.002627083368111
 40
10
 41
1
 50
0
  1
216
  0
TEXT
  8
_1-0_
 62
    7
 10
318.79073688142103
 20
60.407933979417066
 40
10
 41
1
 50
0
  1
324
  0
TEXT
  8
_1-0_
 62
    7
 10
318.79073688142103
 20
44.163461996134799
 40
10
 41
1
 50
0
  1
432
  0
TEXT
  8
_1-0_
 62
    7
 10
407.14185625814827
 20
76.002627083368054
 40
10
 41
1
 50
0
  1
15.5
  0
TEXT
  8
_1-0_
 62
    7
 10
407.14185625814827
 20
60.407933979417066
 40
10
 41
1
 50
0
  1
23.2
  0
TEXT
  8
_1-0_
 62
    7
 10
407.14185625814827
 20
44.163461996134743
 40
10
 41
1
 50
0
  1
31.0
  0
TEXT
  8
_1-0_
 62
    7
 10
412.01519785313297
 20
91.529627429815719
 40
10
 41
1
 50
0
  1
7.7
  0
TEXT
  8
_1-0_
 62
    7
 10
463.19217032239476
 20
91.529627429815719
 40
10
 41
1
 50
0
  1
0.32
  0
TEXT
  8
_1-0_
 62
    7
 10
463.19217032239476
 20
76.002627083368054
 40
10
 41
1
 50
0
  1
0.65
  0
TEXT
  8
_1-0_
 62
    7
 10
463.19217032239476
 20
60.407933979417066
 40
10
 41
1
 50
0
  1
0.97
  0
TEXT
  8
_1-0_
 62
    7
 10
463.19217032239476
 20
44.163461996134743
 40
10
 41
1
 50
0
  1
1.30
  0
TEXT
  8
_1-0_
 62
    7
 10
227.20294565120986
 20
75.235217808590846
 40
8
 41
0.9999999999999994
 50
0
  1
[mm]
  0
TEXT
  8
_1-0_
 62
    7
 10
227.20294565120986
 20
59.223805015217636
 40
8
 41
0.9999999999999994
 50
0
  1
[mm]
  0
TEXT
  8
_1-0_
 62
    7
 10
227.20294565120986
 20
42.791039253597773
 40
8
 41
0.9999999999999994
 50
0
  1
[mm]
  0
TEXT
  8
_1-0_
 62
    7
 10
201.00551603206043
 20
75.410472503710764
 40
10
 41
1
 50
0
  1
1000
  0
TEXT
  8
_1-0_
 62
    7
 10
201.00551603206043
 20
59.399059710337553
 40
10
 41
1
 50
0
  1
1495
  0
TEXT
  8
_1-0_
 62
    7
 10
201.00551603206043
 20
42.966293948717635
 40
10
 41
1
 50
0
  1
1990
  0
TEXT
  8
_1-0_
 62
    7
 10
80.48273646464213
 20
91.610009037017733
 40
10
 41
1
 50
0
  1
LXSW-FGO-505-N
  0
TEXT
  8
_1-0_
 62
    7
 10
80.48273646464213
 20
75.410472503710764
 40
10
 41
1
 50
0
  1
LXSW-FGO-1000-N
  0
TEXT
  8
_1-0_
 62
    7
 10
80.48273646464213
 20
59.399059710337553
 40
10
 41
1
 50
0
  1
LXSW-FGO-1495-N
  0
TEXT
  8
_1-0_
 62
    7
 10
80.48273646464213
 20
42.966293948717635
 40
10
 41
1
 50
0
  1
LXSW-FGO-1990-N
  0
TEXT
  8
_1-0_
 62
    7
 10
522.56175859733412
 20
91.529627429815719
 40
10
 41
1
 50
0
  1
733
  0
TEXT
  8
_1-0_
 62
    7
 10
518.3452758632651
 20
76.002627083368054
 40
10
 41
1
 50
0
  1
1465
  0
TEXT
  8
_1-0_
 62
    7
 10
518.3452758632651
 20
60.407933979417066
 40
10
 41
1
 50
0
  1
2198
  0
TEXT
  8
_1-0_
 62
    7
 10
518.3452758632651
 20
44.163461996134743
 40
10
 41
1
 50
0
  1
2930
  0
TEXT
  8
_1-0_
 62
    7
 10
540.17829697091577
 20
90.65102120162328
 40
9.9999999999999716
 41
1.0000000000000029
 50
0
  1
[lm]
  0
TEXT
  8
_1-0_
 62
    7
 10
540.17829697091577
 20
74.546921808581715
 40
10
 41
1.0000000000000007
 50
0
  1
[lm]
  0
TEXT
  8
_1-0_
 62
    7
 10
540.17829697091577
 20
58.109634152235799
 40
10
 41
1.0000000000000007
 50
0
  1
[lm]
  0
TEXT
  8
_1-0_
 62
    7
 10
540.17829697091577
 20
42.560848531368038
 40
10
 41
1
 50
0
  1
[lm]
  0
TEXT
  8
_1-0_
 62
    7
 10
270.23879668918181
 20
91.610009037017733
 40
10
 41
1
 50
0
  1
78
  0
TEXT
  8
_1-0_
 62
    7
 10
265.65507884844334
 20
75.410472503710764
 40
10
 41
1
 50
0
  1
154
  0
TEXT
  8
_1-0_
 62
    7
 10
265.65507884844334
 20
59.399059710337553
 40
10
 41
1
 50
0
  1
229
  0
TEXT
  8
_1-0_
 62
    7
 10
265.65507884844334
 20
42.966293948717635
 40
10
 41
1
 50
0
  1
303
  0
TEXT
  8
_1-0_
 62
    7
 10
640.18319697500453
 20
62.876209379397096
 40
8
 41
1
 50
0
  1
森田
  0
TEXT
  8
_1-0_
 62
    7
 10
670.11698123986753
 20
62.457555054014392
 40
8
 41
1
 50
0
  1
森田
  0
TEXT
  8
_1-0_
 62
    7
 10
79.054254654504518
 20
158.16807458951433
 40
16
 41
1
 50
0
  1
LXSW-FGO-1000-N K CR
  0
LINE
  8
_1-0_
  6
CONTINUOUS
 62
    7
 10
78.44120994309668
 20
155.84581865425511
 11
111.80163759344958
 21
155.84581865425511
  0
TEXT
  8
_1-0_
 62
    7
 10
91.746244215023125
 20
145.97491918335561
 40
8
 41
1
 50
0
  1
①
  0
TEXT
  8
_1-0_
 62
    7
 10
131.38130159860305
 20
146.81301442145084
 40
8
 41
1
 50
0
  1
②
  0
LINE
  8
_1-0_
  6
CONTINUOUS
 62
    7
 10
120.20669842399991
 20
155.84581865425511
 11
145.81730153079388
 21
155.84581865425511
  0
TEXT
  8
_1-0_
 62
    7
 10
168.21345674617299
 20
146.81301442145084
 40
8
 41
1
 50
0
  1
③
  0
LINE
  8
_1-0_
  6
CONTINUOUS
 62
    7
 10
156.63997468454568
 20
155.84581865425511
 11
187.72459950160197
 21
155.84581865425511
  0
TEXT
  8
_1-0_
 62
    7
 10
197.87299929742076
 20
146.71989272832917
 40
8
 41
1
 50
0
  1
④
  0
LINE
  8
_1-0_
  6
CONTINUOUS
 62
    7
 10
196.56929559371707
 20
155.84581865425511
 11
207.18516860959008
 21
155.84581865425511
  0
TEXT
  8
_1-0_
 62
    7
 10
215.53786412155938
 20
146.81301442145084
 40
8
 41
1
 50
0
  1
⑤
  0
LINE
  8
_1-0_
  6
CONTINUOUS
 62
    7
 10
214.14103872473396
 20
155.84581865425511
 11
225.03627681997204
 21
155.84581865425511
  0
TEXT
  8
_1-0_
 62
    7
 10
236.67051672534046
 20
147.27862288705933
 40
8
 41
1
 50
0
  1
⑥
  0
LINE
  8
_1-0_
  6
CONTINUOUS
 62
    7
 10
230.99009344491719
 20
155.84581865425511
 11
250.82501407983784
 21
155.84581865425511
  0
TEXT
  8
_1-0_
 62
    7
 10
294.66984692061226
 20
171.10387500935258
 40
10
 41
1.0000000000000004
 50
0
  1
①　LED基板
  0
TEXT
  8
_1-0_
 62
    7
 10
294.66984692061226
 20
158.7262297292009
 40
10
 41
0.9999999999999996
 50
0
  1
②　アルミフレーム
  0
TEXT
  8
_1-0_
 62
    7
 10
294.66984692061226
 20
145.79531439385673
 40
10
 41
0.9999999999999996
 50
0
  1
③　全長
  0
TEXT
  8
_1-0_
 62
    7
 10
294.66984692061226
 20
133.14240434094671
 40
10
 41
0.9999999999999996
 50
0
  1
④　LED発光色
  0
TEXT
  8
_1-0_
 62
    7
 10
744.59718306290733
 20
89.780766616196416
 40
5
 41
0.8800000000000001
 50
0
  1
ポリカーボネイト 乳白色
  0
TEXT
  8
_1-0_
 62
    7
 10
743.40987391268391
 20
129.47081535223228
 40
5
 41
0.8800000000000001
 50
0
  1
ポリカーボネイト 乳白色
  0
TEXT
  8
_1-0_
 62
    7
 10
574.87952012238986
 20
68.019754403041588
 40
10.000000000000057
 41
0.9999999999999943
 50
0
  1
3960
  0
TEXT
  8
_1-0_
 62
    7
 10
742.29525295124176
 20
101.87501750967098
 40
4
 41
1
 50
0
  1
シルバーアルマイト加工
  0
TEXT
  8
_1-0_
 62
    7
 10
636.77903098123375
 20
142.2079216263873
 40
7
 41
1
 50
0
  1
落下等による破損の原因になります。
  0
TEXT
  8
_1-0_
 62
    7
 10
629.57449066189918
 20
168.69609753732726
 40
7
 41
1
 50
0
  1
※電源の入力は必ず片側からだけにしてください。
  0
TEXT
  8
_1-0_
 62
    7
 10
629.57449066189918
 20
151.66399208609937
 40
7
 41
1
 50
0
  1
※取付箇所の下地・強度にご注意下さい。
  0
LINE
  8
_4-0_
  6
CONTINUOUS
 62
    4
 10
723.06966272457225
 20
337.1299421573093
 11
723.06966272457225
 21
332.5202519327554
  0
LINE
  8
_4-0_
  6
CONTINUOUS
 62
    4
 10
723.06966272457225
 20
337.1299421573093
 11
721.09746160089117
 21
344.49029695363197
  0
LINE
  8
_4-0_
  6
CONTINUOUS
 62
    4
 10
723.06966272457225
 20
337.1299421573093
 11
725.04186384825357
 21
344.49029695363197
  0
LINE
  8
_4-0_
  6
CONTINUOUS
 62
    4
 10
723.06966272457225
 20
332.5202519327554
 11
725.04186384825357
 21
325.15989713643268
  0
LINE
  8
_4-0_
  6
CONTINUOUS
 62
    4
 10
723.06966272457225
 20
332.5202519327554
 11
721.09746160089117
 21
325.15989713643268
  0
LINE
  8
_4-0_
  6
CONTINUOUS
 62
    4
 10
721.79966272457227
 20
337.1299421573093
 11
731.58471034362015
 21
337.1299421573093
  0
LINE
  8
_4-0_
  6
CONTINUOUS
 62
    4
 10
721.79966272457227
 20
332.5202519327554
 11
731.58471034362015
 21
332.5202519327554
  0
LINE
  8
_4-0_
  6
CONTINUOUS
 62
    4
 10
723.06966272457225
 20
332.5202519327554
 11
723.06966272457225
 21
321.12444493782539
  0
LINE
  8
_4-0_
  6
CONTINUOUS
 62
    4
 10
723.06966272457225
 20
293.33259376986655
 11
723.06966272457225
 21
281.6054225633867
  0
LINE
  8
_4-0_
  6
CONTINUOUS
 62
    4
 10
723.06966272457225
 20
297.90459376986655
 11
723.06966272457225
 21
310.04860302427448
  0
LINE
  8
_4-0_
  6
CONTINUOUS
 62
    4
 10
723.06966272457225
 20
297.90459376986655
 11
721.09746160089117
 21
305.26494856618928
  0
LINE
  8
_4-0_
  6
CONTINUOUS
 62
    4
 10
723.06966272457225
 20
297.90459376986655
 11
725.04186384825357
 21
305.26494856618928
  0
LINE
  8
_4-0_
  6
CONTINUOUS
 62
    4
 10
721.79966272457227
 20
297.90459376986655
 11
731.58471034362015
 21
297.90459376986655
  0
LINE
  8
_4-0_
  6
CONTINUOUS
 62
    4
 10
721.79966272457227
 20
293.33259376986655
 11
731.58471034362015
 21
293.33259376986655
  0
LINE
  8
_4-0_
  6
CONTINUOUS
 62
    4
 10
723.06966272457225
 20
297.90459376986655
 11
723.06966272457225
 21
293.33259376986655
  0
LINE
  8
_4-0_
  6
CONTINUOUS
 62
    4
 10
723.06966272457225
 20
293.33259376986655
 11
721.09746160089117
 21
285.97223897354388
  0
LINE
  8
_4-0_
  6
CONTINUOUS
 62
    4
 10
723.06966272457225
 20
293.33259376986655
 11
725.04186384825357
 21
285.97223897354388
  0
LINE
  8
_4-0_
  6
CONTINUOUS
 62
    7
 10
105.74485701643954
 20
259.18345580640153
 11
145.74485701643954
 21
259.18345580640153
  0
LINE
  8
_4-0_
  6
CONTINUOUS
 62
    7
 10
145.74485701643954
 20
295.38345580640151
 11
145.74485701643954
 21
259.18345580640153
  0
LINE
  8
_4-0_
  6
CONTINUOUS
 62
    7
 10
105.74485701643954
 20
295.38345580640151
 11
145.74485701643954
 21
295.38345580640151
  0
LINE
  8
_4-0_
  6
CONTINUOUS
 62
    7
 10
105.74485701643954
 20
295.38345580640151
 11
105.74485701643954
 21
259.18345580640153
  0
LINE
  8
_4-0_
  6
CONTINUOUS
 62
    7
 10
105.74485701643954
 20
259.78345580640155
 11
145.74485701643954
 21
259.78345580640155
  0
LINE
  8
_4-0_
  6
CONTINUOUS
 62
    7
 10
105.74485701643954
 20
294.78345580640155
 11
145.74485701643954
 21
294.78345580640155
  0
ARC
  8
_4-0_
  6
CONTINUOUS
 62
    7
 10
125.74485701643954
 20
275.48345580640154
 40
3.2000000000000002
 50
180
 51
0
  0
ARC
  8
_4-0_
  6
CONTINUOUS
 62
    7
 10
125.74485701643954
 20
279.0834558064015
 40
3.2000000000000002
 50
0
 51
180
  0
LINE
  8
_4-0_
  6
CONTINUOUS
 62
    7
 10
122.54485701643949
 20
275.48345580640154
 11
122.54485701643949
 21
279.0834558064015
  0
LINE
  8
_4-0_
  6
CONTINUOUS
 62
    7
 10
128.94485701643947
 20
275.48345580640154
 11
128.94485701643947
 21
279.0834558064015
  0
CIRCLE
  8
_4-0_
  6
CONTINUOUS
 62
    7
 10
111.74485701643954
 20
277.28345580640155
 40
2.5
  0
LINE
  8
_4-0_
  6
CENTER1
 62
    2
 10
111.74485701643954
 20
274.08535536534299
 11
111.74485701643954
 21
280.58996643190272
  0
CIRCLE
  8
_4-0_
  6
CONTINUOUS
 62
    7
 10
139.74485701643954
 20
277.28345580640155
 40
2.5
  0
LINE
  8
_4-0_
  6
CENTER1
 62
    2
 10
139.74485701643954
 20
274.08535536534299
 11
139.74485701643954
 21
280.58996643190272
  0
LINE
  8
_4-0_
  6
CONTINUOUS
 62
    7
 10
105.74485701643954
 20
207.91370744633176
 11
145.74485701643954
 21
207.91370744633176
  0
LINE
  8
_4-0_
  6
DASHED1
 62
    7
 10
105.74485701643954
 20
208.51370744633178
 11
145.74485701643954
 21
208.51370744633175
  0
LINE
  8
_4-0_
  6
CONTINUOUS
 62
    7
 10
105.74485701643954
 20
224.51370744633175
 11
105.74485701643954
 21
207.91370744633176
  0
ARC
  8
_4-0_
  6
CONTINUOUS
 62
    7
 10
108.74485701643954
 20
224.51370744633175
 40
3
 50
90
 51
180
  0
LINE
  8
_4-0_
  6
CONTINUOUS
 62
    7
 10
142.74485701643954
 20
227.51370744633175
 11
108.74485701643954
 21
227.51370744633175
  0
LINE
  8
_4-0_
  6
CONTINUOUS
 62
    7
 10
145.74485701643954
 20
224.51370744633175
 11
145.74485701643954
 21
207.91370744633176
  0
ARC
  8
_4-0_
  6
CONTINUOUS
 62
    7
 10
142.74485701643954
 20
224.51370744633175
 40
3
 50
0
 51
89.999999999999986
  0
ARC
  8
_4-0_
  6
CONTINUOUS
 62
    7
 10
113.74485701643954
 20
219.41370744633176
 40
2
 50
180
 51
270
  0
ARC
  8
_4-0_
  6
CONTINUOUS
 62
    7
 10
112.74485701643954
 20
223.05370744633177
 40
1
 50
90
 51
180
  0
ARC
  8
_4-0_
  6
CONTINUOUS
 62
    7
 10
112.74485701643954
 20
223.05370744633177
 40
1
 50
0
 51
90
  0
ARC
  8
_4-0_
  6
CONTINUOUS
 62
    7
 10
118.74485701643954
 20
223.05370744633177
 40
1
 50
90
 51
180
  0
ARC
  8
_4-0_
  6
CONTINUOUS
 62
    7
 10
118.74485701643954
 20
223.05370744633177
 40
1
 50
0
 51
90
  0
LINE
  8
_4-0_
  6
CONTINUOUS
 62
    7
 10
113.74485701643954
 20
220.51370744633178
 11
113.74485701643954
 21
223.05370744633177
  0
ARC
  8
_4-0_
  6
CONTINUOUS
 62
    7
 10
114.74485701643954
 20
220.51370744633178
 40
1
 50
180
 51
270
  0
LINE
  8
_4-0_
  6
CONTINUOUS
 62
    7
 10
116.74485701643954
 20
219.51370744633178
 11
114.74485701643954
 21
219.51370744633178
  0
LINE
  8
_4-0_
  6
CONTINUOUS
 62
    7
 10
117.74485701643954
 20
220.51370744633178
 11
117.74485701643954
 21
223.05370744633177
  0
ARC
  8
_4-0_
  6
CONTINUOUS
 62
    7
 10
116.74485701643954
 20
220.51370744633178
 40
1
 50
270
 51
0
  0
LINE
  8
_4-0_
  6
CONTINUOUS
 62
    7
 10
111.74485701643954
 20
219.41370744633176
 11
111.74485701643954
 21
223.05370744633177
  0
LINE
  8
_4-0_
  6
CONTINUOUS
 62
    7
 10
117.74485701643954
 20
217.41370744633176
 11
113.74485701643954
 21
217.41370744633176
  0
LINE
  8
_4-0_
  6
CONTINUOUS
 62
    7
 10
119.74485701643954
 20
219.41370744633176
 11
119.74485701643954
 21
223.05370744633177
  0
ARC
  8
_4-0_
  6
CONTINUOUS
 62
    7
 10
117.74485701643954
 20
219.41370744633176
 40
2
 50
270
 51
0
  0
LINE
  8
_4-0_
  6
CENTER1
 62
    2
 10
115.74485701643954
 20
225.83019702131173
 11
115.74485701643954
 21
216.56112625146406
  0
LINE
  8
ADD_LINE
  6
DOT
 62
    9
 10
112.74485701643954
 20
223.05370744633177
 11
112.74485701643954
 21
224.05370744633177
  0
LINE
  8
ADD_LINE
  6
DOT
 62
    9
 10
118.74485701643954
 20
223.05370744633177
 11
118.74485701643954
 21
224.05370744633177
  0
ARC
  8
_4-0_
  6
CONTINUOUS
 62
    7
 10
137.74485701643954
 20
219.41370744633176
 40
2
 50
270
 51
0
  0
ARC
  8
_4-0_
  6
CONTINUOUS
 62
    7
 10
138.74485701643954
 20
223.05370744633177
 40
1
 50
0
 51
90
  0
ARC
  8
_4-0_
  6
CONTINUOUS
 62
    7
 10
138.74485701643954
 20
223.05370744633177
 40
1
 50
90
 51
180
  0
ARC
  8
_4-0_
  6
CONTINUOUS
 62
    7
 10
132.74485701643954
 20
223.05370744633177
 40
1
 50
0
 51
90
  0
ARC
  8
_4-0_
  6
CONTINUOUS
 62
    7
 10
132.74485701643954
 20
223.05370744633177
 40
1
 50
90
 51
180
  0
LINE
  8
_4-0_
  6
CONTINUOUS
 62
    7
 10
137.74485701643954
 20
220.51370744633178
 11
137.74485701643954
 21
223.05370744633177
  0
ARC
  8
_4-0_
  6
CONTINUOUS
 62
    7
 10
136.74485701643954
 20
220.51370744633178
 40
1
 50
270
 51
0
  0
LINE
  8
_4-0_
  6
CONTINUOUS
 62
    7
 10
134.74485701643954
 20
219.51370744633178
 11
136.74485701643954
 21
219.51370744633178
  0
LINE
  8
_4-0_
  6
CONTINUOUS
 62
    7
 10
133.74485701643954
 20
220.51370744633178
 11
133.74485701643954
 21
223.05370744633177
  0
ARC
  8
_4-0_
  6
CONTINUOUS
 62
    7
 10
134.74485701643954
 20
220.51370744633178
 40
1
 50
180
 51
270
  0
LINE
  8
_4-0_
  6
CONTINUOUS
 62
    7
 10
139.74485701643954
 20
219.41370744633176
 11
139.74485701643954
 21
223.05370744633177
  0
LINE
  8
_4-0_
  6
CONTINUOUS
 62
    7
 10
133.74485701643954
 20
217.41370744633176
 11
137.74485701643954
 21
217.41370744633176
  0
LINE
  8
_4-0_
  6
CONTINUOUS
 62
    7
 10
131.74485701643954
 20
219.41370744633176
 11
131.74485701643954
 21
223.05370744633177
  0
LINE
  8
_4-0_
  6
CENTER1
 62
    2
 10
135.74485701643954
 20
225.83019702131173
 11
135.74485701643954
 21
216.56112625146406
  0
LINE
  8
ADD_LINE
  6
DOT
 62
    9
 10
138.74485701643954
 20
223.05370744633177
 11
138.74485701643954
 21
224.05370744633177
  0
LINE
  8
ADD_LINE
  6
DOT
 62
    9
 10
132.74485701643954
 20
223.05370744633177
 11
132.74485701643954
 21
224.05370744633177
  0
ARC
  8
_4-0_
  6
CONTINUOUS
 62
    7
 10
133.74485701643954
 20
219.41370744633176
 40
2
 50
112.31845812347991
 51
270
  0
LINE
  8
_4-0_
  6
CENTER1
 62
    2
 10
125.74485701643954
 20
202.3563698360671
 11
125.74485701643954
 21
230.90659636797903
  0
LINE
  8
_4-0_
  6
CONTINUOUS
 62
    4
 10
105.74485701643954
 20
241.89167151233107
 11
145.74485701643954
 21
241.89167151233107
  0
LINE
  8
_4-0_
  6
CONTINUOUS
 62
    4
 10
105.74485701643954
 20
241.89167151233107
 11
111.54041197417388
 21
243.44458578294618
  0
LINE
  8
_4-0_
  6
CONTINUOUS
 62
    4
 10
105.74485701643954
 20
241.89167151233107
 11
111.54041197417388
 21
240.33875724171594
  0
LINE
  8
_4-0_
  6
CONTINUOUS
 62
    4
 10
145.74485701643954
 20
241.89167151233107
 11
139.94930205870509
 21
243.44458578294618
  0
LINE
  8
_4-0_
  6
CONTINUOUS
 62
    4
 10
145.74485701643954
 20
241.89167151233107
 11
139.94930205870509
 21
240.33875724171594
  0
LINE
  8
_4-0_
  6
CONTINUOUS
 62
    4
 10
105.74485701643954
 20
240.89167151233107
 11
105.74485701643954
 21
255.46504761497741
  0
LINE
  8
_4-0_
  6
CONTINUOUS
 62
    4
 10
145.74485701643954
 20
240.89167151233107
 11
145.74485701643954
 21
255.46504761497741
  0
TEXT
  8
_4-0_
 62
    7
 10
121.49485701643954
 20
242.89167151233107
 40
8
 41
1
 50
0
  1
20
  0
LINE
  8
_4-0_
  6
CONTINUOUS
 62
    4
 10
86.230801877707393
 20
259.18345580640153
 11
86.230801877707393
 21
295.38345580640151
  0
LINE
  8
_4-0_
  6
CONTINUOUS
 62
    4
 10
86.230801877707393
 20
259.18345580640153
 11
84.677887607092259
 21
264.97901076413598
  0
LINE
  8
_4-0_
  6
CONTINUOUS
 62
    4
 10
86.230801877707393
 20
259.18345580640153
 11
87.783716148322526
 21
264.97901076413598
  0
LINE
  8
_4-0_
  6
CONTINUOUS
 62
    4
 10
86.230801877707393
 20
295.38345580640151
 11
84.677887607092259
 21
289.58790084866712
  0
LINE
  8
_4-0_
  6
CONTINUOUS
 62
    4
 10
86.230801877707393
 20
295.38345580640151
 11
87.783716148322526
 21
289.58790084866712
  0
LINE
  8
_4-0_
  6
CONTINUOUS
 62
    4
 10
85.230801877707393
 20
259.18345580640153
 11
101.92501799639223
 21
259.18345580640153
  0
LINE
  8
_4-0_
  6
CONTINUOUS
 62
    4
 10
85.230801877707393
 20
295.38345580640151
 11
101.92501799639223
 21
295.38345580640151
  0
TEXT
  8
_4-0_
 62
    7
 10
85.382465871292027
 20
273.28010374970074
 40
8
 41
1
 50
90
  1
18
  0
LINE
  8
_4-0_
  6
CONTINUOUS
 62
    7
 10
163.02194838863505
 20
294.78345580640155
 11
163.02194838863505
 21
295.38345580640151
  0
LINE
  8
_4-0_
  6
CONTINUOUS
 62
    7
 10
182.59936067475741
 20
294.36136175343756
 11
182.2219483886351
 21
277.28345580640155
  0
LINE
  8
_4-0_
  6
CONTINUOUS
 62
    7
 10
181.59960477813883
 20
295.38345580640151
 11
163.02194838863505
 21
295.38345580640151
  0
ARC
  8
_4-0_
  6
CONTINUOUS
 62
    7
 10
181.59960477813883
 20
294.38345580640151
 40
1
 50
358.73400099960531
 51
90.000000000000028
  0
ARC
  8
_4-0_
  6
CONTINUOUS
 62
    7
 10
181.59960477813883
 20
294.38345580640151
 40
0.3999999999999999
 50
358.73400099960531
 51
90.000000000000028
  0
LINE
  8
_4-0_
  6
CONTINUOUS
 62
    7
 10
181.62209485066393
 20
277.29671223817991
 11
181.99950713678635
 21
294.37461818521592
  0
LINE
  8
_4-0_
  6
CONTINUOUS
 62
    7
 10
181.59960477813883
 20
294.78345580640155
 11
163.02194838863505
 21
294.78345580640155
  0
LINE
  8
_4-0_
  6
CONTINUOUS
 62
    7
 10
167.7219483886351
 20
294.78345580640155
 11
170.2219483886351
 21
292.28345580640155
  0
LINE
  8
_4-0_
  6
CONTINUOUS
 62
    7
 10
170.2219483886351
 20
292.28345580640155
 11
170.64621245734708
 21
292.70771987511347
  0
LINE
  8
_4-0_
  6
CONTINUOUS
 62
    7
 10
167.97047652605892
 20
295.38345580640151
 11
170.64621245734708
 21
292.70771987511347
  0
LINE
  8
_4-0_
  6
CONTINUOUS
 62
    7
 10
163.02194838863505
 20
259.78345580640155
 11
163.02194838863505
 21
259.18345580640153
  0
LINE
  8
_4-0_
  6
CONTINUOUS
 62
    7
 10
182.59936067475741
 20
260.20554985936548
 11
182.2219483886351
 21
277.28345580640155
  0
LINE
  8
_4-0_
  6
CONTINUOUS
 62
    7
 10
181.59960477813883
 20
259.18345580640153
 11
163.02194838863505
 21
259.18345580640153
  0
ARC
  8
_4-0_
  6
CONTINUOUS
 62
    7
 10
181.59960477813883
 20
260.18345580640153
 40
1
 50
270
 51
1.2659990003947428
  0
ARC
  8
_4-0_
  6
CONTINUOUS
 62
    7
 10
181.59960477813883
 20
260.18345580640153
 40
0.3999999999999999
 50
270
 51
1.2659990003947428
  0
LINE
  8
_4-0_
  6
CONTINUOUS
 62
    7
 10
181.62209485066393
 20
277.27019937462319
 11
181.99950713678635
 21
260.19229342758712
  0
LINE
  8
_4-0_
  6
CONTINUOUS
 62
    7
 10
181.59960477813883
 20
259.78345580640155
 11
163.02194838863505
 21
259.78345580640155
  0
LINE
  8
_4-0_
  6
CONTINUOUS
 62
    7
 10
167.7219483886351
 20
259.78345580640155
 11
170.2219483886351
 21
262.28345580640155
  0
LINE
  8
_4-0_
  6
CONTINUOUS
 62
    7
 10
170.2219483886351
 20
262.28345580640155
 11
170.64621245734708
 21
261.85919173768957
  0
LINE
  8
_4-0_
  6
CONTINUOUS
 62
    7
 10
167.97047652605892
 20
259.18345580640153
 11
170.64621245734708
 21
261.85919173768957
  0
LINE
  8
_4-0_
  6
CONTINUOUS
 62
    4
 10
163.02194838863505
 20
241.89167151233107
 11
182.59936067475741
 21
241.89167151233107
  0
LINE
  8
_4-0_
  6
CONTINUOUS
 62
    4
 10
163.02194838863505
 20
241.89167151233107
 11
168.81750334636951
 21
243.44458578294618
  0
LINE
  8
_4-0_
  6
CONTINUOUS
 62
    4
 10
163.02194838863505
 20
241.89167151233107
 11
168.81750334636951
 21
240.33875724171594
  0
LINE
  8
_4-0_
  6
CONTINUOUS
 62
    4
 10
182.59936067475741
 20
241.89167151233107
 11
176.80380571702295
 21
243.44458578294618
  0
LINE
  8
_4-0_
  6
CONTINUOUS
 62
    4
 10
182.59936067475741
 20
241.89167151233107
 11
176.80380571702295
 21
240.33875724171594
  0
LINE
  8
_4-0_
  6
CONTINUOUS
 62
    4
 10
163.02194838863505
 20
240.89167151233107
 11
163.02194838863505
 21
255.46504761497741
  0
LINE
  8
_4-0_
  6
CONTINUOUS
 62
    4
 10
182.59936067475741
 20
240.89167151233107
 11
182.59936067475741
 21
255.46504761497741
  0
TEXT
  8
_4-0_
 62
    7
 10
166.31065453169623
 20
242.89167151233107
 40
8
 41
1
 50
0
  1
9.8
  0
LINE
  8
ADD_LINE
  6
DOT
 62
    9
 10
182.59936067475741
 20
294.36136175343756
 11
182.59936067475741
 21
260.20554985936548
  0
LINE
  8
_4-0_
  6
CENTER1
 62
    2
 10
187.22578651378905
 20
277.28345580640155
 11
159.57617162410037
 21
277.28345580640155
  0
LINE
  8
_4-0_
  6
CENTER1
 62
    2
 10
148.45867696530848
 20
277.28345580640155
 11
104.21929314180653
 21
277.28345580640155
  0
LINE
  8
_4-0_
  6
CENTER1
 62
    2
 10
125.74485701643954
 20
255.62790103454665
 11
125.74485701643954
 21
298.91384986185244
  0
LINE
  8
_4-0_
  6
CONTINUOUS
 62
    7
 10
138.91694758126198
 20
308.35734021740024
 11
128.22343419526959
 21
282.18763181706242
  0
TEXT
  8
_4-0_
 62
    7
 10
102.00556400078165
 20
310.43273918287639
 40
8
 41
1
 50
0
  1
3.2×5金具固定ネジ用穴
  0
TEXT
  8
_0-0_1
 62
    7
 10
732.99305212032993
 20
61.945408162915385
 40
6
 41
1
 50
0
  1
2020年07月22日
  0
TEXT
  8
_1-0_
 62
    7
 10
629.57449066189918
 20
177.43303421952913
 40
7
 41
1
 50
0
  1
※本製品は入力電圧DC24V専用です。
  0
TEXT
  8
_1-0_
 62
    7
 10
434.31995968183708
 20
160.24081703935943
 40
10
 41
0.9999999999999996
 50
0
  1
K：片側仕様 / R：両側仕様
  0
TEXT
  8
_1-0_
 62
    7
 10
434.31995968183708
 20
135.29940022572015
 40
10
 41
0.9999999999999996
 50
0
  1
CR:クリップ / MG:マグネット
  0
LINE
  8
_0-0_1
  6
CONTINUOUS
 62
    7
 10
63.741148992167382
 20
337.64614681834775
 11
173.74114899216733
 21
337.64614681834775
  0
TEXT
  8
_4-0_
 62
    7
 10
90.58726109301125
 20
323.26184893836142
 40
8
 41
1
 50
0
  1
付属品：固定金具
  0
TEXT
  8
_1-0_
 62
    7
 10
629.57449066189918
 20
160.40341187286447
 40
7
 41
1
 50
0
  1
※定格表を参考にして最大連結長さを守って下さい。
  0
TEXT
  8
_4-0_
 62
    7
 10
354.48614980977806
 20
246.88965242417137
 40
6
 41
1
 50
0
  1
1000以下
  0
LINE
  8
_4-0_
  6
CONTINUOUS
 62
    7
 10
346.15446235426168
 20
262.42844331450613
 11
426.05012784113933
 21
262.42844331450613
  0
TEXT
  8
_4-0_
 62
    7
 10
354.48614980977806
 20
237.91174394960905
 40
6
 41
1
 50
0
  1
1001～1500以下
  0
TEXT
  8
_4-0_
 62
    7
 10
354.48614980977806
 20
228.97971281178275
 40
6
 41
1
 50
0
  1
1501以上
  0
TEXT
  8
_4-0_
 62
    7
 10
354.48614980977806
 20
220.24024021626974
 40
6
 41
1
 50
0
  1
2000以上
  0
LINE
  8
_4-0_
  6
CONTINUOUS
 62
    7
 10
346.15446235426168
 20
262.42844331450613
 11
346.15446235426168
 21
218.8284433145061
  0
LINE
  8
_4-0_
  6
CONTINUOUS
 62
    7
 10
346.15446235426168
 20
218.8284433145061
 11
426.05012784113933
 21
218.8284433145061
  0
LINE
  8
_4-0_
  6
CONTINUOUS
 62
    7
 10
426.05012784113933
 20
262.42844331450613
 11
426.05012784113933
 21
218.8284433145061
  0
LINE
  8
_4-0_
  6
CONTINUOUS
 62
    7
 10
346.15446235426168
 20
254.4284433145061
 11
426.05012784113933
 21
254.4284433145061
  0
LINE
  8
_4-0_
  6
CONTINUOUS
 62
    7
 10
346.15446235426168
 20
245.52844331450612
 11
426.05012784113933
 21
245.52844331450612
  0
LINE
  8
_4-0_
  6
CONTINUOUS
 62
    7
 10
346.15446235426168
 20
236.62844331450611
 11
426.05012784113933
 21
236.62844331450611
  0
LINE
  8
_4-0_
  6
CONTINUOUS
 62
    7
 10
346.15446235426168
 20
227.72844331450614
 11
426.05012784113933
 21
227.72844331450614
  0
LINE
  8
_4-0_
  6
CONTINUOUS
 62
    7
 10
407.53154719352318
 20
262.26518021754691
 11
407.53154719352318
 21
219.02212231572341
  0
TEXT
  8
_4-0_
 62
    7
 10
349.13870750502389
 20
255.71278387168036
 40
5
 41
1
 50
0
  1
アルミフレーム全長[mm]
  0
TEXT
  8
_4-0_
 62
    7
 10
350.1117028845398
 20
264.39257707273191
 40
5
 41
1
 50
0
  1
固定金具(CR)必要数
  0
TEXT
  8
_4-0_
 62
    7
 10
412.729638606874
 20
247.10437322151404
 40
6
 41
1
 50
0
  1
2個
  0
TEXT
  8
_4-0_
 62
    7
 10
412.729638606874
 20
237.99088428415638
 40
6
 41
1
 50
0
  1
3個
  0
TEXT
  8
_4-0_
 62
    7
 10
412.729638606874
 20
228.45651784148879
 40
6
 41
1
 50
0
  1
4個
  0
TEXT
  8
_4-0_
 62
    7
 10
412.729638606874
 20
220.11669780028006
 40
6
 41
1
 50
0
  1
5個
  0
TEXT
  8
_4-0_
 62
    7
 10
411.80384517820835
 20
255.71278387168036
 40
5
 41
1
 50
0
  1
個数
  0
TEXT
  8
_4-0_
 62
    7
 10
273.15126625148929
 20
203.52238408924387
 40
8
 41
1
 50
0
  1
M3木ビス
  0
LINE
  8
_4-0_
  6
CONTINUOUS
 62
    4
 10
272.3766070694524
 20
208.55766877248362
 11
247.81485887378284
 21
226.08094703235764
  0
ARC
  8
_4-0_
  6
CONTINUOUS
 62
    7
 10
247.81485887378284
 20
231.55972313502335
 40
6.1212238973342492
 50
11.42173188413294
 51
168.57826811586705
  0
LINE
  8
_4-0_
  6
CONTINUOUS
 62
    7
 10
265.91485887378275
 20
233.08070292897622
 11
265.91485887378275
 21
251.65835931848
  0
ARC
  8
_4-0_
  6
CONTINUOUS
 62
    7
 10
264.91485887378275
 20
233.08070292897622
 40
1
 50
268.73400099960531
 51
0.0000000000000254
  0
ARC
  8
_4-0_
  6
CONTINUOUS
 62
    7
 10
264.91485887378275
 20
233.08070292897622
 40
0.3999999999999999
 50
268.73400099960531
 51
0.0000000000000254
  0
LINE
  8
_4-0_
  6
CONTINUOUS
 62
    7
 10
247.8281153055612
 20
233.05821285645112
 11
264.90602125259721
 21
232.68080057032876
  0
LINE
  8
_4-0_
  6
CONTINUOUS
 62
    7
 10
265.31485887378278
 20
233.08070292897622
 11
265.31485887378278
 21
251.65835931848
  0
LINE
  8
_4-0_
  6
CONTINUOUS
 62
    7
 10
265.31485887378278
 20
246.95835931847995
 11
262.81485887378278
 21
244.45835931847995
  0
LINE
  8
_4-0_
  6
CONTINUOUS
 62
    7
 10
262.81485887378278
 20
244.45835931847995
 11
263.2391229424947
 21
244.03409524976803
  0
LINE
  8
_4-0_
  6
CONTINUOUS
 62
    7
 10
265.91485887378275
 20
246.70983118105613
 11
263.2391229424947
 21
244.03409524976803
  0
LINE
  8
_4-0_
  6
CONTINUOUS
 62
    7
 10
229.71485887378282
 20
233.08070292897622
 11
229.71485887378282
 21
251.65835931848
  0
ARC
  8
_4-0_
  6
CONTINUOUS
 62
    7
 10
230.71485887378282
 20
233.08070292897622
 40
1
 50
179.99999999999997
 51
271.26599900039469
  0
ARC
  8
_4-0_
  6
CONTINUOUS
 62
    7
 10
230.71485887378282
 20
233.08070292897622
 40
0.3999999999999999
 50
179.99999999999997
 51
271.26599900039469
  0
LINE
  8
_4-0_
  6
CONTINUOUS
 62
    7
 10
247.80160244200437
 20
233.05821285645112
 11
230.72369649496835
 21
232.68080057032876
  0
LINE
  8
_4-0_
  6
CONTINUOUS
 62
    7
 10
230.31485887378284
 20
233.08070292897622
 11
230.31485887378284
 21
251.65835931848
  0
LINE
  8
_4-0_
  6
CONTINUOUS
 62
    7
 10
230.31485887378284
 20
246.95835931847995
 11
232.81485887378284
 21
244.45835931847995
  0
LINE
  8
_4-0_
  6
CONTINUOUS
 62
    7
 10
232.81485887378284
 20
244.45835931847995
 11
232.39059480507086
 21
244.03409524976803
  0
LINE
  8
_4-0_
  6
CONTINUOUS
 62
    7
 10
229.71485887378282
 20
246.70983118105613
 11
232.39059480507086
 21
244.03409524976803
  0
LINE
  8
_4-0_
  6
CENTER1
 62
    2
 10
247.81485887378284
 20
225.93065802732207
 11
247.81485887378284
 21
256.91702530879763
  0
LINE
  8
_4-0_
  6
CONTINUOUS
 62
    7
 10
234.84794698016179
 20
250.83999397688606
 11
235.8259590923181
 21
249.86198186472942
  0
ARC
  8
_4-0_
  6
CONTINUOUS
 62
    7
 10
235.26027366736906
 20
249.29629643977992
 40
0.8000000000000334
 50
337.50000000002029
 51
45.000000000021714
  0
ARC
  8
_4-0_
  6
CONTINUOUS
 62
    7
 10
235.26027366736895
 20
249.29629643978046
 40
0.8000000000003606
 50
269.99999999998994
 51
337.49999999999102
  0
LINE
  8
_4-0_
  6
CONTINUOUS
 62
    7
 10
235.26027366736884
 20
248.49629643978008
 11
231.71485887378282
 21
248.49629643978008
  0
ARC
  8
_4-0_
  6
CONTINUOUS
 62
    7
 10
231.71485887378282
 20
247.89629643978006
 40
0.5999999999999973
 50
89.999999999999687
 51
180.00000000000026
  0
LINE
  8
_4-0_
  6
CONTINUOUS
 62
    7
 10
231.11485887378279
 20
247.89629643978006
 11
231.11485887378279
 21
246.29629643978009
  0
ARC
  8
_4-0_
  6
CONTINUOUS
 62
    7
 10
231.71485887378282
 20
246.29629643978009
 40
0.6000000000000027
 50
180.00000000000026
 51
269.99999999999977
  0
LINE
  8
_4-0_
  6
CONTINUOUS
 62
    7
 10
231.71485887378282
 20
245.6962964397801
 11
231.91485887378286
 21
245.6962964397801
  0
LINE
  8
_4-0_
  6
CONTINUOUS
 62
    7
 10
231.91485887378286
 20
245.6962964397801
 11
231.91485887378286
 21
243.49629643978008
  0
LINE
  8
_4-0_
  6
CONTINUOUS
 62
    7
 10
231.91485887378286
 20
243.49629643978008
 11
231.71485887378282
 21
243.49629643978008
  0
ARC
  8
_4-0_
  6
CONTINUOUS
 62
    7
 10
231.71485887378282
 20
242.89629643978006
 40
0.5999999999999975
 50
89.999999999999744
 51
180.00000000000026
  0
LINE
  8
_4-0_
  6
CONTINUOUS
 62
    7
 10
231.11485887378279
 20
242.89629643978006
 11
231.11485887378279
 21
238.89629643978006
  0
ARC
  8
_4-0_
  6
CONTINUOUS
 62
    7
 10
231.51485887378288
 20
238.89629643978006
 40
0.3999999999999973
 50
179.99999999999963
 51
270.0000000000004
  0
LINE
  8
_4-0_
  6
CONTINUOUS
 62
    7
 10
231.51485887378288
 20
238.49629643978008
 11
233.11486327378287
 21
238.49629643978008
  0
ARC
  8
_4-0_
  6
CONTINUOUS
 62
    7
 10
233.11486327378276
 20
238.89629563978011
 40
0.3999992000000289
 50
270.00000000000881
 51
346.86575542600957
  0
ARC
  8
_4-0_
  6
CONTINUOUS
 62
    7
 10
233.11486327073038
 20
238.89629564049201
 40
0.3999992031344253
 50
346.8657554260559
 51
63.731509769493428
  0
ARC
  8
_4-0_
  6
CONTINUOUS
 62
    7
 10
233.55744048454716
 20
239.79302382551134
 40
0.5999988108625511
 50
187.12501703124599
 51
243.7315107334104
  0
LINE
  8
_4-0_
  6
CONTINUOUS
 62
    7
 10
232.96207493936009
 20
239.71860312516188
 11
232.71486407378239
 21
241.69629003978011
  0
LINE
  8
_4-0_
  6
CONTINUOUS
 62
    7
 10
232.71486407378239
 20
241.69629003978011
 11
233.49520239139298
 21
243.29622069010841
  0
LINE
  8
_4-0_
  6
CONTINUOUS
 62
    7
 10
233.49520239139298
 20
243.29622069010841
 11
233.66926015582561
 21
243.29622069010841
  0
ARC
  8
_4-0_
  6
CONTINUOUS
 62
    7
 10
233.66926015582561
 20
243.6962206901085
 40
0.400000000000079
 50
270.00000000000739
 51
334.20345973514259
  0
ARC
  8
_4-0_
  6
CONTINUOUS
 62
    7
 10
233.66926015582573
 20
243.69622069010856
 40
0.3999999999999757
 50
334.20345973512434
 51
38.40691947026761
  0
ARC
  8
_4-0_
  6
CONTINUOUS
 62
    7
 10
235.3148588737825
 20
245.00082977311365
 40
1.7000000000000512
 50
132.80230649010022
 51
218.40691947029237
  0
ARC
  8
_4-0_
  6
CONTINUOUS
 62
    7
 10
235.3148588737825
 20
245.00082977311342
 40
1.7000000000002331
 50
47.197693509904497
 51
132.80230649009548
  0
ARC
  8
_4-0_
  6
CONTINUOUS
 62
    7
 10
235.31485887378261
 20
245.00082977311376
 40
1.6999999999999145
 50
321.59308052970789
 51
47.197693509900198
  0
ARC
  8
_4-0_
  6
CONTINUOUS
 62
    7
 10
236.96045759173938
 20
243.69622069010862
 40
0.4000000000001813
 50
141.59308052973827
 51
205.7965402648752
  0
ARC
  8
_4-0_
  6
CONTINUOUS
 62
    7
 10
236.96045759173938
 20
243.69622069010856
 40
0.4000000000001344
 50
205.79654026486239
 51
269.99999999998761
  0
LINE
  8
_4-0_
  6
CONTINUOUS
 62
    7
 10
236.96045759173927
 20
243.29622069010841
 11
237.1345153561719
 21
243.29622069010841
  0
LINE
  8
_4-0_
  6
CONTINUOUS
 62
    7
 10
237.1345153561719
 20
243.29622069010841
 11
237.91485367378249
 21
241.69629003978011
  0
LINE
  8
_4-0_
  6
CONTINUOUS
 62
    7
 10
237.91485367378249
 20
241.69629003978011
 11
237.66764281423303
 21
239.71860312440734
  0
ARC
  8
_4-0_
  6
CONTINUOUS
 62
    7
 10
237.07227727893866
 20
239.79302381631965
 40
0.5999987999996413
 50
296.26848914804782
 51
352.87498365105034
  0
ARC
  8
_4-0_
  6
CONTINUOUS
 62
    7
 10
237.51485447774729
 20
238.8962956361236
 40
0.3999992030298722
 50
116.26848878631858
 51
193.13424393489348
  0
ARC
  8
_4-0_
  6
CONTINUOUS
 62
    7
 10
237.51485447378292
 20
238.89629563978019
 40
0.3999992000000938
 50
193.13424457399779
 51
269.9999999999838
  0
LINE
  8
_4-0_
  6
CONTINUOUS
 62
    7
 10
237.5148544737828
 20
238.49629643978008
 11
258.11486327378287
 21
238.49629643978008
  0
ARC
  8
_4-0_
  6
CONTINUOUS
 62
    7
 10
258.11486327378276
 20
238.89629563978019
 40
0.3999992000000858
 50
270.00000000001529
 51
346.86575542600309
  0
ARC
  8
_4-0_
  6
CONTINUOUS
 62
    7
 10
258.11486326981833
 20
238.89629563612357
 40
0.3999992030298922
 50
346.86575606510883
 51
63.731511213679156
  0
ARC
  8
_4-0_
  6
CONTINUOUS
 62
    7
 10
258.55744046862662
 20
239.79302381632033
 40
0.5999988000000792
 50
187.12501634900906
 51
243.73151085201226
  0
LINE
  8
_4-0_
  6
CONTINUOUS
 62
    7
 10
257.96207493333196
 20
239.71860312440734
 11
257.71486407378239
 21
241.69629003978011
  0
LINE
  8
_4-0_
  6
CONTINUOUS
 62
    7
 10
257.71486407378239
 20
241.69629003978011
 11
258.49520239139298
 21
243.29622069010841
  0
LINE
  8
_4-0_
  6
CONTINUOUS
 62
    7
 10
258.49520239139298
 20
243.29622069010841
 11
258.66926015582561
 21
243.29622069010841
  0
ARC
  8
_4-0_
  6
CONTINUOUS
 62
    7
 10
258.66926015582561
 20
243.6962206901085
 40
0.400000000000079
 50
270.00000000000739
 51
334.20345973514259
  0
ARC
  8
_4-0_
  6
CONTINUOUS
 62
    7
 10
258.66926015582573
 20
243.69622069010856
 40
0.3999999999999757
 50
334.20345973512434
 51
38.40691947026761
  0
ARC
  8
_4-0_
  6
CONTINUOUS
 62
    7
 10
260.31485887378244
 20
245.00082977311365
 40
1.7000000000000512
 50
132.80230649010022
 51
218.40691947029237
  0
ARC
  8
_4-0_
  6
CONTINUOUS
 62
    7
 10
260.31485887378244
 20
245.00082977311342
 40
1.7000000000002302
 50
47.197693509904433
 51
132.80230649009559
  0
ARC
  8
_4-0_
  6
CONTINUOUS
 62
    7
 10
260.31485887378255
 20
245.00082977311376
 40
1.6999999999999382
 50
321.59308052970863
 51
47.197693509899459
  0
ARC
  8
_4-0_
  6
CONTINUOUS
 62
    7
 10
261.96045759173938
 20
243.69622069010862
 40
0.4000000000001725
 50
141.59308052973748
 51
205.796540264876
  0
ARC
  8
_4-0_
  6
CONTINUOUS
 62
    7
 10
261.96045759173938
 20
243.6962206901085
 40
0.4000000000000961
 50
205.79654026485895
 51
269.99999999999108
  0
LINE
  8
_4-0_
  6
CONTINUOUS
 62
    7
 10
261.96045759173927
 20
243.29622069010841
 11
262.1345153561719
 21
243.29622069010841
  0
LINE
  8
_4-0_
  6
CONTINUOUS
 62
    7
 10
262.1345153561719
 20
243.29622069010841
 11
262.91485367378249
 21
241.69629003978011
  0
LINE
  8
_4-0_
  6
CONTINUOUS
 62
    7
 10
262.91485367378249
 20
241.69629003978011
 11
262.66764280820558
 21
239.71860312516188
  0
ARC
  8
_4-0_
  6
CONTINUOUS
 62
    7
 10
262.07227726301818
 20
239.79302382551199
 40
0.5999988108629539
 50
296.26848926652781
 51
352.87498296869654
  0
ARC
  8
_4-0_
  6
CONTINUOUS
 62
    7
 10
262.51485447683501
 20
238.89629564049247
 40
0.3999992031342263
 50
116.26849023058816
 51
193.1342445740141
  0
ARC
  8
_4-0_
  6
CONTINUOUS
 62
    7
 10
262.5148544737828
 20
238.89629563978008
 40
0.3999991999999759
 50
193.1342445739844
 51
269.99999999999721
  0
LINE
  8
_4-0_
  6
CONTINUOUS
 62
    7
 10
262.5148544737828
 20
238.49629643978008
 11
264.11485887378279
 21
238.49629643978008
  0
ARC
  8
_4-0_
  6
CONTINUOUS
 62
    7
 10
264.11485887378279
 20
238.89629643978006
 40
0.4000000000000031
 50
270.00000000000045
 51
359.99999999999955
  0
LINE
  8
_4-0_
  6
CONTINUOUS
 62
    7
 10
264.51485887378283
 20
238.89629643978006
 11
264.51485887378283
 21
242.89629643978006
  0
ARC
  8
_4-0_
  6
CONTINUOUS
 62
    7
 10
263.91485887378286
 20
242.89629643978006
 40
0.6000000000000036
 50
0.000000000000336
 51
89.999999999999659
  0
LINE
  8
_4-0_
  6
CONTINUOUS
 62
    7
 10
263.91485887378286
 20
243.49629643978008
 11
263.71485887378282
 21
243.49629643978008
  0
LINE
  8
_4-0_
  6
CONTINUOUS
 62
    7
 10
263.71485887378282
 20
243.49629643978008
 11
263.71485887378282
 21
245.6962964397801
  0
LINE
  8
_4-0_
  6
CONTINUOUS
 62
    7
 10
263.71485887378282
 20
245.6962964397801
 11
263.91485887378286
 21
245.6962964397801
  0
ARC
  8
_4-0_
  6
CONTINUOUS
 62
    7
 10
263.91485887378286
 20
246.29629643978009
 40
0.5999999999999968
 50
269.99999999999972
 51
0.0000000000002926
  0
LINE
  8
_4-0_
  6
CONTINUOUS
 62
    7
 10
264.51485887378283
 20
246.29629643978009
 11
264.51485887378283
 21
247.89629643978006
  0
ARC
  8
_4-0_
  6
CONTINUOUS
 62
    7
 10
263.91485887378286
 20
247.89629643978006
 40
0.6000000000000036
 50
0.000000000000336
 51
89.999999999999659
  0
LINE
  8
_4-0_
  6
CONTINUOUS
 62
    7
 10
263.91485887378286
 20
248.49629643978008
 11
260.3694440801961
 21
248.49629643978008
  0
ARC
  8
_4-0_
  6
CONTINUOUS
 62
    7
 10
260.36944408019633
 20
249.29629643977989
 40
0.7999999999997925
 50
202.49999999998178
 51
269.99999999998511
  0
ARC
  8
_4-0_
  6
CONTINUOUS
 62
    7
 10
260.36944408019622
 20
249.29629643978049
 40
0.7999999999999185
 50
135.0000000000249
 51
202.50000000002507
  0
LINE
  8
_4-0_
  6
CONTINUOUS
 62
    7
 10
259.80375865524678
 20
249.86198186472942
 11
260.78177076740383
 21
250.83999397688606
  0
ARC
  8
_4-0_
  6
CONTINUOUS
 62
    7
 10
260.47851396631529
 20
251.10082977311322
 40
0.3999999999998667
 50
319.30067361377223
 51
20.349663193237713
  0
ARC
  8
_4-0_
  6
CONTINUOUS
 62
    7
 10
260.47851396631506
 20
251.1008297731137
 40
0.3999999999998898
 50
20.349663193158097
 51
89.999999999997087
  0
LINE
  8
_4-0_
  6
CONTINUOUS
 62
    7
 10
260.47851396631506
 20
251.50082977311362
 11
259.13869940362332
 21
251.50082977311362
  0
ARC
  8
_4-0_
  6
CONTINUOUS
 62
    7
 10
259.13869940362321
 20
251.10082977311339
 40
0.4000000000002158
 50
89.999999999978726
 51
156.99999999997928
  0
LINE
  8
_4-0_
  6
CONTINUOUS
 62
    7
 10
258.77049746224208
 20
251.25712222450935
 11
256.14665693240153
 21
245.07574130473986
  0
ARC
  8
_4-0_
  6
CONTINUOUS
 62
    7
 10
256.51485887378266
 20
244.9194488533449
 40
0.3999999999998289
 50
157.00000000010158
 51
180.00000000010334
  0
LINE
  8
_4-0_
  6
CONTINUOUS
 62
    7
 10
256.11485887378279
 20
244.91944885334419
 11
256.11485887378279
 21
240.40599866539347
  0
LINE
  8
_4-0_
  6
CONTINUOUS
 62
    7
 10
256.11485887378279
 20
240.40599866539347
 11
239.51485887378288
 21
240.40599866539347
  0
LINE
  8
_4-0_
  6
CONTINUOUS
 62
    7
 10
239.51485887378288
 20
240.40599866539347
 11
239.51485887378288
 21
244.91944885334419
  0
ARC
  8
_4-0_
  6
CONTINUOUS
 62
    7
 10
239.11485887378268
 20
244.91944885334314
 40
0.4000000000001254
 50
0.0000000001508273
 51
23.000000000156529
  0
LINE
  8
_4-0_
  6
CONTINUOUS
 62
    7
 10
239.48306081516336
 20
245.07574130473986
 11
236.85922028532281
 21
251.25712222450935
  0
ARC
  8
_4-0_
  6
CONTINUOUS
 62
    7
 10
236.49101834394179
 20
251.10082977311345
 40
0.4000000000001816
 50
23.000000000017511
 51
90.000000000024528
  0
LINE
  8
_4-0_
  6
CONTINUOUS
 62
    7
 10
236.49101834394156
 20
251.50082977311362
 11
235.15120378124988
 21
251.50082977311362
  0
ARC
  8
_4-0_
  6
CONTINUOUS
 62
    7
 10
235.15120378124988
 20
251.1008297731137
 40
0.3999999999998928
 50
90.000000000003212
 51
159.65033680684158
  0
ARC
  8
_4-0_
  6
CONTINUOUS
 62
    7
 10
235.1512037812501
 20
251.10082977311382
 40
0.4000000000000513
 50
159.65033680686815
 51
220.6993263863238
  0
LINE
  8
_4-0_
  6
CENTER1
 62
    2
 10
237.5245220654428
 20
245.00082977311342
 11
233.00371212157751
 21
245.00082977311342
  0
LINE
  8
_4-0_
  6
CENTER1
 62
    2
 10
235.3148588737825
 20
246.87795972813726
 11
235.3148588737825
 21
242.92803992059916
  0
LINE
  8
_4-0_
  6
CENTER1
 62
    2
 10
260.31485887378244
 20
246.94405836486541
 11
260.31485887378244
 21
243.2227472181132
  0
LINE
  8
_4-0_
  6
CENTER1
 62
    2
 10
258.37506336456067
 20
245.00082977311342
 11
262.31445791147326
 21
245.00082977311342
  0
LINE
  8
_4-0_
  6
CONTINUOUS
 62
    7
 10
235.53772670012614
 20
248.76445332848417
 11
235.07326534449084
 21
248.49629643978005
  0
LINE
  8
_4-0_
  6
CONTINUOUS
 62
    7
 10
235.07326534449084
 20
248.49629643978005
 11
231.79489684382116
 21
248.49629643978005
  0
ARC
  8
_4-0_
  6
CONTINUOUS
 62
    7
 10
231.79489684382094
 20
248.89629643978009
 40
0.4000000000000531
 50
158.21760701737551
 51
270.00000000003178
  0
ARC
  8
_4-0_
  6
CONTINUOUS
 62
    7
 10
247.71887601183329
 20
242.53283476577403
 40
17.548374763219837
 50
89.686612555830521
 51
158.21760701735334
  0
ARC
  8
_4-0_
  6
CONTINUOUS
 62
    7
 10
247.91084173573216
 20
242.53283476577477
 40
17.548374763219083
 50
21.782392982645028
 51
90.313387444168796
  0
ARC
  8
_4-0_
  6
CONTINUOUS
 62
    7
 10
263.83482090374429
 20
248.89629643977986
 40
0.3999999999998222
 50
270.00000000002365
 51
21.782392982673318
  0
LINE
  8
_4-0_
  6
CONTINUOUS
 62
    7
 10
263.8348209037444
 20
248.49629643978005
 11
260.55645240307484
 21
248.49629643978005
  0
LINE
  8
_4-0_
  6
CONTINUOUS
 62
    7
 10
260.55645240307484
 20
248.49629643978005
 11
260.0919910474388
 21
248.76445332848434
  0
ARC
  8
_4-0_
  6
CONTINUOUS
 62
    7
 10
260.36944408019605
 20
249.29629643977876
 40
0.5998643850217666
 50
232.03124999992372
 51
242.44975679193587
  0
ARC
  8
_4-0_
  6
CONTINUOUS
 62
    7
 10
260.36944408019639
 20
249.29629643977995
 40
0.5998643850228885
 50
139.21874999998309
 51
232.03124999996788
  0
LINE
  8
_4-0_
  6
CONTINUOUS
 62
    7
 10
259.91522146115295
 20
249.68811156553218
 11
259.94778355727959
 21
249.7231640542872
  0
LINE
  8
_4-0_
  6
CONTINUOUS
 62
    7
 10
259.94778355727959
 20
249.7231640542872
 11
260.92319212364077
 21
250.69857262064869
  0
LINE
  8
_4-0_
  6
CONTINUOUS
 62
    7
 10
260.92319212364077
 20
250.69857262064869
 11
260.95434195500479
 21
250.73545457164909
  0
ARC
  8
_4-0_
  6
CONTINUOUS
 62
    7
 10
260.47851396631557
 20
251.10082977311404
 40
0.5999260893356844
 50
322.48033460287695
 51
15.898200484932554
  0
LINE
  8
_4-0_
  6
CONTINUOUS
 62
    7
 10
261.05549283080387
 20
251.26516693446047
 11
261.02664988192834
 21
251.34461570917975
  0
ARC
  8
_4-0_
  6
CONTINUOUS
 62
    7
 10
260.47851396631501
 20
251.10082977311362
 40
0.5999037961281138
 50
23.9773236848519
 51
84.921368390811693
  0
LINE
  8
_4-0_
  6
CONTINUOUS
 62
    7
 10
260.53161914111541
 20
251.69837843641926
 11
259.10218421784072
 21
251.69962842275635
  0
LINE
  8
_4-0_
  6
CONTINUOUS
 62
    7
 10
259.10218421784072
 20
251.69962842275635
 11
258.06138938893554
 21
251.69962842275635
  0
ARC
  8
_4-0_
  6
CONTINUOUS
 62
    7
 10
258.06138938893531
 20
252.0996284227565
 40
0.4000000000001496
 50
223.3041895647354
 51
270.00000000002967
  0
ARC
  8
_4-0_
  6
CONTINUOUS
 62
    7
 10
247.91084173573205
 20
242.53283476577437
 40
13.548374763219568
 50
43.304189564695612
 51
90.405912812021398
  0
ARC
  8
_4-0_
  6
CONTINUOUS
 62
    7
 10
247.71887601183363
 20
242.5328347657744
 40
13.548374763219545
 50
89.594087187978545
 51
136.69581043530442
  0
ARC
  8
_4-0_
  6
CONTINUOUS
 62
    7
 10
237.56832835863025
 20
252.09962842275652
 40
0.4000000000001754
 50
269.99999999997192
 51
316.69581043526301
  0
LINE
  8
_4-0_
  6
CONTINUOUS
 62
    7
 10
237.56832835863014
 20
251.69962842275635
 11
236.52753352972417
 21
251.69962842275635
  0
LINE
  8
_4-0_
  6
CONTINUOUS
 62
    7
 10
236.52753352972417
 20
251.69962842275635
 11
235.09809860645026
 21
251.69837843641926
  0
ARC
  8
_4-0_
  6
CONTINUOUS
 62
    7
 10
235.15120378125022
 20
251.10082977311305
 40
0.5999037961286627
 50
95.078631609146541
 51
156.02267631511023
  0
LINE
  8
_4-0_
  6
CONTINUOUS
 62
    7
 10
234.60306786563655
 20
251.34461570917975
 11
234.57422491676181
 21
251.26516693446047
  0
ARC
  8
_4-0_
  6
CONTINUOUS
 62
    7
 10
235.15120378124976
 20
251.10082977311333
 40
0.5999260893355521
 50
164.10179951499245
 51
217.51966539704617
  0
LINE
  8
_4-0_
  6
CONTINUOUS
 62
    7
 10
234.67537579256015
 20
250.73545457164909
 11
234.70652562392416
 21
250.69857262064869
  0
LINE
  8
_4-0_
  6
CONTINUOUS
 62
    7
 10
234.70652562392416
 20
250.69857262064869
 11
235.68193419028597
 21
249.7231640542872
  0
LINE
  8
_4-0_
  6
CONTINUOUS
 62
    7
 10
235.68193419028597
 20
249.7231640542872
 11
235.71449628641261
 21
249.68811156553218
  0
ARC
  8
_4-0_
  6
CONTINUOUS
 62
    7
 10
235.26027366736895
 20
249.29629643978029
 40
0.5998643850229402
 50
307.96874999998465
 51
40.781249999968907
  0
ARC
  8
_4-0_
  6
CONTINUOUS
 62
    7
 10
235.26027366736963
 20
249.296296439776
 40
0.599864385019123
 50
297.55024320811685
 51
307.96875000018451
  0
LINE
  8
_4-0_
  6
CONTINUOUS
 62
    7
 10
245.31485887378307
 20
245.05902526288992
 11
250.31485887378307
 21
245.05902526288992
  0
LINE
  8
_4-0_
  6
CONTINUOUS
 62
    7
 10
250.31485887378307
 20
245.05902526288992
 11
250.31485887378307
 21
243.30560860453539
  0
LINE
  8
_4-0_
  6
CONTINUOUS
 62
    7
 10
245.31485887378307
 20
245.05902526288992
 11
245.31485887378307
 21
243.30560860453539
  0
LINE
  8
_4-0_
  6
CENTER1
 62
    2
 10
247.81485887378284
 20
252.17140094192746
 11
247.81485887378284
 21
236.47132460796414
  0
LINE
  8
_4-0_
  6
CONTINUOUS
 62
    4
 10
229.71485887378282
 20
270.06889906306066
 11
265.91485887378275
 21
270.06889906306066
  0
LINE
  8
_4-0_
  6
CONTINUOUS
 62
    4
 10
229.71485887378282
 20
270.06889906306066
 11
235.51041383151716
 21
271.62181333367579
  0
LINE
  8
_4-0_
  6
CONTINUOUS
 62
    4
 10
229.71485887378282
 20
270.06889906306066
 11
235.51041383151716
 21
268.51598479244552
  0
LINE
  8
_4-0_
  6
CONTINUOUS
 62
    4
 10
265.91485887378275
 20
270.06889906306066
 11
260.11930391604835
 21
271.62181333367579
  0
LINE
  8
_4-0_
  6
CONTINUOUS
 62
    4
 10
265.91485887378275
 20
270.06889906306066
 11
260.11930391604835
 21
268.51598479244552
  0
LINE
  8
_4-0_
  6
CONTINUOUS
 62
    4
 10
229.71485887378282
 20
271.06889906306066
 11
229.71485887378282
 21
255.89768815688583
  0
LINE
  8
_4-0_
  6
CONTINUOUS
 62
    4
 10
265.91485887378275
 20
271.06889906306066
 11
265.91485887378275
 21
255.89768815688583
  0
LINE
  8
_4-0_
  6
CONTINUOUS
 62
    4
 10
219.87929073891479
 20
232.08094703235741
 11
219.87929073891479
 21
260.08094703235764
  0
LINE
  8
_4-0_
  6
CONTINUOUS
 62
    4
 10
219.87929073891479
 20
232.08094703235741
 11
218.32637646829977
 21
237.87650199009181
  0
LINE
  8
_4-0_
  6
CONTINUOUS
 62
    4
 10
219.87929073891479
 20
232.08094703235741
 11
221.43220500952992
 21
237.87650199009181
  0
LINE
  8
_4-0_
  6
CONTINUOUS
 62
    4
 10
219.87929073891479
 20
260.08094703235764
 11
218.32637646829977
 21
254.28539207462325
  0
LINE
  8
_4-0_
  6
CONTINUOUS
 62
    4
 10
219.87929073891479
 20
260.08094703235764
 11
221.43220500952992
 21
254.28539207462325
  0
LINE
  8
_4-0_
  6
CONTINUOUS
 62
    4
 10
218.87929073891479
 20
260.08094703235764
 11
227.77007862985312
 21
260.08094703235764
  0
TEXT
  8
_4-0_
 62
    7
 10
218.87929073891479
 20
241.83094703235753
 40
8
 41
1
 50
90
  1
14
  0
LINE
  8
_4-0_
  6
CONTINUOUS
 62
    7
 10
254.81485887378307
 20
243.30560860453539
 11
254.81485887378307
 21
240.40599866539347
  0
LINE
  8
_4-0_
  6
CONTINUOUS
 62
    7
 10
240.81485887378307
 20
243.30560860453539
 11
240.81485887378307
 21
240.40599866539347
  0
LINE
  8
_4-0_
  6
CONTINUOUS
 62
    7
 10
240.81485887378307
 20
240.40599866539347
 11
254.81485887378307
 21
240.40599866539347
  0
LINE
  8
_4-0_
  6
CONTINUOUS
 62
    7
 10
240.81485887378307
 20
241.30560860453539
 11
254.81485887378307
 21
241.30560860453539
  0
LINE
  8
_4-0_
  6
CONTINUOUS
 62
    7
 10
240.81485887378307
 20
243.30560860453539
 11
254.81485887378307
 21
243.30560860453539
  0
LINE
  8
_4-0_
  6
CONTINUOUS
 62
    7
 10
224.2871423541356
 20
232.08094703235761
 11
235.85816280321347
 21
232.08094703235761
  0
LINE
  8
_4-0_
  6
CONTINUOUS
 62
    7
 10
287.99474857782246
 20
232.08094703235764
 11
202.07863474838183
 21
232.08094703235764
  0
LINE
  8
ADD_LINE
  6
DOT
 62
    7
 10
202.07863474838183
 20
232.08094703235764
 11
202.07863474838183
 21
222.08094703235761
  0
LINE
  8
ADD_LINE
  6
DOT
 62
    7
 10
202.07863474838183
 20
222.08094703235761
 11
287.99474857782246
 21
222.08094703235761
  0
LINE
  8
ADD_LINE
  6
DOT
 62
    7
 10
287.99474857782246
 20
232.08094703235764
 11
287.99474857782246
 21
222.08094703235761
  0
LINE
  8
_4-0_
  6
CONTINUOUS
 62
    7
 10
286.13135321127146
 20
222.08094703235648
 11
287.99474857782354
 21
223.94434239890856
  0
LINE
  8
_4-0_
  6
CONTINUOUS
 62
    7
 10
283.30292608652508
 20
222.08094703235673
 11
287.9947485778232
 21
226.77276952365486
  0
LINE
  8
_4-0_
  6
CONTINUOUS
 62
    7
 10
280.47449896177864
 20
222.08094703235699
 11
287.9947485778228
 21
229.60119664840119
  0
LINE
  8
_4-0_
  6
CONTINUOUS
 62
    7
 10
277.64607183703225
 20
222.08094703235724
 11
287.64607183703265
 21
232.08094703235764
  0
LINE
  8
_4-0_
  6
CONTINUOUS
 62
    7
 10
274.8176447122857
 20
222.08094703235736
 11
284.81764471228615
 21
232.08094703235787
  0
LINE
  8
_4-0_
  6
CONTINUOUS
 62
    7
 10
271.9892175875392
 20
222.08094703235756
 11
281.98921758753869
 21
232.08094703235702
  0
LINE
  8
_4-0_
  6
CONTINUOUS
 62
    7
 10
269.16079046279668
 20
222.08094703235804
 11
279.16079046279617
 21
232.08094703235753
  0
LINE
  8
_4-0_
  6
CONTINUOUS
 62
    7
 10
266.33236333804945
 20
222.08094703235747
 11
276.33236333804876
 21
232.08094703235685
  0
LINE
  8
_4-0_
  6
CONTINUOUS
 62
    7
 10
263.50393621330198
 20
222.08094703235668
 11
273.50393621330238
 21
232.08094703235707
  0
LINE
  8
_4-0_
  6
CONTINUOUS
 62
    7
 10
260.67550908855554
 20
222.08094703235693
 11
270.675509088556
 21
232.08094703235736
  0
LINE
  8
_4-0_
  6
CONTINUOUS
 62
    7
 10
257.8470819638091
 20
222.08094703235719
 11
267.84708196380956
 21
232.08094703235759
  0
LINE
  8
_4-0_
  6
CONTINUOUS
 62
    7
 10
255.01865483906232
 20
222.08094703235702
 11
265.01865483906289
 21
232.08094703235756
  0
LINE
  8
_4-0_
  6
CONTINUOUS
 62
    7
 10
252.19022771431588
 20
222.08094703235724
 11
262.19022771431639
 21
232.08094703235776
  0
LINE
  8
_4-0_
  6
CONTINUOUS
 62
    7
 10
249.36180058956944
 20
222.08094703235747
 11
259.36180058956887
 21
232.08094703235696
  0
LINE
  8
_4-0_
  6
CONTINUOUS
 62
    7
 10
246.53337346482687
 20
222.08094703235795
 11
256.53337346482641
 21
232.08094703235747
  0
LINE
  8
_4-0_
  6
CONTINUOUS
 62
    7
 10
240.87651921533239
 20
222.08094703235687
 11
250.87651921533285
 21
232.0809470323573
  0
LINE
  8
_4-0_
  6
CONTINUOUS
 62
    7
 10
238.04809209058607
 20
222.08094703235713
 11
248.04809209058641
 21
232.08094703235753
  0
LINE
  8
_4-0_
  6
CONTINUOUS
 62
    7
 10
235.21966496583963
 20
222.08094703235739
 11
245.21966496583997
 21
232.08094703235778
  0
LINE
  8
_4-0_
  6
CONTINUOUS
 62
    7
 10
232.3912378410925
 20
222.08094703235696
 11
242.39123784109307
 21
232.08094703235747
  0
LINE
  8
_4-0_
  6
CONTINUOUS
 62
    7
 10
229.56281071634606
 20
222.08094703235716
 11
239.56281071634663
 21
232.0809470323577
  0
LINE
  8
_4-0_
  6
CONTINUOUS
 62
    7
 10
226.73438359160349
 20
222.08094703235764
 11
236.73438359160303
 21
232.08094703235713
  0
LINE
  8
_4-0_
  6
CONTINUOUS
 62
    7
 10
223.90595646685682
 20
222.08094703235761
 11
233.90595646685614
 21
232.08094703235696
  0
LINE
  8
_4-0_
  6
CONTINUOUS
 62
    7
 10
221.07752934210936
 20
222.08094703235679
 11
231.07752934210981
 21
232.08094703235724
  0
LINE
  8
_4-0_
  6
CONTINUOUS
 62
    7
 10
218.24910221736292
 20
222.08094703235707
 11
228.24910221736337
 21
232.08094703235747
  0
LINE
  8
_4-0_
  6
CONTINUOUS
 62
    7
 10
215.42067509261648
 20
222.0809470323573
 11
225.42067509261693
 21
232.08094703235773
  0
LINE
  8
_4-0_
  6
CONTINUOUS
 62
    7
 10
212.59224796786913
 20
222.08094703235662
 11
222.5922479678697
 21
232.08094703235719
  0
LINE
  8
_4-0_
  6
CONTINUOUS
 62
    7
 10
209.76382084312269
 20
222.08094703235687
 11
219.76382084312326
 21
232.08094703235741
  0
LINE
  8
_4-0_
  6
CONTINUOUS
 62
    7
 10
206.93539371837625
 20
222.08094703235707
 11
216.93539371837579
 21
232.08094703235656
  0
LINE
  8
_4-0_
  6
CONTINUOUS
 62
    7
 10
204.10696659363379
 20
222.08094703235759
 11
214.10696659363322
 21
232.08094703235707
  0
LINE
  8
_4-0_
  6
CONTINUOUS
 62
    7
 10
202.07863474838172
 20
222.88104231185218
 11
211.27853946888666
 21
232.08094703235719
  0
LINE
  8
_4-0_
  6
CONTINUOUS
 62
    7
 10
202.07863474838229
 20
225.70946943659948
 11
208.45011234414022
 21
232.08094703235741
  0
LINE
  8
_4-0_
  6
CONTINUOUS
 62
    7
 10
202.07863474838194
 20
228.53789656134578
 11
205.62168521939378
 21
232.08094703235764
  0
LINE
  8
_4-0_
  6
CONTINUOUS
 62
    7
 10
202.0786347483816
 20
231.36632368609207
 11
202.79325809464746
 21
232.08094703235793
  0
LINE
  8
_4-0_
  6
CONTINUOUS
 62
    7
 10
250.81485887378284
 20
226.08094703235764
 11
244.81485887378284
 21
226.08094703235764
  0
LINE
  8
_4-0_
  6
CONTINUOUS
 62
    7
 10
244.81485887378284
 20
226.08094703235764
 11
244.81485887378284
 21
232.08094703235764
  0
LINE
  8
_4-0_
  6
CONTINUOUS
 62
    7
 10
250.81485887378284
 20
226.08094703235764
 11
250.81485887378284
 21
232.08094703235764
  0
LINE
  8
_4-0_
  6
CONTINUOUS
 62
    7
 10
244.81485887378284
 20
226.08094703235764
 11
247.81485887378284
 21
222.08094703235761
  0
LINE
  8
_4-0_
  6
CONTINUOUS
 62
    7
 10
247.81485887378284
 20
222.08094703235761
 11
250.81485887378284
 21
226.08094703235764
  0
LINE
  8
_4-0_
  6
CONTINUOUS
 62
    7
 10
243.70494634007997
 20
222.08094703235767
 11
253.70494634007929
 21
232.08094703235702
  0
LINE
  8
_4-0_
  6
CONTINUOUS
 62
    7
 10
264.89276482081885
 20
232.08094703235764
 11
247.81485887378284
 21
232.45835931847995
  0
LINE
  8
_4-0_
  6
CONTINUOUS
 62
    7
 10
230.73695292674671
 20
232.08094703235764
 11
247.81485887378284
 21
232.45835931847995
  0
LINE
  8
ADD_LINE
  6
DOT
 62
    7
 10
264.8927648208188
 20
232.08094703235764
 11
230.73695292674671
 21
232.08094703235764
  0
LINE
  8
_4-0_
  6
CONTINUOUS
 62
    7
 10
218.87929073891479
 20
232.08094703235741
 11
227.77007862985312
 21
232.08094703235741
  0
LINE
  8
_4-0_
  6
CONTINUOUS
 62
    2
 10
265.31485887378278
 20
251.65835931848
 11
265.91485887378275
 21
251.65835931848
  0
LINE
  8
_4-0_
  6
CONTINUOUS
 62
    2
 10
230.31485887378284
 20
251.65835931848
 11
229.71485887378282
 21
251.65835931848
  0
LINE
  8
_4-0_
  6
CONTINUOUS
 62
    2
 10
263.7335982038428
 20
248.49629643978011
 11
264.22438247324209
 21
248.98708070917942
  0
LINE
  8
_4-0_
  6
CONTINUOUS
 62
    2
 10
263.02649142265591
 20
248.49629643977988
 11
264.02088962016592
 21
249.49069463728989
  0
LINE
  8
_4-0_
  6
CONTINUOUS
 62
    2
 10
262.3193846414693
 20
248.49629643977991
 11
263.80141042675064
 21
249.97832222506128
  0
LINE
  8
_4-0_
  6
CONTINUOUS
 62
    2
 10
261.61227786028263
 20
248.49629643977997
 11
263.56981056683708
 21
250.45382914633439
  0
LINE
  8
_4-0_
  6
CONTINUOUS
 62
    2
 10
260.90517107909602
 20
248.49629643978
 11
263.32646268529265
 21
250.91758804597663
  0
LINE
  8
_4-0_
  6
CONTINUOUS
 62
    2
 10
260.329243448814
 20
248.62747559068464
 11
263.07169048848868
 21
251.36992263035933
  0
LINE
  8
_4-0_
  6
CONTINUOUS
 62
    2
 10
259.88095571272964
 20
248.88629463578701
 11
262.80577408499767
 21
251.81111300805497
  0
LINE
  8
_4-0_
  6
CONTINUOUS
 62
    2
 10
259.43266797664597
 20
249.14511368088904
 11
262.5289543595884
 21
252.24140006383146
  0
LINE
  8
_4-0_
  6
CONTINUOUS
 62
    2
 10
260.9917985781679
 20
251.41135106359766
 11
262.24143655387888
 21
252.66098903930862
  0
LINE
  8
_4-0_
  6
CONTINUOUS
 62
    2
 10
260.56744588771909
 20
251.69410515433552
 11
261.94339318693778
 21
253.07005245355418
  0
LINE
  8
_4-0_
  6
CONTINUOUS
 62
    2
 10
259.86586237495334
 20
251.69962842275643
 11
261.63496641861798
 21
253.46873246642105
  0
LINE
  8
_4-0_
  6
CONTINUOUS
 62
    2
 10
259.15875559376667
 20
251.69962842275643
 11
261.3162699347215
 21
253.85714276371124
  0
LINE
  8
_4-0_
  6
CONTINUOUS
 62
    2
 10
258.45164881258006
 20
251.69962842275646
 11
260.98739041442627
 21
254.23537002460267
  0
LINE
  8
_4-0_
  6
CONTINUOUS
 62
    2
 10
257.81863776076869
 20
251.77372415213176
 11
260.64838862530087
 21
254.60347501666394
  0
LINE
  8
_4-0_
  6
CONTINUOUS
 62
    2
 10
257.4708682476425
 20
252.13306142019223
 11
260.29930017875836
 21
254.96149335130809
  0
LINE
  8
_4-0_
  6
CONTINUOUS
 62
    2
 10
257.11004638694516
 20
252.47934634068065
 11
259.94013596810896
 21
255.30943592184445
  0
LINE
  8
_4-0_
  6
CONTINUOUS
 62
    2
 10
256.73614238426188
 20
252.81254911918404
 11
259.57088230186605
 21
255.64728903678821
  0
LINE
  8
_4-0_
  6
CONTINUOUS
 62
    2
 10
256.34907233518805
 20
253.13258585129691
 11
259.19150073614651
 21
255.97501425225533
  0
LINE
  8
_4-0_
  6
CONTINUOUS
 62
    2
 10
255.94869647913032
 20
253.43931677642581
 11
258.80192760133446
 21
256.29254789862995
  0
LINE
  8
_4-0_
  6
CONTINUOUS
 62
    2
 10
255.53481623514739
 20
253.73254331362955
 11
258.40207320932154
 21
256.5998002878037
  0
LINE
  8
_4-0_
  6
CONTINUOUS
 62
    2
 10
255.10716987018571
 20
254.01200372985454
 11
257.99182071801783
 21
256.89665457768666
  0
LINE
  8
_4-0_
  6
CONTINUOUS
 62
    2
 10
254.66542657237181
 20
254.27736721322734
 11
257.57102461897034
 21
257.18296525982583
  0
LINE
  8
_4-0_
  6
CONTINUOUS
 62
    2
 10
254.20917860212938
 20
254.52822602417064
 11
257.13950880118483
 21
257.45855622322603
  0
LINE
  8
_4-0_
  6
CONTINUOUS
 62
    2
 10
253.73793106000534
 20
254.76408526323326
 11
256.69706412880083
 21
257.72321833202869
  0
LINE
  8
_4-0_
  6
CONTINUOUS
 62
    2
 10
253.25108862457586
 20
254.98434960899044
 11
256.24344545113428
 21
257.97670643554881
  0
LINE
  8
_4-0_
  6
CONTINUOUS
 62
    2
 10
252.74793834950236
 20
255.18830611510364
 11
255.77836793918306
 21
258.21873570478425
  0
LINE
  8
_4-0_
  6
CONTINUOUS
 62
    2
 10
252.22762722239321
 20
255.37510176918113
 11
255.30150261130717
 21
258.44897715809503
  0
LINE
  8
_4-0_
  6
CONTINUOUS
 62
    2
 10
251.68913260882249
 20
255.54371393679708
 11
254.81247086943341
 21
258.66705219740794
  0
LINE
  8
_4-0_
  6
CONTINUOUS
 62
    2
 10
251.13122281299724
 20
255.69291092215852
 11
254.31083781201534
 21
258.87252592117653
  0
LINE
  8
_4-0_
  6
CONTINUOUS
 62
    2
 10
250.55240357380166
 20
255.82119846414957
 11
253.79610401543761
 21
259.06489890578547
  0
LINE
  8
_4-0_
  6
CONTINUOUS
 62
    2
 10
249.95084400437366
 20
255.92674567590737
 11
253.26769537304727
 21
259.24359704458089
  0
LINE
  8
_4-0_
  6
CONTINUOUS
 62
    2
 10
249.32427156482157
 20
256.00728001754192
 11
252.72495043801865
 21
259.40795889073894
  0
LINE
  8
_4-0_
  6
CONTINUOUS
 62
    2
 10
248.66981872757441
 20
256.05993396148142
 11
252.1671045133624
 21
259.55721974726936
  0
LINE
  8
_4-0_
  6
CONTINUOUS
 62
    2
 10
247.98379111945263
 20
256.08101313454631
 11
251.5932694391534
 21
259.69049145424702
  0
LINE
  8
_4-0_
  6
CONTINUOUS
 62
    2
 10
247.2694236373523
 20
256.07375243363271
 11
251.00240759501372
 21
259.80673639129401
  0
LINE
  8
_4-0_
  6
CONTINUOUS
 62
    2
 10
246.51629681683409
 20
256.02773239430115
 11
250.39329798495811
 21
259.90473356242506
  0
LINE
  8
_4-0_
  6
CONTINUOUS
 62
    2
 10
245.71341932677507
 20
255.9319616854288
 11
249.76449126690301
 21
259.98303362555663
  0
LINE
  8
_4-0_
  6
CONTINUOUS
 62
    2
 10
244.84787291769027
 20
255.77352205753022
 11
249.11424899473951
 21
260.03989813457935
  0
LINE
  8
_4-0_
  6
CONTINUOUS
 62
    2
 10
243.89873061649388
 20
255.53148653752004
 11
248.44045973029989
 21
260.07321565132594
  0
LINE
  8
_4-0_
  6
CONTINUOUS
 62
    2
 10
242.82760352615065
 20
255.16746622836348
 11
247.74133245815136
 21
260.08119516036413
  0
LINE
  8
_4-0_
  6
CONTINUOUS
 62
    2
 10
235.96303667160913
 20
249.0100061550086
 11
236.17906438058691
 21
249.2260338639864
  0
LINE
  8
_4-0_
  6
CONTINUOUS
 62
    2
 10
241.54661236564317
 20
254.59358184904266
 11
247.02033110971337
 21
260.0673005931128
  0
LINE
  8
_4-0_
  6
CONTINUOUS
 62
    2
 10
234.74222017519372
 20
248.49629643977985
 11
235.82551098999357
 21
249.57958725457968
  0
LINE
  8
_4-0_
  6
CONTINUOUS
 62
    2
 10
239.69699422534342
 20
253.45107048992958
 11
246.26696639368259
 21
260.0210426582687
  0
LINE
  8
_4-0_
  6
CONTINUOUS
 62
    2
 10
234.03511339400717
 20
248.49629643977991
 11
235.47195759940024
 21
249.93314064517293
  0
LINE
  8
_4-0_
  6
CONTINUOUS
 62
    2
 10
237.2390675863856
 20
251.70025063215834
 11
245.47611954465259
 21
259.93730259042536
  0
LINE
  8
_4-0_
  6
CONTINUOUS
 62
    2
 10
233.3280066128205
 20
248.49629643977997
 11
235.11840420880679
 21
250.2866940357662
  0
LINE
  8
_4-0_
  6
CONTINUOUS
 62
    2
 10
236.53134192609417
 20
251.69963175305358
 11
244.64086747159394
 21
259.80915729855337
  0
LINE
  8
_4-0_
  6
CONTINUOUS
 62
    2
 10
232.62089983163395
 20
248.49629643978005
 11
234.76485081821335
 21
250.64024742635948
  0
LINE
  8
_4-0_
  6
CONTINUOUS
 62
    2
 10
235.82361626580274
 20
251.69901287394885
 11
243.75144035559146
 21
259.62683696373756
  0
LINE
  8
_4-0_
  6
CONTINUOUS
 62
    2
 10
231.91379305044831
 20
248.49629643978017
 11
234.55226051220205
 21
251.13476390153392
  0
LINE
  8
_4-0_
  6
CONTINUOUS
 62
    2
 10
235.11726965282872
 20
251.69977304216059
 11
242.7932398241125
 21
259.37574321344437
  0
LINE
  8
_4-0_
  6
CONTINUOUS
 62
    2
 10
231.43406286497276
 20
248.72367303549134
 11
241.74260917571513
 21
259.03221934623366
  0
LINE
  8
_4-0_
  6
CONTINUOUS
 62
    2
 10
231.69887873103465
 20
249.69559568273988
 11
240.55611509486647
 21
258.55283204657167
  0
LINE
  8
_4-0_
  6
CONTINUOUS
 62
    2
 10
232.41368813964067
 20
251.11751187253256
 11
239.13419890507379
 21
257.83802263796565
  0
LINE
  8
_4-0_
  6
CONTINUOUS
 62
    2
 10
233.77115592372996
 20
253.18208643780852
 11
237.06962433979783
 21
256.48055485387636
  0
TEXT
  8
_4-0_
 62
    7
 10
239.22030287357194
 20
273.40224910315686
 40
8
 41
1
 50
0
  1
18.5
  0
TEXT
  8
_4-0_
 62
    7
 10
259.6459306621818
 20
274.21846742494006
 40
6
 41
1
 50
0
  1
(器具取り付時最大20）
  0
TEXT
  8
_4-0_
 62
    7
 10
284.70234381655723
 20
250.0805340370795
 40
5
 41
1
 50
0
  1
※マグネット仕様時
  0
TEXT
  8
_4-0_
 62
    7
 10
284.70234381655723
 20
244.37400478940381
 40
5
 41
1
 50
0
  1
(オプション)には
  0
TEXT
  8
_4-0_
 62
    7
 10
284.70234381655723
 20
238.54850176263716
 40
5
 41
1
 50
0
  1
付属しません。
  0
TEXT
  8
_4-0_
 62
    7
 10
284.5773537861852
 20
256.77140383787287
 40
6
 41
1
 50
0
  1
固定金具
  0
LINE
  8
_4-0_
  6
CONTINUOUS
 62
    4
 10
282.87322233960589
 20
257.54179913753154
 11
266.07157893262809
 21
246.83632723220055
  0
TEXT
  8
_1-0_
 62
    7
 10
102.44498607005119
 20
19.800000000000011
 40
7
 41
1
 50
0
  1
WW:3500K / L30:3000K / L27:2700K / L25:2500K
  0
ENDSEC
  0
EOF
