  0
SECTION
  2
HEADER
  9
$ACADVER
  1
AC1009
  9
$INSBASE
 10
0
 20
0
 30
0
  9
$EXTMIN
 10
0
 20
0
  9
$EXTMAX
 10
840
 20
594
  9
$LIMMIN
 10
0
 20
0
  9
$LIMMAX
 10
840
 20
594
  9
$LTSCALE
 40
2
  0
ENDSEC
  0
SECTION
  2
TABLES
  0
TABLE
  2
LTYPE
 70
     9
  0
LTYPE
  2
CONTINUOUS
 70
    64
  3
実線
 72
    65
 73
     0
 40
0.0
  0
LTYPE
  2
DASHED1
 70
    64
  3
--  --  --  --  --  --  --  --  
 72
    65
 73
     2
 40
2.5
 49
1.25
 49
-1.25
  0
LTYPE
  2
DASHED2
 70
    64
  3
----    ----    ----    ----    
 72
    65
 73
     2
 40
5.0
 49
2.5
 49
-2.5
  0
LTYPE
  2
DASHED3
 70
    64
  3
------  ------  ------  ------  
 72
    65
 73
     2
 40
5.0
 49
3.75
 49
-1.25
  0
LTYPE
  2
CENTER1
 70
    64
  3
----- - ----- - ----- - ----- - 
 72
    65
 73
     4
 40
10.0
 49
6.25
 49
-1.25
 49
1.25
 49
-1.25
  0
LTYPE
  2
CENTER2
 70
    64
  3
----------  --  ----------  --  
 72
    65
 73
     4
 40
20.0
 49
12.5
 49
-2.5
 49
2.5
 49
-2.5
  0
LTYPE
  2
PHANTOM1
 70
    64
  3
--- - - --- - - --- - - --- - - 
 72
    65
 73
     6
 40
10.0
 49
3.25
 49
-1.25
 49
1.25
 49
-1.25
 49
1.25
 49
-1.25
  0
LTYPE
  2
PHANTOM2
 70
    64
  3
--------  -  -  --------  -  -  
 72
    65
 73
     6
 40
20.0
 49
10.0
 49
-2.5
 49
1.25
 49
-2.5
 49
1.25
 49
-2.5
  0
LTYPE
  2
DOT
 70
    64
  3
-   -   -   -   -   -   -   -   
 72
    65
 73
     2
 40
2.5
 49
0.625
 49
-1.875
  0
LTYPE
  2
DUMMY
 70
    64
  3
ダミー
 72
    65
 73
     0
 40
0.0
  0
LTYPE
  2
RAND1
 70
    64
  3
ランダム線1
 72
    65
 73
     4
 40
10.0
 49
1.0
 49
-2.0
 49
3.0
 49
-4.0
  0
LTYPE
  2
RAND2
 70
    64
  3
ランダム線2
 72
    65
 73
     4
 40
14.0
 49
2.0
 49
-3.0
 49
4.0
 49
-5.0
  0
LTYPE
  2
RAND3
 70
    64
  3
ランダム線3
 72
    65
 73
     4
 40
18.0
 49
3.0
 49
-4.0
 49
5.0
 49
-6.0
  0
LTYPE
  2
RAND4
 70
    64
  3
ランダム線4
 72
    65
 73
     4
 40
22.0
 49
4.0
 49
-5.0
 49
6.0
 49
-7.0
  0
LTYPE
  2
RAND5
 70
    64
  3
ランダム線5
 72
    65
 73
     4
 40
26.0
 49
5.0
 49
-6.0
 49
7.0
 49
-8.0
  0
LTYPE
  2
LONG1
 70
    64
  3
----------  --  ----------  --  
 72
    65
 73
     4
 40
40.0
 49
32.5
 49
-2.5
 49
2.5
 49
-2.5
  0
LTYPE
  2
LONG2
 70
    64
  3
--------  -  -  --------  -  -  
 72
    65
 73
     6
 40
40.0
 49
30.0
 49
-2.5
 49
1.25
 49
-2.5
 49
1.25
 49
-2.5
  0
LTYPE
  2
LONG3
 70
    64
  3
+++++++++++++++..+++++++++++++++
 72
    65
 73
     2
 40
40.0
 49
37.5
 49
-2.5
  0
LTYPE
  2
LONG4
 70
    64
  3
+++++++++++++++..+++++++++++++++
 72
    65
 73
     2
 40
80.0
 49
75.0
 49
-5.0
  0
LTYPE
  2
LONG5
 70
    64
  3
----------  --  ----------  --  
 72
    65
 73
     4
 40
60.0
 49
37.5
 49
-7.5
 49
7.5
 49
-7.5
  0
LTYPE
  2
dashed
 70
   64
  3
-------   -------------   ------
 72
   65
 73
    2
 40
7.5
 49
6
 49
-1.5
  0
LTYPE
  2
dashed_spaced
 70
   64
  3
----        --------        ----
 72
   65
 73
    2
 40
12
 49
6
 49
-6
  0
LTYPE
  2
long_dashed_dotted
 70
   64
  3
------------- --- --------------
 72
   65
 73
    4
 40
15.25
 49
12
 49
-1.5
 49
0.25
 49
-1.5
  0
LTYPE
  2
long_dashed_double-dotted
 70
   64
  3
----------- --- --- ------------
 72
   65
 73
    6
 40
17
 49
12
 49
-1.5
 49
0.25
 49
-1.5
 49
0.25
 49
-1.5
  0
LTYPE
  2
long_dashed_triplicate-dotted
 70
   64
  3
--------- --- --- --- ----------
 72
   65
 73
    8
 40
18.75
 49
12
 49
-1.5
 49
0.25
 49
-1.5
 49
0.25
 49
-1.5
 49
0.25
 49
-1.5
  0
LTYPE
  2
dotted
 70
   64
  3
   -       -       -       -    
 72
   65
 73
    2
 40
1.75
 49
0.25
 49
-1.5
  0
LTYPE
  2
chain
 70
   64
  3
-------------- -- --------------
 72
   65
 73
    4
 40
18.5
 49
12
 49
-1.5
 49
3.5
 49
-1.5
  0
LTYPE
  2
chain_double_dash
 70
   64
  3
------------ -- -- -------------
 72
   65
 73
    6
 40
23.5
 49
12
 49
-1.5
 49
3.5
 49
-1.5
 49
3.5
 49
-1.5
  0
LTYPE
  2
dashed_dotted
 70
   64
  3
-----------     -     ----------
 72
   65
 73
    4
 40
9.25
 49
6
 49
-1.5
 49
0.25
 49
-1.5
  0
LTYPE
  2
double-dashed_dotted
 70
   64
  3
------   -----------   -   -----
 72
   65
 73
    6
 40
16.75
 49
6
 49
-1.5
 49
6
 49
-1.5
 49
0.25
 49
-1.5
  0
LTYPE
  2
dashed_double-dotted
 70
   64
  3
---------    -    -    ---------
 72
   65
 73
    6
 40
11
 49
6
 49
-1.5
 49
0.25
 49
-1.5
 49
0.25
 49
-1.5
  0
LTYPE
  2
double-dashed_double-dotted
 70
   64
  3
-----   ---------   -   -   ----
 72
   65
 73
    8
 40
18.5
 49
6
 49
-1.5
 49
6
 49
-1.5
 49
0.25
 49
-1.5
 49
0.25
 49
-1.5
  0
LTYPE
  2
dashed_triplicate-dotted
 70
   64
  3
-------    -    -    -    ------
 72
   65
 73
    8
 40
12.75
 49
6
 49
-1.5
 49
0.25
 49
-1.5
 49
0.25
 49
-1.5
 49
0.25
 49
-1.5
  0
LTYPE
  2
double-dashed_triplicate-dotted
 70
   64
  3
-----  ---------  -  -  -  -----
 72
   65
 73
   10
 40
20.25
 49
6
 49
-1.5
 49
6
 49
-1.5
 49
0.25
 49
-1.5
 49
0.25
 49
-1.5
 49
0.25
 49
-1.5
  0
LTYPE
  2
undefined
 70
   64
  3
--------------------------------
 72
   65
 73
    0
 40
0
  0
LTYPE
  2
_
 70
   64
  3
                                
 72
   65
 73
    0
 40
0
  0
LTYPE
  2
__18
 70
   64
  3
                                
 72
   65
 73
    0
 40
0
  0
LTYPE
  2
__19
 70
   64
  3
                                
 72
   65
 73
    0
 40
0
  0
LTYPE
  2
__20
 70
   64
  3
                                
 72
   65
 73
    0
 40
0
  0
LTYPE
  2
__21
 70
   64
  3
                                
 72
   65
 73
    0
 40
0
  0
LTYPE
  2
__22
 70
   64
  3
                                
 72
   65
 73
    0
 40
0
  0
LTYPE
  2
__23
 70
   64
  3
                                
 72
   65
 73
    0
 40
0
  0
LTYPE
  2
__24
 70
   64
  3
                                
 72
   65
 73
    0
 40
0
  0
LTYPE
  2
__25
 70
   64
  3
                                
 72
   65
 73
    0
 40
0
  0
LTYPE
  2
__26
 70
   64
  3
                                
 72
   65
 73
    0
 40
0
  0
LTYPE
  2
__27
 70
   64
  3
                                
 72
   65
 73
    0
 40
0
  0
LTYPE
  2
__28
 70
   64
  3
                                
 72
   65
 73
    0
 40
0
  0
LTYPE
  2
__29
 70
   64
  3
                                
 72
   65
 73
    0
 40
0
  0
LTYPE
  2
__30
 70
   64
  3
                                
 72
   65
 73
    0
 40
0
  0
LTYPE
  2
__31
 70
   64
  3
                                
 72
   65
 73
    0
 40
0
  0
LTYPE
  2
__32
 70
   64
  3
                                
 72
   65
 73
    0
 40
0
  0
ENDTAB
  0
TABLE
  2
STYLE
  5
3
100
AcDbSymbolTable
 70
     1
  0
STYLE
  5
10
100
AcDbSymbolTableRecord
100
AcDbTextStyleTableRecord
  2
STANDARD
 70
     0
 40
0.0
 41
1.0
 50
0.0
 71
     0
 42
0.2
  3
txt
  4
bigfont.shx
  0
STYLE
  5
26
100
AcDbSymbolTableRecord
100
AcDbTextStyleTableRecord
  2
TATEGAKI
 70
    68
 40
0.0
 41
1.0
 50
0.0
 71
     0
 42
1.0
  3
txt
  4
bigfont.shx
  0
ENDTAB
  0
TABLE
  2
LAYER
 70
    7
  0
LAYER
  2
_0-0_1
 70
   64
 62
    7
  6
CONTINUOUS
  0
LAYER
  2
_1-0_
 70
   64
 62
    7
  6
CONTINUOUS
  0
LAYER
  2
_1-6_23
 70
   64
 62
    7
  6
CONTINUOUS
  0
LAYER
  2
_2-0_
 70
   64
 62
    7
  6
CONTINUOUS
  0
LAYER
  2
_3-0_
 70
   64
 62
    7
  6
CONTINUOUS
  0
LAYER
  2
_4-0_
 70
   64
 62
    7
  6
CONTINUOUS
  0
LAYER
  2
ADD_LINE
 70
   64
 62
    7
  6
CONTINUOUS
  0
ENDTAB
  0
ENDSEC
  0
SECTION
  2
BLOCKS
  0
ENDSEC
  0
SECTION
  2
ENTITIES
  0
LINE
  8
_3-0_
  6
CONTINUOUS
 62
    4
 10
680.92233711161953
 20
457.06493739629286
 11
705.59092311161953
 21
457.06493739629286
  0
LINE
  8
_1-6_23
  6
CONTINUOUS
 62
    7
 10
818.24613889818374
 20
96.813026878876087
 11
628.2461548981837
 21
96.813026878876087
  0
LINE
  8
_1-6_23
  6
CONTINUOUS
 62
    7
 10
818.24613889818374
 20
106.81302687887609
 11
628.2461548981837
 21
106.81302687887609
  0
LINE
  8
_1-6_23
  6
CONTINUOUS
 62
    7
 10
818.24613889818374
 20
116.81302687887609
 11
628.2461548981837
 21
116.81302687887609
  0
LINE
  8
_0-0_1
  6
CONTINUOUS
 62
    7
 10
103.07751563907476
 20
514.41951494752732
 11
63.510081428548517
 21
514.41951494752732
  0
TEXT
  8
_0-0_1
 62
    7
 10
63.953847392080775
 20
515.04673914601426
 40
9.9999999999999716
 41
1.0000000000000013
 50
0
  1
◆外形図
  0
TEXT
  8
_0-0_1
 62
    7
 10
64.00822186560606
 20
184.74056006602689
 40
10
 41
1.0000000000000013
 50
0
  1
◆型式内容
  0
LINE
  8
_0-0_1
  6
CONTINUOUS
 62
    7
 10
64.5684695864432
 20
183.92324281811977
 11
115.37110116539054
 21
183.92324281811977
  0
LINE
  8
_1-6_23
  6
CONTINUOUS
 62
    7
 10
818.24613889818374
 20
126.81302687887609
 11
628.2461548981837
 21
126.81302687887609
  0
LINE
  8
_0-0_1
  6
CONTINUOUS
 62
    7
 10
588.14017489818366
 20
519.70761887887602
 11
583.64019089818362
 21
510.70761487887603
  0
LINE
  8
_0-0_1
  6
CONTINUOUS
 62
    7
 10
588.14017489818366
 20
519.70761887887602
 11
592.64017489818366
 21
510.70761487887603
  0
LINE
  8
_0-0_1
  6
CONTINUOUS
 62
    7
 10
578.29442489818371
 20
520.01924487887607
 11
578.29442489818371
 21
510.01928487887614
  0
LINE
  8
_0-0_1
  6
CONTINUOUS
 62
    7
 10
598.29444089818367
 20
520.01924487887607
 11
598.29444089818367
 21
510.01928487887614
  0
LINE
  8
_0-0_1
  6
CONTINUOUS
 62
    7
 10
658.29444089818367
 20
520.01924487887607
 11
658.29444089818367
 21
510.01928487887614
  0
LINE
  8
_0-0_1
  6
CONTINUOUS
 62
    7
 10
578.29442489818371
 20
530.81302887887614
 11
578.29442489818371
 21
520.01924487887607
  0
LINE
  8
_0-0_1
  6
CONTINUOUS
 62
    7
 10
598.29444089818367
 20
530.81302887887614
 11
598.29444089818367
 21
520.01924487887607
  0
LINE
  8
_0-0_1
  6
CONTINUOUS
 62
    7
 10
658.29444089818367
 20
530.81302887887614
 11
658.29444089818367
 21
520.01924487887607
  0
LINE
  8
_0-0_1
  6
CONTINUOUS
 62
    7
 10
778.29444089818367
 20
530.81302887887614
 11
778.29444089818367
 21
510.01928487887614
  0
LINE
  8
_0-0_1
  6
CONTINUOUS
 62
    7
 10
798.29444089818355
 20
530.81302887887614
 11
798.29444089818355
 21
510.01928487887614
  0
LINE
  8
_0-0_1
  6
CONTINUOUS
 62
    7
 10
818.24613889818374
 20
520.01924487887607
 11
578.29445689818363
 21
520.01924487887607
  0
LINE
  8
_0-0_1
  6
CONTINUOUS
 62
    7
 10
578.29442489818371
 20
510.01928487887614
 11
818.24613889818374
 21
510.01928487887614
  0
TEXT
  8
_0-0_1
 62
    7
 10
581.92572491889473
 20
522.33613221977896
 40
6
 41
1
 50
0
  1
Ｎｏ
  0
TEXT
  8
_0-0_1
 62
    7
 10
612.62840636708427
 20
522.43485466816537
 40
6
 41
1.0000000000000007
 50
0
  1
年　月　日
  0
TEXT
  8
_0-0_1
 62
    7
 10
694.07442628591548
 20
522.2867709955857
 40
6
 41
1.0000000000000011
 50
0
  1
訂　正　記　事
  0
TEXT
  8
_0-0_1
 62
    7
 10
780.90081964180854
 20
521.01571947261004
 40
8.0000000000000284
 41
0.9999999999999973
 50
0
  1
担当
  0
TEXT
  8
_0-0_1
 62
    7
 10
800.250419525555
 20
521.11444192099657
 40
8
 41
1.0000000000000009
 50
0
  1
検印
  0
TEXT
  8
_0-0_1
 62
    7
 10
586.18730158730159
 20
510.7492063492063
 40
8
 41
1
 50
0
  1
1
  0
LINE
  8
_0-0_1
  6
CONTINUOUS
 62
    7
 10
583.64019089818362
 20
510.70761487887603
 11
592.64017489818366
 21
510.70761487887603
  0
LINE
  8
_0-0_1
  6
CONTINUOUS
 62
    7
 10
58.246204898183635
 20
530.81302887887614
 11
818.24613889818374
 21
530.81302887887614
  0
LINE
  8
_0-0_1
  6
CONTINUOUS
 62
    7
 10
58.252538898183673
 20
16.813014878876174
 11
58.246204898183635
 21
530.81302887887614
  0
LINE
  8
_0-0_1
  6
CONTINUOUS
 62
    7
 10
818.24613889818374
 20
16.813014878876174
 11
58.246204898183635
 21
16.813014878876174
  0
LINE
  8
_0-0_1
  6
CONTINUOUS
 62
    7
 10
818.24613889818374
 20
530.81302887887614
 11
818.24613889818374
 21
16.813014878876174
  0
LINE
  8
_0-0_1
  6
CONTINUOUS
 62
    7
 10
728.24613889818374
 20
56.813022878876097
 11
728.24613889818374
 21
16.813014878876174
  0
LINE
  8
_0-0_1
  6
CONTINUOUS
 62
    7
 10
728.24613889818374
 20
76.813026878876087
 11
728.24613889818374
 21
56.813022878876097
  0
LINE
  8
_0-0_1
  6
CONTINUOUS
 62
    7
 10
718.2461548981837
 20
56.813022878876097
 11
718.2461548981837
 21
16.813014878876174
  0
LINE
  8
_0-0_1
  6
CONTINUOUS
 62
    7
 10
648.29209689818367
 20
49.37143087887614
 11
648.29209689818367
 21
43.371436878876125
  0
LINE
  8
_0-0_1
  6
CONTINUOUS
 62
    7
 10
648.29209689818367
 20
49.37143087887614
 11
662.29209289818368
 21
52.371428878876088
  0
LINE
  8
_0-0_1
  6
CONTINUOUS
 62
    7
 10
662.29209289818368
 20
52.371428878876088
 11
662.29209289818368
 21
40.371426878876093
  0
LINE
  8
_0-0_1
  6
CONTINUOUS
 62
    7
 10
648.29209689818367
 20
43.371436878876125
 11
662.29209289818368
 21
40.371426878876093
  0
LINE
  8
_0-0_1
  6
CENTER1
 62
    7
 10
666.29205689818377
 20
46.371432878876135
 11
630.2920868981837
 21
46.371432878876135
  0
LINE
  8
_0-0_1
  6
CENTER1
 62
    7
 10
638.29206489818375
 20
54.37143487887613
 11
638.29206489818375
 21
38.371428878876088
  0
LINE
  8
_0-0_1
  6
CONTINUOUS
 62
    7
 10
718.2461548981837
 20
76.813026878876087
 11
718.2461548981837
 21
16.813014878876174
  0
LINE
  8
_0-0_1
  6
CONTINUOUS
 62
    7
 10
778.2461548981837
 20
76.813026878876087
 11
778.2461548981837
 21
56.813022878876097
  0
LINE
  8
_0-0_1
  6
CONTINUOUS
 62
    7
 10
788.24623889818372
 20
76.813026878876087
 11
788.24623889818372
 21
56.813022878876097
  0
LINE
  8
_0-0_1
  6
CONTINUOUS
 62
    7
 10
668.24618889818362
 20
56.813022878876097
 11
668.24618889818362
 21
36.813016878876169
  0
LINE
  8
_0-0_1
  6
CONTINUOUS
 62
    7
 10
678.24617289818366
 20
56.813022878876097
 11
678.24617289818366
 21
36.813016878876169
  0
LINE
  8
_0-0_1
  6
CONTINUOUS
 62
    7
 10
698.24623889818372
 20
76.813026878876087
 11
698.24623889818372
 21
56.813022878876097
  0
LINE
  8
_0-0_1
  6
CONTINUOUS
 62
    7
 10
688.2461548981837
 20
76.813026878876087
 11
688.2461548981837
 21
56.813022878876097
  0
LINE
  8
_0-0_1
  6
CONTINUOUS
 62
    7
 10
668.24618889818362
 20
76.813026878876087
 11
668.24618889818362
 21
56.813022878876097
  0
LINE
  8
_0-0_1
  6
CONTINUOUS
 62
    7
 10
658.2461548981837
 20
76.813026878876087
 11
658.2461548981837
 21
56.813022878876097
  0
LINE
  8
_0-0_1
  6
CONTINUOUS
 62
    7
 10
638.24613889818374
 20
76.813026878876087
 11
638.24613889818374
 21
56.813022878876097
  0
LINE
  8
_0-0_1
  6
CONTINUOUS
 62
    7
 10
818.24613889818374
 20
76.813026878876087
 11
628.2461548981837
 21
76.813026878876087
  0
LINE
  8
_0-0_1
  6
CONTINUOUS
 62
    7
 10
818.24613889818374
 20
56.813022878876097
 11
628.2461548981837
 21
56.813022878876097
  0
LINE
  8
_0-0_1
  6
CONTINUOUS
 62
    7
 10
818.24613889818374
 20
36.813016878876169
 11
628.2461548981837
 21
36.813016878876169
  0
CIRCLE
  8
_0-0_1
  6
CONTINUOUS
 62
    7
 10
638.29206489818375
 20
46.371432878876135
 40
6
  0
CIRCLE
  8
_0-0_1
  6
CONTINUOUS
 62
    7
 10
638.29206489818375
 20
46.371432878876135
 40
3
  0
LINE
  8
_0-0_1
  6
CONTINUOUS
 62
    7
 10
818.24613889818374
 20
86.813026878876087
 11
628.2461548981837
 21
86.813026878876087
  0
LINE
  8
_0-0_1
  6
CONTINUOUS
 62
    7
 10
668.24618889818362
 20
76.813026878876087
 11
668.24618889818362
 21
86.813026878876087
  0
TEXT
  8
_0-0_1
 62
    7
 10
639.72501689818364
 20
77.604776878876123
 40
8
 41
1.0000000000000009
 50
0
  1
出図
  0
LINE
  8
_0-0_1
  6
CONTINUOUS
 62
    7
 10
728.2461548981837
 20
76.813026878876087
 11
728.2461548981837
 21
86.813026878876087
  0
TEXT
  8
_0-0_1
 62
    7
 10
691.57108889818369
 20
78.605196878876143
 40
6
 41
2
 50
0
  1
.   .
  0
LINE
  8
_0-0_1
  6
CONTINUOUS
 62
    7
 10
798.24613889818363
 20
86.813026878876087
 11
798.24613889818363
 21
76.813026878876087
  0
TEXT
  8
_0-0_1
 62
    7
 10
632.96866889818375
 20
72.802968878876129
 40
6
 41
1
 50
0
  1
設計
  7
TATEGAKI
  0
TEXT
  8
_0-0_1
 62
    7
 10
662.87419089818377
 20
72.802968878876129
 40
6
 41
1
 50
0
  1
製図
  7
TATEGAKI
  0
TEXT
  8
_0-0_1
 62
    7
 10
692.60065489818362
 20
72.802968878876129
 40
6
 41
1
 50
0
  1
検図
  7
TATEGAKI
  0
TEXT
  8
_0-0_1
 62
    7
 10
723.30341689818374
 20
72.965028878876126
 40
5.9999999999999822
 41
1.0000000000000029
 50
0
  1
作図
  7
TATEGAKI
  0
TEXT
  8
_0-0_1
 62
    7
 10
783.29835889818378
 20
72.840602878876098
 40
6
 41
1
 50
0
  1
尺度
  7
TATEGAKI
  0
TEXT
  8
_0-0_1
 62
    7
 10
673.51938089818373
 20
53.368536878876171
 40
6
 41
1
 50
0
  1
材質
  7
TATEGAKI
  0
TEXT
  8
_0-0_1
 62
    7
 10
723.27120889818366
 20
53.368536878876171
 40
6
 41
1
 50
0
  1
品名
  7
TATEGAKI
  0
TEXT
  8
_0-0_1
 62
    7
 10
723.69572689818369
 20
33.065162878876151
 40
6
 41
1
 50
0
  1
図番
  7
TATEGAKI
  0
TEXT
  8
_0-0_1
 62
    7
 10
695.22081778077472
 20
42.37764287887606
 40
8.0000000000000568
 41
0.9999999999999964
 50
0
  1
-
  0
TEXT
  8
_0-0_1
 62
    7
 10
796.43533678380822
 20
63.037782337899785
 40
6
 41
1
 50
0
  1
1：2
  0
TEXT
  8
_0-0_1
 62
    7
 10
641.53094567047697
 20
21.576153643551322
 40
8
 41
0.9999999999999994
 50
0
  1
ＦＫＫ株式会社
  0
LINE
  8
_1-6_23
  6
CONTINUOUS
 62
    7
 10
628.2461548981837
 20
136.81302687887609
 11
628.2461548981837
 21
87.311010257945725
  0
LINE
  8
_0-0_1
  6
CONTINUOUS
 62
    7
 10
628.2461548981837
 20
86.425776182987988
 11
628.2461548981837
 21
16.813014878876174
  0
LINE
  8
_1-0_
  6
CONTINUOUS
 62
    7
 10
648.26590889818351
 20
136.81302687887609
 11
648.26590889818351
 21
86.813026878876087
  0
LINE
  8
_1-0_
  6
CONTINUOUS
 62
    7
 10
628.2461548981837
 20
136.81302687887609
 11
628.2461548981837
 21
146.71302687887609
  0
LINE
  8
_1-0_
  6
CONTINUOUS
 62
    7
 10
628.2461548981837
 20
146.71302687887609
 11
818.24613889818374
 21
146.71302687887609
  0
LINE
  8
_1-0_
  6
CONTINUOUS
 62
    7
 10
648.26590889818351
 20
136.81302687887609
 11
648.26590889818351
 21
146.64181645146996
  0
LINE
  8
_1-0_
  6
CONTINUOUS
 62
    7
 10
798.24613889818363
 20
136.81302687887609
 11
798.24613889818363
 21
146.73493814459161
  0
LINE
  8
_1-0_
  6
CONTINUOUS
 62
    7
 10
818.24613889818374
 20
136.81302687887609
 11
628.2461548981837
 21
136.81302687887609
  0
LINE
  8
_1-0_
  6
CONTINUOUS
 62
    7
 10
740.09278889818358
 20
87.073472447832046
 11
740.09278889818358
 21
146.67285701584382
  0
TEXT
  8
_0-0_1
 62
    7
 10
617.42990388038447
 20
511.74724101103595
 40
6
 41
1
 50
0
  1
.　　.
  0
TEXT
  8
_1-0_
 62
    7
 10
634.63506185180563
 20
138.03396226415094
 40
7
 41
1
 50
0
  1
⑥
  0
LINE
  8
_1-0_
  6
CONTINUOUS
 62
    7
 10
504.01174031704562
 20
120.74284121895695
 11
504.01174031704562
 21
40.742841218956983
  0
LINE
  8
_1-0_
  6
CONTINUOUS
 62
    7
 10
447.79615534399693
 20
120.74284121895695
 11
447.79615534399693
 21
40.742841218956983
  0
TEXT
  8
_1-0_
 62
    7
 10
453.15057401006936
 20
106.67824631890275
 40
11.199999999999989
 41
1.0000000000000004
 50
0
  1
入力電流
  0
LINE
  8
_1-0_
  6
CONTINUOUS
 62
    7
 10
392.31873320809285
 20
120.74284121895695
 11
392.31873320809285
 21
40.742841218956983
  0
TEXT
  8
_1-0_
 62
    7
 10
397.71153174739413
 20
106.67824631890275
 40
11.199999999999989
 41
1.0000000000000009
 50
0
  1
入力電力
  0
TEXT
  8
_1-0_
 62
    7
 10
369.16020923789614
 20
106.40058943281585
 40
11.200000000000017
 41
0.9999999999999976
 50
0
  1
Ra
  0
TEXT
  8
_1-0_
 62
    7
 10
358.09023124323136
 20
66.637797118094255
 40
10.000000000000057
 41
0.9999999999999943
 50
0
  1
80以上
  0
LINE
  8
_1-0_
  6
CONTINUOUS
 62
    7
 10
353.47160391403065
 20
120.74284121895695
 11
353.47160391403065
 21
40.742841218956983
  0
LINE
  8
_1-0_
  6
CONTINUOUS
 62
    7
 10
244.50583838848092
 20
120.74284121895695
 11
244.50583838848092
 21
40.742841218956983
  0
LINE
  8
_1-0_
  6
CONTINUOUS
 62
    7
 10
74.72867713211275
 20
88.742841218956983
 11
353.46282380971599
 21
88.742841218956983
  0
LINE
  8
_1-0_
  6
CONTINUOUS
 62
    7
 10
392.38697932278154
 20
88.742841218956983
 11
559.90037099802862
 21
88.742841218956983
  0
LINE
  8
_1-0_
  6
CONTINUOUS
 62
    7
 10
74.72867713211275
 20
72.742841218956983
 11
353.46282380971599
 21
72.742841218956983
  0
LINE
  8
_1-0_
  6
CONTINUOUS
 62
    7
 10
392.27480596395429
 20
72.742841218956983
 11
559.90037099802862
 21
72.742841218956983
  0
LINE
  8
_1-0_
  6
CONTINUOUS
 62
    7
 10
74.72867713211275
 20
56.742841218957039
 11
353.68717052737048
 21
56.742841218957039
  0
LINE
  8
_1-0_
  6
CONTINUOUS
 62
    7
 10
392.49915268160885
 20
56.742841218957039
 11
559.90037099802862
 21
56.742841218957039
  0
LINE
  8
_1-0_
  6
CONTINUOUS
 62
    7
 10
74.72867713211275
 20
120.74284121895695
 11
74.72867713211275
 21
40.742841218956983
  0
LINE
  8
_1-0_
  6
CONTINUOUS
 62
    7
 10
74.72867713211275
 20
40.742841218956983
 11
559.90037099802862
 21
40.742841218956983
  0
LINE
  8
_1-0_
  6
CONTINUOUS
 62
    7
 10
74.72867713211275
 20
120.74284121895695
 11
559.90037099802862
 21
120.74284121895695
  0
LINE
  8
_1-0_
  6
CONTINUOUS
 62
    7
 10
559.90037099802862
 20
120.74284121895695
 11
559.90037099802862
 21
40.742841218956983
  0
TEXT
  8
_1-0_
 62
    7
 10
75.401409424706173
 20
122.12406751117976
 40
12
 41
0.9999999999999994
 50
0
  1
◆ 代表特性　定格入力DC24V　LXSW使用
  0
TEXT
  8
_1-0_
 62
    7
 10
107.79151985306396
 20
106.55826265958285
 40
11.199999999999989
 41
0.9999999999999995
 50
0
  1
型式
  0
TEXT
  8
_1-0_
 62
    7
 10
515.29900074665636
 20
110.29331556963569
 40
9.9999999999999716
 41
1.0000000000000031
 50
0
  1
全光束
  0
TEXT
  8
_1-0_
 62
    7
 10
520.32757217522783
 20
104.42664890296905
 40
6
 41
1.0000000000000007
 50
0
  1
N:5000K
  0
LINE
  8
_1-0_
  6
CONTINUOUS
 62
    7
 10
559.90037099802862
 20
120.74284121895695
 11
614.1942388418945
 21
120.74284121895695
  0
LINE
  8
_1-0_
  6
CONTINUOUS
 62
    7
 10
614.1942388418945
 20
120.74284121895695
 11
614.1942388418945
 21
40.742841218956983
  0
LINE
  8
_1-0_
  6
CONTINUOUS
 62
    7
 10
559.90037099802862
 20
40.742841218956983
 11
614.1942388418945
 21
40.742841218956983
  0
TEXT
  8
_1-0_
 62
    7
 10
560.27677852443412
 20
108.61712509344522
 40
8
 41
1
 50
0
  1
最大連結長さ
  0
LINE
  8
_1-0_
  6
CONTINUOUS
 62
    7
 10
559.90037099802862
 20
104.74284121895693
 11
613.63550868316429
 21
104.74284121895693
  0
LINE
  8
_1-0_
  6
CONTINUOUS
 62
    7
 10
299.55931820697384
 20
120.97902985534995
 11
299.55931820697384
 21
40.742841218956983
  0
TEXT
  8
_1-0_
 62
    7
 10
301.23550868316431
 20
105.70707218339226
 40
11.200000000000017
 41
0.9999999999999965
 50
0
  1
LED PKG数
  0
TEXT
  8
_1-0_
 62
    7
 10
201.19081194543148
 20
106.52501931124348
 40
11.200000000000017
 41
0.9999999999999965
 50
0
  1
全長
  0
TEXT
  8
_1-0_
 62
    7
 10
262.17950234085856
 20
106.15650758679982
 40
11.200000000000017
 41
0.9999999999999965
 50
0
  1
重量
  0
TEXT
  8
_1-0_
 62
    7
 10
599.89540607346999
 20
68.388553664873797
 40
10
 41
1
 50
0
  1
㎜
  0
LINE
  8
_1-0_
  6
CONTINUOUS
 62
    7
 10
178.538048231913
 20
120.74284121895695
 11
178.538048231913
 21
40.742841218956983
  0
TEXT
  8
_1-0_
 62
    7
 10
653.34078509162612
 20
118.00135445619003
 40
7.0000000000000284
 41
0.9999999999999954
 50
0
  1
接続コネクタ（出力側）
  0
TEXT
  8
_1-0_
 62
    7
 10
653.34078509162612
 20
108.01179187909565
 40
6.9999999999998579
 41
1.0000000000000202
 50
0
  1
接続コネクタ（入力側）
  0
TEXT
  8
_1-0_
 62
    7
 10
669.97882144036555
 20
87.83692227157573
 40
8
 41
1
 50
0
  1
樹脂カバー
  0
TEXT
  8
_1-0_
 62
    7
 10
660.75977382131794
 20
97.614700049353502
 40
8
 41
1
 50
0
  1
アルミフレーム
  0
TEXT
  8
_1-0_
 62
    7
 10
805.75413008234091
 20
87.88736318868331
 40
8
 41
1
 50
0
  1
1
  0
TEXT
  8
_1-0_
 62
    7
 10
742.02472094891823
 20
116.9032110523251
 40
3.9999999999999432
 41
1.0000000000000142
 50
0
  1
リード線：AWG22
  0
TEXT
  8
_1-0_
 62
    7
 10
742.30811279507691
 20
111.94385374454765
 40
3.9999999999999716
 41
0.8000000000000047
 50
0
  1
日本圧着端子SMR-02V-N相当（PA66)
  0
TEXT
  8
_1-0_
 62
    7
 10
742.16641687199751
 20
122.14596020626118
 40
4.0000000000000284
 41
0.7999999999999938
 50
0
  1
日本圧着端子SMP-02V-NC相当（PA66）
  0
TEXT
  8
_1-0_
 62
    7
 10
742.13067329221735
 20
107.32069652201662
 40
3.9999999999999432
 41
1.0000000000000142
 50
0
  1
リード線：AWG22
  0
TEXT
  8
_1-0_
 62
    7
 10
806.06453572607984
 20
127.58824502289849
 40
8
 41
1
 50
0
  1
1
  0
TEXT
  8
_1-0_
 62
    7
 10
805.87829233983643
 20
118.0898323244858
 40
8
 41
1
 50
0
  1
1
  0
TEXT
  8
_1-0_
 62
    7
 10
806.06453572607984
 20
107.47395930861279
 40
8
 41
1
 50
0
  1
1
  0
TEXT
  8
_1-0_
 62
    7
 10
805.78517064671473
 20
97.69618153083502
 40
8
 41
1
 50
0
  1
1
  0
TEXT
  8
_1-0_
 62
    7
 10
742.6056585949807
 20
97.343095111081908
 40
4
 41
1
 50
0
  1
アルミ : A6063SS-T5
  0
LINE
  8
_1-0_
  6
CONTINUOUS
 62
    7
 10
798.24613889818363
 20
136.81302687887609
 11
798.24613889818363
 21
86.813026878876087
  0
TEXT
  8
_1-0_
 62
    7
 10
805.87829233983643
 20
137.45914449379796
 40
8
 41
1
 50
0
  1
1
  0
TEXT
  8
_1-0_
 62
    7
 10
633.85386131502855
 20
107.90919184722145
 40
7
 41
1
 50
0
  1
③
  0
TEXT
  8
_1-0_
 62
    7
 10
633.85386131502855
 20
97.98758578438202
 40
7
 41
1
 50
0
  1
②
  0
TEXT
  8
_1-0_
 62
    7
 10
633.85386131502855
 20
87.917896048962916
 40
7
 41
1
 50
0
  1
①
  0
TEXT
  8
_1-0_
 62
    7
 10
633.85386131502855
 20
117.97888158264055
 40
7
 41
1
 50
0
  1
④
  0
TEXT
  8
_1-0_
 62
    7
 10
634.11101310164054
 20
127.69053724418453
 40
7
 41
1
 50
0
  1
⑤
  0
TEXT
  8
_1-0_
 62
    7
 10
294.25623178722026
 20
133.14240434094671
 40
10
 41
0.9999999999999996
 50
0
  1
④　LED発光色
  0
TEXT
  8
_1-0_
 62
    7
 10
412.70702543801389
 20
171.69478529332767
 40
10
 41
0.9999999999999996
 50
0
  1
⑤　電源コネクター仕様
  0
TEXT
  8
_1-0_
 62
    7
 10
412.98639051737894
 20
147.66938846793084
 40
10
 41
0.9999999999999996
 50
0
  1
⑥　固定仕様
  0
TEXT
  8
_1-0_
 62
    7
 10
294.12481910043596
 20
171.10387500935258
 40
10
 41
1.0000000000000004
 50
0
  1
①　LED基板
  0
TEXT
  8
_1-0_
 62
    7
 10
294.14611656961574
 20
158.7262297292009
 40
10
 41
0.9999999999999996
 50
0
  1
②　アルミフレーム
  0
TEXT
  8
_1-0_
 62
    7
 10
74.497021761917438
 20
28.309060472902274
 40
7
 41
1
 50
0
  1
発光色  D:6500K / DN:5700K / N:5000K / NW:4500K / W:4000K 
  0
TEXT
  8
_1-0_
 62
    7
 10
310.4706480766996
 20
28.872036057221408
 40
7
 41
1
 50
0
  1
全光束比率  D:6500K(97%) / DN:5700K(99%) / N:5000K(100%) / NW:4500K(99%) / W:4000K(97%)
  0
TEXT
  8
_1-0_
 62
    7
 10
310.82875115332115
 20
20.350970017636655
 40
7
 41
1
 50
0
  1
N色基準
  0
TEXT
  8
_1-0_
 62
    7
 10
352.51622910746579
 20
20.009523809523785
 40
7
 41
1
 50
0
  1
WW:3500K(93%) / L30:3000K(93%) / L27:2700K(90%) / L25:2500K(77%)
  0
LINE
  8
_1-0_
  6
CONTINUOUS
 62
    7
 10
74.72867713211275
 20
104.74284121895693
 11
559.90037099802862
 21
104.74284121895693
  0
TEXT
  8
_1-0_
 62
    7
 10
294.03506776605616
 20
145.79531439385673
 40
10
 41
0.9999999999999996
 50
0
  1
③　全長
  0
CIRCLE
  8
_3-0_
  6
CONTINUOUS
 62
    7
 10
732.03865111161963
 20
415.87410739629286
 40
4.5999999999999996
  0
ARC
  8
_3-0_
  6
CONTINUOUS
 62
    7
 10
712.23865111161945
 20
412.24553139629285
 40
1.2
 50
180
 51
270.000001
  0
ARC
  8
_3-0_
  6
CONTINUOUS
 62
    7
 10
751.83865111161958
 20
412.24553339629284
 40
1.2
 50
270.000001
 51
0
  0
LINE
  8
_3-0_
  6
CONTINUOUS
 62
    7
 10
712.63433711161952
 20
421.70655539629286
 11
711.3244171116196
 21
422.80573739629284
  0
LINE
  8
_3-0_
  6
CONTINUOUS
 62
    7
 10
711.14584111161957
 20
417.92851139629283
 11
712.63432111161956
 21
420.50655539629287
  0
LINE
  8
_3-0_
  6
CONTINUOUS
 62
    7
 10
712.63432111161956
 20
420.52188939629286
 11
712.63433711161952
 21
421.72188939629285
  0
LINE
  8
_3-0_
  6
CONTINUOUS
 62
    7
 10
711.03865111161963
 20
417.52850139629288
 11
711.03865111161963
 21
412.24553139629285
  0
ARC
  8
_3-0_
  6
CONTINUOUS
 62
    7
 10
711.83865511161957
 20
417.52850139629288
 40
0.8
 50
149.999236
 51
180
  0
LINE
  8
_3-0_
  6
CONTINUOUS
 62
    7
 10
751.44296311161952
 20
421.70655539629286
 11
752.75288111161944
 21
422.80573739629284
  0
LINE
  8
_3-0_
  6
CONTINUOUS
 62
    7
 10
753.03865111161963
 20
417.52850139629288
 11
753.03865111161963
 21
412.24553339629284
  0
LINE
  8
_3-0_
  6
CONTINUOUS
 62
    7
 10
752.93145911161946
 20
417.92851139629283
 11
751.44297911161948
 21
420.50655539629287
  0
LINE
  8
_3-0_
  6
CONTINUOUS
 62
    7
 10
751.44297911161948
 20
420.50655539629287
 11
751.44296311161952
 21
421.72188939629285
  0
ARC
  8
_3-0_
  6
CONTINUOUS
 62
    7
 10
711.83865511161957
 20
423.41856539629288
 40
0.8
 50
180
 51
229.99923599999997
  0
ARC
  8
_3-0_
  6
CONTINUOUS
 62
    7
 10
716.23865111161945
 20
425.84553139629287
 40
1.2
 50
180
 51
270
  0
ARC
  8
_3-0_
  6
CONTINUOUS
 62
    7
 10
747.83865111161958
 20
425.84553139629287
 40
1.2
 50
270
 51
0.0000010000000039
  0
ARC
  8
_3-0_
  6
CONTINUOUS
 62
    7
 10
752.23864311161947
 20
423.41856539629288
 40
0.8
 50
310.000764
 51
0
  0
LINE
  8
_3-0_
  6
CONTINUOUS
 62
    7
 10
730.44034711161953
 20
420.64553139629288
 11
733.67187511161956
 21
420.64553139629288
  0
ARC
  8
_3-0_
  6
CONTINUOUS
 62
    7
 10
735.55349511161944
 20
413.63899139629285
 40
1.2
 50
296.26848899999999
 51
352.87498399999998
  0
LINE
  8
_3-0_
  6
CONTINUOUS
 62
    7
 10
727.33307511161956
 20
413.49014939629285
 11
726.83865111161958
 21
417.44553139629284
  0
LINE
  8
_3-0_
  6
CONTINUOUS
 62
    7
 10
726.83865111161958
 20
417.44553139629284
 11
728.43865111161949
 21
420.64553139629288
  0
LINE
  8
_3-0_
  6
CONTINUOUS
 62
    7
 10
728.43865111161949
 20
420.64553139629288
 11
735.63865111161954
 21
420.64553139629288
  0
LINE
  8
_3-0_
  6
CONTINUOUS
 62
    7
 10
735.63865111161954
 20
420.64553139629288
 11
737.23865111161945
 21
417.44553139629284
  0
LINE
  8
_3-0_
  6
CONTINUOUS
 62
    7
 10
737.23865111161945
 20
417.44553139629284
 11
736.74422911161946
 21
413.49014939629285
  0
ARC
  8
_3-0_
  6
CONTINUOUS
 62
    7
 10
728.52380711161959
 20
413.63899139629285
 40
1.2
 50
187.12501599999999
 51
243.73151100000001
  0
ARC
  8
_3-0_
  6
CONTINUOUS
 62
    7
 10
736.43865111161949
 20
411.84553139629287
 40
0.8
 50
116.268489
 51
270
  0
ARC
  8
_3-0_
  6
CONTINUOUS
 62
    7
 10
727.63865111161954
 20
411.84553139629287
 40
0.8
 50
270
 51
63.731510999999998
  0
LINE
  8
_3-0_
  6
CONTINUOUS
 62
    7
 10
727.63865111161954
 20
411.04553139629286
 11
720.14537111161962
 21
411.04553139629286
  0
LINE
  8
_3-0_
  6
CONTINUOUS
 62
    7
 10
720.14537111161962
 20
411.04553139629286
 11
712.23865111161945
 21
411.04553139629286
  0
LINE
  8
_3-0_
  6
CONTINUOUS
 62
    7
 10
743.93192711161964
 20
411.04553139629286
 11
736.43865111161949
 21
411.04553139629286
  0
LINE
  8
_3-0_
  6
CONTINUOUS
 62
    7
 10
743.93192711161964
 20
411.04553139629286
 11
751.83865111161958
 21
411.04553339629285
  0
LINE
  8
_3-0_
  6
CONTINUOUS
 62
    7
 10
717.23648711161945
 20
423.37866339629284
 11
717.23648711161945
 21
423.44553139629284
  0
LINE
  8
_3-0_
  6
CONTINUOUS
 62
    7
 10
723.4364871116195
 20
424.64553139629288
 11
732.03864911161963
 21
424.64553139629288
  0
ARC
  8
_3-0_
  6
CONTINUOUS
 62
    7
 10
723.4364871116195
 20
423.44553139629284
 40
1.2
 50
90
 51
180
  0
LINE
  8
_3-0_
  6
CONTINUOUS
 62
    7
 10
722.23648711161945
 20
423.44553139629284
 11
722.23648711161945
 21
423.37866339629284
  0
ARC
  8
_3-0_
  6
CONTINUOUS
 62
    7
 10
723.4364871116195
 20
423.37866339629284
 40
1.2
 50
180
 51
216.45268199999998
  0
ARC
  8
_3-0_
  6
CONTINUOUS
 62
    7
 10
744.34081511161958
 20
420.64553339629288
 40
3.3999999999999999
 50
143.54731799999999
 51
36.452681999999982
  0
LINE
  8
_3-0_
  6
CONTINUOUS
 62
    7
 10
746.84081511161958
 20
423.37866339629284
 11
746.84081511161958
 21
423.44553139629284
  0
ARC
  8
_3-0_
  6
CONTINUOUS
 62
    7
 10
748.04081511161962
 20
423.44553139629284
 40
1.2
 50
90
 51
180
  0
ARC
  8
_3-0_
  6
CONTINUOUS
 62
    7
 10
740.64081511161953
 20
423.37866339629284
 40
1.2
 50
323.54731800000002
 51
0
  0
ARC
  8
_3-0_
  6
CONTINUOUS
 62
    7
 10
748.04081511161962
 20
423.37866339629284
 40
1.2
 50
180
 51
216.45268200000001
  0
LINE
  8
_3-0_
  6
CONTINUOUS
 62
    7
 10
741.84081511161958
 20
423.44553139629284
 11
741.84081511161958
 21
423.37866339629284
  0
ARC
  8
_3-0_
  6
CONTINUOUS
 62
    7
 10
740.64081511161953
 20
423.37866339629284
 40
1.2
 50
323.54731800000002
 51
0
  0
LINE
  8
_3-0_
  6
CONTINUOUS
 62
    7
 10
732.03864911161963
 20
424.64553139629288
 11
740.64081511161953
 21
424.64553139629288
  0
ARC
  8
_3-0_
  6
CONTINUOUS
 62
    7
 10
740.64081511161953
 20
423.44553139629284
 40
1.2
 50
0
 51
90
  0
ARC
  8
_3-0_
  6
CONTINUOUS
 62
    7
 10
719.73648711161945
 20
420.64553339629288
 40
3.3999999999999999
 50
143.54731799999999
 51
36.452681999999982
  0
ARC
  8
_3-0_
  6
CONTINUOUS
 62
    7
 10
716.03648711161964
 20
423.37866339629284
 40
1.2
 50
323.54731800000002
 51
0
  0
LINE
  8
_3-0_
  6
CONTINUOUS
 62
    7
 10
716.23865111161945
 20
424.64553139629288
 11
716.03648711161964
 21
424.64553139629288
  0
ARC
  8
_3-0_
  6
CONTINUOUS
 62
    7
 10
716.03648711161964
 20
423.44553139629284
 40
1.2
 50
0
 51
90
  0
ARC
  8
_3-0_
  6
CONTINUOUS
 62
    7
 10
755.23865311161944
 20
456.26493739629285
 40
0.8
 50
0
 51
90
  0
ARC
  8
_3-0_
  6
CONTINUOUS
 62
    7
 10
752.53490311161954
 20
454.26493739629285
 40
0.8
 50
0
 51
90
  0
LINE
  8
_3-0_
  6
CONTINUOUS
 62
    7
 10
752.03864311161965
 20
455.06493739629286
 11
752.53490311161954
 21
455.06493739629286
  0
ARC
  8
_3-0_
  6
CONTINUOUS
 62
    7
 10
752.03864311161965
 20
455.86493739629287
 40
0.8
 50
180
 51
270
  0
LINE
  8
_3-0_
  6
CONTINUOUS
 62
    7
 10
751.23864311161947
 20
456.26493739629285
 11
751.23864311161947
 21
455.86493739629287
  0
LINE
  8
_3-0_
  6
CONTINUOUS
 62
    7
 10
753.3349031116195
 20
454.26493739629285
 11
753.3349031116195
 21
454.10952139629285
  0
ARC
  8
_3-0_
  6
CONTINUOUS
 62
    7
 10
752.53490311161954
 20
454.10952139629285
 40
0.8
 50
326
 51
0
  0
LINE
  8
_3-0_
  6
CONTINUOUS
 62
    7
 10
753.19813311161965
 20
453.66216739629289
 11
752.03865111161963
 21
451.94316539629284
  0
ARC
  8
_3-0_
  6
CONTINUOUS
 62
    7
 10
708.83865111161958
 20
456.26493739629285
 40
0.8
 50
90
 51
180
  0
ARC
  8
_3-0_
  6
CONTINUOUS
 62
    7
 10
711.54240111161948
 20
454.26493739629285
 40
0.8
 50
90
 51
180
  0
LINE
  8
_3-0_
  6
CONTINUOUS
 62
    7
 10
712.03865911161961
 20
455.06493739629286
 11
711.54240111161948
 21
455.06493739629286
  0
ARC
  8
_3-0_
  6
CONTINUOUS
 62
    7
 10
712.03865911161961
 20
455.86493739629287
 40
0.8
 50
270
 51
0
  0
LINE
  8
_3-0_
  6
CONTINUOUS
 62
    7
 10
712.83865911161956
 20
456.26493739629285
 11
712.83865911161956
 21
455.86493739629287
  0
LINE
  8
_3-0_
  6
CONTINUOUS
 62
    7
 10
710.74240111161953
 20
454.26493739629285
 11
710.74240111161953
 21
454.10952139629285
  0
ARC
  8
_3-0_
  6
CONTINUOUS
 62
    7
 10
711.54240111161948
 20
454.10952139629285
 40
0.8
 50
180
 51
214
  0
LINE
  8
_3-0_
  6
CONTINUOUS
 62
    7
 10
710.8791711116196
 20
453.66216739629289
 11
712.03865111161963
 21
451.94316539629284
  0
LINE
  8
_3-0_
  6
CONTINUOUS
 62
    7
 10
708.83865111161958
 20
457.06493739629286
 11
712.03865911161961
 21
457.06493739629286
  0
ARC
  8
_3-0_
  6
CONTINUOUS
 62
    7
 10
712.03865911161961
 20
456.26493739629285
 40
0.8
 50
0
 51
90
  0
LINE
  8
_3-0_
  6
CONTINUOUS
 62
    7
 10
755.23865311161944
 20
457.06493739629286
 11
752.03864311161965
 21
457.06493739629286
  0
ARC
  8
_3-0_
  6
CONTINUOUS
 62
    7
 10
752.03864311161965
 20
456.26493739629285
 40
0.8
 50
90
 51
180
  0
LINE
  8
_3-0_
  6
CONTINUOUS
 62
    7
 10
708.03865111161963
 20
456.26493739629285
 11
708.03865111161963
 21
443.74258939629289
  0
ARC
  8
_3-0_
  6
CONTINUOUS
 62
    7
 10
709.23865111161945
 20
443.74258939629289
 40
1.2
 50
180
 51
224.99999300000002
  0
LINE
  8
_3-0_
  6
CONTINUOUS
 62
    7
 10
710.68717911161957
 20
440.59700339629285
 11
708.39012311161946
 21
442.89406139629284
  0
LINE
  8
_3-0_
  6
CONTINUOUS
 62
    7
 10
711.03865111161963
 20
439.74847539629286
 11
711.03865111161963
 21
423.41856539629288
  0
ARC
  8
_3-0_
  6
CONTINUOUS
 62
    7
 10
709.83865111161958
 20
439.74847539629286
 40
1.2
 50
0
 51
44.999993000000003
  0
LINE
  8
_3-0_
  6
CONTINUOUS
 62
    7
 10
715.03865111161963
 20
441.40532939629287
 11
715.03865111161963
 21
425.84553139629287
  0
ARC
  8
_3-0_
  6
CONTINUOUS
 62
    7
 10
713.83865111161958
 20
441.40532939629287
 40
1.2
 50
0
 51
45
  0
LINE
  8
_3-0_
  6
CONTINUOUS
 62
    7
 10
712.39012311161946
 20
444.55091339629286
 11
714.68717911161957
 21
442.25385739629286
  0
LINE
  8
_3-0_
  6
CONTINUOUS
 62
    7
 10
712.03865111161963
 20
451.94316539629284
 11
712.03865111161963
 21
445.39944139629284
  0
ARC
  8
_3-0_
  6
CONTINUOUS
 62
    7
 10
713.23865111161945
 20
445.39944139629284
 40
1.2
 50
180
 51
225
  0
LINE
  8
_3-0_
  6
CONTINUOUS
 62
    7
 10
752.03865111161963
 20
451.94316539629284
 11
752.03865111161963
 21
445.39944139629284
  0
ARC
  8
_3-0_
  6
CONTINUOUS
 62
    7
 10
750.83865111161958
 20
445.39944139629284
 40
1.2
 50
315
 51
0
  0
LINE
  8
_3-0_
  6
CONTINUOUS
 62
    7
 10
751.68717911161957
 20
444.55091339629286
 11
749.39012311161946
 21
442.25385739629286
  0
LINE
  8
_3-0_
  6
CONTINUOUS
 62
    7
 10
749.03865111161963
 20
441.40532939629287
 11
749.03865111161963
 21
425.84553139629287
  0
ARC
  8
_3-0_
  6
CONTINUOUS
 62
    7
 10
750.23865111161945
 20
441.40532939629287
 40
1.2
 50
135
 51
180
  0
LINE
  8
_3-0_
  6
CONTINUOUS
 62
    7
 10
753.03865111161963
 20
439.74847539629286
 11
753.03865111161963
 21
423.41856539629288
  0
ARC
  8
_3-0_
  6
CONTINUOUS
 62
    7
 10
754.23865111161945
 20
439.74847539629286
 40
1.2
 50
135.00000700000004
 51
180.00000000000003
  0
LINE
  8
_3-0_
  6
CONTINUOUS
 62
    7
 10
753.39012311161946
 20
440.59700339629285
 11
755.68717911161957
 21
442.89406139629284
  0
LINE
  8
_3-0_
  6
CONTINUOUS
 62
    7
 10
756.03865111161963
 20
456.26493739629285
 11
756.03865111161963
 21
443.74258939629289
  0
ARC
  8
_3-0_
  6
CONTINUOUS
 62
    7
 10
754.83865111161958
 20
443.74258939629289
 40
1.2
 50
315.00000699999998
 51
0
  0
ARC
  8
_3-0_
  6
CONTINUOUS
 62
    7
 10
711.23865111161945
 20
458.26497739629286
 40
3.2000000000000002
 50
90
 51
180
  0
ARC
  8
_3-0_
  6
CONTINUOUS
 62
    7
 10
708.83865111161958
 20
457.86497739629289
 40
0.8
 50
180
 51
270
  0
LINE
  8
_3-0_
  6
CONTINUOUS
 62
    7
 10
732.03865111161963
 20
461.46497739629285
 11
753.03867511161957
 21
461.46497739629285
  0
LINE
  8
_3-0_
  6
CONTINUOUS
 62
    7
 10
732.03865111161963
 20
461.46497739629285
 11
711.03862711161946
 21
461.46497739629285
  0
LINE
  8
_3-0_
  6
CONTINUOUS
 62
    7
 10
713.23862711161951
 20
456.26497739629286
 11
713.23862711161951
 21
455.46497739629285
  0
ARC
  8
_3-0_
  6
CONTINUOUS
 62
    7
 10
712.43862711161955
 20
455.46497739629285
 40
0.8
 50
270
 51
0
  0
LINE
  8
_3-0_
  6
CONTINUOUS
 62
    7
 10
712.43862711161955
 20
454.66497739629284
 11
711.54240111161948
 21
454.66497739629284
  0
ARC
  8
_3-0_
  6
CONTINUOUS
 62
    7
 10
711.54240111161948
 20
454.26497739629286
 40
0.4
 50
90
 51
180
  0
LINE
  8
_3-0_
  6
CONTINUOUS
 62
    7
 10
711.14240111161962
 20
454.26497739629286
 11
711.14240111161962
 21
453.98726939629285
  0
LINE
  8
_3-0_
  6
CONTINUOUS
 62
    7
 10
708.83865111161958
 20
457.06497739629287
 11
712.43862711161955
 21
457.06497739629287
  0
ARC
  8
_3-0_
  6
CONTINUOUS
 62
    7
 10
712.43862711161955
 20
456.26497739629286
 40
0.8
 50
0
 51
90
  0
LINE
  8
_3-0_
  6
CONTINUOUS
 62
    7
 10
711.14240111161962
 20
453.98726939629285
 11
712.84370911161955
 21
451.46497739629285
  0
LINE
  8
_3-0_
  6
CONTINUOUS
 62
    7
 10
712.84370911161955
 20
451.46497739629285
 11
732.03865111161963
 21
451.46497739629285
  0
LINE
  8
_3-0_
  6
CONTINUOUS
 62
    7
 10
751.23359511161948
 20
451.46497739629285
 11
732.03865111161963
 21
451.46497739629285
  0
LINE
  8
_3-0_
  6
CONTINUOUS
 62
    7
 10
756.03865111161963
 20
458.26497739629286
 11
756.03865111161963
 21
457.86497739629289
  0
ARC
  8
_3-0_
  6
CONTINUOUS
 62
    7
 10
752.83865111161958
 20
458.26497739629286
 40
3.2000000000000002
 50
0
 51
90
  0
ARC
  8
_3-0_
  6
CONTINUOUS
 62
    7
 10
755.23865111161945
 20
457.86497739629289
 40
0.8
 50
270
 51
0
  0
LINE
  8
_3-0_
  6
CONTINUOUS
 62
    7
 10
750.83867511161952
 20
456.26497739629286
 11
750.83867511161952
 21
455.46497739629285
  0
ARC
  8
_3-0_
  6
CONTINUOUS
 62
    7
 10
751.63867511161948
 20
455.46497739629285
 40
0.8
 50
180
 51
270
  0
LINE
  8
_3-0_
  6
CONTINUOUS
 62
    7
 10
751.63867511161948
 20
454.66497739629284
 11
752.53490311161954
 21
454.66497739629284
  0
ARC
  8
_3-0_
  6
CONTINUOUS
 62
    7
 10
752.53490311161954
 20
454.26497739629286
 40
0.4
 50
0
 51
90
  0
LINE
  8
_3-0_
  6
CONTINUOUS
 62
    7
 10
752.93490311161963
 20
454.26497739629286
 11
752.93490311161963
 21
453.98726939629285
  0
LINE
  8
_3-0_
  6
CONTINUOUS
 62
    7
 10
755.23865311161944
 20
457.06497739629287
 11
751.63867511161948
 21
457.06497739629287
  0
ARC
  8
_3-0_
  6
CONTINUOUS
 62
    7
 10
751.63867511161948
 20
456.26497739629286
 40
0.8
 50
90
 51
180
  0
LINE
  8
_3-0_
  6
CONTINUOUS
 62
    7
 10
752.93490311161963
 20
453.98726939629285
 11
751.23359511161948
 21
451.46497739629285
  0
LINE
  8
_3-0_
  6
CONTINUOUS
 62
    7
 10
717.23865111161945
 20
424.64553139629288
 11
746.83865111161958
 21
424.64553139629288
  0
LINE
  8
_3-0_
  6
CONTINUOUS
 62
    7
 10
717.23865111161945
 20
432.84475139629285
 11
746.83865111161958
 21
432.84475139629285
  0
LINE
  8
_3-0_
  6
CONTINUOUS
 62
    7
 10
746.83865111161958
 20
432.84475139629285
 11
746.83865111161958
 21
424.64553139629288
  0
LINE
  8
_3-0_
  6
CONTINUOUS
 62
    7
 10
717.23865111161945
 20
432.84475139629285
 11
717.23865111161945
 21
424.64553139629288
  0
LINE
  8
_3-0_
  6
CONTINUOUS
 62
    7
 10
727.03865111161963
 20
436.35158539629288
 11
727.03865111161963
 21
432.84475139629285
  0
LINE
  8
_3-0_
  6
CONTINUOUS
 62
    7
 10
727.03865111161963
 20
436.35158539629288
 11
737.03865111161963
 21
436.35158539629288
  0
LINE
  8
_3-0_
  6
CONTINUOUS
 62
    7
 10
717.23865111161945
 20
426.44475139629287
 11
746.83865111161958
 21
426.44475139629287
  0
LINE
  8
_3-0_
  6
CONTINUOUS
 62
    7
 10
737.03865111161963
 20
436.35158539629288
 11
737.03865111161963
 21
432.84475139629285
  0
TEXT
  8
_0-0_1
 62
    7
 10
748.11873950409961
 20
20.114881919280265
 40
12
 41
1
 50
0
  1
F5207040
  0
TEXT
  8
_1-0_
 62
    7
 10
731.54164765747714
 20
38.328665807514142
 40
8
 41
1
 50
0
  1
仕様図
  0
TEXT
  8
_1-0_
 62
    7
 10
731.32963555896072
 20
47.348109851875364
 40
8
 41
1
 50
0
  1
LXSW-FGG モジュール
  0
TEXT
  8
_1-0_
 62
    7
 10
664.35659921814329
 20
127.82104925570272
 40
8
 41
1
 50
0
  1
樹脂端板　1
  0
TEXT
  8
_1-0_
 62
    7
 10
664.63596429750828
 20
137.22634026099374
 40
8
 41
1
 50
0
  1
樹脂端板　2
  0
LINE
  8
_3-0_
  6
CONTINUOUS
 62
    7
 10
750.05391711161951
 20
415.87410739629286
 11
765.23048821919497
 21
433.95548971977706
  0
TEXT
  8
_3-0_
 62
    7
 10
767.23931619017162
 20
430.33330120957248
 40
8
 41
0.75
 50
0
  1
アルミフレーム
  0
TEXT
  8
_3-0_
 62
    7
 10
769.01604685366101
 20
409.23496735242134
 40
8
 41
0.75
 50
0
  1
マグネット
  0
TEXT
  8
_3-0_
 62
    7
 10
770.30100924737917
 20
399.89211345381835
 40
8
 41
0.75
 50
0
  1
(オプション)
  0
LINE
  8
_3-0_
  6
CONTINUOUS
 62
    7
 10
732.53821829796334
 20
416.24796611039335
 11
767.43143479365699
 21
407.44463167340643
  0
TEXT
  8
_3-0_
 62
    7
 10
767.78864724648611
 20
445.6010737090931
 40
8
 41
0.525
 50
0
  1
LED基板
  0
LINE
  8
_3-0_
  6
CONTINUOUS
 62
    7
 10
765.16293157414975
 20
450.10623562563205
 11
733.51953239845943
 21
435.08902923716892
  0
TEXT
  8
_3-0_
 62
    7
 10
752.98483711161953
 20
471.45975739629284
 40
8
 41
0.75
 50
0
  1
樹脂カバー
  0
LINE
  8
_3-0_
  6
CONTINUOUS
 62
    7
 10
743.86641711161951
 20
456.15383539629283
 11
752.56292029659232
 21
470.75153975976195
  0
LINE
  8
_3-0_
  6
CONTINUOUS
 62
    4
 10
708.03865111161963
 20
458.26497739629286
 11
708.03865111161963
 21
457.86497739629289
  0
LINE
  8
_3-0_
  6
CONTINUOUS
 62
    4
 10
680.92233711161953
 20
411.04553139629286
 11
708.64396711161953
 21
411.04553139629286
  0
LINE
  8
_3-0_
  6
CONTINUOUS
 62
    4
 10
711.03865111161963
 20
388.81337539629288
 11
711.03865111161963
 21
408.24553139629285
  0
LINE
  8
_3-0_
  6
CONTINUOUS
 62
    4
 10
711.03865111161963
 20
392.81337539629288
 11
753.03865111161963
 21
392.81337539629288
  0
LINE
  8
_3-0_
  6
CONTINUOUS
 62
    4
 10
708.03865111161963
 20
380.43837539629288
 11
756.03865111161963
 21
380.43837539629288
  0
LINE
  8
_3-0_
  6
CONTINUOUS
 62
    4
 10
707.8123180545947
 20
380.45899837731503
 11
713.60787301232904
 21
382.01191264793016
  0
LINE
  8
_3-0_
  6
CONTINUOUS
 62
    4
 10
707.8123180545947
 20
380.45899837731503
 11
713.60787301232904
 21
378.90608410669989
  0
LINE
  8
_3-0_
  6
CONTINUOUS
 62
    4
 10
708.03865111161963
 20
376.43837539629288
 11
708.03865111161963
 21
440.75580939629288
  0
LINE
  8
_3-0_
  6
CONTINUOUS
 62
    4
 10
753.03865111161963
 20
388.81337539629288
 11
753.03865111161963
 21
408.24553339629284
  0
LINE
  8
_3-0_
  6
CONTINUOUS
 62
    4
 10
756.03865111161963
 20
376.43837539629288
 11
756.03865111161963
 21
439.74258939629289
  0
LINE
  8
_3-0_
  6
CONTINUOUS
 62
    4
 10
756.07622343144851
 20
380.45899837731503
 11
750.28066847371417
 21
382.01191264793016
  0
LINE
  8
_3-0_
  6
CONTINUOUS
 62
    4
 10
756.07622343144851
 20
380.45899837731503
 11
750.28066847371417
 21
378.90608410669989
  0
LINE
  8
_3-0_
  6
CONTINUOUS
 62
    4
 10
710.76914502827469
 20
392.7646180837927
 11
716.56469998600903
 21
394.31753235440783
  0
LINE
  8
_3-0_
  6
CONTINUOUS
 62
    4
 10
710.76914502827469
 20
392.7646180837927
 11
716.56469998600903
 21
391.21170381317756
  0
LINE
  8
_3-0_
  6
CONTINUOUS
 62
    4
 10
753.35340649534601
 20
392.7646180837927
 11
747.55785153761167
 21
394.31753235440783
  0
LINE
  8
_3-0_
  6
CONTINUOUS
 62
    4
 10
753.35340649534601
 20
392.7646180837927
 11
747.55785153761167
 21
391.21170381317756
  0
TEXT
  8
_3-0_
 62
    7
 10
724.03865111161963
 20
392.81337539629288
 40
8
 41
1
 50
0
  1
10.5
  0
TEXT
  8
_3-0_
 62
    7
 10
728.03865111161963
 20
380.43837539629288
 40
8
 41
1
 50
0
  1
12
  0
TEXT
  8
_3-0_
 62
    7
 10
709.74220735092251
 20
497.12262470442539
 40
8
 41
1
 50
0
  1
A-A 断面図
  0
TEXT
  8
_3-0_
 62
    7
 10
711.90901494547029
 20
487.14064335552098
 40
8
 41
1
 50
0
  1
S = 2 : 1
  0
LINE
  8
_3-0_
  6
CONTINUOUS
 62
    4
 10
679.6191511960036
 20
411.04553139629286
 11
679.6191511960036
 21
461.46497739629285
  0
LINE
  8
_3-0_
  6
CONTINUOUS
 62
    4
 10
694.35517119600354
 20
457.06493739629286
 11
694.35517119600354
 21
411.04553139629286
  0
LINE
  8
_3-0_
  6
CONTINUOUS
 62
    4
 10
694.35517119600354
 20
477.78541539629282
 11
694.35517119600354
 21
441.06493739629286
  0
LINE
  8
_3-0_
  6
CONTINUOUS
 62
    4
 10
679.50129720498694
 20
410.78140386731138
 11
677.94838293437192
 21
416.57695882504572
  0
LINE
  8
_3-0_
  6
CONTINUOUS
 62
    4
 10
679.50129720498694
 20
410.78140386731138
 11
681.05421147560219
 21
416.57695882504572
  0
LINE
  8
_3-0_
  6
CONTINUOUS
 62
    4
 10
679.50129720498694
 20
461.7719230723082
 11
677.94838293437192
 21
455.97636811457386
  0
LINE
  8
_3-0_
  6
CONTINUOUS
 62
    4
 10
679.50129720498694
 20
461.7719230723082
 11
681.05421147560219
 21
455.97636811457386
  0
LINE
  8
_3-0_
  6
CONTINUOUS
 62
    4
 10
694.32538969839243
 20
410.86069518127249
 11
692.77247542777729
 21
416.65625013900683
  0
LINE
  8
_3-0_
  6
CONTINUOUS
 62
    4
 10
694.32538969839243
 20
410.86069518127249
 11
695.87830396900756
 21
416.65625013900683
  0
LINE
  8
_3-0_
  6
CONTINUOUS
 62
    4
 10
694.32538969839243
 20
457.28728341284511
 11
692.77247542777729
 21
451.49172845511077
  0
LINE
  8
_3-0_
  6
CONTINUOUS
 62
    4
 10
694.32538969839243
 20
457.28728341284511
 11
695.87830396900756
 21
451.49172845511077
  0
LINE
  8
_3-0_
  6
CONTINUOUS
 62
    4
 10
694.32538969839243
 20
461.48606826762853
 11
692.77247542777729
 21
467.28162322536286
  0
LINE
  8
_3-0_
  6
CONTINUOUS
 62
    4
 10
694.32538969839243
 20
461.48606826762853
 11
695.87830396900756
 21
467.28162322536286
  0
TEXT
  8
_3-0_
 62
    7
 10
679.16542323779709
 20
430.28247555072608
 40
8
 41
1
 50
90
  1
12.6
  0
TEXT
  8
_3-0_
 62
    7
 10
694.35517119600354
 20
426.05523339629286
 40
8
 41
1
 50
90
  1
11.5
  0
TEXT
  8
_3-0_
 62
    7
 10
694.35517119600354
 20
465.78541539629288
 40
8
 41
1
 50
90
  1
1.1
  0
LINE
  8
_3-0_
  6
CONTINUOUS
 62
    4
 10
690.35517119600354
 20
457.06493739629286
 11
703.81887894020463
 21
457.06493739629286
  0
LINE
  8
_3-0_
  6
CONTINUOUS
 62
    4
 10
675.6191511960036
 20
461.46497739629285
 11
702.50310820328764
 21
461.46497739629285
  0
LINE
  8
_3-0_
  6
CONTINUOUS
 62
    4
 10
675.6191511960036
 20
411.04553139629286
 11
703.55572479282114
 21
411.04553139629286
  0
LINE
  8
_3-0_
  6
CONTINUOUS
 62
    4
 10
690.35517119600354
 20
461.46497739629285
 11
703.81887894020463
 21
461.46497739629285
  0
LINE
  8
_2-0_
  6
CONTINUOUS
 62
    7
 10
520.58257991719506
 20
488.76240007900515
 11
520.58257991719506
 21
466.07955807900515
  0
LINE
  8
_2-0_
  6
CONTINUOUS
 62
    7
 10
351.75774391719517
 20
489.48064007900518
 11
351.79742191719515
 21
489.4162660790052
  0
LINE
  8
_2-0_
  6
CONTINUOUS
 62
    7
 10
351.79742191719515
 20
489.4162660790052
 11
351.91532991719509
 21
489.22491007900516
  0
LINE
  8
_2-0_
  6
CONTINUOUS
 62
    7
 10
351.91532991719509
 20
489.22491007900516
 11
352.10790791719512
 21
488.9118960790052
  0
LINE
  8
_2-0_
  6
CONTINUOUS
 62
    7
 10
352.10790791719512
 20
488.9118960790052
 11
352.36865391719516
 21
488.48613407900518
  0
LINE
  8
_2-0_
  6
CONTINUOUS
 62
    7
 10
352.36865391719516
 20
488.48613407900518
 11
352.68754791719516
 21
487.96009807900515
  0
LINE
  8
_2-0_
  6
CONTINUOUS
 62
    7
 10
352.68754791719516
 20
487.96009807900515
 11
353.05071991719512
 21
487.34967407900518
  0
LINE
  8
_2-0_
  6
CONTINUOUS
 62
    7
 10
353.05071991719512
 20
487.34967407900518
 11
353.44065191719517
 21
486.67377607900517
  0
LINE
  8
_2-0_
  6
CONTINUOUS
 62
    7
 10
353.44065191719517
 20
486.67377607900517
 11
353.83709191719515
 21
485.95369407900517
  0
LINE
  8
_2-0_
  6
CONTINUOUS
 62
    7
 10
353.83709191719515
 20
485.95369407900517
 11
354.21873591719509
 21
485.21218807900516
  0
LINE
  8
_2-0_
  6
CONTINUOUS
 62
    7
 10
354.21873591719509
 20
485.21218807900516
 11
354.56545991719508
 21
484.47236607900516
  0
LINE
  8
_2-0_
  6
CONTINUOUS
 62
    7
 10
354.56545991719508
 20
484.47236607900516
 11
354.86073591719514
 21
483.75651207900518
  0
LINE
  8
_2-0_
  6
CONTINUOUS
 62
    7
 10
354.86073591719514
 20
483.75651207900518
 11
355.09379591719517
 21
483.08495607900517
  0
LINE
  8
_2-0_
  6
CONTINUOUS
 62
    7
 10
355.09379591719517
 20
483.08495607900517
 11
355.26104391719514
 21
482.47519807900517
  0
LINE
  8
_2-0_
  6
CONTINUOUS
 62
    7
 10
355.26104391719514
 20
482.47519807900517
 11
355.36635791719516
 21
481.94136407900515
  0
LINE
  8
_2-0_
  6
CONTINUOUS
 62
    7
 10
355.36635791719516
 20
481.94136407900515
 11
355.42016391719517
 21
481.49406407900517
  0
LINE
  8
_2-0_
  6
CONTINUOUS
 62
    7
 10
355.42016391719517
 20
481.49406407900517
 11
355.43731391719518
 21
481.14065207900518
  0
LINE
  8
_2-0_
  6
CONTINUOUS
 62
    7
 10
355.43731391719518
 20
481.14065207900518
 11
355.43419191719511
 21
480.88576407900518
  0
LINE
  8
_2-0_
  6
CONTINUOUS
 62
    7
 10
355.43419191719511
 20
480.88576407900518
 11
355.42549991719511
 21
480.73201007900519
  0
LINE
  8
_2-0_
  6
CONTINUOUS
 62
    7
 10
355.42549991719511
 20
480.73201007900519
 11
355.42139591719513
 21
480.68064007900517
  0
LINE
  8
_2-0_
  6
CONTINUOUS
 62
    7
 10
355.42139591719513
 20
480.68064007900517
 11
355.41669191719518
 21
480.62944807900516
  0
LINE
  8
_2-0_
  6
CONTINUOUS
 62
    7
 10
355.41669191719518
 20
480.62944807900516
 11
355.39923791719514
 21
480.47829807900519
  0
LINE
  8
_2-0_
  6
CONTINUOUS
 62
    7
 10
355.39923791719514
 20
480.47829807900519
 11
355.35992791719514
 21
480.23417207900519
  0
LINE
  8
_2-0_
  6
CONTINUOUS
 62
    7
 10
355.35992791719514
 20
480.23417207900519
 11
355.28643991719514
 21
479.90774407900517
  0
LINE
  8
_2-0_
  6
CONTINUOUS
 62
    7
 10
355.28643991719514
 20
479.90774407900517
 11
355.16676591719511
 21
479.51216807900516
  0
LINE
  8
_2-0_
  6
CONTINUOUS
 62
    7
 10
355.16676591719511
 20
479.51216807900516
 11
354.99290191719513
 21
479.06174007900518
  0
LINE
  8
_2-0_
  6
CONTINUOUS
 62
    7
 10
354.99290191719513
 20
479.06174007900518
 11
354.76373791719516
 21
478.5707140790052
  0
LINE
  8
_2-0_
  6
CONTINUOUS
 62
    7
 10
354.76373791719516
 20
478.5707140790052
 11
354.48647591719509
 21
478.05249407900516
  0
LINE
  8
_2-0_
  6
CONTINUOUS
 62
    7
 10
354.48647591719509
 20
478.05249407900516
 11
354.17617191719512
 21
477.5193120790052
  0
LINE
  8
_2-0_
  6
CONTINUOUS
 62
    7
 10
354.17617191719512
 20
477.5193120790052
 11
353.85349991719511
 21
476.98237807900517
  0
LINE
  8
_2-0_
  6
CONTINUOUS
 62
    7
 10
353.85349991719511
 20
476.98237807900517
 11
353.54123791719519
 21
476.4524020790052
  0
LINE
  8
_2-0_
  6
CONTINUOUS
 62
    7
 10
353.54123791719519
 20
476.4524020790052
 11
353.26027191719515
 21
475.94024807900519
  0
LINE
  8
_2-0_
  6
CONTINUOUS
 62
    7
 10
353.26027191719515
 20
475.94024807900519
 11
353.02605991719508
 21
475.4574900790052
  0
LINE
  8
_2-0_
  6
CONTINUOUS
 62
    7
 10
353.02605991719508
 20
475.4574900790052
 11
352.84634991719508
 21
475.0166340790052
  0
LINE
  8
_2-0_
  6
CONTINUOUS
 62
    7
 10
352.84634991719508
 20
475.0166340790052
 11
352.72066591719511
 21
474.63090007900519
  0
LINE
  8
_2-0_
  6
CONTINUOUS
 62
    7
 10
352.72066591719511
 20
474.63090007900519
 11
352.64165391719519
 21
474.31351807900518
  0
LINE
  8
_2-0_
  6
CONTINUOUS
 62
    7
 10
352.64165391719519
 20
474.31351807900518
 11
352.59790991719512
 21
474.0766560790052
  0
LINE
  8
_2-0_
  6
CONTINUOUS
 62
    7
 10
352.59790991719512
 20
474.0766560790052
 11
352.57758591719517
 21
473.93020807900518
  0
LINE
  8
_2-0_
  6
CONTINUOUS
 62
    7
 10
352.57758591719517
 20
473.93020807900518
 11
352.57188991719511
 21
473.88064007900516
  0
LINE
  8
_2-0_
  6
CONTINUOUS
 62
    7
 10
352.57188991719511
 20
473.88064007900516
 11
352.56677791719517
 21
473.83091807900519
  0
LINE
  8
_2-0_
  6
CONTINUOUS
 62
    7
 10
352.56677791719517
 20
473.83091807900519
 11
352.55501591719519
 21
473.68219207900518
  0
LINE
  8
_2-0_
  6
CONTINUOUS
 62
    7
 10
352.55501591719519
 20
473.68219207900518
 11
352.54661791719514
 21
473.43594607900519
  0
LINE
  8
_2-0_
  6
CONTINUOUS
 62
    7
 10
352.54661791719514
 20
473.43594607900519
 11
352.55609991719518
 21
473.09509407900515
  0
LINE
  8
_2-0_
  6
CONTINUOUS
 62
    7
 10
352.55609991719518
 20
473.09509407900515
 11
352.59966991719511
 21
472.66455607900519
  0
LINE
  8
_2-0_
  6
CONTINUOUS
 62
    7
 10
352.59966991719511
 20
472.66455607900519
 11
352.69209191719517
 21
472.1518340790052
  0
LINE
  8
_2-0_
  6
CONTINUOUS
 62
    7
 10
352.69209191719517
 20
472.1518340790052
 11
352.84384191719516
 21
471.56745607900518
  0
LINE
  8
_2-0_
  6
CONTINUOUS
 62
    7
 10
352.84384191719516
 20
471.56745607900518
 11
353.05902791719518
 21
470.92517207900516
  0
LINE
  8
_2-0_
  6
CONTINUOUS
 62
    7
 10
353.05902791719518
 20
470.92517207900516
 11
353.33448191719515
 21
470.24178207900519
  0
LINE
  8
_2-0_
  6
CONTINUOUS
 62
    7
 10
353.33448191719515
 20
470.24178207900519
 11
353.66003391719516
 21
469.53663407900518
  0
LINE
  8
_2-0_
  6
CONTINUOUS
 62
    7
 10
353.66003391719516
 20
469.53663407900518
 11
354.01989791719518
 21
468.83079807900515
  0
LINE
  8
_2-0_
  6
CONTINUOUS
 62
    7
 10
354.01989791719518
 20
468.83079807900515
 11
354.39476191719518
 21
468.14605207900519
  0
LINE
  8
_2-0_
  6
CONTINUOUS
 62
    7
 10
354.39476191719518
 20
468.14605207900519
 11
354.76414591719515
 21
467.5038020790052
  0
LINE
  8
_2-0_
  6
CONTINUOUS
 62
    7
 10
354.76414591719515
 20
467.5038020790052
 11
355.10858191719512
 21
466.92406607900517
  0
LINE
  8
_2-0_
  6
CONTINUOUS
 62
    7
 10
355.10858191719512
 20
466.92406607900517
 11
355.4112299171951
 21
466.42463407900516
  0
LINE
  8
_2-0_
  6
CONTINUOUS
 62
    7
 10
355.4112299171951
 20
466.42463407900516
 11
355.65878391719514
 21
466.02047607900516
  0
LINE
  8
_2-0_
  6
CONTINUOUS
 62
    7
 10
355.65878391719514
 20
466.02047607900516
 11
355.84164991719513
 21
465.72336807900518
  0
LINE
  8
_2-0_
  6
CONTINUOUS
 62
    7
 10
355.84164991719513
 20
465.72336807900518
 11
355.95361791719517
 21
465.54174207900519
  0
LINE
  8
_2-0_
  6
CONTINUOUS
 62
    7
 10
355.95361791719517
 20
465.54174207900519
 11
355.99129591719509
 21
465.48064007900518
  0
LINE
  8
_2-0_
  6
CONTINUOUS
 62
    7
 10
348.58257991719518
 20
489.48064007900518
 11
348.62225591719516
 21
489.4162660790052
  0
LINE
  8
_2-0_
  6
CONTINUOUS
 62
    7
 10
348.62225591719516
 20
489.4162660790052
 11
348.7401659171951
 21
489.22491007900516
  0
LINE
  8
_2-0_
  6
CONTINUOUS
 62
    7
 10
348.7401659171951
 20
489.22491007900516
 11
348.93274391719513
 21
488.9118960790052
  0
LINE
  8
_2-0_
  6
CONTINUOUS
 62
    7
 10
348.93274391719513
 20
488.9118960790052
 11
349.19348991719517
 21
488.48613407900518
  0
LINE
  8
_2-0_
  6
CONTINUOUS
 62
    7
 10
349.19348991719517
 20
488.48613407900518
 11
349.51238191719517
 21
487.96009807900515
  0
LINE
  8
_2-0_
  6
CONTINUOUS
 62
    7
 10
349.51238191719517
 20
487.96009807900515
 11
349.87555591719513
 21
487.34967407900518
  0
LINE
  8
_2-0_
  6
CONTINUOUS
 62
    7
 10
349.87555591719513
 20
487.34967407900518
 11
350.26548591719518
 21
486.67377607900517
  0
LINE
  8
_2-0_
  6
CONTINUOUS
 62
    7
 10
350.26548591719518
 20
486.67377607900517
 11
350.66192591719516
 21
485.95369407900517
  0
LINE
  8
_2-0_
  6
CONTINUOUS
 62
    7
 10
350.66192591719516
 20
485.95369407900517
 11
351.0435719171951
 21
485.21218807900516
  0
LINE
  8
_2-0_
  6
CONTINUOUS
 62
    7
 10
351.0435719171951
 20
485.21218807900516
 11
351.39029591719509
 21
484.47236607900516
  0
LINE
  8
_2-0_
  6
CONTINUOUS
 62
    7
 10
351.39029591719509
 20
484.47236607900516
 11
351.68557191719515
 21
483.75651207900518
  0
LINE
  8
_2-0_
  6
CONTINUOUS
 62
    7
 10
351.68557191719515
 20
483.75651207900518
 11
351.91863191719517
 21
483.08495607900517
  0
LINE
  8
_2-0_
  6
CONTINUOUS
 62
    7
 10
351.91863191719517
 20
483.08495607900517
 11
352.08587791719515
 21
482.47519807900517
  0
LINE
  8
_2-0_
  6
CONTINUOUS
 62
    7
 10
352.08587791719515
 20
482.47519807900517
 11
352.19119391719516
 21
481.94136407900515
  0
LINE
  8
_2-0_
  6
CONTINUOUS
 62
    7
 10
352.19119391719516
 20
481.94136407900515
 11
352.24499791719518
 21
481.49406407900517
  0
LINE
  8
_2-0_
  6
CONTINUOUS
 62
    7
 10
352.24499791719518
 20
481.49406407900517
 11
352.26214991719519
 21
481.14065207900518
  0
LINE
  8
_2-0_
  6
CONTINUOUS
 62
    7
 10
352.26214991719519
 20
481.14065207900518
 11
352.25902791719511
 21
480.88576407900518
  0
LINE
  8
_2-0_
  6
CONTINUOUS
 62
    7
 10
352.25902791719511
 20
480.88576407900518
 11
352.25033591719512
 21
480.73201007900519
  0
LINE
  8
_2-0_
  6
CONTINUOUS
 62
    7
 10
352.25033591719512
 20
480.73201007900519
 11
352.24623191719513
 21
480.68064007900517
  0
LINE
  8
_2-0_
  6
CONTINUOUS
 62
    7
 10
352.24623191719513
 20
480.68064007900517
 11
352.24152791719519
 21
480.62944807900516
  0
LINE
  8
_2-0_
  6
CONTINUOUS
 62
    7
 10
352.24152791719519
 20
480.62944807900516
 11
352.22407391719514
 21
480.47829807900519
  0
LINE
  8
_2-0_
  6
CONTINUOUS
 62
    7
 10
352.22407391719514
 20
480.47829807900519
 11
352.18476391719514
 21
480.23417207900519
  0
LINE
  8
_2-0_
  6
CONTINUOUS
 62
    7
 10
352.18476391719514
 20
480.23417207900519
 11
352.11127391719515
 21
479.90774407900517
  0
LINE
  8
_2-0_
  6
CONTINUOUS
 62
    7
 10
352.11127391719515
 20
479.90774407900517
 11
351.99160191719511
 21
479.51216807900516
  0
LINE
  8
_2-0_
  6
CONTINUOUS
 62
    7
 10
351.99160191719511
 20
479.51216807900516
 11
351.81773791719513
 21
479.06174007900518
  0
LINE
  8
_2-0_
  6
CONTINUOUS
 62
    7
 10
351.81773791719513
 20
479.06174007900518
 11
351.58857391719516
 21
478.5707140790052
  0
LINE
  8
_2-0_
  6
CONTINUOUS
 62
    7
 10
351.58857391719516
 20
478.5707140790052
 11
351.3113119171951
 21
478.05249407900516
  0
LINE
  8
_2-0_
  6
CONTINUOUS
 62
    7
 10
351.3113119171951
 20
478.05249407900516
 11
351.00100791719512
 21
477.5193120790052
  0
LINE
  8
_2-0_
  6
CONTINUOUS
 62
    7
 10
351.00100791719512
 20
477.5193120790052
 11
350.67833591719511
 21
476.98237807900517
  0
LINE
  8
_2-0_
  6
CONTINUOUS
 62
    7
 10
350.67833591719511
 20
476.98237807900517
 11
350.36607191719509
 21
476.4524020790052
  0
LINE
  8
_2-0_
  6
CONTINUOUS
 62
    7
 10
350.36607191719509
 20
476.4524020790052
 11
350.08510591719516
 21
475.94024807900519
  0
LINE
  8
_2-0_
  6
CONTINUOUS
 62
    7
 10
350.08510591719516
 20
475.94024807900519
 11
349.85089591719509
 21
475.4574900790052
  0
LINE
  8
_2-0_
  6
CONTINUOUS
 62
    7
 10
349.85089591719509
 20
475.4574900790052
 11
349.67118591719509
 21
475.0166340790052
  0
LINE
  8
_2-0_
  6
CONTINUOUS
 62
    7
 10
349.67118591719509
 20
475.0166340790052
 11
349.54550191719511
 21
474.63090007900519
  0
LINE
  8
_2-0_
  6
CONTINUOUS
 62
    7
 10
349.54550191719511
 20
474.63090007900519
 11
349.46648991719519
 21
474.31351807900518
  0
LINE
  8
_2-0_
  6
CONTINUOUS
 62
    7
 10
349.46648991719519
 20
474.31351807900518
 11
349.42274391719513
 21
474.0766560790052
  0
LINE
  8
_2-0_
  6
CONTINUOUS
 62
    7
 10
349.42274391719513
 20
474.0766560790052
 11
349.40241991719518
 21
473.93020807900518
  0
LINE
  8
_2-0_
  6
CONTINUOUS
 62
    7
 10
349.40241991719518
 20
473.93020807900518
 11
349.39672391719512
 21
473.88064007900516
  0
LINE
  8
_2-0_
  6
CONTINUOUS
 62
    7
 10
349.39672391719512
 20
473.88064007900516
 11
349.39161391719517
 21
473.83091807900519
  0
LINE
  8
_2-0_
  6
CONTINUOUS
 62
    7
 10
349.39161391719517
 20
473.83091807900519
 11
349.3798519171952
 21
473.68219207900518
  0
LINE
  8
_2-0_
  6
CONTINUOUS
 62
    7
 10
349.3798519171952
 20
473.68219207900518
 11
349.37145191719515
 21
473.43594607900519
  0
LINE
  8
_2-0_
  6
CONTINUOUS
 62
    7
 10
349.37145191719515
 20
473.43594607900519
 11
349.38093591719519
 21
473.09509407900515
  0
LINE
  8
_2-0_
  6
CONTINUOUS
 62
    7
 10
349.38093591719519
 20
473.09509407900515
 11
349.42450391719512
 21
472.66455607900519
  0
LINE
  8
_2-0_
  6
CONTINUOUS
 62
    7
 10
349.42450391719512
 20
472.66455607900519
 11
349.51692791719518
 21
472.1518340790052
  0
LINE
  8
_2-0_
  6
CONTINUOUS
 62
    7
 10
349.51692791719518
 20
472.1518340790052
 11
349.66867591719517
 21
471.56745607900518
  0
LINE
  8
_2-0_
  6
CONTINUOUS
 62
    7
 10
349.66867591719517
 20
471.56745607900518
 11
349.88386391719519
 21
470.92517207900516
  0
LINE
  8
_2-0_
  6
CONTINUOUS
 62
    7
 10
349.88386391719519
 20
470.92517207900516
 11
350.15931791719515
 21
470.24178207900519
  0
LINE
  8
_2-0_
  6
CONTINUOUS
 62
    7
 10
350.15931791719515
 20
470.24178207900519
 11
350.48486991719517
 21
469.53663407900518
  0
LINE
  8
_2-0_
  6
CONTINUOUS
 62
    7
 10
350.48486991719517
 20
469.53663407900518
 11
350.84473391719519
 21
468.83079807900515
  0
LINE
  8
_2-0_
  6
CONTINUOUS
 62
    7
 10
350.84473391719519
 20
468.83079807900515
 11
351.21959591719519
 21
468.14605207900519
  0
LINE
  8
_2-0_
  6
CONTINUOUS
 62
    7
 10
351.21959591719519
 20
468.14605207900519
 11
351.58898191719516
 21
467.5038020790052
  0
LINE
  8
_2-0_
  6
CONTINUOUS
 62
    7
 10
351.58898191719516
 20
467.5038020790052
 11
351.93341791719513
 21
466.92406607900517
  0
LINE
  8
_2-0_
  6
CONTINUOUS
 62
    7
 10
351.93341791719513
 20
466.92406607900517
 11
352.23606591719511
 21
466.42463407900516
  0
LINE
  8
_2-0_
  6
CONTINUOUS
 62
    7
 10
352.23606591719511
 20
466.42463407900516
 11
352.48361991719514
 21
466.02047607900516
  0
LINE
  8
_2-0_
  6
CONTINUOUS
 62
    7
 10
352.48361991719514
 20
466.02047607900516
 11
352.66648591719513
 21
465.72336807900518
  0
LINE
  8
_2-0_
  6
CONTINUOUS
 62
    7
 10
352.66648591719513
 20
465.72336807900518
 11
352.77845391719518
 21
465.54174207900519
  0
LINE
  8
_2-0_
  6
CONTINUOUS
 62
    7
 10
352.77845391719518
 20
465.54174207900519
 11
352.81613191719509
 21
465.48064007900518
  0
LINE
  8
_2-0_
  6
CONTINUOUS
 62
    7
 10
157.7470539171951
 20
489.48064007900518
 11
348.58257991719518
 21
489.48064007900518
  0
LINE
  8
_2-0_
  6
CONTINUOUS
 62
    7
 10
352.81613191719509
 20
465.48064007900518
 11
157.7470539171951
 21
465.48064007900518
  0
LINE
  8
_2-0_
  6
CONTINUOUS
 62
    7
 10
153.7470539171951
 20
488.76240007900515
 11
157.7470539171951
 21
488.76240007900515
  0
LINE
  8
_2-0_
  6
CONTINUOUS
 62
    7
 10
153.7470539171951
 20
488.76240007900515
 11
153.7470539171951
 21
466.07955807900515
  0
LINE
  8
_2-0_
  6
CONTINUOUS
 62
    7
 10
153.7470539171951
 20
466.07955807900515
 11
157.7470539171951
 21
466.07955807900515
  0
LINE
  8
_2-0_
  6
CONTINUOUS
 62
    7
 10
133.8586139171951
 20
474.48064007900518
 11
153.7470539171951
 21
474.48064007900518
  0
LINE
  8
_2-0_
  6
CONTINUOUS
 62
    4
 10
107.7470539171951
 20
439.18568607900517
 11
107.7470539171951
 21
456.28568607900513
  0
LINE
  8
_2-0_
  6
CONTINUOUS
 62
    4
 10
153.7470539171951
 20
439.18568607900517
 11
153.7470539171951
 21
456.28568607900513
  0
LINE
  8
_2-0_
  6
CONTINUOUS
 62
    2
 10
157.7470539171951
 20
489.48064007900518
 11
157.7470539171951
 21
465.48064007900518
  0
LINE
  8
_2-0_
  6
CONTINUOUS
 62
    2
 10
240.45316591719512
 20
465.48064007900518
 11
264.45316591719518
 21
489.48064007900518
  0
LINE
  8
_2-0_
  6
CONTINUOUS
 62
    2
 10
237.62473791719509
 20
465.48064007900518
 11
261.62473791719509
 21
489.48064007900518
  0
LINE
  8
_2-0_
  6
CONTINUOUS
 62
    2
 10
234.79631191719511
 20
465.48064007900518
 11
258.79631191719511
 21
489.48064007900518
  0
LINE
  8
_2-0_
  6
CONTINUOUS
 62
    2
 10
231.96788391719514
 20
465.48064007900518
 11
255.96788391719514
 21
489.48064007900518
  0
LINE
  8
_2-0_
  6
CONTINUOUS
 62
    2
 10
229.1394579171951
 20
465.48064007900518
 11
253.1394579171951
 21
489.48064007900518
  0
LINE
  8
_2-0_
  6
CONTINUOUS
 62
    2
 10
226.31102991719513
 20
465.48064007900518
 11
250.31102991719513
 21
489.48064007900518
  0
LINE
  8
_2-0_
  6
CONTINUOUS
 62
    2
 10
223.48260391719509
 20
465.48064007900518
 11
247.48260391719509
 21
489.48064007900518
  0
LINE
  8
_2-0_
  6
CONTINUOUS
 62
    2
 10
220.65417591719512
 20
465.48064007900518
 11
244.65417591719512
 21
489.48064007900518
  0
LINE
  8
_2-0_
  6
CONTINUOUS
 62
    2
 10
217.82574791719509
 20
465.48064007900518
 11
241.82574791719509
 21
489.48064007900518
  0
LINE
  8
_2-0_
  6
CONTINUOUS
 62
    2
 10
214.99732191719511
 20
465.48064007900518
 11
238.99732191719511
 21
489.48064007900518
  0
LINE
  8
_2-0_
  6
CONTINUOUS
 62
    2
 10
212.16889391719513
 20
465.48064007900518
 11
236.16889391719513
 21
489.48064007900518
  0
LINE
  8
_2-0_
  6
CONTINUOUS
 62
    2
 10
209.3404679171951
 20
465.48064007900518
 11
233.3404679171951
 21
489.48064007900518
  0
LINE
  8
_2-0_
  6
CONTINUOUS
 62
    2
 10
206.51203991719512
 20
465.48064007900518
 11
230.51203991719512
 21
489.48064007900518
  0
LINE
  8
_2-0_
  6
CONTINUOUS
 62
    2
 10
203.68361391719509
 20
465.48064007900518
 11
227.68361391719509
 21
489.48064007900518
  0
LINE
  8
_2-0_
  6
CONTINUOUS
 62
    2
 10
200.85518591719512
 20
465.48064007900518
 11
224.85518591719512
 21
489.48064007900518
  0
LINE
  8
_2-0_
  6
CONTINUOUS
 62
    2
 10
198.02675791719514
 20
465.48064007900518
 11
222.02675791719514
 21
489.48064007900518
  0
LINE
  8
_2-0_
  6
CONTINUOUS
 62
    2
 10
195.19833191719511
 20
465.48064007900518
 11
219.19833191719511
 21
489.48064007900518
  0
LINE
  8
_2-0_
  6
CONTINUOUS
 62
    2
 10
192.36990391719513
 20
465.48064007900518
 11
216.36990391719513
 21
489.48064007900518
  0
LINE
  8
_2-0_
  6
CONTINUOUS
 62
    2
 10
189.54147791719515
 20
465.48064007900518
 11
213.5414779171951
 21
489.48064007900518
  0
LINE
  8
_2-0_
  6
CONTINUOUS
 62
    2
 10
186.71304991719512
 20
465.48064007900518
 11
210.71304991719512
 21
489.48064007900518
  0
LINE
  8
_2-0_
  6
CONTINUOUS
 62
    2
 10
183.88462391719514
 20
465.48064007900518
 11
207.88462391719509
 21
489.48064007900518
  0
LINE
  8
_2-0_
  6
CONTINUOUS
 62
    2
 10
181.05619591719511
 20
465.48064007900518
 11
205.05619591719511
 21
489.48064007900518
  0
LINE
  8
_2-0_
  6
CONTINUOUS
 62
    2
 10
178.22776991719513
 20
465.48064007900518
 11
202.22776991719513
 21
489.48064007900518
  0
LINE
  8
_2-0_
  6
CONTINUOUS
 62
    2
 10
175.3993419171951
 20
465.48064007900518
 11
199.3993419171951
 21
489.48064007900518
  0
LINE
  8
_2-0_
  6
CONTINUOUS
 62
    2
 10
172.57091391719513
 20
465.48064007900518
 11
196.57091391719513
 21
489.48064007900518
  0
LINE
  8
_2-0_
  6
CONTINUOUS
 62
    2
 10
169.74248791719515
 20
465.48064007900518
 11
193.74248791719515
 21
489.48064007900518
  0
LINE
  8
_2-0_
  6
CONTINUOUS
 62
    2
 10
166.91405991719512
 20
465.48064007900518
 11
190.91405991719512
 21
489.48064007900518
  0
LINE
  8
_2-0_
  6
CONTINUOUS
 62
    2
 10
164.08563391719514
 20
465.48064007900518
 11
188.08563391719514
 21
489.48064007900518
  0
LINE
  8
_2-0_
  6
CONTINUOUS
 62
    2
 10
161.25720591719511
 20
465.48064007900518
 11
185.25720591719511
 21
489.48064007900518
  0
LINE
  8
_2-0_
  6
CONTINUOUS
 62
    2
 10
158.42877991719513
 20
465.48064007900518
 11
182.42877991719513
 21
489.48064007900518
  0
LINE
  8
_2-0_
  6
CONTINUOUS
 62
    2
 10
157.7470539171951
 20
467.62734207900519
 11
179.60035191719516
 21
489.48064007900518
  0
LINE
  8
_2-0_
  6
CONTINUOUS
 62
    2
 10
157.7470539171951
 20
470.45576807900517
 11
176.77192391719512
 21
489.48064007900518
  0
LINE
  8
_2-0_
  6
CONTINUOUS
 62
    2
 10
157.7470539171951
 20
473.2841960790052
 11
173.94349791719515
 21
489.48064007900518
  0
LINE
  8
_2-0_
  6
CONTINUOUS
 62
    2
 10
157.7470539171951
 20
476.11262207900518
 11
171.11506991719511
 21
489.48064007900518
  0
LINE
  8
_2-0_
  6
CONTINUOUS
 62
    2
 10
157.7470539171951
 20
478.94105007900515
 11
168.28664391719514
 21
489.48064007900518
  0
LINE
  8
_2-0_
  6
CONTINUOUS
 62
    2
 10
157.7470539171951
 20
481.76947807900518
 11
165.4582159171951
 21
489.48064007900518
  0
LINE
  8
_2-0_
  6
CONTINUOUS
 62
    2
 10
157.7470539171951
 20
484.59790407900516
 11
162.62978991719513
 21
489.48064007900518
  0
LINE
  8
_2-0_
  6
CONTINUOUS
 62
    2
 10
157.7470539171951
 20
487.42633207900519
 11
159.80136191719515
 21
489.48064007900518
  0
LINE
  8
_2-0_
  6
CONTINUOUS
 62
    2
 10
350.7618239171951
 20
465.48064007900518
 11
352.03598791719514
 21
466.75480407900517
  0
LINE
  8
_2-0_
  6
CONTINUOUS
 62
    2
 10
347.93339591719518
 20
465.48064007900518
 11
350.99997791719511
 21
468.54722207900517
  0
LINE
  8
_2-0_
  6
CONTINUOUS
 62
    2
 10
345.10496991719515
 20
465.48064007900518
 11
350.07508591719511
 21
470.4507560790052
  0
LINE
  8
_2-0_
  6
CONTINUOUS
 62
    2
 10
342.27654191719512
 20
465.48064007900518
 11
349.42999591719513
 21
472.63409407900519
  0
LINE
  8
_2-0_
  6
CONTINUOUS
 62
    2
 10
339.4481159171952
 20
465.48064007900518
 11
350.3006839171951
 21
476.3332100790052
  0
LINE
  8
_2-0_
  6
CONTINUOUS
 62
    2
 10
336.61968791719517
 20
465.48064007900518
 11
352.26193191719517
 21
481.12288407900519
  0
LINE
  8
_2-0_
  6
CONTINUOUS
 62
    2
 10
333.79125991719513
 20
465.48064007900518
 11
351.78387591719513
 21
483.47325407900519
  0
LINE
  8
_2-0_
  6
CONTINUOUS
 62
    2
 10
330.9628339171951
 20
465.48064007900518
 11
350.9249179171951
 21
485.44272407900519
  0
LINE
  8
_2-0_
  6
CONTINUOUS
 62
    2
 10
328.13440591719518
 20
465.48064007900518
 11
349.92234191719513
 21
487.26857607900519
  0
LINE
  8
_2-0_
  6
CONTINUOUS
 62
    2
 10
325.30597991719515
 20
465.48064007900518
 11
348.8582759171951
 21
489.0329360790052
  0
LINE
  8
_2-0_
  6
CONTINUOUS
 62
    2
 10
322.47755191719511
 20
465.48064007900518
 11
346.47755191719511
 21
489.48064007900518
  0
LINE
  8
_2-0_
  6
CONTINUOUS
 62
    2
 10
319.64912591719519
 20
465.48064007900518
 11
343.64912591719519
 21
489.48064007900518
  0
LINE
  8
_2-0_
  6
CONTINUOUS
 62
    2
 10
316.82069791719516
 20
465.48064007900518
 11
340.82069791719516
 21
489.48064007900518
  0
LINE
  8
_2-0_
  6
CONTINUOUS
 62
    2
 10
313.99227191719513
 20
465.48064007900518
 11
337.99227191719513
 21
489.48064007900518
  0
LINE
  8
_2-0_
  6
CONTINUOUS
 62
    2
 10
311.16384391719509
 20
465.48064007900518
 11
335.16384391719509
 21
489.48064007900518
  0
LINE
  8
_2-0_
  6
CONTINUOUS
 62
    2
 10
308.33541591719518
 20
465.48064007900518
 11
332.33541591719518
 21
489.48064007900518
  0
LINE
  8
_2-0_
  6
CONTINUOUS
 62
    2
 10
305.50698991719514
 20
465.48064007900518
 11
329.50698991719514
 21
489.48064007900518
  0
LINE
  8
_2-0_
  6
CONTINUOUS
 62
    2
 10
302.67856191719511
 20
465.48064007900518
 11
326.67856191719511
 21
489.48064007900518
  0
LINE
  8
_2-0_
  6
CONTINUOUS
 62
    2
 10
299.85013591719519
 20
465.48064007900518
 11
323.85013591719519
 21
489.48064007900518
  0
LINE
  8
_2-0_
  6
CONTINUOUS
 62
    2
 10
297.02170791719516
 20
465.48064007900518
 11
321.02170791719516
 21
489.48064007900518
  0
LINE
  8
_2-0_
  6
CONTINUOUS
 62
    2
 10
294.19328191719512
 20
465.48064007900518
 11
318.19328191719512
 21
489.48064007900518
  0
LINE
  8
_2-0_
  6
CONTINUOUS
 62
    2
 10
291.36485391719509
 20
465.48064007900518
 11
315.36485391719509
 21
489.48064007900518
  0
LINE
  8
_2-0_
  6
CONTINUOUS
 62
    2
 10
288.53642591719517
 20
465.48064007900518
 11
312.53642591719517
 21
489.48064007900518
  0
LINE
  8
_2-0_
  6
CONTINUOUS
 62
    2
 10
285.70799991719514
 20
465.48064007900518
 11
309.70799991719514
 21
489.48064007900518
  0
LINE
  8
_2-0_
  6
CONTINUOUS
 62
    2
 10
282.87957191719511
 20
465.48064007900518
 11
306.87957191719511
 21
489.48064007900518
  0
LINE
  8
_2-0_
  6
CONTINUOUS
 62
    2
 10
280.05114591719519
 20
465.48064007900518
 11
304.05114591719519
 21
489.48064007900518
  0
LINE
  8
_2-0_
  6
CONTINUOUS
 62
    2
 10
277.22271791719515
 20
465.48064007900518
 11
301.22271791719515
 21
489.48064007900518
  0
LINE
  8
_2-0_
  6
CONTINUOUS
 62
    2
 10
274.39429191719512
 20
465.48064007900518
 11
298.39429191719512
 21
489.48064007900518
  0
LINE
  8
_2-0_
  6
CONTINUOUS
 62
    2
 10
271.56586391719509
 20
465.48064007900518
 11
295.56586391719509
 21
489.48064007900518
  0
LINE
  8
_2-0_
  6
CONTINUOUS
 62
    2
 10
268.73743791719517
 20
465.48064007900518
 11
292.73743791719517
 21
489.48064007900518
  0
LINE
  8
_2-0_
  6
CONTINUOUS
 62
    2
 10
265.90900991719514
 20
465.48064007900518
 11
289.90900991719514
 21
489.48064007900518
  0
LINE
  8
_2-0_
  6
CONTINUOUS
 62
    2
 10
263.0805819171951
 20
465.48064007900518
 11
287.0805819171951
 21
489.48064007900518
  0
LINE
  8
_2-0_
  6
CONTINUOUS
 62
    2
 10
260.25215591719513
 20
465.48064007900518
 11
284.25215591719518
 21
489.48064007900518
  0
LINE
  8
_2-0_
  6
CONTINUOUS
 62
    2
 10
257.42372791719509
 20
465.48064007900518
 11
281.42372791719515
 21
489.48064007900518
  0
LINE
  8
_2-0_
  6
CONTINUOUS
 62
    2
 10
254.59530191719512
 20
465.48064007900518
 11
278.59530191719512
 21
489.48064007900518
  0
LINE
  8
_2-0_
  6
CONTINUOUS
 62
    2
 10
251.76687391719508
 20
465.48064007900518
 11
275.76687391719508
 21
489.48064007900518
  0
LINE
  8
_2-0_
  6
CONTINUOUS
 62
    2
 10
248.93844791719511
 20
465.48064007900518
 11
272.93844791719516
 21
489.48064007900518
  0
LINE
  8
_2-0_
  6
CONTINUOUS
 62
    2
 10
246.11001991719513
 20
465.48064007900518
 11
270.11001991719513
 21
489.48064007900518
  0
LINE
  8
_2-0_
  6
CONTINUOUS
 62
    2
 10
493.73870391719515
 20
465.48064007900518
 11
517.73870391719515
 21
489.48064007900518
  0
LINE
  8
_2-0_
  6
CONTINUOUS
 62
    2
 10
490.91027791719512
 20
465.48064007900518
 11
514.91027791719512
 21
489.48064007900518
  0
LINE
  8
_2-0_
  6
CONTINUOUS
 62
    2
 10
488.08184991719509
 20
465.48064007900518
 11
512.08184991719509
 21
489.48064007900518
  0
LINE
  8
_2-0_
  6
CONTINUOUS
 62
    2
 10
485.25342391719516
 20
465.48064007900518
 11
509.25342391719516
 21
489.48064007900518
  0
LINE
  8
_2-0_
  6
CONTINUOUS
 62
    2
 10
482.42499591719519
 20
465.48064007900518
 11
506.42499591719513
 21
489.48064007900518
  0
LINE
  8
_2-0_
  6
CONTINUOUS
 62
    2
 10
479.59656791719516
 20
465.48064007900518
 11
503.5965679171951
 21
489.48064007900518
  0
LINE
  8
_2-0_
  6
CONTINUOUS
 62
    2
 10
476.76814191719512
 20
465.48064007900518
 11
500.76814191719507
 21
489.48064007900518
  0
LINE
  8
_2-0_
  6
CONTINUOUS
 62
    2
 10
473.93971391719521
 20
465.48064007900518
 11
497.93971391719515
 21
489.48064007900518
  0
LINE
  8
_2-0_
  6
CONTINUOUS
 62
    2
 10
471.11128791719517
 20
465.48064007900518
 11
495.11128791719511
 21
489.48064007900518
  0
LINE
  8
_2-0_
  6
CONTINUOUS
 62
    2
 10
468.28285991719514
 20
465.48064007900518
 11
492.28285991719508
 21
489.48064007900518
  0
LINE
  8
_2-0_
  6
CONTINUOUS
 62
    2
 10
465.45443391719522
 20
465.48064007900518
 11
489.45443391719516
 21
489.48064007900518
  0
LINE
  8
_2-0_
  6
CONTINUOUS
 62
    2
 10
462.62600591719519
 20
465.48064007900518
 11
486.62600591719513
 21
489.48064007900518
  0
LINE
  8
_2-0_
  6
CONTINUOUS
 62
    2
 10
459.79757991719515
 20
465.48064007900518
 11
483.79757991719515
 21
489.48064007900518
  0
LINE
  8
_2-0_
  6
CONTINUOUS
 62
    2
 10
456.96915191719518
 20
465.48064007900518
 11
480.96915191719512
 21
489.48064007900518
  0
LINE
  8
_2-0_
  6
CONTINUOUS
 62
    2
 10
454.14072391719515
 20
465.48064007900518
 11
478.1407239171952
 21
489.48064007900518
  0
LINE
  8
_2-0_
  6
CONTINUOUS
 62
    2
 10
451.31229791719517
 20
465.48064007900518
 11
475.31229791719517
 21
489.48064007900518
  0
LINE
  8
_2-0_
  6
CONTINUOUS
 62
    2
 10
448.48386991719519
 20
465.48064007900518
 11
472.48386991719514
 21
489.48064007900518
  0
LINE
  8
_2-0_
  6
CONTINUOUS
 62
    2
 10
445.65544391719516
 20
465.48064007900518
 11
469.65544391719521
 21
489.48064007900518
  0
LINE
  8
_2-0_
  6
CONTINUOUS
 62
    2
 10
442.82701591719518
 20
465.48064007900518
 11
466.82701591719518
 21
489.48064007900518
  0
LINE
  8
_2-0_
  6
CONTINUOUS
 62
    2
 10
439.99858991719515
 20
465.48064007900518
 11
463.99858991719515
 21
489.48064007900518
  0
LINE
  8
_2-0_
  6
CONTINUOUS
 62
    2
 10
437.17016191719517
 20
465.48064007900518
 11
461.17016191719512
 21
489.48064007900518
  0
LINE
  8
_2-0_
  6
CONTINUOUS
 62
    2
 10
434.34173391719514
 20
465.48064007900518
 11
458.3417339171952
 21
489.48064007900518
  0
LINE
  8
_2-0_
  6
CONTINUOUS
 62
    2
 10
431.51330791719516
 20
465.48064007900518
 11
455.51330791719516
 21
489.48064007900518
  0
LINE
  8
_2-0_
  6
CONTINUOUS
 62
    2
 10
428.68487991719519
 20
465.48064007900518
 11
452.68487991719519
 21
489.48064007900518
  0
LINE
  8
_2-0_
  6
CONTINUOUS
 62
    2
 10
425.85645391719515
 20
465.48064007900518
 11
449.85645391719515
 21
489.48064007900518
  0
LINE
  8
_2-0_
  6
CONTINUOUS
 62
    2
 10
423.02802591719518
 20
465.48064007900518
 11
447.02802591719518
 21
489.48064007900518
  0
LINE
  8
_2-0_
  6
CONTINUOUS
 62
    2
 10
420.19959991719514
 20
465.48064007900518
 11
444.19959991719514
 21
489.48064007900518
  0
LINE
  8
_2-0_
  6
CONTINUOUS
 62
    2
 10
417.37117191719517
 20
465.48064007900518
 11
441.37117191719517
 21
489.48064007900518
  0
LINE
  8
_2-0_
  6
CONTINUOUS
 62
    2
 10
414.54274591719519
 20
465.48064007900518
 11
438.54274591719519
 21
489.48064007900518
  0
LINE
  8
_2-0_
  6
CONTINUOUS
 62
    2
 10
411.71431791719516
 20
465.48064007900518
 11
435.71431791719516
 21
489.48064007900518
  0
LINE
  8
_2-0_
  6
CONTINUOUS
 62
    2
 10
408.88588991719519
 20
465.48064007900518
 11
432.88588991719519
 21
489.48064007900518
  0
LINE
  8
_2-0_
  6
CONTINUOUS
 62
    2
 10
406.05746391719515
 20
465.48064007900518
 11
430.05746391719515
 21
489.48064007900518
  0
LINE
  8
_2-0_
  6
CONTINUOUS
 62
    2
 10
403.22903591719518
 20
465.48064007900518
 11
427.22903591719518
 21
489.48064007900518
  0
LINE
  8
_2-0_
  6
CONTINUOUS
 62
    2
 10
400.4006099171952
 20
465.48064007900518
 11
424.4006099171952
 21
489.48064007900518
  0
LINE
  8
_2-0_
  6
CONTINUOUS
 62
    2
 10
397.57218191719517
 20
465.48064007900518
 11
421.57218191719517
 21
489.48064007900518
  0
LINE
  8
_2-0_
  6
CONTINUOUS
 62
    2
 10
394.74375591719519
 20
465.48064007900518
 11
418.74375591719519
 21
489.48064007900518
  0
LINE
  8
_2-0_
  6
CONTINUOUS
 62
    2
 10
391.91532791719516
 20
465.48064007900518
 11
415.91532791719516
 21
489.48064007900518
  0
LINE
  8
_2-0_
  6
CONTINUOUS
 62
    2
 10
389.08689991719518
 20
465.48064007900518
 11
413.08689991719518
 21
489.48064007900518
  0
LINE
  8
_2-0_
  6
CONTINUOUS
 62
    2
 10
386.25847391719515
 20
465.48064007900518
 11
410.25847391719515
 21
489.48064007900518
  0
LINE
  8
_2-0_
  6
CONTINUOUS
 62
    2
 10
383.43004591719517
 20
465.48064007900518
 11
407.43004591719517
 21
489.48064007900518
  0
LINE
  8
_2-0_
  6
CONTINUOUS
 62
    2
 10
380.60161991719519
 20
465.48064007900518
 11
404.60161991719519
 21
489.48064007900518
  0
LINE
  8
_2-0_
  6
CONTINUOUS
 62
    2
 10
377.77319191719516
 20
465.48064007900518
 11
401.77319191719516
 21
489.48064007900518
  0
LINE
  8
_2-0_
  6
CONTINUOUS
 62
    2
 10
374.94476591719518
 20
465.48064007900518
 11
398.94476591719518
 21
489.48064007900518
  0
LINE
  8
_2-0_
  6
CONTINUOUS
 62
    2
 10
372.11633791719515
 20
465.48064007900518
 11
396.11633791719515
 21
489.48064007900518
  0
LINE
  8
_2-0_
  6
CONTINUOUS
 62
    2
 10
369.28791191719517
 20
465.48064007900518
 11
393.28791191719517
 21
489.48064007900518
  0
LINE
  8
_2-0_
  6
CONTINUOUS
 62
    2
 10
366.45948391719514
 20
465.48064007900518
 11
390.45948391719514
 21
489.48064007900518
  0
LINE
  8
_2-0_
  6
CONTINUOUS
 62
    2
 10
363.63105591719517
 20
465.48064007900518
 11
387.63105591719517
 21
489.48064007900518
  0
LINE
  8
_2-0_
  6
CONTINUOUS
 62
    2
 10
360.80262991719519
 20
465.48064007900518
 11
384.80262991719519
 21
489.48064007900518
  0
LINE
  8
_2-0_
  6
CONTINUOUS
 62
    2
 10
357.97420191719516
 20
465.48064007900518
 11
381.97420191719516
 21
489.48064007900518
  0
LINE
  8
_2-0_
  6
CONTINUOUS
 62
    2
 10
355.66900391719514
 20
466.0038700790052
 11
379.14577591719518
 21
489.48064007900518
  0
LINE
  8
_2-0_
  6
CONTINUOUS
 62
    2
 10
354.60946191719518
 20
467.77275407900515
 11
376.31734791719515
 21
489.48064007900518
  0
LINE
  8
_2-0_
  6
CONTINUOUS
 62
    2
 10
353.62367391719511
 20
469.61539207900518
 11
373.48892191719517
 21
489.48064007900518
  0
LINE
  8
_2-0_
  6
CONTINUOUS
 62
    2
 10
352.82394191719516
 20
471.6440880790052
 11
370.6604939171952
 21
489.48064007900518
  0
LINE
  8
_2-0_
  6
CONTINUOUS
 62
    2
 10
352.63637991719509
 20
474.28495207900517
 11
367.83206591719517
 21
489.48064007900518
  0
LINE
  8
_2-0_
  6
CONTINUOUS
 62
    2
 10
355.22384791719514
 20
479.7008480790052
 11
365.00363991719519
 21
489.48064007900518
  0
LINE
  8
_2-0_
  6
CONTINUOUS
 62
    2
 10
355.24139791719517
 20
482.54682407900521
 11
362.17521191719516
 21
489.48064007900518
  0
LINE
  8
_2-0_
  6
CONTINUOUS
 62
    2
 10
354.49303991719512
 20
484.62689407900518
 11
359.34678591719518
 21
489.48064007900518
  0
LINE
  8
_2-0_
  6
CONTINUOUS
 62
    2
 10
353.53681791719509
 20
486.49910007900519
 11
356.51835791719515
 21
489.48064007900518
  0
LINE
  8
_2-0_
  6
CONTINUOUS
 62
    2
 10
352.49198391719517
 20
488.28269207900519
 11
353.68993191719517
 21
489.48064007900518
  0
LINE
  8
_2-0_
  6
CONTINUOUS
 62
    2
 10
243.2815919171951
 20
465.48064007900518
 11
267.2815919171951
 21
489.48064007900518
  0
LINE
  8
_2-0_
  6
CONTINUOUS
 62
    7
 10
566.58257991719506
 20
474.98921407900519
 11
566.58257991719506
 21
477.38921407900517
  0
LINE
  8
_2-0_
  6
CONTINUOUS
 62
    7
 10
566.58257991719506
 20
471.38921407900517
 11
566.58257991719506
 21
483.38921407900517
  0
LINE
  8
_2-0_
  6
CONTINUOUS
 62
    7
 10
590.19293591719509
 20
471.38921407900517
 11
590.19293591719509
 21
483.38921407900517
  0
LINE
  8
_2-0_
  6
CONTINUOUS
 62
    7
 10
566.58257991719506
 20
483.38921407900517
 11
590.19293591719509
 21
483.38921407900517
  0
LINE
  8
_2-0_
  6
CONTINUOUS
 62
    7
 10
590.19293591719509
 20
471.38921407900517
 11
566.58257991719506
 21
471.38921407900517
  0
LINE
  8
_2-0_
  6
CONTINUOUS
 62
    7
 10
568.98257991719515
 20
471.38921407900517
 11
568.98257991719515
 21
483.38921407900517
  0
LINE
  8
_2-0_
  6
CONTINUOUS
 62
    7
 10
581.79293591719511
 20
478.58921407900516
 11
581.79293591719511
 21
480.98921407900519
  0
LINE
  8
_2-0_
  6
CONTINUOUS
 62
    7
 10
581.79293591719511
 20
473.78921407900515
 11
581.79293591719511
 21
476.18921407900518
  0
LINE
  8
_2-0_
  6
CONTINUOUS
 62
    7
 10
581.79293591719511
 20
473.78921407900515
 11
590.19293591719509
 21
473.78921407900515
  0
LINE
  8
_2-0_
  6
CONTINUOUS
 62
    7
 10
581.79293591719511
 20
476.18921407900518
 11
590.19293591719509
 21
476.18921407900518
  0
LINE
  8
_2-0_
  6
CONTINUOUS
 62
    7
 10
581.79293591719511
 20
478.58921407900516
 11
590.19293591719509
 21
478.58921407900516
  0
LINE
  8
_2-0_
  6
CONTINUOUS
 62
    7
 10
581.79293591719511
 20
480.98921407900519
 11
590.19293591719509
 21
480.98921407900519
  0
LINE
  8
_2-0_
  6
CONTINUOUS
 62
    7
 10
579.02665791719517
 20
485.78074207900517
 11
572.18478591719509
 21
485.42685207900519
  0
LINE
  8
_2-0_
  6
CONTINUOUS
 62
    7
 10
572.18478591719509
 20
485.42685207900519
 11
579.61647391719509
 21
488.0810260790052
  0
LINE
  8
_2-0_
  6
CONTINUOUS
 62
    7
 10
582.45349791719514
 20
483.38921407900517
 11
579.02665791719517
 21
485.78074207900517
  0
LINE
  8
_2-0_
  6
CONTINUOUS
 62
    7
 10
579.61647391719509
 20
488.0810260790052
 11
583.98997191719513
 21
483.38921407900517
  0
LINE
  8
_2-0_
  6
CONTINUOUS
 62
    7
 10
579.61647391719509
 20
466.6974020790052
 11
583.98997191719513
 21
471.38921407900517
  0
LINE
  8
_2-0_
  6
CONTINUOUS
 62
    7
 10
572.18478591719509
 20
469.35157807900515
 11
579.61647391719509
 21
466.6974020790052
  0
LINE
  8
_2-0_
  6
CONTINUOUS
 62
    7
 10
579.02665791719517
 20
468.99768807900517
 11
572.18478591719509
 21
469.35157807900515
  0
LINE
  8
_2-0_
  6
CONTINUOUS
 62
    7
 10
582.45349791719514
 20
471.38921407900517
 11
579.02665791719517
 21
468.99768807900517
  0
LINE
  8
_2-0_
  6
CONTINUOUS
 62
    7
 10
520.58257991719506
 20
466.07955807900515
 11
516.58257991719506
 21
466.07955807900515
  0
LINE
  8
_2-0_
  6
CONTINUOUS
 62
    7
 10
520.58257991719506
 20
488.76240007900515
 11
516.58257991719506
 21
488.76240007900515
  0
LINE
  8
_2-0_
  6
CONTINUOUS
 62
    4
 10
520.58257991719518
 20
439.18568607900517
 11
520.58257991719518
 21
456.28568607900513
  0
LINE
  8
_2-0_
  6
CONTINUOUS
 62
    4
 10
566.58257991719506
 20
439.18568607900517
 11
566.58257991719506
 21
456.28568607900513
  0
LINE
  8
_2-0_
  6
CONTINUOUS
 62
    7
 10
351.79742191719515
 20
489.48064007900518
 11
516.58257991719506
 21
489.48064007900518
  0
LINE
  8
_2-0_
  6
CONTINUOUS
 62
    7
 10
516.58257991719506
 20
465.48064007900518
 11
355.99129591719509
 21
465.48064007900518
  0
LINE
  8
_2-0_
  6
CONTINUOUS
 62
    7
 10
516.58257991719506
 20
489.48064007900518
 11
516.58257991719506
 21
465.48064007900518
  0
LINE
  8
_2-0_
  6
CONTINUOUS
 62
    2
 10
496.56713191719507
 20
465.48064007900518
 11
516.62226260469811
 21
485.53577076650822
  0
LINE
  8
_2-0_
  6
CONTINUOUS
 62
    2
 10
499.39555791719511
 20
465.48064007900518
 11
515.91186744733727
 21
481.99694960914741
  0
LINE
  8
_2-0_
  6
CONTINUOUS
 62
    2
 10
502.22398591719514
 20
465.48064007900518
 11
516.40541791248097
 21
479.66207207429102
  0
LINE
  8
_2-0_
  6
CONTINUOUS
 62
    2
 10
505.05241391719517
 20
465.48064007900518
 11
516.26158593041646
 21
476.68981209222642
  0
LINE
  8
_2-0_
  6
CONTINUOUS
 62
    2
 10
507.88083991719509
 20
465.48064007900518
 11
516.18857322026383
 21
473.78837338207393
  0
LINE
  8
_2-0_
  6
CONTINUOUS
 62
    2
 10
510.70926791719512
 20
465.48064007900518
 11
515.97392096628721
 21
470.74529312809727
  0
LINE
  8
_2-0_
  6
CONTINUOUS
 62
    2
 10
513.53769391719516
 20
465.48064007900518
 11
515.7592677123107
 21
467.70221387412067
  0
ARC
  8
_2-0_
  6
CONTINUOUS
 62
    7
 10
647.04112987558165
 20
479.68064007900517
 40
0.4
 50
206.26848899999999
 51
0
  0
LINE
  8
_2-0_
  6
CONTINUOUS
 62
    7
 10
634.78810187558179
 20
479.98064007900518
 11
636.5415198755818
 21
479.98064007900518
  0
LINE
  8
_2-0_
  6
CONTINUOUS
 62
    7
 10
634.78810187558179
 20
474.98064007900518
 11
634.78810187558179
 21
479.98064007900518
  0
LINE
  8
_2-0_
  6
CONTINUOUS
 62
    7
 10
634.78810187558179
 20
474.98064007900518
 11
636.5415198755818
 21
474.98064007900518
  0
LINE
  8
_2-0_
  6
CONTINUOUS
 62
    7
 10
636.5415198755818
 20
484.88064007900516
 11
640.64112987558178
 21
484.88064007900516
  0
ARC
  8
_2-0_
  6
CONTINUOUS
 62
    7
 10
624.03140587558164
 20
489.08064007900515
 40
0.4
 50
0
 51
90
  0
ARC
  8
_2-0_
  6
CONTINUOUS
 62
    7
 10
623.83140587558159
 20
487.88064007900516
 40
1.6000000000000001
 50
90
 51
180
  0
LINE
  8
_2-0_
  6
CONTINUOUS
 62
    7
 10
623.83140587558159
 20
489.48064007900518
 11
624.03140587558164
 21
489.48064007900518
  0
LINE
  8
_2-0_
  6
CONTINUOUS
 62
    7
 10
622.23140587558169
 20
477.48064007900518
 11
622.23140587558169
 21
466.98062807900516
  0
LINE
  8
_2-0_
  6
CONTINUOUS
 62
    7
 10
622.23140587558169
 20
477.48064007900518
 11
622.23140587558169
 21
487.98065207900515
  0
ARC
  8
_2-0_
  6
CONTINUOUS
 62
    7
 10
624.03140587558164
 20
465.88064007900516
 40
0.4
 50
270
 51
0
  0
ARC
  8
_2-0_
  6
CONTINUOUS
 62
    7
 10
623.83140587558159
 20
467.08064007900515
 40
1.6000000000000001
 50
180
 51
270
  0
LINE
  8
_2-0_
  6
CONTINUOUS
 62
    7
 10
623.83140587558159
 20
465.48064007900518
 11
624.03140587558164
 21
465.48064007900518
  0
ARC
  8
_2-0_
  6
CONTINUOUS
 62
    7
 10
631.09259987558175
 20
488.88064007900516
 40
0.5999999999999999
 50
45.000007000000004
 51
90
  0
LINE
  8
_2-0_
  6
CONTINUOUS
 62
    7
 10
624.83142587558177
 20
489.48064007900518
 11
631.09259987558175
 21
489.48064007900518
  0
LINE
  8
_2-0_
  6
CONTINUOUS
 62
    7
 10
632.66539387558169
 20
488.15637607900516
 11
631.51686387558175
 21
489.30490407900515
  0
ARC
  8
_2-0_
  6
CONTINUOUS
 62
    7
 10
633.08965787558168
 20
488.58064007900515
 40
0.5999999999999999
 50
225.00000700000004
 51
270
  0
LINE
  8
_2-0_
  6
CONTINUOUS
 62
    7
 10
633.08965787558168
 20
487.98064007900518
 11
641.25461187558176
 21
487.98064007900518
  0
ARC
  8
_2-0_
  6
CONTINUOUS
 62
    7
 10
633.08965787558168
 20
466.38064007900516
 40
0.5999999999999999
 50
90
 51
134.99999299999999
  0
LINE
  8
_2-0_
  6
CONTINUOUS
 62
    7
 10
633.08965787558168
 20
466.98064007900518
 11
641.25461187558176
 21
466.98064007900518
  0
LINE
  8
_2-0_
  6
CONTINUOUS
 62
    7
 10
632.66539387558169
 20
466.80490407900515
 11
631.51686387558175
 21
465.65637607900516
  0
ARC
  8
_2-0_
  6
CONTINUOUS
 62
    7
 10
631.09259987558175
 20
466.08064007900515
 40
0.5999999999999999
 50
270
 51
314.99999300000002
  0
LINE
  8
_2-0_
  6
CONTINUOUS
 62
    7
 10
624.83142587558177
 20
465.48064007900518
 11
631.09259987558175
 21
465.48064007900518
  0
ARC
  8
_2-0_
  6
CONTINUOUS
 62
    7
 10
624.83142587558177
 20
465.88064007900516
 40
0.4
 50
180
 51
270
  0
ARC
  8
_2-0_
  6
CONTINUOUS
 62
    7
 10
624.83142587558177
 20
489.08064007900515
 40
0.4
 50
90
 51
180
  0
ARC
  8
_2-0_
  6
CONTINUOUS
 62
    7
 10
641.24112987558169
 20
481.78172207900519
 40
0.5999999999999999
 50
90
 51
180
  0
ARC
  8
_2-0_
  6
CONTINUOUS
 62
    7
 10
641.27456387558163
 20
481.78172207900519
 40
0.5999999999999999
 50
53.547318000000004
 51
90
  0
LINE
  8
_2-0_
  6
CONTINUOUS
 62
    7
 10
641.24112987558169
 20
482.38172207900516
 11
641.27456387558163
 21
482.38172207900516
  0
ARC
  8
_2-0_
  6
CONTINUOUS
 62
    7
 10
641.27456387558163
 20
485.48172207900518
 40
0.5999999999999999
 50
270
 51
306.45268199999998
  0
ARC
  8
_2-0_
  6
CONTINUOUS
 62
    7
 10
641.27456387558163
 20
481.78172207900519
 40
0.5999999999999999
 50
53.547318000000004
 51
90
  0
ARC
  8
_2-0_
  6
CONTINUOUS
 62
    7
 10
641.24112987558169
 20
485.48172207900518
 40
0.5999999999999999
 50
180
 51
270
  0
LINE
  8
_2-0_
  6
CONTINUOUS
 62
    7
 10
641.27456387558163
 20
484.88172207900516
 11
641.24112987558169
 21
484.88172207900516
  0
ARC
  8
_2-0_
  6
CONTINUOUS
 62
    7
 10
642.64112787558179
 20
483.63172207900516
 40
1.7
 50
233.54731800000002
 51
126.452682
  0
LINE
  8
_2-0_
  6
CONTINUOUS
 62
    7
 10
647.44112787558174
 20
483.42727807900519
 11
647.44112787558174
 21
487.38064007900516
  0
LINE
  8
_2-0_
  6
CONTINUOUS
 62
    7
 10
647.44112787558174
 20
483.42727807900519
 11
647.44112987558174
 21
479.68064007900517
  0
LINE
  8
_2-0_
  6
CONTINUOUS
 62
    7
 10
647.44112987558174
 20
471.53400007900518
 11
647.44112987558174
 21
467.58064007900515
  0
LINE
  8
_2-0_
  6
CONTINUOUS
 62
    7
 10
647.44112987558174
 20
475.2806400790052
 11
647.44112987558174
 21
471.53400007900518
  0
ARC
  8
_2-0_
  6
CONTINUOUS
 62
    7
 10
647.04112987558165
 20
475.2806400790052
 40
0.4
 50
0
 51
153.73151100000001
  0
ARC
  8
_2-0_
  6
CONTINUOUS
 62
    7
 10
641.25461187558176
 20
487.58063607900516
 40
0.4
 50
40.000763999999997
 51
90
  0
ARC
  8
_2-0_
  6
CONTINUOUS
 62
    7
 10
640.04112987558165
 20
485.38064007900516
 40
0.5999999999999999
 50
0
 51
90.000000999999997
  0
ARC
  8
_2-0_
  6
CONTINUOUS
 62
    7
 10
641.25461187558176
 20
467.38064207900516
 40
0.4
 50
270
 51
319.999236
  0
LINE
  8
_2-0_
  6
CONTINUOUS
 62
    7
 10
642.71061787558165
 20
487.18280407900517
 11
642.10294987558177
 21
487.18279607900519
  0
LINE
  8
_2-0_
  6
CONTINUOUS
 62
    7
 10
643.99963987558181
 20
487.92704407900516
 11
642.71061787558165
 21
487.18280407900517
  0
ARC
  8
_2-0_
  6
CONTINUOUS
 62
    7
 10
644.19964387558161
 20
487.58063607900516
 40
0.4
 50
90
 51
120.000764
  0
LINE
  8
_2-0_
  6
CONTINUOUS
 62
    7
 10
644.19964387558161
 20
487.98064007900518
 11
646.84112787558161
 21
487.98064007900518
  0
LINE
  8
_2-0_
  6
CONTINUOUS
 62
    7
 10
642.11061787558174
 20
487.18279607900519
 11
641.56102587558166
 21
487.8377560790052
  0
ARC
  8
_2-0_
  6
CONTINUOUS
 62
    7
 10
644.19964387558161
 20
467.38064207900516
 40
0.4
 50
239.999236
 51
270
  0
LINE
  8
_2-0_
  6
CONTINUOUS
 62
    7
 10
644.19964387558161
 20
466.98064007900518
 11
646.8411298755816
 21
466.98064007900518
  0
ARC
  8
_2-0_
  6
CONTINUOUS
 62
    7
 10
646.84112787558161
 20
487.38064007900516
 40
0.5999999999999999
 50
0.000001
 51
90.000000000000014
  0
ARC
  8
_2-0_
  6
CONTINUOUS
 62
    7
 10
646.8411298755816
 20
467.58064007900515
 40
0.5999999999999999
 50
270
 51
0.0000010000000039
  0
LINE
  8
_2-0_
  6
CONTINUOUS
 62
    7
 10
632.81190387558172
 20
467.57955807900515
 11
633.96085187558174
 21
467.57955807900515
  0
LINE
  8
_2-0_
  6
CONTINUOUS
 62
    7
 10
630.9269138755817
 20
488.87955807900511
 11
624.44112787558174
 21
488.87955807900511
  0
LINE
  8
_2-0_
  6
CONTINUOUS
 62
    7
 10
632.47544187558174
 20
487.49671407900513
 11
631.20975587558178
 21
488.76240007900515
  0
LINE
  8
_2-0_
  6
CONTINUOUS
 62
    7
 10
634.55608187558164
 20
487.37955807900511
 11
632.7582838755817
 21
487.37955807900511
  0
LINE
  8
_2-0_
  6
CONTINUOUS
 62
    7
 10
622.84112787558172
 20
467.67955807900512
 11
622.84112787558172
 21
487.27955807900514
  0
ARC
  8
_2-0_
  6
CONTINUOUS
 62
    7
 10
634.55608187558164
 20
486.77955807900514
 40
0.5999999999999999
 50
0
 51
90
  0
ARC
  8
_2-0_
  6
CONTINUOUS
 62
    7
 10
642.64112787558179
 20
471.32955807900515
 40
4.4299999999999997
 50
61.095945
 51
166.641457
  0
ARC
  8
_2-0_
  6
CONTINUOUS
 62
    7
 10
642.64112787558179
 20
471.32955807900515
 40
4.4299999999999997
 50
18.543718999999989
 51
61.095944999999986
  0
ARC
  8
_2-0_
  6
CONTINUOUS
 62
    7
 10
642.64112787558179
 20
471.32955807900515
 40
4.4299999999999997
 50
302.16687200000001
 51
341.45628100000005
  0
ARC
  8
_2-0_
  6
CONTINUOUS
 62
    7
 10
642.64112787558179
 20
471.32955807900515
 40
4.4299999999999997
 50
164.95404599999998
 51
237.83312799999996
  0
ARC
  8
_2-0_
  6
CONTINUOUS
 62
    7
 10
630.9269138755817
 20
488.47955807900513
 40
0.4
 50
45
 51
90
  0
ARC
  8
_2-0_
  6
CONTINUOUS
 62
    7
 10
646.2411278755817
 20
468.17955807900512
 40
0.5999999999999999
 50
270
 51
0
  0
ARC
  8
_2-0_
  6
CONTINUOUS
 62
    7
 10
624.44112787558174
 20
467.67955807900512
 40
1.6000000000000001
 50
180
 51
270
  0
ARC
  8
_2-0_
  6
CONTINUOUS
 62
    7
 10
624.44112787558174
 20
487.27955807900514
 40
1.6000000000000001
 50
90
 51
180
  0
ARC
  8
_2-0_
  6
_
 62
    7
 10
642.64112787558179
 20
471.32955807900515
 40
4.4299999999999997
 50
164.95404599999998
 51
172.29882799999999
  0
ARC
  8
_2-0_
  6
CONTINUOUS
 62
    7
 10
632.7582838755817
 20
487.77955807900514
 40
0.4
 50
225
 51
270
  0
CIRCLE
  8
_2-0_
  6
CONTINUOUS
 62
    7
 10
642.64112787558179
 20
471.32955807900515
 40
2.3999999999999999
  0
LINE
  8
_2-0_
  6
CONTINUOUS
 62
    7
 10
630.9269138755817
 20
466.07955807900515
 11
624.44112787558174
 21
466.07955807900515
  0
ARC
  8
_2-0_
  6
CONTINUOUS
 62
    7
 10
630.9269138755817
 20
466.47955807900513
 40
0.4
 50
270
 51
315
  0
LINE
  8
_2-0_
  6
CONTINUOUS
 62
    7
 10
632.7582838755817
 20
467.57955807900515
 11
646.2411278755817
 21
467.57955807900515
  0
LINE
  8
_2-0_
  6
CONTINUOUS
 62
    7
 10
632.47544187558174
 20
467.46240007900514
 11
631.20975587558178
 21
466.19671407900512
  0
ARC
  8
_2-0_
  6
CONTINUOUS
 62
    7
 10
632.7582838755817
 20
467.17955807900512
 40
0.4
 50
90
 51
135
  0
LINE
  8
_2-0_
  6
CONTINUOUS
 62
    7
 10
630.74823387558172
 20
479.47955807900513
 11
630.74823387558172
 21
475.47955807900513
  0
ARC
  8
_2-0_
  6
CONTINUOUS
 62
    7
 10
633.74823387558172
 20
475.47955807900513
 40
3
 50
180
 51
270
  0
ARC
  8
_2-0_
  6
CONTINUOUS
 62
    7
 10
645.1482338755817
 20
476.47955807900513
 40
6
 50
90
 51
180
  0
LINE
  8
_2-0_
  6
CONTINUOUS
 62
    7
 10
639.1482338755817
 20
476.47955807900513
 11
639.1482338755817
 21
475.47955807900513
  0
LINE
  8
_2-0_
  6
CONTINUOUS
 62
    7
 10
633.74823387558172
 20
472.47955807900513
 11
636.1482338755817
 21
472.47955807900513
  0
ARC
  8
_2-0_
  6
CONTINUOUS
 62
    7
 10
636.1482338755817
 20
475.47955807900513
 40
3
 50
270
 51
0
  0
ARC
  8
_2-0_
  6
CONTINUOUS
 62
    7
 10
633.74823387558172
 20
479.47955807900513
 40
3
 50
109.398978
 51
180
  0
LINE
  8
_2-0_
  6
CONTINUOUS
 62
    7
 10
635.15608187558178
 20
486.77955807900514
 11
635.15608187558178
 21
485.70486607900511
  0
ARC
  8
_2-0_
  6
CONTINUOUS
 62
    7
 10
631.55608187558164
 20
485.70486607900511
 40
3.6000000000000001
 50
289.398978
 51
0.0000000000000254
  0
LINE
  8
_2-0_
  6
CONTINUOUS
 62
    7
 10
645.15608187558178
 20
482.47955807900513
 11
646.2411278755817
 21
482.47955807900513
  0
LINE
  8
_2-0_
  6
CONTINUOUS
 62
    7
 10
646.84112787558172
 20
468.17955807900512
 11
646.84112787558172
 21
481.87955807900511
  0
ARC
  8
_2-0_
  6
CONTINUOUS
 62
    7
 10
646.2411278755817
 20
481.87955807900511
 40
0.5999999999999999
 50
0
 51
90
  0
LINE
  8
_2-0_
  6
CONTINUOUS
 62
    7
 10
635.15608187558178
 20
485.98064007900518
 11
640.04112987558165
 21
485.98064007900518
  0
LINE
  8
_2-0_
  6
CONTINUOUS
 62
    7
 10
624.43142587558168
 20
489.08064007900515
 11
624.43142587558168
 21
488.87955807900511
  0
LINE
  8
_2-0_
  6
CONTINUOUS
 62
    7
 10
624.43142587558168
 20
465.88064007900516
 11
624.43142587558168
 21
466.07958761592903
  0
LINE
  8
_2-0_
  6
CONTINUOUS
 62
    7
 10
636.5415198755818
 20
472.5054487800378
 11
636.5415198755818
 21
484.88064007900516
  0
LINE
  8
_2-0_
  6
CONTINUOUS
 62
    7
 10
640.64112987558178
 20
480.44011530409159
 11
640.64112987558178
 21
484.88064007900516
  0
LINE
  8
_2-0_
  6
CONTINUOUS
 62
    7
 10
639.74151987558162
 20
479.08098917019396
 11
639.74151987558162
 21
484.88064007900516
  0
LINE
  8
_2-0_
  6
CONTINUOUS
 62
    7
 10
643.99963987558181
 20
467.03423407900516
 11
643.05513993856141
 21
467.57955807900515
  0
LINE
  8
_2-0_
  6
CONTINUOUS
 62
    7
 10
641.94369617195389
 20
467.57955807900515
 11
641.56102587558166
 21
467.12352207900517
  0
LINE
  8
_2-0_
  6
CONTINUOUS
 62
    7
 10
640.64112987558178
 20
480.44011530409159
 11
640.64112987558178
 21
481.78172207900519
  0
LINE
  8
_2-0_
  6
CONTINUOUS
 62
    7
 10
306.29436191719515
 20
477.79877207900518
 11
312.82647423233641
 21
503.49414058624791
  0
LINE
  8
_2-0_
  6
CONTINUOUS
 62
    7
 10
157.7470539171951
 20
421.98700540305208
 11
157.7470539171951
 21
396.77728340305202
  0
LINE
  8
_2-0_
  6
CONTINUOUS
 62
    7
 10
352.42943791719517
 20
421.98700540305208
 11
352.45489591719513
 21
421.9394914030521
  0
LINE
  8
_2-0_
  6
CONTINUOUS
 62
    7
 10
352.45489591719513
 20
421.9394914030521
 11
352.53054391719513
 21
421.79824340305208
  0
LINE
  8
_2-0_
  6
CONTINUOUS
 62
    7
 10
352.53054391719513
 20
421.79824340305208
 11
352.65404191719517
 21
421.56707940305205
  0
LINE
  8
_2-0_
  6
CONTINUOUS
 62
    7
 10
352.65404191719517
 20
421.56707940305205
 11
352.82101191719516
 21
421.25218740305206
  0
LINE
  8
_2-0_
  6
CONTINUOUS
 62
    7
 10
352.82101191719516
 20
421.25218740305206
 11
353.02456391719511
 21
420.86187540305207
  0
LINE
  8
_2-0_
  6
CONTINUOUS
 62
    7
 10
353.02456391719511
 20
420.86187540305207
 11
353.25498591719509
 21
420.40629740305212
  0
LINE
  8
_2-0_
  6
CONTINUOUS
 62
    7
 10
353.25498591719509
 20
420.40629740305212
 11
353.49986991719516
 21
419.89715340305213
  0
LINE
  8
_2-0_
  6
CONTINUOUS
 62
    7
 10
353.49986991719516
 20
419.89715340305213
 11
353.74479791719511
 21
419.34740540305211
  0
LINE
  8
_2-0_
  6
CONTINUOUS
 62
    7
 10
353.74479791719511
 20
419.34740540305211
 11
353.97465591719515
 21
418.77104940305207
  0
LINE
  8
_2-0_
  6
CONTINUOUS
 62
    7
 10
353.97465591719515
 20
418.77104940305207
 11
354.17535591719513
 21
418.18287540305209
  0
LINE
  8
_2-0_
  6
CONTINUOUS
 62
    7
 10
354.17535591719513
 20
418.18287540305209
 11
354.33573591719517
 21
417.59824940305202
  0
LINE
  8
_2-0_
  6
CONTINUOUS
 62
    7
 10
354.33573591719517
 20
417.59824940305202
 11
354.44923991719509
 21
417.03285940305204
  0
LINE
  8
_2-0_
  6
CONTINUOUS
 62
    7
 10
354.44923991719509
 20
417.03285940305204
 11
354.51499191719518
 21
416.50239340305211
  0
LINE
  8
_2-0_
  6
CONTINUOUS
 62
    7
 10
354.51499191719518
 20
416.50239340305211
 11
354.53798991719509
 21
416.02212740305208
  0
LINE
  8
_2-0_
  6
CONTINUOUS
 62
    7
 10
354.53798991719509
 20
416.02212740305208
 11
354.52829991719511
 21
415.60643540305205
  0
LINE
  8
_2-0_
  6
CONTINUOUS
 62
    7
 10
354.52829991719511
 20
415.60643540305205
 11
354.49931791719519
 21
415.26821940305206
  0
LINE
  8
_2-0_
  6
CONTINUOUS
 62
    7
 10
354.49931791719519
 20
415.26821940305206
 11
354.46538991719513
 21
415.01831740305204
  0
LINE
  8
_2-0_
  6
CONTINUOUS
 62
    7
 10
354.46538991719513
 20
415.01831740305204
 11
354.43919791719509
 21
414.86494740305204
  0
LINE
  8
_2-0_
  6
CONTINUOUS
 62
    7
 10
354.43919791719509
 20
414.86494740305204
 11
354.42943791719517
 21
414.81324140305207
  0
LINE
  8
_2-0_
  6
CONTINUOUS
 62
    7
 10
354.42943791719517
 20
414.81324140305207
 11
354.41919591719511
 21
414.76147940305202
  0
LINE
  8
_2-0_
  6
CONTINUOUS
 62
    7
 10
354.41919591719511
 20
414.76147940305202
 11
354.38595991719512
 21
414.60726140305212
  0
LINE
  8
_2-0_
  6
CONTINUOUS
 62
    7
 10
354.38595991719512
 20
414.60726140305212
 11
354.32296991719511
 21
414.35379340305212
  0
LINE
  8
_2-0_
  6
CONTINUOUS
 62
    7
 10
354.32296991719511
 20
414.35379340305212
 11
354.22130391719509
 21
414.00641540305207
  0
LINE
  8
_2-0_
  6
CONTINUOUS
 62
    7
 10
354.22130391719509
 20
414.00641540305207
 11
354.0727919171951
 21
413.57257940305203
  0
LINE
  8
_2-0_
  6
CONTINUOUS
 62
    7
 10
354.0727919171951
 20
413.57257940305203
 11
353.87298791719513
 21
413.06181940305203
  0
LINE
  8
_2-0_
  6
CONTINUOUS
 62
    7
 10
353.87298791719513
 20
413.06181940305203
 11
353.62348591719513
 21
412.48571940305203
  0
LINE
  8
_2-0_
  6
CONTINUOUS
 62
    7
 10
353.62348591719513
 20
412.48571940305203
 11
353.33291991719511
 21
411.85782340305207
  0
LINE
  8
_2-0_
  6
CONTINUOUS
 62
    7
 10
353.33291991719511
 20
411.85782340305207
 11
353.01640991719512
 21
411.19350540305209
  0
LINE
  8
_2-0_
  6
CONTINUOUS
 62
    7
 10
353.01640991719512
 20
411.19350540305209
 11
352.69348991719517
 21
410.50977340305212
  0
LINE
  8
_2-0_
  6
CONTINUOUS
 62
    7
 10
352.69348991719517
 20
410.50977340305212
 11
352.38499591719517
 21
409.82495140305207
  0
LINE
  8
_2-0_
  6
CONTINUOUS
 62
    7
 10
352.38499591719517
 20
409.82495140305207
 11
352.10959391719518
 21
409.15826540305204
  0
LINE
  8
_2-0_
  6
CONTINUOUS
 62
    7
 10
352.10959391719518
 20
409.15826540305204
 11
351.88075991719518
 21
408.52929540305206
  0
LINE
  8
_2-0_
  6
CONTINUOUS
 62
    7
 10
351.88075991719518
 20
408.52929540305206
 11
351.70489191719514
 21
407.95731540305212
  0
LINE
  8
_2-0_
  6
CONTINUOUS
 62
    7
 10
351.70489191719514
 20
407.95731540305212
 11
351.58098391719511
 21
407.46054140305205
  0
LINE
  8
_2-0_
  6
CONTINUOUS
 62
    7
 10
351.58098391719511
 20
407.46054140305205
 11
351.50192791719519
 21
407.05532940305204
  0
LINE
  8
_2-0_
  6
CONTINUOUS
 62
    7
 10
351.50192791719519
 20
407.05532940305204
 11
351.45710191719513
 21
406.75539940305202
  0
LINE
  8
_2-0_
  6
CONTINUOUS
 62
    7
 10
351.45710191719513
 20
406.75539940305202
 11
351.43561591719515
 21
406.57112340305207
  0
LINE
  8
_2-0_
  6
CONTINUOUS
 62
    7
 10
351.43561591719515
 20
406.57112340305207
 11
351.42943791719517
 21
406.50896540305212
  0
LINE
  8
_2-0_
  6
CONTINUOUS
 62
    7
 10
351.42943791719517
 20
406.50896540305212
 11
351.42379791719509
 21
406.44672340305203
  0
LINE
  8
_2-0_
  6
CONTINUOUS
 62
    7
 10
351.42379791719509
 20
406.44672340305203
 11
351.41017791719514
 21
406.26119540305206
  0
LINE
  8
_2-0_
  6
CONTINUOUS
 62
    7
 10
351.41017791719514
 20
406.26119540305206
 11
351.39784991719512
 21
405.95603940305205
  0
LINE
  8
_2-0_
  6
CONTINUOUS
 62
    7
 10
351.39784991719512
 20
405.95603940305205
 11
351.40026991719515
 21
405.53750540305202
  0
LINE
  8
_2-0_
  6
CONTINUOUS
 62
    7
 10
351.40026991719515
 20
405.53750540305202
 11
351.4324839171951
 21
405.01462340305204
  0
LINE
  8
_2-0_
  6
CONTINUOUS
 62
    7
 10
351.4324839171951
 20
405.01462340305204
 11
351.50826391719511
 21
404.39934740305205
  0
LINE
  8
_2-0_
  6
CONTINUOUS
 62
    7
 10
351.50826391719511
 20
404.39934740305205
 11
351.63746791719518
 21
403.70657140305207
  0
LINE
  8
_2-0_
  6
CONTINUOUS
 62
    7
 10
351.63746791719518
 20
403.70657140305207
 11
351.82414991719509
 21
402.95399940305208
  0
LINE
  8
_2-0_
  6
CONTINUOUS
 62
    7
 10
351.82414991719509
 20
402.95399940305208
 11
352.06569191719518
 21
402.16176940305206
  0
LINE
  8
_2-0_
  6
CONTINUOUS
 62
    7
 10
352.06569191719518
 20
402.16176940305206
 11
352.35307191719517
 21
401.35187340305208
  0
LINE
  8
_2-0_
  6
CONTINUOUS
 62
    7
 10
352.35307191719517
 20
401.35187340305208
 11
352.67210791719515
 21
400.54740740305203
  0
LINE
  8
_2-0_
  6
CONTINUOUS
 62
    7
 10
352.67210791719515
 20
400.54740740305203
 11
353.00537991719511
 21
399.77168940305205
  0
LINE
  8
_2-0_
  6
CONTINUOUS
 62
    7
 10
353.00537991719511
 20
399.77168940305205
 11
353.33438391719517
 21
399.04736540305203
  0
LINE
  8
_2-0_
  6
CONTINUOUS
 62
    7
 10
353.33438391719517
 20
399.04736540305203
 11
353.64152191719518
 21
398.39555540305207
  0
LINE
  8
_2-0_
  6
CONTINUOUS
 62
    7
 10
353.64152191719518
 20
398.39555540305207
 11
353.91158391719512
 21
397.83511940305209
  0
LINE
  8
_2-0_
  6
CONTINUOUS
 62
    7
 10
353.91158391719512
 20
397.83511940305209
 11
354.13256391719517
 21
397.38207340305212
  0
LINE
  8
_2-0_
  6
CONTINUOUS
 62
    7
 10
354.13256391719517
 20
397.38207340305212
 11
354.29582591719509
 21
397.04919140305208
  0
LINE
  8
_2-0_
  6
CONTINUOUS
 62
    7
 10
354.29582591719509
 20
397.04919140305208
 11
354.39579591719519
 21
396.84572740305202
  0
LINE
  8
_2-0_
  6
CONTINUOUS
 62
    7
 10
354.39579591719519
 20
396.84572740305202
 11
354.42943791719517
 21
396.77728340305202
  0
LINE
  8
_2-0_
  6
CONTINUOUS
 62
    7
 10
348.69835191719517
 20
421.98700540305208
 11
348.72381191719512
 21
421.9394914030521
  0
LINE
  8
_2-0_
  6
CONTINUOUS
 62
    7
 10
348.72381191719512
 20
421.9394914030521
 11
348.79945991719512
 21
421.79824340305208
  0
LINE
  8
_2-0_
  6
CONTINUOUS
 62
    7
 10
348.79945991719512
 20
421.79824340305208
 11
348.92295591719517
 21
421.56707940305205
  0
LINE
  8
_2-0_
  6
CONTINUOUS
 62
    7
 10
348.92295591719517
 20
421.56707940305205
 11
349.08992591719516
 21
421.25218740305206
  0
LINE
  8
_2-0_
  6
CONTINUOUS
 62
    7
 10
349.08992591719516
 20
421.25218740305206
 11
349.2934779171951
 21
420.86187540305207
  0
LINE
  8
_2-0_
  6
CONTINUOUS
 62
    7
 10
349.2934779171951
 20
420.86187540305207
 11
349.52390191719519
 21
420.40629740305212
  0
LINE
  8
_2-0_
  6
CONTINUOUS
 62
    7
 10
349.52390191719519
 20
420.40629740305212
 11
349.76878391719515
 21
419.89715340305213
  0
LINE
  8
_2-0_
  6
CONTINUOUS
 62
    7
 10
349.76878391719515
 20
419.89715340305213
 11
350.0137139171951
 21
419.34740540305211
  0
LINE
  8
_2-0_
  6
CONTINUOUS
 62
    7
 10
350.0137139171951
 20
419.34740540305211
 11
350.24356991719515
 21
418.77104940305207
  0
LINE
  8
_2-0_
  6
CONTINUOUS
 62
    7
 10
350.24356991719515
 20
418.77104940305207
 11
350.44426991719513
 21
418.18287540305209
  0
LINE
  8
_2-0_
  6
CONTINUOUS
 62
    7
 10
350.44426991719513
 20
418.18287540305209
 11
350.60464991719516
 21
417.59824940305202
  0
LINE
  8
_2-0_
  6
CONTINUOUS
 62
    7
 10
350.60464991719516
 20
417.59824940305202
 11
350.7181539171952
 21
417.03285940305204
  0
LINE
  8
_2-0_
  6
CONTINUOUS
 62
    7
 10
350.7181539171952
 20
417.03285940305204
 11
350.78390591719517
 21
416.50239340305211
  0
LINE
  8
_2-0_
  6
CONTINUOUS
 62
    7
 10
350.78390591719517
 20
416.50239340305211
 11
350.80690391719509
 21
416.02212740305208
  0
LINE
  8
_2-0_
  6
CONTINUOUS
 62
    7
 10
350.80690391719509
 20
416.02212740305208
 11
350.79721391719511
 21
415.60643540305205
  0
LINE
  8
_2-0_
  6
CONTINUOUS
 62
    7
 10
350.79721391719511
 20
415.60643540305205
 11
350.76823391719518
 21
415.26821940305206
  0
LINE
  8
_2-0_
  6
CONTINUOUS
 62
    7
 10
350.76823391719518
 20
415.26821940305206
 11
350.73430391719512
 21
415.01831740305204
  0
LINE
  8
_2-0_
  6
CONTINUOUS
 62
    7
 10
350.73430391719512
 20
415.01831740305204
 11
350.70811391719519
 21
414.86494740305204
  0
LINE
  8
_2-0_
  6
CONTINUOUS
 62
    7
 10
350.70811391719519
 20
414.86494740305204
 11
350.69835191719517
 21
414.81324140305207
  0
LINE
  8
_2-0_
  6
CONTINUOUS
 62
    7
 10
350.69835191719517
 20
414.81324140305207
 11
350.68810991719511
 21
414.76147940305202
  0
LINE
  8
_2-0_
  6
CONTINUOUS
 62
    7
 10
350.68810991719511
 20
414.76147940305202
 11
350.65487591719511
 21
414.60726140305212
  0
LINE
  8
_2-0_
  6
CONTINUOUS
 62
    7
 10
350.65487591719511
 20
414.60726140305212
 11
350.5918839171951
 21
414.35379340305212
  0
LINE
  8
_2-0_
  6
CONTINUOUS
 62
    7
 10
350.5918839171951
 20
414.35379340305212
 11
350.49021991719519
 21
414.00641540305207
  0
LINE
  8
_2-0_
  6
CONTINUOUS
 62
    7
 10
350.49021991719519
 20
414.00641540305207
 11
350.3417059171951
 21
413.57257940305203
  0
LINE
  8
_2-0_
  6
CONTINUOUS
 62
    7
 10
350.3417059171951
 20
413.57257940305203
 11
350.14190391719512
 21
413.06181940305203
  0
LINE
  8
_2-0_
  6
CONTINUOUS
 62
    7
 10
350.14190391719512
 20
413.06181940305203
 11
349.89239991719512
 21
412.48571940305203
  0
LINE
  8
_2-0_
  6
CONTINUOUS
 62
    7
 10
349.89239991719512
 20
412.48571940305203
 11
349.60183391719511
 21
411.85782340305207
  0
LINE
  8
_2-0_
  6
CONTINUOUS
 62
    7
 10
349.60183391719511
 20
411.85782340305207
 11
349.28532391719511
 21
411.19350540305209
  0
LINE
  8
_2-0_
  6
CONTINUOUS
 62
    7
 10
349.28532391719511
 20
411.19350540305209
 11
348.96240391719516
 21
410.50977340305212
  0
LINE
  8
_2-0_
  6
CONTINUOUS
 62
    7
 10
348.96240391719516
 20
410.50977340305212
 11
348.65390991719516
 21
409.82495140305207
  0
LINE
  8
_2-0_
  6
CONTINUOUS
 62
    7
 10
348.65390991719516
 20
409.82495140305207
 11
348.37850991719517
 21
409.15826540305204
  0
LINE
  8
_2-0_
  6
CONTINUOUS
 62
    7
 10
348.37850991719517
 20
409.15826540305204
 11
348.14967591719517
 21
408.52929540305206
  0
LINE
  8
_2-0_
  6
CONTINUOUS
 62
    7
 10
348.14967591719517
 20
408.52929540305206
 11
347.97380591719514
 21
407.95731540305212
  0
LINE
  8
_2-0_
  6
CONTINUOUS
 62
    7
 10
347.97380591719514
 20
407.95731540305212
 11
347.84989791719511
 21
407.46054140305205
  0
LINE
  8
_2-0_
  6
CONTINUOUS
 62
    7
 10
347.84989791719511
 20
407.46054140305205
 11
347.77084191719518
 21
407.05532940305204
  0
LINE
  8
_2-0_
  6
CONTINUOUS
 62
    7
 10
347.77084191719518
 20
407.05532940305204
 11
347.72601591719513
 21
406.75539940305202
  0
LINE
  8
_2-0_
  6
CONTINUOUS
 62
    7
 10
347.72601591719513
 20
406.75539940305202
 11
347.70453191719514
 21
406.57112340305207
  0
LINE
  8
_2-0_
  6
CONTINUOUS
 62
    7
 10
347.70453191719514
 20
406.57112340305207
 11
347.69835191719517
 21
406.50896540305212
  0
LINE
  8
_2-0_
  6
CONTINUOUS
 62
    7
 10
347.69835191719517
 20
406.50896540305212
 11
347.6927119171952
 21
406.44672340305203
  0
LINE
  8
_2-0_
  6
CONTINUOUS
 62
    7
 10
347.6927119171952
 20
406.44672340305203
 11
347.67909191719514
 21
406.26119540305206
  0
LINE
  8
_2-0_
  6
CONTINUOUS
 62
    7
 10
347.67909191719514
 20
406.26119540305206
 11
347.66676591719511
 21
405.95603940305205
  0
LINE
  8
_2-0_
  6
CONTINUOUS
 62
    7
 10
347.66676591719511
 20
405.95603940305205
 11
347.66918391719514
 21
405.53750540305202
  0
LINE
  8
_2-0_
  6
CONTINUOUS
 62
    7
 10
347.66918391719514
 20
405.53750540305202
 11
347.70139991719509
 21
405.01462340305204
  0
LINE
  8
_2-0_
  6
CONTINUOUS
 62
    7
 10
347.70139991719509
 20
405.01462340305204
 11
347.7771779171951
 21
404.39934740305205
  0
LINE
  8
_2-0_
  6
CONTINUOUS
 62
    7
 10
347.7771779171951
 20
404.39934740305205
 11
347.90638191719518
 21
403.70657140305207
  0
LINE
  8
_2-0_
  6
CONTINUOUS
 62
    7
 10
347.90638191719518
 20
403.70657140305207
 11
348.0930639171952
 21
402.95399940305208
  0
LINE
  8
_2-0_
  6
CONTINUOUS
 62
    7
 10
348.0930639171952
 20
402.95399940305208
 11
348.33460791719517
 21
402.16176940305206
  0
LINE
  8
_2-0_
  6
CONTINUOUS
 62
    7
 10
348.33460791719517
 20
402.16176940305206
 11
348.62198591719516
 21
401.35187340305208
  0
LINE
  8
_2-0_
  6
CONTINUOUS
 62
    7
 10
348.62198591719516
 20
401.35187340305208
 11
348.94102191719514
 21
400.54740740305203
  0
LINE
  8
_2-0_
  6
CONTINUOUS
 62
    7
 10
348.94102191719514
 20
400.54740740305203
 11
349.27429391719511
 21
399.77168940305205
  0
LINE
  8
_2-0_
  6
CONTINUOUS
 62
    7
 10
349.27429391719511
 20
399.77168940305205
 11
349.60329791719516
 21
399.04736540305203
  0
LINE
  8
_2-0_
  6
CONTINUOUS
 62
    7
 10
349.60329791719516
 20
399.04736540305203
 11
349.91043591719517
 21
398.39555540305207
  0
LINE
  8
_2-0_
  6
CONTINUOUS
 62
    7
 10
349.91043591719517
 20
398.39555540305207
 11
350.18049791719511
 21
397.83511940305209
  0
LINE
  8
_2-0_
  6
CONTINUOUS
 62
    7
 10
350.18049791719511
 20
397.83511940305209
 11
350.40147791719517
 21
397.38207340305212
  0
LINE
  8
_2-0_
  6
CONTINUOUS
 62
    7
 10
350.40147791719517
 20
397.38207340305212
 11
350.5647399171952
 21
397.04919140305208
  0
LINE
  8
_2-0_
  6
CONTINUOUS
 62
    7
 10
350.5647399171952
 20
397.04919140305208
 11
350.66471191719518
 21
396.84572740305202
  0
LINE
  8
_2-0_
  6
CONTINUOUS
 62
    7
 10
350.66471191719518
 20
396.84572740305202
 11
350.69835191719517
 21
396.77728340305202
  0
LINE
  8
_2-0_
  6
CONTINUOUS
 62
    7
 10
157.7470539171951
 20
411.37728140305205
 11
349.37288391719517
 21
411.37728140305205
  0
LINE
  8
_2-0_
  6
CONTINUOUS
 62
    7
 10
157.7470539171951
 20
412.87728340305205
 11
350.06198191719511
 21
412.87728340305205
  0
LINE
  8
_2-0_
  6
CONTINUOUS
 62
    7
 10
157.7470539171951
 20
421.98700540305208
 11
348.69835191719517
 21
421.98700540305208
  0
LINE
  8
_2-0_
  6
CONTINUOUS
 62
    7
 10
157.7470539171951
 20
419.78698540305209
 11
349.81786591719515
 21
419.78698540305209
  0
LINE
  8
_2-0_
  6
CONTINUOUS
 62
    7
 10
350.69835191719517
 20
396.77728340305202
 11
157.7470539171951
 21
396.77728340305202
  0
LINE
  8
_2-0_
  6
CONTINUOUS
 62
    7
 10
157.7470539171951
 20
400.12594740305212
 11
349.12209391719512
 21
400.12594740305212
  0
LINE
  8
_2-0_
  6
CONTINUOUS
 62
    7
 10
157.7470539171951
 20
401.50779340305212
 11
348.56665991719512
 21
401.50779340305212
  0
LINE
  8
_2-0_
  6
CONTINUOUS
 62
    7
 10
157.7470539171951
 20
402.10779340305203
 11
348.35375991719513
 21
402.10779340305203
  0
LINE
  8
_2-0_
  6
CONTINUOUS
 62
    7
 10
157.7470539171951
 20
402.77728140305203
 11
348.14694391719513
 21
402.77728140305203
  0
LINE
  8
_2-0_
  6
CONTINUOUS
 62
    7
 10
153.7470539171951
 20
421.58700540305199
 11
153.7470539171951
 21
397.177283403052
  0
LINE
  8
_2-0_
  6
CONTINUOUS
 62
    7
 10
153.7470539171951
 20
421.58700540305199
 11
157.7470539171951
 21
421.58700540305199
  0
LINE
  8
_2-0_
  6
CONTINUOUS
 62
    7
 10
157.7470539171951
 20
397.177283403052
 11
153.7470539171951
 21
397.177283403052
  0
LINE
  8
_2-0_
  6
CONTINUOUS
 62
    2
 10
345.40795191719519
 20
419.78698540305209
 11
347.60797191719519
 21
421.98700540305208
  0
LINE
  8
_2-0_
  6
CONTINUOUS
 62
    2
 10
342.57952391719516
 20
419.78698540305209
 11
344.77954591719515
 21
421.98700540305208
  0
LINE
  8
_2-0_
  6
CONTINUOUS
 62
    2
 10
339.75109791719512
 20
419.78698540305209
 11
341.95111791719512
 21
421.98700540305208
  0
LINE
  8
_2-0_
  6
CONTINUOUS
 62
    2
 10
336.92266991719509
 20
419.78698540305209
 11
339.1226919171952
 21
421.98700540305208
  0
LINE
  8
_2-0_
  6
CONTINUOUS
 62
    2
 10
331.26581591719514
 20
419.78698540305209
 11
333.46583791719513
 21
421.98700540305208
  0
LINE
  8
_2-0_
  6
CONTINUOUS
 62
    2
 10
328.43738991719511
 20
419.78698540305209
 11
330.6374099171951
 21
421.98700540305208
  0
LINE
  8
_2-0_
  6
CONTINUOUS
 62
    2
 10
325.60896191719519
 20
419.78698540305209
 11
327.80898191719518
 21
421.98700540305208
  0
LINE
  8
_2-0_
  6
CONTINUOUS
 62
    2
 10
322.78053591719515
 20
419.78698540305209
 11
324.98055591719515
 21
421.98700540305208
  0
LINE
  8
_2-0_
  6
CONTINUOUS
 62
    2
 10
319.95210791719512
 20
419.78698540305209
 11
322.15212791719512
 21
421.98700540305208
  0
LINE
  8
_2-0_
  6
CONTINUOUS
 62
    2
 10
317.12367991719509
 20
419.78698540305209
 11
319.32370191719519
 21
421.98700540305208
  0
LINE
  8
_2-0_
  6
CONTINUOUS
 62
    2
 10
314.29525391719517
 20
419.78698540305209
 11
316.49527391719516
 21
421.98700540305208
  0
LINE
  8
_2-0_
  6
CONTINUOUS
 62
    2
 10
311.46682591719514
 20
419.78698540305209
 11
313.66684791719513
 21
421.98700540305208
  0
LINE
  8
_2-0_
  6
CONTINUOUS
 62
    2
 10
308.6383999171951
 20
419.78698540305209
 11
310.8384199171951
 21
421.98700540305208
  0
LINE
  8
_2-0_
  6
CONTINUOUS
 62
    2
 10
305.80997191719518
 20
419.78698540305209
 11
308.00999191719518
 21
421.98700540305208
  0
LINE
  8
_2-0_
  6
CONTINUOUS
 62
    2
 10
302.98154591719515
 20
419.78698540305209
 11
305.18156591719514
 21
421.98700540305208
  0
LINE
  8
_2-0_
  6
CONTINUOUS
 62
    2
 10
300.15311791719512
 20
419.78698540305209
 11
302.35313791719511
 21
421.98700540305208
  0
LINE
  8
_2-0_
  6
CONTINUOUS
 62
    2
 10
297.3246919171952
 20
419.78698540305209
 11
299.52471191719519
 21
421.98700540305208
  0
LINE
  8
_2-0_
  6
CONTINUOUS
 62
    2
 10
294.49626391719517
 20
419.78698540305209
 11
296.69628391719516
 21
421.98700540305208
  0
LINE
  8
_2-0_
  6
CONTINUOUS
 62
    2
 10
291.66783591719513
 20
419.78698540305209
 11
293.86785791719512
 21
421.98700540305208
  0
LINE
  8
_2-0_
  6
CONTINUOUS
 62
    2
 10
288.8394099171951
 20
419.78698540305209
 11
291.03942991719509
 21
421.98700540305208
  0
LINE
  8
_2-0_
  6
CONTINUOUS
 62
    2
 10
286.01098191719518
 20
419.78698540305209
 11
288.21100391719517
 21
421.98700540305208
  0
LINE
  8
_2-0_
  6
CONTINUOUS
 62
    2
 10
283.18255591719515
 20
419.78698540305209
 11
285.38257591719514
 21
421.98700540305208
  0
LINE
  8
_2-0_
  6
CONTINUOUS
 62
    2
 10
280.35412791719511
 20
419.78698540305209
 11
282.55414791719511
 21
421.98700540305208
  0
LINE
  8
_2-0_
  6
CONTINUOUS
 62
    2
 10
277.52570191719519
 20
419.78698540305209
 11
279.72572191719519
 21
421.98700540305208
  0
LINE
  8
_2-0_
  6
CONTINUOUS
 62
    2
 10
274.69727391719516
 20
419.78698540305209
 11
276.89729391719516
 21
421.98700540305208
  0
LINE
  8
_2-0_
  6
CONTINUOUS
 62
    2
 10
271.86884591719513
 20
419.78698540305209
 11
274.06886791719512
 21
421.98700540305208
  0
LINE
  8
_2-0_
  6
CONTINUOUS
 62
    2
 10
269.04041991719509
 20
419.78698540305209
 11
271.24043991719509
 21
421.98700540305208
  0
LINE
  8
_2-0_
  6
CONTINUOUS
 62
    2
 10
266.21199191719518
 20
419.78698540305209
 11
268.41201391719517
 21
421.98700540305208
  0
LINE
  8
_2-0_
  6
CONTINUOUS
 62
    2
 10
263.38356591719509
 20
419.78698540305209
 11
265.58358591719514
 21
421.98700540305208
  0
LINE
  8
_2-0_
  6
CONTINUOUS
 62
    2
 10
260.55513791719511
 20
419.78698540305209
 11
262.75515791719511
 21
421.98700540305208
  0
LINE
  8
_2-0_
  6
CONTINUOUS
 62
    2
 10
257.72671191719513
 20
419.78698540305209
 11
259.92673191719513
 21
421.98700540305208
  0
LINE
  8
_2-0_
  6
CONTINUOUS
 62
    2
 10
254.8982839171951
 20
419.78698540305209
 11
257.0983039171951
 21
421.98700540305208
  0
LINE
  8
_2-0_
  6
CONTINUOUS
 62
    2
 10
252.06985791719512
 20
419.78698540305209
 11
254.26987791719512
 21
421.98700540305208
  0
LINE
  8
_2-0_
  6
CONTINUOUS
 62
    2
 10
249.24142991719509
 20
419.78698540305209
 11
251.44144991719509
 21
421.98700540305208
  0
LINE
  8
_2-0_
  6
CONTINUOUS
 62
    2
 10
246.41300191719512
 20
419.78698540305209
 11
248.61302391719511
 21
421.98700540305208
  0
LINE
  8
_2-0_
  6
CONTINUOUS
 62
    2
 10
243.58457591719514
 20
419.78698540305209
 11
245.78459591719513
 21
421.98700540305208
  0
LINE
  8
_2-0_
  6
CONTINUOUS
 62
    2
 10
240.75614791719511
 20
419.78698540305209
 11
242.9561699171951
 21
421.98700540305208
  0
LINE
  8
_2-0_
  6
CONTINUOUS
 62
    2
 10
237.92772191719513
 20
419.78698540305209
 11
240.12774191719512
 21
421.98700540305208
  0
LINE
  8
_2-0_
  6
CONTINUOUS
 62
    2
 10
235.0992939171951
 20
419.78698540305209
 11
237.29931391719509
 21
421.98700540305208
  0
LINE
  8
_2-0_
  6
CONTINUOUS
 62
    2
 10
232.27086791719512
 20
419.78698540305209
 11
234.47088791719511
 21
421.98700540305208
  0
LINE
  8
_2-0_
  6
CONTINUOUS
 62
    2
 10
229.44243991719509
 20
419.78698540305209
 11
231.64245991719514
 21
421.98700540305208
  0
LINE
  8
_2-0_
  6
CONTINUOUS
 62
    2
 10
226.61401191719511
 20
419.78698540305209
 11
228.8140339171951
 21
421.98700540305208
  0
LINE
  8
_2-0_
  6
CONTINUOUS
 62
    2
 10
223.78558591719514
 20
419.78698540305209
 11
225.98560591719513
 21
421.98700540305208
  0
LINE
  8
_2-0_
  6
CONTINUOUS
 62
    2
 10
220.9571579171951
 20
419.78698540305209
 11
223.15717991719509
 21
421.98700540305208
  0
LINE
  8
_2-0_
  6
CONTINUOUS
 62
    2
 10
218.12873191719513
 20
419.78698540305209
 11
220.32875191719512
 21
421.98700540305208
  0
LINE
  8
_2-0_
  6
CONTINUOUS
 62
    2
 10
215.30030391719509
 20
419.78698540305209
 11
217.50032391719509
 21
421.98700540305208
  0
LINE
  8
_2-0_
  6
CONTINUOUS
 62
    2
 10
212.47187791719512
 20
419.78698540305209
 11
214.67189791719511
 21
421.98700540305208
  0
LINE
  8
_2-0_
  6
CONTINUOUS
 62
    2
 10
209.64344991719508
 20
419.78698540305209
 11
211.84346991719514
 21
421.98700540305208
  0
LINE
  8
_2-0_
  6
CONTINUOUS
 62
    2
 10
206.81502391719511
 20
419.78698540305209
 11
209.0150439171951
 21
421.98700540305208
  0
LINE
  8
_2-0_
  6
CONTINUOUS
 62
    2
 10
203.98659591719513
 20
419.78698540305209
 11
206.18661591719513
 21
421.98700540305208
  0
LINE
  8
_2-0_
  6
CONTINUOUS
 62
    2
 10
201.1581679171951
 20
419.78698540305209
 11
203.35818991719509
 21
421.98700540305208
  0
LINE
  8
_2-0_
  6
CONTINUOUS
 62
    2
 10
198.32974191719512
 20
419.78698540305209
 11
200.52976191719512
 21
421.98700540305208
  0
LINE
  8
_2-0_
  6
CONTINUOUS
 62
    2
 10
195.50131391719515
 20
419.78698540305209
 11
197.70133591719514
 21
421.98700540305208
  0
LINE
  8
_2-0_
  6
CONTINUOUS
 62
    2
 10
192.67288791719511
 20
419.78698540305209
 11
194.87290791719511
 21
421.98700540305208
  0
LINE
  8
_2-0_
  6
CONTINUOUS
 62
    2
 10
189.84445991719514
 20
419.78698540305209
 11
192.04447991719513
 21
421.98700540305208
  0
LINE
  8
_2-0_
  6
CONTINUOUS
 62
    2
 10
187.0160339171951
 20
419.78698540305209
 11
189.21605391719515
 21
421.98700540305208
  0
LINE
  8
_2-0_
  6
CONTINUOUS
 62
    2
 10
184.18760591719513
 20
419.78698540305209
 11
186.38762591719512
 21
421.98700540305208
  0
LINE
  8
_2-0_
  6
CONTINUOUS
 62
    2
 10
181.35917791719515
 20
419.78698540305209
 11
183.55919991719514
 21
421.98700540305208
  0
LINE
  8
_2-0_
  6
CONTINUOUS
 62
    2
 10
178.53075191719512
 20
419.78698540305209
 11
180.73077191719511
 21
421.98700540305208
  0
LINE
  8
_2-0_
  6
CONTINUOUS
 62
    2
 10
175.70232391719514
 20
419.78698540305209
 11
177.90234591719513
 21
421.98700540305208
  0
LINE
  8
_2-0_
  6
CONTINUOUS
 62
    2
 10
172.87389791719511
 20
419.78698540305209
 11
175.0739179171951
 21
421.98700540305208
  0
LINE
  8
_2-0_
  6
CONTINUOUS
 62
    2
 10
170.04546991719513
 20
419.78698540305209
 11
172.24548991719513
 21
421.98700540305208
  0
LINE
  8
_2-0_
  6
CONTINUOUS
 62
    2
 10
167.2170439171951
 20
419.78698540305209
 11
169.41706391719515
 21
421.98700540305208
  0
LINE
  8
_2-0_
  6
CONTINUOUS
 62
    2
 10
164.38861591719512
 20
419.78698540305209
 11
166.58863591719512
 21
421.98700540305208
  0
LINE
  8
_2-0_
  6
CONTINUOUS
 62
    2
 10
161.56018991719515
 20
419.78698540305209
 11
163.76020991719514
 21
421.98700540305208
  0
LINE
  8
_2-0_
  6
CONTINUOUS
 62
    2
 10
158.73176191719512
 20
419.78698540305209
 11
160.93178191719511
 21
421.98700540305208
  0
LINE
  8
_2-0_
  6
CONTINUOUS
 62
    2
 10
157.7470539171951
 20
421.63070340305205
 11
158.10335591719513
 21
421.98700540305208
  0
LINE
  8
_2-0_
  6
CONTINUOUS
 62
    2
 10
348.23637991719511
 20
419.78698540305209
 11
349.29945391719514
 21
420.85005940305211
  0
LINE
  8
_2-0_
  6
CONTINUOUS
 62
    2
 10
512.28515191719509
 20
419.78698540305209
 11
514.48517391719508
 21
421.98700540305208
  0
LINE
  8
_2-0_
  6
CONTINUOUS
 62
    2
 10
509.45672591719506
 20
419.78698540305209
 11
511.65674591719517
 21
421.98700540305208
  0
LINE
  8
_2-0_
  6
CONTINUOUS
 62
    2
 10
506.62829791719514
 20
419.78698540305209
 11
508.82831791719514
 21
421.98700540305208
  0
LINE
  8
_2-0_
  6
CONTINUOUS
 62
    2
 10
503.79987191719511
 20
419.78698540305209
 11
505.9998919171951
 21
421.98700540305208
  0
LINE
  8
_2-0_
  6
CONTINUOUS
 62
    2
 10
500.97144391719507
 20
419.78698540305209
 11
503.17146391719507
 21
421.98700540305208
  0
LINE
  8
_2-0_
  6
CONTINUOUS
 62
    2
 10
498.14301591719516
 20
419.78698540305209
 11
500.34303791719515
 21
421.98700540305208
  0
LINE
  8
_2-0_
  6
CONTINUOUS
 62
    2
 10
495.31458991719512
 20
419.78698540305209
 11
497.51460991719512
 21
421.98700540305208
  0
LINE
  8
_2-0_
  6
CONTINUOUS
 62
    2
 10
492.48616191719509
 20
419.78698540305209
 11
494.68618391719508
 21
421.98700540305208
  0
LINE
  8
_2-0_
  6
CONTINUOUS
 62
    2
 10
489.65773591719517
 20
419.78698540305209
 11
491.85775591719516
 21
421.98700540305208
  0
LINE
  8
_2-0_
  6
CONTINUOUS
 62
    2
 10
486.82930791719514
 20
419.78698540305209
 11
489.02932791719513
 21
421.98700540305208
  0
LINE
  8
_2-0_
  6
CONTINUOUS
 62
    2
 10
484.0008819171951
 20
419.78698540305209
 11
486.2009019171951
 21
421.98700540305208
  0
LINE
  8
_2-0_
  6
CONTINUOUS
 62
    2
 10
481.17245391719513
 20
419.78698540305209
 11
483.37247391719512
 21
421.98700540305208
  0
LINE
  8
_2-0_
  6
CONTINUOUS
 62
    2
 10
478.34402591719521
 20
419.78698540305209
 11
480.5440479171952
 21
421.98700540305208
  0
LINE
  8
_2-0_
  6
CONTINUOUS
 62
    2
 10
475.51559991719517
 20
419.78698540305209
 11
477.71561991719517
 21
421.98700540305208
  0
LINE
  8
_2-0_
  6
CONTINUOUS
 62
    2
 10
472.68717191719514
 20
419.78698540305209
 11
474.88719391719513
 21
421.98700540305208
  0
LINE
  8
_2-0_
  6
CONTINUOUS
 62
    2
 10
469.85874591719522
 20
419.78698540305209
 11
472.05876591719522
 21
421.98700540305208
  0
LINE
  8
_2-0_
  6
CONTINUOUS
 62
    2
 10
467.03031791719519
 20
419.78698540305209
 11
469.23033991719518
 21
421.98700540305208
  0
LINE
  8
_2-0_
  6
CONTINUOUS
 62
    2
 10
464.20189191719516
 20
419.78698540305209
 11
466.40191191719515
 21
421.98700540305208
  0
LINE
  8
_2-0_
  6
CONTINUOUS
 62
    2
 10
461.37346391719512
 20
419.78698540305209
 11
463.57348391719512
 21
421.98700540305208
  0
LINE
  8
_2-0_
  6
CONTINUOUS
 62
    2
 10
458.5450379171952
 20
419.78698540305209
 11
460.7450579171952
 21
421.98700540305208
  0
LINE
  8
_2-0_
  6
CONTINUOUS
 62
    2
 10
455.71660991719517
 20
419.78698540305209
 11
457.91662991719517
 21
421.98700540305208
  0
LINE
  8
_2-0_
  6
CONTINUOUS
 62
    2
 10
452.8881819171952
 20
419.78698540305209
 11
455.08820391719519
 21
421.98700540305208
  0
LINE
  8
_2-0_
  6
CONTINUOUS
 62
    2
 10
450.05975591719516
 20
419.78698540305209
 11
452.25977591719516
 21
421.98700540305208
  0
LINE
  8
_2-0_
  6
CONTINUOUS
 62
    2
 10
447.23132791719519
 20
419.78698540305209
 11
449.43134991719518
 21
421.98700540305208
  0
LINE
  8
_2-0_
  6
CONTINUOUS
 62
    2
 10
444.40290191719515
 20
419.78698540305209
 11
446.60292191719515
 21
421.98700540305208
  0
LINE
  8
_2-0_
  6
CONTINUOUS
 62
    2
 10
441.57447391719518
 20
419.78698540305209
 11
443.77449391719517
 21
421.98700540305208
  0
LINE
  8
_2-0_
  6
CONTINUOUS
 62
    2
 10
438.74604791719514
 20
419.78698540305209
 11
440.94606791719519
 21
421.98700540305208
  0
LINE
  8
_2-0_
  6
CONTINUOUS
 62
    2
 10
435.91761991719517
 20
419.78698540305209
 11
438.11763991719516
 21
421.98700540305208
  0
LINE
  8
_2-0_
  6
CONTINUOUS
 62
    2
 10
433.08919191719519
 20
419.78698540305209
 11
435.28921391719518
 21
421.98700540305208
  0
LINE
  8
_2-0_
  6
CONTINUOUS
 62
    2
 10
430.26076591719516
 20
419.78698540305209
 11
432.46078591719515
 21
421.98700540305208
  0
LINE
  8
_2-0_
  6
CONTINUOUS
 62
    2
 10
427.43233791719518
 20
419.78698540305209
 11
429.63235991719517
 21
421.98700540305208
  0
LINE
  8
_2-0_
  6
CONTINUOUS
 62
    2
 10
424.60391191719515
 20
419.78698540305209
 11
426.80393191719514
 21
421.98700540305208
  0
LINE
  8
_2-0_
  6
CONTINUOUS
 62
    2
 10
421.77548391719517
 20
419.78698540305209
 11
423.97550591719516
 21
421.98700540305208
  0
LINE
  8
_2-0_
  6
CONTINUOUS
 62
    2
 10
418.9470579171952
 20
419.78698540305209
 11
421.14707791719519
 21
421.98700540305208
  0
LINE
  8
_2-0_
  6
CONTINUOUS
 62
    2
 10
416.11862991719516
 20
419.78698540305209
 11
418.31864991719516
 21
421.98700540305208
  0
LINE
  8
_2-0_
  6
CONTINUOUS
 62
    2
 10
413.29020391719519
 20
419.78698540305209
 11
415.49022391719518
 21
421.98700540305208
  0
LINE
  8
_2-0_
  6
CONTINUOUS
 62
    2
 10
410.46177591719515
 20
419.78698540305209
 11
412.66179591719515
 21
421.98700540305208
  0
LINE
  8
_2-0_
  6
CONTINUOUS
 62
    2
 10
407.63334791719518
 20
419.78698540305209
 11
409.83336991719517
 21
421.98700540305208
  0
LINE
  8
_2-0_
  6
CONTINUOUS
 62
    2
 10
404.80492191719514
 20
419.78698540305209
 11
407.0049419171952
 21
421.98700540305208
  0
LINE
  8
_2-0_
  6
CONTINUOUS
 62
    2
 10
401.97649391719517
 20
419.78698540305209
 11
404.17651591719516
 21
421.98700540305208
  0
LINE
  8
_2-0_
  6
CONTINUOUS
 62
    2
 10
399.14806791719519
 20
419.78698540305209
 11
401.34808791719519
 21
421.98700540305208
  0
LINE
  8
_2-0_
  6
CONTINUOUS
 62
    2
 10
396.31963991719516
 20
419.78698540305209
 11
398.51965991719516
 21
421.98700540305208
  0
LINE
  8
_2-0_
  6
CONTINUOUS
 62
    2
 10
393.49121391719518
 20
419.78698540305209
 11
395.69123391719518
 21
421.98700540305208
  0
LINE
  8
_2-0_
  6
CONTINUOUS
 62
    2
 10
390.66278591719515
 20
419.78698540305209
 11
392.86280591719515
 21
421.98700540305208
  0
LINE
  8
_2-0_
  6
CONTINUOUS
 62
    2
 10
387.83435791719518
 20
419.78698540305209
 11
390.03437991719517
 21
421.98700540305208
  0
LINE
  8
_2-0_
  6
CONTINUOUS
 62
    2
 10
385.00593191719514
 20
419.78698540305209
 11
387.20595191719519
 21
421.98700540305208
  0
LINE
  8
_2-0_
  6
CONTINUOUS
 62
    2
 10
382.17750391719517
 20
419.78698540305209
 11
384.37752591719516
 21
421.98700540305208
  0
LINE
  8
_2-0_
  6
CONTINUOUS
 62
    2
 10
379.34907791719519
 20
419.78698540305209
 11
381.54909791719518
 21
421.98700540305208
  0
LINE
  8
_2-0_
  6
CONTINUOUS
 62
    2
 10
376.52064991719516
 20
419.78698540305209
 11
378.72067191719515
 21
421.98700540305208
  0
LINE
  8
_2-0_
  6
CONTINUOUS
 62
    2
 10
373.69222391719518
 20
419.78698540305209
 11
375.89224391719517
 21
421.98700540305208
  0
LINE
  8
_2-0_
  6
CONTINUOUS
 62
    2
 10
370.86379591719515
 20
419.78698540305209
 11
373.06381591719514
 21
421.98700540305208
  0
LINE
  8
_2-0_
  6
CONTINUOUS
 62
    2
 10
368.03536991719517
 20
419.78698540305209
 11
370.23538991719516
 21
421.98700540305208
  0
LINE
  8
_2-0_
  6
CONTINUOUS
 62
    2
 10
365.20694191719519
 20
419.78698540305209
 11
367.40696191719519
 21
421.98700540305208
  0
LINE
  8
_2-0_
  6
CONTINUOUS
 62
    2
 10
362.37851391719516
 20
419.78698540305209
 11
364.57853591719515
 21
421.98700540305208
  0
LINE
  8
_2-0_
  6
CONTINUOUS
 62
    2
 10
359.55008791719519
 20
419.78698540305209
 11
361.75010791719518
 21
421.98700540305208
  0
LINE
  8
_2-0_
  6
CONTINUOUS
 62
    2
 10
356.72165991719515
 20
419.78698540305209
 11
358.92168191719514
 21
421.98700540305208
  0
LINE
  8
_2-0_
  6
CONTINUOUS
 62
    2
 10
353.89323391719518
 20
419.78698540305209
 11
356.09325391719517
 21
421.98700540305208
  0
LINE
  8
_2-0_
  6
CONTINUOUS
 62
    2
 10
352.73469857936345
 20
421.45687806522039
 11
353.26482591719514
 21
421.98700540305208
  0
LINE
  8
_2-0_
  6
CONTINUOUS
 62
    7
 10
520.58257991719506
 20
421.58700540305199
 11
520.58257991719506
 21
397.177283403052
  0
LINE
  8
_2-0_
  6
CONTINUOUS
 62
    7
 10
516.58257991719506
 20
421.58700540305199
 11
520.58257991719506
 21
421.58700540305199
  0
LINE
  8
_2-0_
  6
CONTINUOUS
 62
    7
 10
520.58257991719506
 20
397.177283403052
 11
516.58257991719506
 21
397.177283403052
  0
LINE
  8
_2-0_
  6
CONTINUOUS
 62
    7
 10
520.58257991719506
 20
407.67689140305208
 11
542.93517991719511
 21
407.67689140305208
  0
LINE
  8
_2-0_
  6
CONTINUOUS
 62
    7
 10
520.58257991719506
 20
410.67689140305208
 11
543.42900191719514
 21
410.67689140305208
  0
LINE
  8
_2-0_
  6
CONTINUOUS
 62
    2
 10
516.22627791719515
 20
419.78698540305209
 11
516.58257991719506
 21
420.14328740305211
  0
LINE
  8
_2-0_
  6
CONTINUOUS
 62
    7
 10
352.42943791719517
 20
421.98700540305208
 11
516.58257991719506
 21
421.98700540305208
  0
LINE
  8
_2-0_
  6
CONTINUOUS
 62
    7
 10
516.58257991719506
 20
396.77728340305202
 11
354.42943791719517
 21
396.77728340305202
  0
LINE
  8
_2-0_
  6
CONTINUOUS
 62
    7
 10
516.58257991719506
 20
421.98700540305208
 11
516.58257991719506
 21
396.77728340305202
  0
LINE
  8
_2-0_
  6
CONTINUOUS
 62
    7
 10
352.85317991719512
 20
400.12594740305212
 11
516.60584197446474
 21
400.12594740305212
  0
LINE
  8
_2-0_
  6
CONTINUOUS
 62
    7
 10
352.29774591719513
 20
401.50779340305212
 11
516.55254077296058
 21
401.50779340305212
  0
LINE
  8
_2-0_
  6
CONTINUOUS
 62
    7
 10
352.08484591719514
 20
402.10779340305203
 11
516.71244437747316
 21
402.10779340305203
  0
LINE
  8
_2-0_
  6
CONTINUOUS
 62
    7
 10
351.87802991719514
 20
402.77728140305203
 11
516.49923957145631
 21
402.77728140305203
  0
LINE
  8
_2-0_
  6
CONTINUOUS
 62
    7
 10
353.10396791719518
 20
411.37728140305205
 11
516.55254077296058
 21
411.37728140305205
  0
LINE
  8
_2-0_
  6
CONTINUOUS
 62
    7
 10
353.79306791719512
 20
412.87728340305205
 11
516.65914317596901
 21
412.87728340305205
  0
LINE
  8
_2-0_
  6
CONTINUOUS
 62
    7
 10
353.54895191719515
 20
419.78698540305209
 11
516.55254077296058
 21
419.78698540305209
  0
LINE
  8
_2-0_
  6
CONTINUOUS
 62
    2
 10
515.11357991719512
 20
419.78698540305209
 11
516.30956291094185
 21
420.9829683967987
  0
LINE
  8
_2-0_
  6
CONTINUOUS
 62
    7
 10
395.01044591719517
 20
407.65374740305208
 11
405.50596024314279
 21
381.25805369879998
  0
LINE
  8
_2-0_
  6
CONTINUOUS
 62
    4
 10
606.80725415801498
 20
489.48064007900518
 11
619.54362684704381
 21
489.48064007900518
  0
LINE
  8
_2-0_
  6
CONTINUOUS
 62
    4
 10
606.80725415801498
 20
465.48064007900518
 11
620.00416226144671
 21
465.48064007900518
  0
TEXT
  8
_2-0_
 62
    7
 10
608.15672231551912
 20
473.48064007900518
 40
8
 41
1
 50
90
  1
12
  0
LINE
  8
_2-0_
  6
CONTINUOUS
 62
    4
 10
622.23140587558169
 20
436.18967306957614
 11
622.23140587558169
 21
464.37762270296935
  0
LINE
  8
_2-0_
  6
CONTINUOUS
 62
    4
 10
647.44112987558174
 20
436.18967306957614
 11
647.44112987558174
 21
462.66824801167229
  0
LINE
  8
_2-0_
  6
CONTINUOUS
 62
    7
 10
641.68972805446549
 20
471.51628668397973
 11
642.45772805446541
 21
471.51628668397973
  0
LINE
  8
_2-0_
  6
CONTINUOUS
 62
    7
 10
642.45772805446541
 20
472.28428668397976
 11
642.45772805446541
 21
471.51628668397973
  0
LINE
  8
_2-0_
  6
CONTINUOUS
 62
    7
 10
642.45772805446541
 20
472.28428668397976
 11
642.84172805446542
 21
472.28428668397976
  0
LINE
  8
_2-0_
  6
CONTINUOUS
 62
    7
 10
642.84172805446542
 20
472.28428668397976
 11
642.84172805446542
 21
471.51628668397973
  0
LINE
  8
_2-0_
  6
CONTINUOUS
 62
    7
 10
642.84172805446542
 20
471.51628668397973
 11
643.60972805446545
 21
471.51628668397973
  0
LINE
  8
_2-0_
  6
CONTINUOUS
 62
    7
 10
643.60972805446545
 20
471.51628668397973
 11
643.60972805446545
 21
471.13228668397977
  0
LINE
  8
_2-0_
  6
CONTINUOUS
 62
    7
 10
642.84172805446542
 20
471.13228668397977
 11
643.60972805446545
 21
471.13228668397977
  0
LINE
  8
_2-0_
  6
CONTINUOUS
 62
    7
 10
642.84172805446542
 20
471.13228668397977
 11
642.84172805446542
 21
470.36428668397974
  0
LINE
  8
_2-0_
  6
CONTINUOUS
 62
    7
 10
642.45772805446541
 20
470.36428668397974
 11
642.84172805446542
 21
470.36428668397974
  0
LINE
  8
_2-0_
  6
CONTINUOUS
 62
    7
 10
642.45772805446541
 20
471.13228668397977
 11
642.45772805446541
 21
470.36428668397974
  0
LINE
  8
_2-0_
  6
CONTINUOUS
 62
    7
 10
641.68972805446549
 20
471.13228668397977
 11
642.45772805446541
 21
471.13228668397977
  0
LINE
  8
_2-0_
  6
CONTINUOUS
 62
    7
 10
641.68972805446549
 20
471.51628668397973
 11
641.68972805446549
 21
471.13228668397977
  0
LINE
  8
_2-0_
  6
CONTINUOUS
 62
    7
 10
395.05263192461808
 20
497.55373958441737
 11
391.37660880141414
 21
497.55373958441737
  0
TEXT
  8
_2-0_
 62
    7
 10
395.03462817983916
 20
493.75902485209053
 40
8
 41
1
 50
0
  1
A
  0
LINE
  8
_2-0_
  6
CONTINUOUS
 62
    7
 10
391.37660880141414
 20
458.61108394199778
 11
395.05263192461808
 21
458.61108394199778
  0
TEXT
  8
_2-0_
 62
    7
 10
395.03462817983916
 20
454.88885432820769
 40
8
 41
1
 50
0
  1
A
  0
LINE
  8
_2-0_
  6
CONTINUOUS
 62
    7
 10
391.37660880141414
 20
497.55373958441737
 11
391.37660880141414
 21
458.49910774609839
  0
TEXT
  8
_2-0_
 62
    7
 10
558.5964282697837
 20
505.02294255980979
 40
12
 41
1
 50
0
  1
④
  0
TEXT
  8
_2-0_
 62
    7
 10
519.69750800996803
 20
505.02294255980979
 40
12
 41
1
 50
0
  1
⑥
  0
TEXT
  8
_2-0_
 62
    7
 10
307.27170786240242
 20
505.02294255980979
 40
12
 41
1
 50
0
  1
①
  0
TEXT
  8
_2-0_
 62
    7
 10
400.52830188679246
 20
369.50964473561288
 40
12
 41
1
 50
0
  1
②
  0
LINE
  8
_2-0_
  6
CONTINUOUS
 62
    4
 10
107.7470539171951
 20
440.18568607900517
 11
153.7470539171951
 21
440.18568607900517
  0
LINE
  8
_2-0_
  6
CONTINUOUS
 62
    4
 10
153.7470539171951
 20
440.18568607900517
 11
550.58257991719518
 21
440.18568607900517
  0
TEXT
  8
_2-0_
 62
    7
 10
126.4970539171951
 20
441.18568607900517
 40
8
 41
1
 50
0
  1
50
  0
LINE
  8
_2-0_
  6
CONTINUOUS
 62
    4
 10
153.67965265669289
 20
440.23128745497672
 11
156.57743013556006
 21
441.00774459028429
  0
LINE
  8
_2-0_
  6
CONTINUOUS
 62
    4
 10
153.67965265669289
 20
440.23128745497672
 11
156.57743013556006
 21
439.45483031966916
  0
LINE
  8
_2-0_
  6
CONTINUOUS
 62
    4
 10
153.8019835754784
 20
440.23128745497672
 11
150.90420609661123
 21
441.00774459028429
  0
LINE
  8
_2-0_
  6
CONTINUOUS
 62
    4
 10
153.8019835754784
 20
440.23128745497672
 11
150.90420609661123
 21
439.45483031966916
  0
LINE
  8
_2-0_
  6
CONTINUOUS
 62
    4
 10
107.62020598518944
 20
440.23128745497672
 11
110.51798346405661
 21
441.00774459028429
  0
LINE
  8
_2-0_
  6
CONTINUOUS
 62
    4
 10
107.62020598518944
 20
440.23128745497672
 11
110.51798346405661
 21
439.45483031966916
  0
TEXT
  8
_2-0_
 62
    7
 10
338.91481691719514
 20
441.18568607900517
 40
8
 41
1
 50
0
  1
全長
  0
LINE
  8
_2-0_
  6
CONTINUOUS
 62
    4
 10
520.58257991719518
 20
440.18568607900517
 11
566.58257991719506
 21
440.18568607900517
  0
TEXT
  8
_2-0_
 62
    7
 10
539.33257991719506
 20
441.18568607900517
 40
8
 41
1
 50
0
  1
50
  0
LINE
  8
_2-0_
  6
CONTINUOUS
 62
    4
 10
520.53212520548459
 20
440.23128745497672
 11
523.42990268435187
 21
441.00774459028429
  0
LINE
  8
_2-0_
  6
CONTINUOUS
 62
    4
 10
520.53212520548459
 20
440.23128745497672
 11
523.42990268435187
 21
439.45483031966916
  0
LINE
  8
_2-0_
  6
CONTINUOUS
 62
    4
 10
520.65445612427015
 20
440.23128745497672
 11
517.75667864540299
 21
441.00774459028429
  0
LINE
  8
_2-0_
  6
CONTINUOUS
 62
    4
 10
520.65445612427015
 20
440.23128745497672
 11
517.75667864540299
 21
439.45483031966916
  0
LINE
  8
_2-0_
  6
CONTINUOUS
 62
    4
 10
566.39177825800914
 20
440.23128745497672
 11
563.49400077914197
 21
441.00774459028429
  0
LINE
  8
_2-0_
  6
CONTINUOUS
 62
    4
 10
566.39177825800914
 20
440.23128745497672
 11
563.49400077914197
 21
439.45483031966916
  0
LINE
  8
_2-0_
  6
CONTINUOUS
 62
    4
 10
622.23140587558169
 20
440.18967306957614
 11
647.44112987558174
 21
440.18967306957614
  0
LINE
  8
_2-0_
  6
CONTINUOUS
 62
    4
 10
622.10146561256329
 20
440.22654011294475
 11
624.99924309143046
 21
441.00299724825231
  0
LINE
  8
_2-0_
  6
CONTINUOUS
 62
    4
 10
622.10146561256329
 20
440.22654011294475
 11
624.99924309143046
 21
439.45008297763718
  0
LINE
  8
_2-0_
  6
CONTINUOUS
 62
    4
 10
647.56000097770607
 20
440.22654011294475
 11
644.6622234988389
 21
441.00299724825231
  0
LINE
  8
_2-0_
  6
CONTINUOUS
 62
    4
 10
647.56000097770607
 20
440.22654011294475
 11
644.6622234988389
 21
439.45008297763718
  0
TEXT
  8
_2-0_
 62
    7
 10
626.16143417101728
 20
442.11530291679497
 40
8
 41
1
 50
0
  1
12.6
  0
LINE
  8
_2-0_
  6
CONTINUOUS
 62
    4
 10
610.80725415801498
 20
489.48064007900518
 11
610.80725415801498
 21
465.48064007900518
  0
LINE
  8
_2-0_
  6
CONTINUOUS
 62
    4
 10
610.79487614252275
 20
465.40550781167781
 11
610.01841900721524
 21
468.30328529054498
  0
LINE
  8
_2-0_
  6
CONTINUOUS
 62
    4
 10
610.79487614252275
 20
465.40550781167781
 11
611.57133327783038
 21
468.30328529054498
  0
LINE
  8
_2-0_
  6
CONTINUOUS
 62
    4
 10
610.79487614252275
 20
489.47591977622017
 11
610.01841900721524
 21
486.578142297353
  0
LINE
  8
_2-0_
  6
CONTINUOUS
 62
    4
 10
610.79487614252275
 20
489.47591977622017
 11
611.57133327783038
 21
486.578142297353
  0
TEXT
  8
_2-0_
 62
    7
 10
81.294280351674388
 20
496.36782716436301
 40
12
 41
1
 50
0
  1
③
  0
LINE
  8
_0-0_1
  6
CONTINUOUS
 62
    7
 10
658.29444089818355
 20
510.01928487887608
 11
658.29444089818344
 21
366.44063826257781
  0
LINE
  8
_3-0_
  6
DASHED2
 62
    9
 10
732.10703218362528
 20
404.43328422557295
 11
732.10703218362528
 21
427.0488610321857
  0
LINE
  8
_3-0_
  6
DASHED2
 62
    9
 10
720.18632354866895
 20
415.79645142732363
 11
744.0676975646071
 21
415.79645142732363
  0
LINE
  8
_0-0_1
  6
CONTINUOUS
 62
    7
 10
58.798132964536194
 20
360.29813296453619
 11
816.83942507161919
 21
360.29813296453619
  0
LINE
  8
_2-0_
  6
CONTINUOUS
 62
    7
 10
80.369726063469727
 20
479.33005373613946
 11
86.684350586978212
 21
496.04523629836785
  0
TEXT
  8
_2-0_
 62
    7
 10
141.43734425062303
 20
505.02294255980979
 40
12
 41
1
 50
0
  1
⑤
  0
LINE
  8
_2-0_
  6
CONTINUOUS
 62
    7
 10
147.76565941114075
 20
503.44762603962619
 11
155.28794571610786
 21
485.30564142176428
  0
LINE
  8
_2-0_
  6
CONTINUOUS
 62
    7
 10
525.11852202169678
 20
504.90866943959202
 11
518.76924484641654
 21
486.05620028837529
  0
LINE
  8
_2-0_
  6
CONTINUOUS
 62
    7
 10
564.38635932112231
 20
504.420263503032
 11
573.07998499189068
 21
480.87909736083907
  0
LINE
  8
_2-0_
  6
CONTINUOUS
 62
    2
 10
334.09424391719517
 20
419.78698540305209
 11
336.29426391719517
 21
421.98700540305208
  0
TEXT
  8
_0-0_1
 62
    7
 10
63.037579667993896
 20
344.94511816255289
 40
10.000000000000021
 41
0.9999999999999973
 50
0
  1
◆付属品/オプション品
  0
TEXT
  8
_4-0_
 62
    7
 10
178.25916696333218
 20
345.26486294054826
 40
8
 41
1
 50
0
  1
S = 1 : 1
  0
TEXT
  8
_4-0_
 62
    7
 10
73.44835957032501
 20
328.41837086991274
 40
10
 41
1
 50
0
  1
付属品：固定金具
  0
LINE
  8
_0-0_1
  6
CONTINUOUS
 62
    7
 10
64.264567394560629
 20
343.74729906777816
 11
167.87914318531409
 21
343.74729906777816
  0
TEXT
  8
_1-0_
 62
    7
 10
537.11052386500558
 20
90.35296508461451
 40
9.9999999999999716
 41
1.0000000000000029
 50
0
  1
[lm]
  0
TEXT
  8
_1-0_
 62
    7
 10
484.42790967044419
 20
90.935401020893636
 40
10
 41
1
 50
0
  1
[A]
  0
TEXT
  8
_1-0_
 62
    7
 10
428.44808452739073
 20
90.648299617940978
 40
9.9999999999999716
 41
1.0000000000000029
 50
0
  1
[W]
  0
TEXT
  8
_1-0_
 62
    7
 10
224.13517254529961
 20
91.589755164007869
 40
8
 41
0.9999999999999994
 50
0
  1
[mm]
  0
TEXT
  8
_1-0_
 62
    7
 10
336.0377838154526
 20
91.958550290401007
 40
9.9999999999999716
 41
1.0000000000000029
 50
0
  1
個
  0
TEXT
  8
_1-0_
 62
    7
 10
336.36370974137856
 20
76.314105845956504
 40
9.9999999999999716
 41
1.0000000000000029
 50
0
  1
個
  0
TEXT
  8
_1-0_
 62
    7
 10
336.36370974137856
 20
60.669661401512059
 40
9.9999999999999716
 41
1.0000000000000029
 50
0
  1
個
  0
TEXT
  8
_1-0_
 62
    7
 10
336.79827764261313
 20
44.125040590224643
 40
9.9999999999999716
 41
1.0000000000000029
 50
0
  1
個
  0
TEXT
  8
_1-0_
 62
    7
 10
428.59838341722843
 20
74.115421735788885
 40
10
 41
1.0000000000000002
 50
0
  1
[W]
  0
TEXT
  8
_1-0_
 62
    7
 10
428.51070906482312
 20
58.396662840258074
 40
10
 41
1
 50
0
  1
[W]
  0
TEXT
  8
_1-0_
 62
    7
 10
428.83635665947156
 20
42.615279407294821
 40
10
 41
1.0000000000000002
 50
0
  1
[W]
  0
TEXT
  8
_1-0_
 62
    7
 10
484.42790967044419
 20
75.672990661784894
 40
10
 41
1
 50
0
  1
[A]
  0
TEXT
  8
_1-0_
 62
    7
 10
484.42790967044419
 20
60.028546217340448
 40
10
 41
1
 50
0
  1
[A]
  0
TEXT
  8
_1-0_
 62
    7
 10
484.42790967044419
 20
44.384101772896003
 40
10
 41
1
 50
0
  1
[A]
  0
TEXT
  8
_1-0_
 62
    7
 10
284.19111864196412
 20
91.086134191664911
 40
11.200000000000017
 41
0.9999999999999965
 50
0
  1
ｇ
  0
TEXT
  8
_1-0_
 62
    7
 10
284.19111864196412
 20
74.882959588490309
 40
11.200000000000017
 41
0.9999999999999965
 50
0
  1
ｇ
  0
TEXT
  8
_1-0_
 62
    7
 10
284.19111864196412
 20
59.238515144045863
 40
11.200000000000017
 41
0.9999999999999965
 50
0
  1
ｇ
  0
TEXT
  8
_1-0_
 62
    7
 10
284.19111864196412
 20
43.314705620236367
 40
11.200000000000017
 41
0.9999999999999965
 50
0
  1
ｇ
  0
TEXT
  8
_1-0_
 62
    7
 10
537.11052386500546
 20
74.248865691572888
 40
10
 41
1.0000000000000007
 50
0
  1
[lm]
  0
TEXT
  8
_1-0_
 62
    7
 10
537.11052386500546
 20
57.811578035227029
 40
10
 41
1.0000000000000007
 50
0
  1
[lm]
  0
TEXT
  8
_1-0_
 62
    7
 10
537.11052386500558
 20
42.262792414359268
 40
10
 41
1
 50
0
  1
[lm]
  0
TEXT
  8
_1-0_
 62
    7
 10
202.10466544870411
 20
91.76500985912773
 40
10
 41
1
 50
0
  1
505
  0
TEXT
  8
_1-0_
 62
    7
 10
315.72296377551078
 20
91.684628251925773
 40
10
 41
1
 50
0
  1
108
  0
TEXT
  8
_1-0_
 62
    7
 10
315.72296377551078
 20
76.157627905478165
 40
10
 41
1
 50
0
  1
216
  0
TEXT
  8
_1-0_
 62
    7
 10
315.72296377551078
 20
60.56293480152712
 40
10
 41
1
 50
0
  1
324
  0
TEXT
  8
_1-0_
 62
    7
 10
315.72296377551078
 20
44.318462818244797
 40
10
 41
1
 50
0
  1
432
  0
TEXT
  8
_1-0_
 62
    7
 10
404.07408315223802
 20
76.157627905478051
 40
10
 41
1
 50
0
  1
15.5
  0
TEXT
  8
_1-0_
 62
    7
 10
404.07408315223802
 20
60.56293480152712
 40
10
 41
1
 50
0
  1
23.2
  0
TEXT
  8
_1-0_
 62
    7
 10
404.07408315223802
 20
44.318462818244797
 40
10
 41
1
 50
0
  1
31.0
  0
TEXT
  8
_1-0_
 62
    7
 10
408.94742474722273
 20
91.684628251925773
 40
10
 41
1
 50
0
  1
7.7
  0
TEXT
  8
_1-0_
 62
    7
 10
460.12439721648451
 20
91.684628251925773
 40
10
 41
1
 50
0
  1
0.32
  0
TEXT
  8
_1-0_
 62
    7
 10
460.12439721648451
 20
76.157627905478051
 40
10
 41
1
 50
0
  1
0.65
  0
TEXT
  8
_1-0_
 62
    7
 10
460.12439721648451
 20
60.56293480152712
 40
10
 41
1
 50
0
  1
0.97
  0
TEXT
  8
_1-0_
 62
    7
 10
460.12439721648451
 20
44.318462818244797
 40
10
 41
1
 50
0
  1
1.30
  0
TEXT
  8
_1-0_
 62
    7
 10
224.13517254529961
 20
75.3902186307009
 40
8
 41
0.9999999999999994
 50
0
  1
[mm]
  0
TEXT
  8
_1-0_
 62
    7
 10
224.13517254529961
 20
59.37880583732769
 40
8
 41
0.9999999999999994
 50
0
  1
[mm]
  0
TEXT
  8
_1-0_
 62
    7
 10
224.13517254529961
 20
42.946040075707828
 40
8
 41
0.9999999999999994
 50
0
  1
[mm]
  0
TEXT
  8
_1-0_
 62
    7
 10
197.93774292615018
 20
75.565473325820761
 40
10
 41
1
 50
0
  1
1000
  0
TEXT
  8
_1-0_
 62
    7
 10
197.93774292615018
 20
59.554060532447551
 40
10
 41
1
 50
0
  1
1495
  0
TEXT
  8
_1-0_
 62
    7
 10
197.93774292615018
 20
43.121294770827689
 40
10
 41
1
 50
0
  1
1990
  0
TEXT
  8
_1-0_
 62
    7
 10
77.414963358731882
 20
91.76500985912773
 40
10
 41
1
 50
0
  1
LXSW-FGG-505-N
  0
TEXT
  8
_1-0_
 62
    7
 10
77.414963358731882
 20
75.565473325820761
 40
10
 41
1
 50
0
  1
LXSW-FGG-1000-N
  0
TEXT
  8
_1-0_
 62
    7
 10
77.414963358731882
 20
59.554060532447551
 40
10
 41
1
 50
0
  1
LXSW-FGG-1495-N
  0
TEXT
  8
_1-0_
 62
    7
 10
77.414963358731882
 20
43.121294770827689
 40
10
 41
1
 50
0
  1
LXSW-FGG-1990-N
  0
TEXT
  8
_1-0_
 62
    7
 10
515.2775027573548
 20
76.157627905478051
 40
10
 41
1
 50
0
  1
1190
  0
TEXT
  8
_1-0_
 62
    7
 10
515.2775027573548
 20
60.56293480152712
 40
10
 41
1
 50
0
  1
1785
  0
TEXT
  8
_1-0_
 62
    7
 10
515.2775027573548
 20
44.318462818244797
 40
10
 41
1
 50
0
  1
2380
  0
TEXT
  8
_1-0_
 62
    7
 10
267.17102358327156
 20
91.76500985912773
 40
10
 41
1
 50
0
  1
83
  0
TEXT
  8
_1-0_
 62
    7
 10
262.58730574253309
 20
75.565473325820761
 40
10
 41
1
 50
0
  1
162
  0
TEXT
  8
_1-0_
 62
    7
 10
262.58730574253309
 20
59.554060532447551
 40
10
 41
1
 50
0
  1
251
  0
TEXT
  8
_1-0_
 62
    7
 10
262.58730574253309
 20
43.121294770827689
 40
10
 41
1
 50
0
  1
321
  0
TEXT
  8
_0-0_1
 62
    7
 10
640.42367390530444
 20
62.646734873930058
 40
8
 41
1
 50
0
  1
森田
  0
TEXT
  8
_0-0_1
 62
    7
 10
670.35745817016732
 20
62.228080548547354
 40
8
 41
1
 50
0
  1
森田
  0
TEXT
  8
_1-0_
 62
    7
 10
519.49398549142393
 20
91.684628251925773
 40
10
 41
1
 50
0
  1
595
  0
LINE
  8
_1-0_
  6
CONTINUOUS
 62
    7
 10
86.036668409737729
 20
153.87527880200804
 11
119.39709606009063
 21
153.87527880200804
  0
TEXT
  8
_1-0_
 62
    7
 10
99.341702681664117
 20
144.00437933110851
 40
8
 41
1
 50
0
  1
①
  0
TEXT
  8
_1-0_
 62
    7
 10
138.97676006524404
 20
144.84247456920377
 40
8
 41
1
 50
0
  1
②
  0
LINE
  8
_1-0_
  6
CONTINUOUS
 62
    7
 10
127.8021568906409
 20
153.87527880200804
 11
153.41275999743488
 21
153.87527880200804
  0
TEXT
  8
_1-0_
 62
    7
 10
175.80891521281401
 20
144.84247456920377
 40
8
 41
1
 50
0
  1
③
  0
LINE
  8
_1-0_
  6
CONTINUOUS
 62
    7
 10
164.2354331511867
 20
153.87527880200804
 11
195.32005796824299
 21
153.87527880200804
  0
TEXT
  8
_1-0_
 62
    7
 10
205.46845776406178
 20
144.74935287608213
 40
8
 41
1
 50
0
  1
④
  0
LINE
  8
_1-0_
  6
CONTINUOUS
 62
    7
 10
204.16475406035809
 20
153.87527880200804
 11
214.7806270762311
 21
153.87527880200804
  0
TEXT
  8
_1-0_
 62
    7
 10
223.1333225882004
 20
144.84247456920377
 40
8
 41
1
 50
0
  1
⑤
  0
LINE
  8
_1-0_
  6
CONTINUOUS
 62
    7
 10
221.73649719137498
 20
153.87527880200804
 11
232.63173528661306
 21
153.87527880200804
  0
TEXT
  8
_1-0_
 62
    7
 10
244.26597519198148
 20
145.30808303481223
 40
8
 41
1
 50
0
  1
⑥
  0
LINE
  8
_1-0_
  6
CONTINUOUS
 62
    7
 10
238.58555191155821
 20
153.87527880200804
 11
258.42047254647889
 21
153.87527880200804
  0
TEXT
  8
_1-0_
 62
    7
 10
86.649713121145567
 20
156.19753473726729
 40
16
 41
1
 50
0
  1
LXSW-FGG-1000-N K CR
  0
TEXT
  8
_1-0_
 62
    7
 10
744.82583726060864
 20
88.946797273022042
 40
5
 41
0.8800000000000001
 50
0
  1
ポリカーボネイト 乳白色
  0
TEXT
  8
_1-0_
 62
    7
 10
745.52538230010691
 20
129.17063704416915
 40
5
 41
0.8800000000000001
 50
0
  1
ポリカーボネイト 乳白色
  0
TEXT
  8
_1-0_
 62
    7
 10
745.17560978035772
 20
138.9642675971441
 40
5
 41
0.8800000000000001
 50
0
  1
ポリカーボネイト 乳白色
  0
ARC
  8
_2-0_
  6
CONTINUOUS
 62
    2
 10
128.9098546804529
 20
481.12160753224555
 40
5.7064015740103065
 50
320.661199489333
 51
54.386441387944416
  0
ARC
  8
_2-0_
  6
CONTINUOUS
 62
    2
 10
140.88646666544651
 20
471.30531271741927
 40
9.7790392828292987
 50
140.66119948933292
 51
214.56691244988951
  0
ARC
  8
_2-0_
  6
CONTINUOUS
 62
    2
 10
140.88646666544651
 20
471.30531271741927
 40
8.0790392828292976
 50
140.66119948933292
 51
214.56691244988951
  0
ARC
  8
_2-0_
  6
CONTINUOUS
 62
    2
 10
128.9098546804529
 20
481.12160753224555
 40
7.4064015740103066
 50
320.661199489333
 51
54.386441387944416
  0
LINE
  8
_2-0_
  6
CONTINUOUS
 62
    7
 10
108.66936902998805
 20
477.48468801178274
 11
132.88383138166171
 21
477.48468801178274
  0
LINE
  8
_2-0_
  6
CONTINUOUS
 62
    7
 10
122.61378241433164
 20
480.48468801178274
 11
108.13514512130956
 21
480.48468801178274
  0
LINE
  8
_2-0_
  6
CONTINUOUS
 62
    7
 10
108.0194970546724
 20
477.48468801178274
 11
122.61378241433164
 21
477.48468801178274
  0
LINE
  8
_2-0_
  6
CONTINUOUS
 62
    7
 10
122.61378241433164
 20
474.48468801178274
 11
108.13514512130956
 21
474.48468801178274
  0
LINE
  8
_2-0_
  6
CONTINUOUS
 62
    7
 10
76.1072501420457
 20
469.93372847887304
 11
76.1072501420457
 21
485.93509457730318
  0
LINE
  8
_2-0_
  6
CONTINUOUS
 62
    7
 10
84.644362119078153
 20
482.50949833250002
 11
76.1072501420457
 21
482.50949833250002
  0
LINE
  8
_2-0_
  6
CONTINUOUS
 62
    7
 10
84.644362119078153
 20
473.35875283782559
 11
76.1072501420457
 21
473.35875283782559
  0
LINE
  8
_2-0_
  6
CONTINUOUS
 62
    7
 10
107.75083802475979
 20
471.97879228044485
 11
107.75083802475979
 21
483.89003077573102
  0
LINE
  8
_2-0_
  6
CONTINUOUS
 62
    7
 10
107.75083802475979
 20
471.97879228044485
 11
88.376489179777025
 21
471.97879228044485
  0
LINE
  8
_2-0_
  6
CONTINUOUS
 62
    7
 10
107.75083802475979
 20
483.89003077573102
 11
88.376489179777025
 21
483.89003077573102
  0
LINE
  8
_2-0_
  6
CONTINUOUS
 62
    7
 10
106.93304125847129
 20
471.97879228044485
 11
106.93304125847129
 21
483.89003077573102
  0
LINE
  8
_2-0_
  6
CONTINUOUS
 62
    7
 10
100.33805362991166
 20
481.33370102376614
 11
81.219337760125313
 21
481.33370102376614
  0
LINE
  8
_2-0_
  6
CONTINUOUS
 62
    7
 10
84.644362119078153
 20
481.33370102376614
 11
84.644362119078153
 21
482.50949833250002
  0
LINE
  8
_2-0_
  6
CONTINUOUS
 62
    7
 10
100.33805362991166
 20
479.64663776463908
 11
81.219337760125313
 21
479.64663776463908
  0
LINE
  8
_2-0_
  6
CONTINUOUS
 62
    7
 10
100.33805362991166
 20
474.53455014655947
 11
81.219337760125313
 21
474.53455014655947
  0
LINE
  8
_2-0_
  6
CONTINUOUS
 62
    7
 10
84.644362119078153
 20
473.35875283782559
 11
84.644362119078153
 21
474.53512203241019
  0
LINE
  8
_2-0_
  6
CONTINUOUS
 62
    7
 10
100.33805362991166
 20
476.22161340568653
 11
81.219337760125313
 21
476.22161340568653
  0
LINE
  8
_2-0_
  6
CONTINUOUS
 62
    7
 10
81.219337760125313
 20
474.53455014655947
 11
81.219337760125313
 21
481.33370102376614
  0
LINE
  8
_2-0_
  6
CONTINUOUS
 62
    7
 10
100.33805362991166
 20
474.53455014655947
 11
100.33805362991166
 21
481.33370102376614
  0
ARC
  8
_2-0_
  6
CONTINUOUS
 62
    7
 10
86.655510707313567
 20
484.18779582774948
 40
1.7400000000000002
 50
4.7896201658778645
 51
84.492773310618546
  0
LINE
  8
_2-0_
  6
CONTINUOUS
 62
    7
 10
88.37591729392642
 20
481.33370102376614
 11
88.37591729392642
 21
484.31854341905762
  0
LINE
  8
_2-0_
  6
CONTINUOUS
 62
    7
 10
86.804071677260993
 20
485.93452269145246
 11
76.1072501420457
 21
485.93452269145246
  0
ARC
  8
_2-0_
  6
CONTINUOUS
 62
    7
 10
86.655510707313567
 20
471.67825260399513
 40
1.7400000000000002
 50
275.50722668938147
 51
355.21037983412214
  0
LINE
  8
_2-0_
  6
CONTINUOUS
 62
    7
 10
88.37591729392642
 20
471.54834922940438
 11
88.37591729392642
 21
474.53455014655947
  0
LINE
  8
_2-0_
  6
CONTINUOUS
 62
    7
 10
86.783976975084897
 20
469.93372847887304
 11
76.1072501420457
 21
469.93372847887304
  0
LINE
  8
_2-0_
  6
CONTINUOUS
 62
    7
 10
131.38040651537864
 20
474.48468801178274
 11
107.90384898803529
 21
474.48468801178274
  0
LINE
  8
_2-0_
  6
CONTINUOUS
 62
    7
 10
133.82093572002771
 20
480.48468801178274
 11
109.46907973419309
 21
480.48468801178274
  0
LINE
  8
_2-0_
  6
CONTINUOUS
 62
    7
 10
136.19193322386496
 20
480.48064007900518
 11
153.7470539171951
 21
480.48064007900518
  0
LINE
  8
_2-0_
  6
CONTINUOUS
 62
    7
 10
135.08546772207421
 20
477.48064007900518
 11
153.7470539171951
 21
477.48064007900518
  0
LINE
  8
_2-0_
  6
CONTINUOUS
 62
    7
 10
88.061598755925274
 20
413.99688395148149
 11
75.792931604044497
 21
413.99688395148149
  0
LINE
  8
_2-0_
  6
CONTINUOUS
 62
    7
 10
88.061598755925274
 20
403.77270871532198
 11
75.792931604044497
 21
403.77270871532198
  0
LINE
  8
_2-0_
  6
CONTINUOUS
 62
    7
 10
83.818777630683826
 20
411.44055419951621
 11
75.79235971819395
 21
411.44055419951621
  0
LINE
  8
_2-0_
  6
CONTINUOUS
 62
    7
 10
75.79235971819395
 20
411.44055419951621
 11
75.79235971819395
 21
413.99631206563083
  0
LINE
  8
_2-0_
  6
CONTINUOUS
 62
    7
 10
83.818777630683826
 20
406.3284665814366
 11
75.79235971819395
 21
406.3284665814366
  0
LINE
  8
_2-0_
  6
CONTINUOUS
 62
    7
 10
75.79235971819395
 20
403.77270871532198
 11
75.79235971819395
 21
406.327894695586
  0
LINE
  8
_2-0_
  6
CONTINUOUS
 62
    7
 10
88.061598755925274
 20
403.77270871532198
 11
88.061598755925274
 21
413.99631206563083
  0
LINE
  8
_2-0_
  6
CONTINUOUS
 62
    7
 10
107.43651948675858
 20
412.30982069235449
 11
88.061598755925274
 21
412.30982069235449
  0
LINE
  8
_2-0_
  6
CONTINUOUS
 62
    7
 10
107.43651948675858
 20
405.45977197444904
 11
88.061598755925274
 21
405.45977197444904
  0
LINE
  8
_2-0_
  6
CONTINUOUS
 62
    7
 10
106.61815083461948
 20
405.45977197444904
 11
106.61815083461948
 21
412.30982069235449
  0
LINE
  8
_2-0_
  6
CONTINUOUS
 62
    7
 10
107.43651948675858
 20
405.45977197444904
 11
107.43651948675858
 21
412.30982069235449
  0
LINE
  8
_2-0_
  6
CONTINUOUS
 62
    7
 10
100.0237350919104
 20
415.73484505130739
 11
80.904447336273563
 21
415.73484505130739
  0
LINE
  8
_2-0_
  6
CONTINUOUS
 62
    7
 10
80.904447336273563
 20
413.99688395148149
 11
80.904447336273563
 21
415.73484505130739
  0
LINE
  8
_2-0_
  6
CONTINUOUS
 62
    7
 10
100.0237350919104
 20
413.17851529934211
 11
88.062170641775822
 21
413.17851529934211
  0
LINE
  8
_2-0_
  6
CONTINUOUS
 62
    7
 10
100.0237350919104
 20
413.17851529934211
 11
100.0237350919104
 21
415.73427316545673
  0
LINE
  8
_2-0_
  6
CONTINUOUS
 62
    7
 10
90.617356622039779
 20
412.30982069235449
 11
90.617356622039779
 21
413.17851529934211
  0
LINE
  8
_2-0_
  6
CONTINUOUS
 62
    7
 10
83.818777630683826
 20
406.3284665814366
 11
83.818777630683826
 21
411.44112608536688
  0
ARC
  8
_2-0_
  6
CONTINUOUS
 62
    2
 10
128.45885542416983
 20
415.75873962086143
 40
5.7064015740103065
 50
320.661199489333
 51
54.386441387944416
  0
ARC
  8
_2-0_
  6
CONTINUOUS
 62
    2
 10
140.43546740916344
 20
405.94244480603516
 40
9.7790392828292987
 50
140.66119948933292
 51
214.56691244988951
  0
ARC
  8
_2-0_
  6
CONTINUOUS
 62
    2
 10
140.43546740916344
 20
405.94244480603516
 40
8.0790392828292976
 50
140.66119948933292
 51
214.56691244988951
  0
ARC
  8
_2-0_
  6
CONTINUOUS
 62
    2
 10
128.45885542416983
 20
415.75873962086143
 40
7.4064015740103066
 50
320.661199489333
 51
54.386441387944416
  0
LINE
  8
_2-0_
  6
CONTINUOUS
 62
    7
 10
130.59991937112932
 20
407.35099848222296
 11
107.43594760090804
 21
407.35099848222296
  0
LINE
  8
_2-0_
  6
CONTINUOUS
 62
    7
 10
131.82186120729551
 20
410.41802229873031
 11
107.43594760090804
 21
410.41802229873031
  0
LINE
  8
_2-0_
  6
CONTINUOUS
 62
    7
 10
134.11582167132542
 20
410.67689140305208
 11
153.7470539171951
 21
410.67689140305208
  0
LINE
  8
_2-0_
  6
CONTINUOUS
 62
    7
 10
153.7470539171951
 20
407.67689140305208
 11
132.39977878881149
 21
407.67689140305208
  0
LINE
  8
_2-0_
  6
CONTINUOUS
 62
    7
 10
566.93886061784428
 20
404.32377303384698
 11
566.93886061784428
 21
414.54737638415565
  0
LINE
  8
_2-0_
  6
CONTINUOUS
 62
    7
 10
587.13215000081675
 20
404.32377303384698
 11
566.93886061784428
 21
404.32377303384698
  0
LINE
  8
_2-0_
  6
CONTINUOUS
 62
    7
 10
587.13215000081675
 20
404.32377303384698
 11
587.13215000081675
 21
414.54737638415565
  0
LINE
  8
_2-0_
  6
CONTINUOUS
 62
    7
 10
587.13215000081675
 20
414.54794827000637
 11
566.93886061784428
 21
414.54794827000637
  0
LINE
  8
_2-0_
  6
CONTINUOUS
 62
    7
 10
581.81589913409039
 20
407.03336819375977
 11
581.81589913409039
 21
411.83892499594378
  0
LINE
  8
_2-0_
  6
CONTINUOUS
 62
    7
 10
581.81589913409039
 20
411.83835311009341
 11
571.74384553417781
 21
411.83835311009341
  0
LINE
  8
_2-0_
  6
CONTINUOUS
 62
    7
 10
581.81589913409039
 20
407.03336819375977
 11
571.74384553417781
 21
407.03336819375977
  0
LINE
  8
_2-0_
  6
CONTINUOUS
 62
    7
 10
571.74498930587879
 20
407.03336819375977
 11
571.74498930587879
 21
411.83892499594378
  0
LINE
  8
_2-0_
  6
CONTINUOUS
 62
    7
 10
578.08377207339151
 20
407.03336819375977
 11
578.08377207339151
 21
411.83892499594378
  0
LINE
  8
_2-0_
  6
CONTINUOUS
 62
    7
 10
566.93886061784428
 20
407.90206280074744
 11
545.14886200872786
 21
407.90206280074744
  0
ARC
  8
_2-0_
  6
CONTINUOUS
 62
    2
 10
540.44768651100446
 20
414.7697153438512
 40
5.7064015740103065
 50
320.661199489333
 51
54.386441387944416
  0
ARC
  8
_2-0_
  6
CONTINUOUS
 62
    2
 10
552.42429849599807
 20
404.95342052902492
 40
9.7790392828292987
 50
140.66119948933292
 51
214.56691244988951
  0
ARC
  8
_2-0_
  6
CONTINUOUS
 62
    2
 10
552.42429849599807
 20
404.95342052902492
 40
8.0790392828292976
 50
140.66119948933292
 51
214.56691244988951
  0
ARC
  8
_2-0_
  6
CONTINUOUS
 62
    2
 10
540.44768651100446
 20
414.7697153438512
 40
7.4064015740103066
 50
320.661199489333
 51
54.386441387944416
  0
LINE
  8
_2-0_
  6
CONTINUOUS
 62
    7
 10
566.93886061784428
 20
410.96965850310585
 11
547.01435526790772
 21
410.96965850310585
  0
ARC
  8
_2-0_
  6
CONTINUOUS
 62
    2
 10
540.44768651100446
 20
481.08631096235609
 40
5.7064015740103065
 50
320.661199489333
 51
54.386441387944416
  0
ARC
  8
_2-0_
  6
CONTINUOUS
 62
    2
 10
552.42429849599807
 20
471.27001614752982
 40
9.7790392828292987
 50
140.66119948933292
 51
214.56691244988951
  0
ARC
  8
_2-0_
  6
CONTINUOUS
 62
    2
 10
552.42429849599807
 20
471.27001614752982
 40
8.0790392828292976
 50
140.66119948933292
 51
214.56691244988951
  0
ARC
  8
_2-0_
  6
CONTINUOUS
 62
    2
 10
540.44768651100446
 20
481.08631096235609
 40
7.4064015740103066
 50
320.661199489333
 51
54.386441387944416
  0
LINE
  8
_2-0_
  6
CONTINUOUS
 62
    7
 10
566.58257991719506
 20
480.48064007900518
 11
547.93966017476396
 21
480.48064007900518
  0
LINE
  8
_2-0_
  6
CONTINUOUS
 62
    7
 10
547.08372858078781
 20
477.48064007900518
 11
566.58257991719506
 21
477.48064007900518
  0
LINE
  8
_2-0_
  6
CONTINUOUS
 62
    7
 10
566.58257991719506
 20
474.48064007900518
 11
545.1150859146428
 21
474.48064007900518
  0
LINE
  8
_2-0_
  6
CONTINUOUS
 62
    7
 10
543.23203640789529
 20
474.48064007900518
 11
520.58257991719506
 21
474.48064007900518
  0
LINE
  8
_2-0_
  6
CONTINUOUS
 62
    7
 10
520.58257991719506
 20
477.48064007900518
 11
544.68712011765467
 21
477.48064007900518
  0
LINE
  8
_2-0_
  6
CONTINUOUS
 62
    7
 10
546.14220382741405
 20
480.48064007900518
 11
520.58257991719506
 21
480.48064007900518
  0
TEXT
  8
_1-0_
 62
    7
 10
742.29525295124176
 20
101.87501750967098
 40
4
 41
1
 50
0
  1
シルバーアルマイト加工
  0
TEXT
  8
_1-0_
 62
    7
 10
572.16664480078668
 20
67.935701625141206
 40
10.000000000000057
 41
0.9999999999999943
 50
0
  1
3960
  0
LINE
  8
_1-0_
  6
CONTINUOUS
 62
    7
 10
58.250197536428061
 20
201.81301095214616
 11
818.24613889818352
 21
201.81301095214616
  0
TEXT
  8
_1-0_
 62
    7
 10
635.77202993795026
 20
151.45483435191119
 40
7
 41
1
 50
0
  1
落下等による破損の原因になります。
  0
TEXT
  8
_1-0_
 62
    7
 10
628.5674896186157
 20
177.94301026285115
 40
7
 41
1
 50
0
  1
※電源の入力は必ず片側からだけにしてください。
  0
TEXT
  8
_1-0_
 62
    7
 10
628.5674896186157
 20
160.91090481162325
 40
7
 41
1
 50
0
  1
※取付箇所の下地・強度にご注意下さい。
  0
LINE
  8
_4-0_
  6
CONTINUOUS
 62
    7
 10
478.86268044989617
 20
234.31879616798611
 11
474.87980677782627
 21
234.31666671381006
  0
LINE
  8
_4-0_
  6
CONTINUOUS
 62
    7
 10
474.87980677782627
 20
249.4762112078362
 11
478.88142325634203
 21
249.4762112078362
  0
LINE
  8
_4-0_
  6
CONTINUOUS
 62
    7
 10
558.87980677782627
 20
243.49259774819123
 11
558.87980677782627
 21
240.22296819015142
  0
LINE
  8
_4-0_
  6
CONTINUOUS
 62
    7
 10
521.13961060177883
 20
240.05709106523713
 11
524.54484835063158
 21
243.46232881408977
  0
LINE
  8
_4-0_
  6
CONTINUOUS
 62
    7
 10
523.9853199410154
 20
240.07437327972704
 11
527.37327547537802
 21
243.46232881408955
  0
LINE
  8
_4-0_
  6
CONTINUOUS
 62
    7
 10
526.81219380950392
 20
240.07282002346872
 11
530.20170260012446
 21
243.46232881408932
  0
LINE
  8
_4-0_
  6
CONTINUOUS
 62
    7
 10
518.93430726798101
 20
240.68021485618604
 11
521.71642122588401
 21
243.46232881408892
  0
LINE
  8
_4-0_
  6
CONTINUOUS
 62
    7
 10
518.87980677782627
 20
243.49259774819123
 11
518.87980677782627
 21
240.08973312555443
  0
LINE
  8
_4-0_
  6
CONTINUOUS
 62
    7
 10
529.6062153265234
 20
240.03841441574164
 11
533.0301297248709
 21
243.46232881408909
  0
LINE
  8
_4-0_
  6
CONTINUOUS
 62
    7
 10
532.48445657618231
 20
240.08822854065377
 11
535.85855684961734
 21
243.46232881408886
  0
LINE
  8
_4-0_
  6
CONTINUOUS
 62
    7
 10
535.38931651106441
 20
240.16466135078932
 11
538.68698397436378
 21
243.46232881408869
  0
LINE
  8
_4-0_
  6
CONTINUOUS
 62
    7
 10
538.06791762154705
 20
240.014835336527
 11
541.66144012670225
 21
243.60835784168231
  0
LINE
  8
_4-0_
  6
CONTINUOUS
 62
    7
 10
543.76787169838235
 20
240.05709106523713
 11
547.17310944723499
 21
243.46232881408977
  0
LINE
  8
_4-0_
  6
CONTINUOUS
 62
    7
 10
546.61358103761904
 20
240.07437327972704
 11
550.00153657198143
 21
243.46232881408955
  0
LINE
  8
_4-0_
  6
CONTINUOUS
 62
    7
 10
549.44045490610733
 20
240.07282002346872
 11
552.82996369672787
 21
243.46232881408932
  0
LINE
  8
_4-0_
  6
CONTINUOUS
 62
    7
 10
552.23447642312681
 20
240.03841441574164
 11
555.65839082147431
 21
243.46232881408909
  0
LINE
  8
_4-0_
  6
CONTINUOUS
 62
    7
 10
555.11271767278572
 20
240.08822854065377
 11
558.48681794622075
 21
243.46232881408886
  0
LINE
  8
_4-0_
  6
CONTINUOUS
 62
    7
 10
541.02643697619192
 20
240.14408346779337
 11
544.34468232248742
 21
243.46232881408892
  0
LINE
  8
_4-0_
  6
CONTINUOUS
 62
    7
 10
558.01757760766782
 20
240.16466135078932
 11
558.80163949338885
 21
240.94872323651029
  0
LINE
  8
_4-0_
  6
CONTINUOUS
 62
    7
 10
518.89331501920128
 20
242.71003264748637
 11
519.67737690492231
 21
243.49409453320735
  0
LINE
  8
_4-0_
  6
CONTINUOUS
 62
    7
 10
546.51271103255488
 20
255.6147876266501
 11
535.39430318574557
 21
241.59694990777794
  0
TEXT
  8
_4-0_
 62
    7
 10
531.5627649398898
 20
257.41893866259289
 40
6
 41
1
 50
0
  1
マグネット
  0
LINE
  8
_4-0_
  6
CONTINUOUS
 62
    7
 10
646.73169556340918
 20
255.6147876266501
 11
635.61328771659987
 21
241.59694990777794
  0
LINE
  8
_4-0_
  6
CONTINUOUS
 62
    7
 10
474.87980677782627
 20
253.33985087497533
 11
474.87980677782627
 21
230.2827678311007
  0
LINE
  8
_4-0_
  6
CONTINUOUS
 62
    7
 10
478.87980677782627
 20
253.7398508749753
 11
478.87980677782627
 21
229.88276783110072
  0
LINE
  8
_4-0_
  6
CONTINUOUS
 62
    7
 10
478.86714781544424
 20
230.2827678311007
 11
474.87980677782627
 21
230.2827678311007
  0
LINE
  8
_4-0_
  6
CONTINUOUS
 62
    7
 10
478.8166914112652
 20
231.7827678311007
 11
474.9315482894757
 21
231.7827678311007
  0
LINE
  8
_4-0_
  6
CONTINUOUS
 62
    7
 10
478.96806062380244
 20
253.33985087497533
 11
474.87980677782627
 21
253.33985087497533
  0
LINE
  8
_4-0_
  6
CONTINUOUS
 62
    7
 10
478.86714781544424
 20
251.83985087497533
 11
474.88109188529666
 21
251.83985087497533
  0
LINE
  8
_4-0_
  6
CONTINUOUS
 62
    4
 10
538.87980677782627
 20
215.47123891465171
 11
738.87980677782627
 21
215.47123891465171
  0
LINE
  8
_4-0_
  6
CONTINUOUS
 62
    4
 10
538.87980677782627
 20
215.47123891465171
 11
544.67536173556073
 21
217.02415318526684
  0
LINE
  8
_4-0_
  6
CONTINUOUS
 62
    4
 10
538.87980677782627
 20
215.47123891465171
 11
544.67536173556073
 21
213.91832464403663
  0
LINE
  8
_4-0_
  6
CONTINUOUS
 62
    4
 10
738.87980677782627
 20
215.47123891465171
 11
733.08425182009182
 21
213.91832464403663
  0
LINE
  8
_4-0_
  6
CONTINUOUS
 62
    4
 10
738.87980677782627
 20
215.47123891465171
 11
733.08425182009182
 21
217.02415318526684
  0
TEXT
  8
_4-0_
 62
    7
 10
632.37980677782627
 20
216.47123891465171
 40
8
 41
1
 50
0
  1
100
  0
LINE
  8
_4-0_
  6
CONTINUOUS
 62
    4
 10
538.87980677782627
 20
214.47123891465171
 11
538.87980677782627
 21
225.76639733401808
  0
LINE
  8
_4-0_
  6
CONTINUOUS
 62
    4
 10
738.87980677782627
 20
214.47123891465171
 11
738.87980677782627
 21
225.54735141020174
  0
LINE
  8
_4-0_
  6
CONTINUOUS
 62
    7
 10
758.87980677782627
 20
243.49259774819123
 11
758.87980677782627
 21
240.22296819015142
  0
LINE
  8
_4-0_
  6
CONTINUOUS
 62
    7
 10
721.13961060177883
 20
240.05709106523713
 11
724.54484835063147
 21
243.46232881408977
  0
LINE
  8
_4-0_
  6
CONTINUOUS
 62
    7
 10
723.9853199410154
 20
240.07437327972704
 11
727.37327547537791
 21
243.46232881408955
  0
LINE
  8
_4-0_
  6
CONTINUOUS
 62
    7
 10
726.81219380950381
 20
240.07282002346872
 11
730.20170260012435
 21
243.46232881408932
  0
LINE
  8
_4-0_
  6
CONTINUOUS
 62
    7
 10
718.93430726798101
 20
240.68021485618604
 11
721.71642122588389
 21
243.46232881408892
  0
LINE
  8
_4-0_
  6
CONTINUOUS
 62
    7
 10
718.87980677782627
 20
243.49259774819123
 11
718.87980677782627
 21
240.08973312555443
  0
LINE
  8
_4-0_
  6
CONTINUOUS
 62
    7
 10
729.6062153265234
 20
240.03841441574164
 11
733.03012972487079
 21
243.46232881408909
  0
LINE
  8
_4-0_
  6
CONTINUOUS
 62
    7
 10
732.4844565761822
 20
240.08822854065377
 11
735.85855684961723
 21
243.46232881408886
  0
LINE
  8
_4-0_
  6
CONTINUOUS
 62
    7
 10
735.38931651106429
 20
240.16466135078932
 11
738.68698397436367
 21
243.46232881408869
  0
LINE
  8
_4-0_
  6
CONTINUOUS
 62
    7
 10
738.06791762154705
 20
240.014835336527
 11
741.66144012670225
 21
243.60835784168231
  0
LINE
  8
_4-0_
  6
CONTINUOUS
 62
    7
 10
743.76787169838224
 20
240.05709106523713
 11
747.17310944723499
 21
243.46232881408977
  0
LINE
  8
_4-0_
  6
CONTINUOUS
 62
    7
 10
746.61358103761893
 20
240.07437327972704
 11
750.00153657198143
 21
243.46232881408955
  0
LINE
  8
_4-0_
  6
CONTINUOUS
 62
    7
 10
749.44045490610733
 20
240.07282002346872
 11
752.82996369672787
 21
243.46232881408932
  0
LINE
  8
_4-0_
  6
CONTINUOUS
 62
    7
 10
752.23447642312681
 20
240.03841441574164
 11
755.65839082147431
 21
243.46232881408909
  0
LINE
  8
_4-0_
  6
CONTINUOUS
 62
    7
 10
755.11271767278572
 20
240.08822854065377
 11
758.48681794622075
 21
243.46232881408886
  0
LINE
  8
_4-0_
  6
CONTINUOUS
 62
    7
 10
741.02643697619192
 20
240.14408346779337
 11
744.34468232248742
 21
243.46232881408892
  0
LINE
  8
_4-0_
  6
CONTINUOUS
 62
    7
 10
758.01757760766782
 20
240.16466135078932
 11
758.80163949338885
 21
240.94872323651029
  0
LINE
  8
_4-0_
  6
CONTINUOUS
 62
    7
 10
718.89331501920117
 20
242.71003264748637
 11
719.6773769049222
 21
243.49409453320735
  0
ARC
  8
_4-0_
  6
CONTINUOUS
 62
    2
 10
766.49757008893243
 20
248.00810436390307
 40
10.793215373849014
 50
315.60640298124792
 51
56.046281077863661
  0
ARC
  8
_4-0_
  6
CONTINUOUS
 62
    2
 10
779.7861578843075
 20
234.99786659447605
 40
7.8039040916062508
 50
135.60640298124798
 51
234.19178192632754
  0
ARC
  8
_4-0_
  6
CONTINUOUS
 62
    2
 10
764.6989536135635
 20
248.00810436390307
 40
9.793215373849014
 50
315.60640298124792
 51
56.046281077863661
  0
ARC
  8
_4-0_
  6
CONTINUOUS
 62
    2
 10
777.98754140893845
 20
234.99786659447605
 40
8.8039040916062508
 50
135.60640298124798
 51
234.19178192632754
  0
LINE
  8
_4-0_
  6
CONTINUOUS
 62
    7
 10
793.6632833166434
 20
243.53985087497531
 11
776.15665032608683
 21
243.53985087497531
  0
LINE
  8
_4-0_
  6
CONTINUOUS
 62
    7
 10
793.14069725722379
 20
240.08276783110071
 11
773.80501305869859
 21
240.08276783110071
  0
LINE
  8
_4-0_
  6
CONTINUOUS
 62
    7
 10
793.6098047611523
 20
253.7398508749753
 11
775.71406890899254
 21
253.7398508749753
  0
LINE
  8
_4-0_
  6
CONTINUOUS
 62
    7
 10
793.67584068680605
 20
252.2398508749753
 11
776.44046409118357
 21
252.2398508749753
  0
LINE
  8
_4-0_
  6
CONTINUOUS
 62
    7
 10
793.41169698419117
 20
231.38276783110072
 11
772.80848818022855
 21
231.38276783110072
  0
LINE
  8
_4-0_
  6
CONTINUOUS
 62
    7
 10
793.47773290984492
 20
229.88276783110072
 11
774.06317076764935
 21
229.88276783110072
  0
LINE
  8
_4-0_
  6
CONTINUOUS
 62
    7
 10
772.61509804649131
 20
253.7398508749753
 11
478.87980677782627
 21
253.7398508749753
  0
LINE
  8
_4-0_
  6
CONTINUOUS
 62
    7
 10
773.54645379038118
 20
252.2398508749753
 11
479.01851702798149
 21
252.2398508749753
  0
LINE
  8
_4-0_
  6
CONTINUOUS
 62
    7
 10
773.36018264160327
 20
243.53985087497531
 11
478.87980677782627
 21
243.53985087497531
  0
LINE
  8
_4-0_
  6
CONTINUOUS
 62
    7
 10
770.37984426115577
 20
240.08276783110071
 11
478.87980677782627
 21
240.08276783110071
  0
LINE
  8
_4-0_
  6
CONTINUOUS
 62
    7
 10
770.19357311237786
 20
231.38276783110072
 11
479.01851702798149
 21
231.38276783110072
  0
LINE
  8
_4-0_
  6
CONTINUOUS
 62
    7
 10
770.93865770748971
 20
229.88276783110072
 11
478.87980677782627
 21
229.88276783110072
  0
TEXT
  8
_4-0_
 62
    7
 10
643.06366587646039
 20
257.30018803540179
 40
6
 41
1
 50
0
  1
※1
  0
LINE
  8
_4-0_
  6
CONTINUOUS
 62
    7
 10
741.4498870841511
 20
256.46259815192889
 11
730.3314792373418
 21
242.44476043305673
  0
TEXT
  8
_4-0_
 62
    7
 10
726.49994099148603
 20
258.26674918787165
 40
6
 41
1
 50
0
  1
マグネット
  0
LINE
  8
_4-0_
  6
CONTINUOUS
 62
    7
 10
478.86268044989617
 20
296.70718394953997
 11
474.87980677782627
 21
296.70505449536392
  0
LINE
  8
_4-0_
  6
CONTINUOUS
 62
    7
 10
474.87980677782627
 20
311.86459898939006
 11
478.88142325634203
 21
311.86459898939006
  0
LINE
  8
_4-0_
  6
CONTINUOUS
 62
    7
 10
558.87980677782627
 20
305.88098552974509
 11
558.87980677782627
 21
302.61135597170528
  0
LINE
  8
_4-0_
  6
CONTINUOUS
 62
    7
 10
521.13961060177883
 20
302.44547884679099
 11
524.54484835063158
 21
305.85071659564363
  0
LINE
  8
_4-0_
  6
CONTINUOUS
 62
    7
 10
523.9853199410154
 20
302.4627610612809
 11
527.37327547537802
 21
305.85071659564341
  0
LINE
  8
_4-0_
  6
CONTINUOUS
 62
    7
 10
526.81219380950392
 20
302.46120780502258
 11
530.20170260012446
 21
305.85071659564318
  0
LINE
  8
_4-0_
  6
CONTINUOUS
 62
    7
 10
518.93430726798101
 20
303.0686026377399
 11
521.71642122588401
 21
305.85071659564278
  0
LINE
  8
_4-0_
  6
CONTINUOUS
 62
    7
 10
518.87980677782627
 20
305.88098552974509
 11
518.87980677782627
 21
302.47812090710829
  0
LINE
  8
_4-0_
  6
CONTINUOUS
 62
    7
 10
529.6062153265234
 20
302.4268021972955
 11
533.0301297248709
 21
305.85071659564295
  0
LINE
  8
_4-0_
  6
CONTINUOUS
 62
    7
 10
532.48445657618231
 20
302.47661632220763
 11
535.85855684961734
 21
305.85071659564272
  0
LINE
  8
_4-0_
  6
CONTINUOUS
 62
    7
 10
535.38931651106441
 20
302.55304913234318
 11
538.68698397436378
 21
305.85071659564255
  0
LINE
  8
_4-0_
  6
CONTINUOUS
 62
    7
 10
538.06791762154705
 20
302.40322311808086
 11
541.66144012670225
 21
305.99674562323617
  0
LINE
  8
_4-0_
  6
CONTINUOUS
 62
    7
 10
543.76787169838235
 20
302.44547884679099
 11
547.17310944723499
 21
305.85071659564363
  0
LINE
  8
_4-0_
  6
CONTINUOUS
 62
    7
 10
546.61358103761904
 20
302.4627610612809
 11
550.00153657198143
 21
305.85071659564341
  0
LINE
  8
_4-0_
  6
CONTINUOUS
 62
    7
 10
549.44045490610733
 20
302.46120780502258
 11
552.82996369672787
 21
305.85071659564318
  0
LINE
  8
_4-0_
  6
CONTINUOUS
 62
    7
 10
552.23447642312681
 20
302.4268021972955
 11
555.65839082147431
 21
305.85071659564295
  0
LINE
  8
_4-0_
  6
CONTINUOUS
 62
    7
 10
555.11271767278572
 20
302.47661632220763
 11
558.48681794622075
 21
305.85071659564272
  0
LINE
  8
_4-0_
  6
CONTINUOUS
 62
    7
 10
541.02643697619192
 20
302.53247124934722
 11
544.34468232248742
 21
305.85071659564278
  0
LINE
  8
_4-0_
  6
CONTINUOUS
 62
    7
 10
558.01757760766782
 20
302.55304913234318
 11
558.80163949338885
 21
303.33711101806415
  0
LINE
  8
_4-0_
  6
CONTINUOUS
 62
    7
 10
518.89331501920128
 20
305.09842042904023
 11
519.67737690492231
 21
305.88248231476121
  0
LINE
  8
_4-0_
  6
CONTINUOUS
 62
    7
 10
587.89151506616577
 20
318.00317540820396
 11
576.77310721935646
 21
303.9853376893318
  0
LINE
  8
_4-0_
  6
CONTINUOUS
 62
    7
 10
658.87980677782627
 20
305.88098552974509
 11
658.87980677782627
 21
302.61135597170528
  0
LINE
  8
_4-0_
  6
CONTINUOUS
 62
    7
 10
621.13961060177883
 20
302.44547884679099
 11
624.54484835063158
 21
305.85071659564363
  0
LINE
  8
_4-0_
  6
CONTINUOUS
 62
    7
 10
623.9853199410154
 20
302.4627610612809
 11
627.37327547537802
 21
305.85071659564341
  0
LINE
  8
_4-0_
  6
CONTINUOUS
 62
    7
 10
626.81219380950392
 20
302.46120780502258
 11
630.20170260012446
 21
305.85071659564318
  0
LINE
  8
_4-0_
  6
CONTINUOUS
 62
    7
 10
618.93430726798101
 20
303.0686026377399
 11
621.71642122588401
 21
305.85071659564278
  0
LINE
  8
_4-0_
  6
CONTINUOUS
 62
    7
 10
618.87980677782627
 20
305.88098552974509
 11
618.87980677782627
 21
302.47812090710829
  0
LINE
  8
_4-0_
  6
CONTINUOUS
 62
    7
 10
629.6062153265234
 20
302.4268021972955
 11
633.0301297248709
 21
305.85071659564295
  0
LINE
  8
_4-0_
  6
CONTINUOUS
 62
    7
 10
632.4844565761822
 20
302.47661632220763
 11
635.85855684961734
 21
305.85071659564272
  0
LINE
  8
_4-0_
  6
CONTINUOUS
 62
    7
 10
635.38931651106441
 20
302.55304913234318
 11
638.68698397436378
 21
305.85071659564255
  0
LINE
  8
_4-0_
  6
CONTINUOUS
 62
    7
 10
638.06791762154694
 20
302.40322311808086
 11
641.66144012670225
 21
305.99674562323617
  0
LINE
  8
_4-0_
  6
CONTINUOUS
 62
    7
 10
643.76787169838235
 20
302.44547884679099
 11
647.17310944723499
 21
305.85071659564363
  0
LINE
  8
_4-0_
  6
CONTINUOUS
 62
    7
 10
646.61358103761893
 20
302.4627610612809
 11
650.00153657198143
 21
305.85071659564341
  0
LINE
  8
_4-0_
  6
CONTINUOUS
 62
    7
 10
649.44045490610733
 20
302.46120780502258
 11
652.82996369672787
 21
305.85071659564318
  0
LINE
  8
_4-0_
  6
CONTINUOUS
 62
    7
 10
652.23447642312681
 20
302.4268021972955
 11
655.65839082147431
 21
305.85071659564295
  0
LINE
  8
_4-0_
  6
CONTINUOUS
 62
    7
 10
655.11271767278572
 20
302.47661632220763
 11
658.48681794622075
 21
305.85071659564272
  0
LINE
  8
_4-0_
  6
CONTINUOUS
 62
    7
 10
641.02643697619192
 20
302.53247124934722
 11
644.34468232248742
 21
305.85071659564278
  0
LINE
  8
_4-0_
  6
CONTINUOUS
 62
    7
 10
658.01757760766782
 20
302.55304913234318
 11
658.80163949338885
 21
303.33711101806415
  0
LINE
  8
_4-0_
  6
CONTINUOUS
 62
    7
 10
618.89331501920128
 20
305.09842042904023
 11
619.6773769049222
 21
305.88248231476121
  0
ARC
  8
_4-0_
  6
CONTINUOUS
 62
    2
 10
669.16256802140686
 20
310.39649214545693
 40
10.793215373849014
 50
315.60640298124792
 51
56.046281077863661
  0
ARC
  8
_4-0_
  6
CONTINUOUS
 62
    2
 10
682.45115581678192
 20
297.38625437602991
 40
7.8039040916062508
 50
135.60640298124798
 51
234.19178192632754
  0
ARC
  8
_4-0_
  6
CONTINUOUS
 62
    2
 10
667.36395154603792
 20
310.39649214545693
 40
9.793215373849014
 50
315.60640298124792
 51
56.046281077863661
  0
ARC
  8
_4-0_
  6
CONTINUOUS
 62
    2
 10
680.65253934141288
 20
297.38625437602991
 40
8.8039040916062508
 50
135.60640298124798
 51
234.19178192632754
  0
LINE
  8
_4-0_
  6
CONTINUOUS
 62
    7
 10
675.69143277053922
 20
305.92823865652917
 11
478.87980677782627
 21
305.92823865652917
  0
LINE
  8
_4-0_
  6
CONTINUOUS
 62
    7
 10
696.33358211761345
 20
305.92823865652917
 11
678.82694912705688
 21
305.92823865652917
  0
LINE
  8
_4-0_
  6
CONTINUOUS
 62
    7
 10
695.81099605819384
 20
302.47115561265457
 11
676.47531185966864
 21
302.47115561265457
  0
TEXT
  8
_4-0_
 62
    7
 10
460.85472823845163
 20
322.62135038027156
 40
8
 41
1
 50
0
  1
・50mmピッチ
  0
TEXT
  8
_4-0_
 62
    7
 10
460.85472823845163
 20
265.64169159121445
 40
8
 41
1
 50
0
  1
・100mmピッチ
  0
TEXT
  8
_4-0_
 62
    7
 10
583.63668427522884
 20
319.68857581695568
 40
6
 41
1
 50
0
  1
※1
  0
LINE
  8
_4-0_
  6
CONTINUOUS
 62
    7
 10
546.51271103255488
 20
318.00317540820396
 11
535.39430318574557
 21
303.9853376893318
  0
TEXT
  8
_4-0_
 62
    7
 10
531.5627649398898
 20
319.80732644414672
 40
6
 41
1
 50
0
  1
マグネット
  0
LINE
  8
_4-0_
  6
CONTINUOUS
 62
    7
 10
646.73169556340918
 20
318.00317540820396
 11
635.61328771659987
 21
303.9853376893318
  0
TEXT
  8
_4-0_
 62
    7
 10
631.7817494707441
 20
319.80732644414672
 40
6
 41
1
 50
0
  1
マグネット
  0
LINE
  8
_4-0_
  6
CONTINUOUS
 62
    7
 10
672.81720944373149
 20
302.47115561265457
 11
478.87980677782627
 21
302.47115561265457
  0
LINE
  8
_4-0_
  6
CONTINUOUS
 62
    7
 10
474.87980677782627
 20
315.72823865652919
 11
474.87980677782627
 21
292.67115561265456
  0
LINE
  8
_4-0_
  6
CONTINUOUS
 62
    7
 10
478.87980677782627
 20
316.12823865652916
 11
478.87980677782627
 21
292.27115561265458
  0
LINE
  8
_4-0_
  6
CONTINUOUS
 62
    7
 10
478.86714781544424
 20
292.67115561265456
 11
474.87980677782627
 21
292.67115561265456
  0
LINE
  8
_4-0_
  6
CONTINUOUS
 62
    7
 10
478.8166914112652
 20
294.17115561265456
 11
474.9315482894757
 21
294.17115561265456
  0
LINE
  8
_4-0_
  6
CONTINUOUS
 62
    7
 10
478.96806062380244
 20
315.72823865652919
 11
474.87980677782627
 21
315.72823865652919
  0
LINE
  8
_4-0_
  6
CONTINUOUS
 62
    7
 10
478.86714781544424
 20
314.22823865652919
 11
474.88109188529666
 21
314.22823865652919
  0
LINE
  8
_4-0_
  6
CONTINUOUS
 62
    7
 10
675.14860735293007
 20
316.12823865652916
 11
478.87980677782627
 21
316.12823865652916
  0
LINE
  8
_4-0_
  6
CONTINUOUS
 62
    7
 10
696.28010356212246
 20
316.12823865652916
 11
678.38436770996259
 21
316.12823865652916
  0
LINE
  8
_4-0_
  6
CONTINUOUS
 62
    7
 10
676.07311031208224
 20
314.62823865652916
 11
479.01851702798149
 21
314.62823865652916
  0
LINE
  8
_4-0_
  6
CONTINUOUS
 62
    7
 10
696.3461394877761
 20
314.62823865652916
 11
679.11076289215362
 21
314.62823865652916
  0
LINE
  8
_4-0_
  6
CONTINUOUS
 62
    7
 10
672.50717032678097
 20
293.77115561265458
 11
479.01851702798149
 21
293.77115561265458
  0
LINE
  8
_4-0_
  6
CONTINUOUS
 62
    7
 10
696.08199578516121
 20
293.77115561265458
 11
675.47878698119871
 21
293.77115561265458
  0
LINE
  8
_4-0_
  6
CONTINUOUS
 62
    7
 10
673.36563736027938
 20
292.27115561265458
 11
478.87980677782627
 21
292.27115561265458
  0
LINE
  8
_4-0_
  6
CONTINUOUS
 62
    7
 10
696.14803171081496
 20
292.27115561265458
 11
676.73346956861951
 21
292.27115561265458
  0
LINE
  8
_4-0_
  6
CONTINUOUS
 62
    4
 10
538.87980677782627
 20
280.53172324333184
 11
544.67536173556073
 21
282.08463751394697
  0
LINE
  8
_4-0_
  6
CONTINUOUS
 62
    4
 10
538.87980677782627
 20
280.53172324333184
 11
544.67536173556073
 21
278.97880897271671
  0
LINE
  8
_4-0_
  6
CONTINUOUS
 62
    4
 10
538.87980677782627
 20
279.53172324333184
 11
538.87980677782627
 21
290.82688166269816
  0
LINE
  8
_4-0_
  6
CONTINUOUS
 62
    4
 10
638.87980677782627
 20
280.53172324333184
 11
633.08425182009182
 21
278.97880897271671
  0
LINE
  8
_4-0_
  6
CONTINUOUS
 62
    4
 10
638.87980677782627
 20
280.53172324333184
 11
633.08425182009182
 21
282.08463751394697
  0
LINE
  8
_4-0_
  6
CONTINUOUS
 62
    4
 10
638.87980677782627
 20
279.53172324333184
 11
638.87980677782627
 21
290.60783573888187
  0
TEXT
  8
_4-0_
 62
    7
 10
581.62594207501115
 20
281.93806570066164
 40
8
 41
1
 50
0
  1
50
  0
LINE
  8
_4-0_
  6
CONTINUOUS
 62
    4
 10
538.87980677782627
 20
280.53172324333184
 11
639.37170164087706
 21
280.53172324333184
  0
TEXT
  8
_4-0_
 62
    7
 10
447.90492403766842
 20
343.80626975936764
 40
10
 41
1
 50
0
  1
オプション品：マグネット
  0
LINE
  8
_4-0_
  6
CONTINUOUS
 62
    7
 10
735.32764152216066
 20
341.48394214164472
 11
735.32764152216066
 21
336.87425191709076
  0
LINE
  8
_4-0_
  6
CONTINUOUS
 62
    7
 10
755.61342220309393
 20
336.87425191709008
 11
760.22311242764806
 21
341.48394214164426
  0
LINE
  8
_4-0_
  6
CONTINUOUS
 62
    7
 10
752.02131975466591
 20
336.87425191709031
 11
756.63100997922004
 21
341.48394214164449
  0
LINE
  8
_4-0_
  6
CONTINUOUS
 62
    7
 10
748.42921730623789
 20
336.87425191709059
 11
753.03890753079213
 21
341.48394214164477
  0
LINE
  8
_4-0_
  6
CONTINUOUS
 62
    7
 10
744.83711485780998
 20
336.87425191709087
 11
749.44680508236411
 21
341.48394214164512
  0
LINE
  8
_4-0_
  6
CONTINUOUS
 62
    7
 10
741.24501240938196
 20
336.87425191709116
 11
745.85470263393609
 21
341.48394214164534
  0
LINE
  8
_4-0_
  6
CONTINUOUS
 62
    7
 10
737.65290996095257
 20
336.87425191709008
 11
742.26260018550818
 21
341.48394214164563
  0
LINE
  8
_4-0_
  6
CONTINUOUS
 62
    7
 10
735.32764152216089
 20
338.1410859267267
 11
738.67049773707879
 21
341.48394214164455
  0
LINE
  8
_4-0_
  6
CONTINUOUS
 62
    7
 10
735.32764152216066
 20
341.48394214164472
 11
775.32764152216066
 21
341.48394214164472
  0
LINE
  8
_4-0_
  6
CONTINUOUS
 62
    7
 10
775.32764152216066
 20
336.87425191709076
 11
735.32764152216066
 21
336.87425191709076
  0
LINE
  8
_4-0_
  6
CONTINUOUS
 62
    7
 10
759.20552465151957
 20
336.87425191708968
 11
763.59028369512112
 21
341.25901096069123
  0
LINE
  8
_4-0_
  6
CONTINUOUS
 62
    7
 10
770.2933989738425
 20
336.87425191709059
 11
774.90308919839674
 21
341.48394214164477
  0
LINE
  8
_4-0_
  6
CONTINUOUS
 62
    7
 10
766.70129652541459
 20
336.87425191709087
 11
771.31098674996872
 21
341.48394214164512
  0
LINE
  8
_4-0_
  6
CONTINUOUS
 62
    7
 10
763.10919407698657
 20
336.87425191709116
 11
767.7188843015407
 21
341.48394214164534
  0
LINE
  8
_4-0_
  6
CONTINUOUS
 62
    7
 10
775.32764152216066
 20
341.48394214164472
 11
775.32764152216066
 21
336.87425191709076
  0
LINE
  8
_4-0_
  6
CONTINUOUS
 62
    7
 10
773.88550142227052
 20
336.87425191709031
 11
775.26856279239018
 21
338.25731328720997
  0
LINE
  8
_4-0_
  6
CONTINUOUS
 62
    4
 10
735.32764152216066
 20
324.86130016364342
 11
775.32764152216066
 21
324.86130016364342
  0
LINE
  8
_4-0_
  6
CONTINUOUS
 62
    4
 10
735.32764152216066
 20
324.86130016364342
 11
741.12319647989511
 21
326.41421443425855
  0
LINE
  8
_4-0_
  6
CONTINUOUS
 62
    4
 10
735.32764152216066
 20
324.86130016364342
 11
741.12319647989511
 21
323.30838589302829
  0
LINE
  8
_4-0_
  6
CONTINUOUS
 62
    4
 10
775.32764152216066
 20
324.86130016364342
 11
769.53208656442621
 21
323.30838589302829
  0
LINE
  8
_4-0_
  6
CONTINUOUS
 62
    4
 10
775.32764152216066
 20
324.86130016364342
 11
769.53208656442621
 21
326.41421443425855
  0
LINE
  8
_4-0_
  6
CONTINUOUS
 62
    4
 10
735.32764152216066
 20
323.86130016364342
 11
735.32764152216066
 21
334.60921757197383
  0
LINE
  8
_4-0_
  6
CONTINUOUS
 62
    4
 10
775.32764152216066
 20
323.86130016364342
 11
775.32764152216066
 21
334.60921757197383
  0
TEXT
  8
_4-0_
 62
    7
 10
751.07764152216066
 20
325.86130016364342
 40
8
 41
1
 50
0
  1
20
  0
TEXT
  8
_4-0_
 62
    7
 10
718.65958083855287
 20
327.55330829785055
 40
8
 41
1
 50
90
  1
Φ2.3
  0
LINE
  8
_4-0_
  6
CONTINUOUS
 62
    4
 10
801.1765506943832
 20
275.11423538677025
 11
801.1765506943832
 21
288.92027771481258
  0
LINE
  8
_4-0_
  6
CONTINUOUS
 62
    4
 10
736.24931259914513
 20
275.11423538677025
 11
736.24931259914513
 21
288.92027771481258
  0
LINE
  8
_4-0_
  6
CONTINUOUS
 62
    4
 10
801.1765506943832
 20
276.38423538677023
 11
793.81619589806041
 21
278.35643651045143
  0
LINE
  8
_4-0_
  6
CONTINUOUS
 62
    4
 10
801.1765506943832
 20
276.38423538677023
 11
793.81619589806041
 21
274.41203426308903
  0
LINE
  8
_4-0_
  6
CONTINUOUS
 62
    4
 10
736.24931259914513
 20
276.38423538677023
 11
743.60966739546768
 21
274.41203426308903
  0
LINE
  8
_4-0_
  6
CONTINUOUS
 62
    4
 10
736.24931259914513
 20
276.38423538677023
 11
743.60966739546768
 21
278.35643651045143
  0
LINE
  8
_4-0_
  6
CONTINUOUS
 62
    4
 10
736.24931259914513
 20
276.38423538677023
 11
801.1765506943832
 21
276.38423538677023
  0
LINE
  8
_4-0_
  6
CONTINUOUS
 62
    7
 10
770.48099754356542
 20
293.37066234968404
 11
801.1765506943832
 21
293.37066234968404
  0
LINE
  8
_4-0_
  6
CONTINUOUS
 62
    7
 10
736.24931259914513
 20
293.37066234968404
 11
767.51898814797573
 21
293.37066234968404
  0
LINE
  8
_4-0_
  6
CONTINUOUS
 62
    7
 10
770.32602372999304
 20
297.94266234968404
 11
801.1765506943832
 21
297.94266234968404
  0
LINE
  8
_4-0_
  6
CONTINUOUS
 62
    7
 10
736.24931259914513
 20
297.94266234968404
 11
767.40059530928647
 21
297.94266234968404
  0
ARC
  8
_4-0_
  6
CONTINUOUS
 62
    7
 10
771.62369318801166
 20
295.79086263331516
 40
4.7397043908516867
 50
152.9997428828153
 51
209.99998474121088
  0
LINE
  8
_4-0_
  6
CONTINUOUS
 62
    7
 10
770.32602372999304
 20
297.94266234968404
 11
769.71869060668416
 21
296.89073376724468
  0
LINE
  8
_4-0_
  6
CONTINUOUS
 62
    7
 10
769.71869060668416
 20
294.69101372124913
 11
770.48099754356542
 21
293.37066234968404
  0
LINE
  8
_4-0_
  6
CONTINUOUS
 62
    7
 10
767.51898167162028
 20
293.4210120003641
 11
767.51898349396026
 21
293.42100884401248
  0
ARC
  8
_4-0_
  6
CONTINUOUS
 62
    7
 10
771.62369318801166
 20
295.79086263331516
 40
2.1997045948560632
 50
150
 51
209.99998474121094
  0
LINE
  8
_4-0_
  6
CONTINUOUS
 62
    7
 10
801.1765506943832
 20
297.94266234968404
 11
801.1765506943832
 21
293.37066234968404
  0
LINE
  8
_4-0_
  6
CONTINUOUS
 62
    7
 10
736.24931259914513
 20
297.94266234968404
 11
736.24931259914513
 21
293.37066234968404
  0
TEXT
  8
_4-0_
 62
    7
 10
718.01365702224803
 20
284.2385382839405
 40
8
 41
1
 50
90
  1
Φ2.1
  0
TEXT
  8
_4-0_
 62
    7
 10
740.60244284928513
 20
280.92197827034192
 40
6
 41
1
 50
0
  1
ピッチにより変動
  0
LINE
  8
_4-0_
  6
CONTINUOUS
 62
    4
 10
722.69926125679729
 20
341.48394214164472
 11
722.69926125679729
 21
336.87425191709076
  0
LINE
  8
_4-0_
  6
CONTINUOUS
 62
    4
 10
722.69926125679729
 20
341.48394214164472
 11
720.72706013311608
 21
348.84429693796739
  0
LINE
  8
_4-0_
  6
CONTINUOUS
 62
    4
 10
722.69926125679729
 20
341.48394214164472
 11
724.6714623804786
 21
348.84429693796739
  0
LINE
  8
_4-0_
  6
CONTINUOUS
 62
    4
 10
722.69926125679729
 20
336.87425191709076
 11
724.6714623804786
 21
329.51389712076809
  0
LINE
  8
_4-0_
  6
CONTINUOUS
 62
    4
 10
722.69926125679729
 20
336.87425191709076
 11
720.72706013311608
 21
329.51389712076809
  0
LINE
  8
_4-0_
  6
CONTINUOUS
 62
    4
 10
721.4292612567973
 20
341.48394214164472
 11
731.21430887584506
 21
341.48394214164472
  0
LINE
  8
_4-0_
  6
CONTINUOUS
 62
    4
 10
721.4292612567973
 20
336.87425191709076
 11
731.21430887584506
 21
336.87425191709076
  0
LINE
  8
_4-0_
  6
CONTINUOUS
 62
    4
 10
722.69926125679729
 20
336.87425191709076
 11
722.69926125679729
 21
325.47844492216075
  0
LINE
  8
_4-0_
  6
CONTINUOUS
 62
    4
 10
722.69926125679729
 20
293.37066234968404
 11
722.69926125679729
 21
281.64349114320424
  0
LINE
  8
_4-0_
  6
CONTINUOUS
 62
    4
 10
722.69926125679729
 20
297.94266234968404
 11
722.69926125679729
 21
310.08667160409198
  0
LINE
  8
_4-0_
  6
CONTINUOUS
 62
    4
 10
722.69926125679729
 20
297.94266234968404
 11
720.72706013311608
 21
305.30301714600677
  0
LINE
  8
_4-0_
  6
CONTINUOUS
 62
    4
 10
722.69926125679729
 20
297.94266234968404
 11
724.6714623804786
 21
305.30301714600677
  0
LINE
  8
_4-0_
  6
CONTINUOUS
 62
    4
 10
721.4292612567973
 20
297.94266234968404
 11
731.21430887584506
 21
297.94266234968404
  0
LINE
  8
_4-0_
  6
CONTINUOUS
 62
    4
 10
721.4292612567973
 20
293.37066234968404
 11
731.21430887584506
 21
293.37066234968404
  0
LINE
  8
_4-0_
  6
CONTINUOUS
 62
    4
 10
722.69926125679729
 20
297.94266234968404
 11
722.69926125679729
 21
293.37066234968404
  0
LINE
  8
_4-0_
  6
CONTINUOUS
 62
    4
 10
722.69926125679729
 20
293.37066234968404
 11
720.72706013311608
 21
286.01030755336137
  0
LINE
  8
_4-0_
  6
CONTINUOUS
 62
    4
 10
722.69926125679729
 20
293.37066234968404
 11
724.6714623804786
 21
286.01030755336137
  0
TEXT
  8
_4-0_
 62
    7
 10
737.55955744124697
 20
305.77220910265402
 40
6
 41
1
 50
0
  1
※1 マグネットスペーサー
  0
LINE
  8
_4-0_
  6
CONTINUOUS
 62
    7
 10
121.79294499644732
 20
311.05156350465768
 11
115.93121922151255
 21
290.4344590548871
  0
CIRCLE
  8
_4-0_
  6
CONTINUOUS
 62
    7
 10
100.71417674989056
 20
288.0001178555076
 40
2.5
  0
LINE
  8
_4-0_
  6
__19
 62
    7
 10
100.71417674989056
 20
284.80201785550759
 11
100.71417674989056
 21
291.3066278555076
  0
CIRCLE
  8
_4-0_
  6
CONTINUOUS
 62
    7
 10
128.71417674989056
 20
288.0001178555076
 40
2.5
  0
LINE
  8
_4-0_
  6
__19
 62
    7
 10
128.71417674989056
 20
284.80201785550759
 11
128.71417674989056
 21
291.3066278555076
  0
CIRCLE
  8
_4-0_
  6
CONTINUOUS
 62
    7
 10
114.71417674989056
 20
288.0001178555076
 40
4.5
  0
LINE
  8
_4-0_
  6
CONTINUOUS
 62
    7
 10
94.714176749890555
 20
276.40011785550763
 11
134.71417674989056
 21
276.40011785550763
  0
LINE
  8
_4-0_
  6
CONTINUOUS
 62
    7
 10
94.714176749890555
 20
299.60011785550762
 11
134.71417674989056
 21
299.60011785550762
  0
LINE
  8
_4-0_
  6
CONTINUOUS
 62
    7
 10
94.714176749890555
 20
277.0001178555076
 11
134.71417674989056
 21
277.0001178555076
  0
LINE
  8
_4-0_
  6
CONTINUOUS
 62
    7
 10
134.71417674989056
 20
299.0001178555076
 11
94.714176749890555
 21
299.0001178555076
  0
LINE
  8
_4-0_
  6
CONTINUOUS
 62
    7
 10
94.714176749890555
 20
299.60011785550762
 11
94.714176749890555
 21
276.40011785550763
  0
LINE
  8
_4-0_
  6
CONTINUOUS
 62
    7
 10
134.71417674989056
 20
299.60011785550762
 11
134.71417674989056
 21
276.40011785550763
  0
LINE
  8
_4-0_
  6
CONTINUOUS
 62
    7
 10
101.71417674989056
 20
277.0001178555076
 11
101.71417674989056
 21
278.5001178555076
  0
LINE
  8
_4-0_
  6
CONTINUOUS
 62
    7
 10
101.71417674989056
 20
278.5001178555076
 11
107.71417674989056
 21
278.5001178555076
  0
LINE
  8
_4-0_
  6
CONTINUOUS
 62
    7
 10
107.71417674989056
 20
278.5001178555076
 11
107.71417674989056
 21
277.0001178555076
  0
LINE
  8
_4-0_
  6
CONTINUOUS
 62
    7
 10
121.71417674989056
 20
277.0001178555076
 11
121.71417674989056
 21
278.5001178555076
  0
LINE
  8
_4-0_
  6
CONTINUOUS
 62
    7
 10
121.71417674989056
 20
278.5001178555076
 11
127.71417674989056
 21
278.5001178555076
  0
LINE
  8
_4-0_
  6
CONTINUOUS
 62
    7
 10
127.71417674989056
 20
278.5001178555076
 11
127.71417674989056
 21
277.0001178555076
  0
LINE
  8
_4-0_
  6
CONTINUOUS
 62
    7
 10
101.71417674989056
 20
299.0001178555076
 11
101.71417674989056
 21
297.5001178555076
  0
LINE
  8
_4-0_
  6
CONTINUOUS
 62
    7
 10
101.71417674989056
 20
297.5001178555076
 11
107.71417674989056
 21
297.5001178555076
  0
LINE
  8
_4-0_
  6
CONTINUOUS
 62
    7
 10
107.71417674989056
 20
297.5001178555076
 11
107.71417674989056
 21
299.0001178555076
  0
LINE
  8
_4-0_
  6
CONTINUOUS
 62
    7
 10
121.71417674989056
 20
299.0001178555076
 11
121.71417674989056
 21
297.5001178555076
  0
LINE
  8
_4-0_
  6
CONTINUOUS
 62
    7
 10
121.71417674989056
 20
297.5001178555076
 11
127.71417674989056
 21
297.5001178555076
  0
LINE
  8
_4-0_
  6
CONTINUOUS
 62
    7
 10
127.71417674989056
 20
297.5001178555076
 11
127.71417674989056
 21
299.0001178555076
  0
LINE
  8
_4-0_
  6
CONTINUOUS
 62
    4
 10
94.714176749890555
 20
260.49100785550763
 11
134.71417674989056
 21
260.49100785550763
  0
LINE
  8
_4-0_
  6
CONTINUOUS
 62
    4
 10
94.714176749890555
 20
256.49100785550763
 11
94.714176749890555
 21
272.40011785550763
  0
LINE
  8
_4-0_
  6
CONTINUOUS
 62
    4
 10
134.71417674989056
 20
256.49100785550763
 11
134.71417674989056
 21
272.40011785550763
  0
LINE
  8
_4-0_
  6
CONTINUOUS
 62
    4
 10
94.714176749890555
 20
260.49100785550763
 11
97.611954749890572
 21
261.26746585550762
  0
LINE
  8
_4-0_
  6
CONTINUOUS
 62
    4
 10
94.714176749890555
 20
260.49100785550763
 11
97.611954749890572
 21
259.71455185550764
  0
LINE
  8
_4-0_
  6
CONTINUOUS
 62
    4
 10
134.71417674989056
 20
260.49100785550763
 11
131.81639874989054
 21
259.71455185550764
  0
LINE
  8
_4-0_
  6
CONTINUOUS
 62
    4
 10
134.71417674989056
 20
260.49100785550763
 11
131.81639874989054
 21
261.26746585550762
  0
LINE
  8
_4-0_
  6
__19
 62
    7
 10
136.61003344141875
 20
288.0001178555076
 11
136.94352674989062
 21
288.0001178555076
  0
TEXT
  8
_4-0_
 62
    7
 10
110.71417674989056
 20
261.87730382166507
 40
8
 41
1
 50
0
  1
20
  0
LINE
  8
_4-0_
  6
CONTINUOUS
 62
    7
 10
97.714176749890555
 20
235.71592585550763
 11
131.71417674989056
 21
235.71592585550763
  0
ARC
  8
_4-0_
  6
CONTINUOUS
 62
    7
 10
131.71417674989056
 20
232.71592585550763
 40
3
 50
0
 51
90
  0
ARC
  8
_4-0_
  6
CONTINUOUS
 62
    7
 10
97.714176749890555
 20
232.71592585550763
 40
3
 50
90
 51
180
  0
ARC
  8
_4-0_
  6
CONTINUOUS
 62
    7
 10
128.71417674989056
 20
229.51592585550762
 40
1
 50
0
 51
90
  0
ARC
  8
_4-0_
  6
CONTINUOUS
 62
    7
 10
128.71417674989056
 20
229.51592585550762
 40
1
 50
90
 51
180
  0
LINE
  8
_4-0_
  6
__18
 62
    7
 10
128.71417674989056
 20
229.51592585550762
 11
128.71417674989056
 21
230.51592585550762
  0
ARC
  8
_4-0_
  6
CONTINUOUS
 62
    7
 10
120.71417674989056
 20
229.51592585550762
 40
1
 50
0
 51
90
  0
ARC
  8
_4-0_
  6
CONTINUOUS
 62
    7
 10
120.71417674989056
 20
229.51592585550762
 40
1
 50
90
 51
180
  0
LINE
  8
_4-0_
  6
__18
 62
    7
 10
120.71417674989056
 20
229.51592585550762
 11
120.71417674989056
 21
230.51592585550762
  0
LINE
  8
_4-0_
  6
CONTINUOUS
 62
    7
 10
127.71417674989056
 20
228.31592585550763
 11
127.71417674989056
 21
229.51592585550762
  0
ARC
  8
_4-0_
  6
CONTINUOUS
 62
    7
 10
126.71417674989056
 20
228.31592585550763
 40
1
 50
270
 51
0
  0
LINE
  8
_4-0_
  6
CONTINUOUS
 62
    7
 10
121.71417674989056
 20
228.31592585550763
 11
121.71417674989056
 21
229.51592585550762
  0
ARC
  8
_4-0_
  6
CONTINUOUS
 62
    7
 10
122.71417674989056
 20
228.31592585550763
 40
1
 50
180
 51
270
  0
LINE
  8
_4-0_
  6
CONTINUOUS
 62
    7
 10
122.71417674989056
 20
227.31592585550763
 11
126.71417674989056
 21
227.31592585550763
  0
ARC
  8
_4-0_
  6
CONTINUOUS
 62
    7
 10
127.71417674989056
 20
227.21592585550763
 40
2
 50
270
 51
0
  0
LINE
  8
_4-0_
  6
CONTINUOUS
 62
    7
 10
129.71417674989056
 20
227.21592585550763
 11
129.71417674989056
 21
229.51592585550762
  0
LINE
  8
_4-0_
  6
CONTINUOUS
 62
    7
 10
119.71417674989056
 20
227.21592585550763
 11
119.71417674989056
 21
229.51592585550762
  0
ARC
  8
_4-0_
  6
CONTINUOUS
 62
    7
 10
121.71417674989056
 20
227.21592585550763
 40
2
 50
180
 51
270
  0
LINE
  8
_4-0_
  6
CONTINUOUS
 62
    7
 10
121.71417674989056
 20
225.21592585550763
 11
127.71417674989056
 21
225.21592585550763
  0
ARC
  8
_4-0_
  6
CONTINUOUS
 62
    7
 10
100.71417674989056
 20
229.51592585550762
 40
1
 50
90
 51
180
  0
ARC
  8
_4-0_
  6
CONTINUOUS
 62
    7
 10
100.71417674989056
 20
229.51592585550762
 40
1
 50
0
 51
90
  0
LINE
  8
_4-0_
  6
__18
 62
    7
 10
100.71417674989056
 20
229.51592585550762
 11
100.71417674989056
 21
230.51592585550762
  0
ARC
  8
_4-0_
  6
CONTINUOUS
 62
    7
 10
108.71417674989056
 20
229.51592585550762
 40
1
 50
90
 51
180
  0
ARC
  8
_4-0_
  6
CONTINUOUS
 62
    7
 10
108.71417674989056
 20
229.51592585550762
 40
1
 50
0
 51
90
  0
LINE
  8
_4-0_
  6
__18
 62
    7
 10
108.71417674989056
 20
229.51592585550762
 11
108.71417674989056
 21
230.51592585550762
  0
LINE
  8
_4-0_
  6
CONTINUOUS
 62
    7
 10
101.71417674989056
 20
228.31592585550763
 11
101.71417674989056
 21
229.51592585550762
  0
ARC
  8
_4-0_
  6
CONTINUOUS
 62
    7
 10
102.71417674989056
 20
228.31592585550763
 40
1
 50
180
 51
270
  0
LINE
  8
_4-0_
  6
CONTINUOUS
 62
    7
 10
107.71417674989056
 20
228.31592585550763
 11
107.71417674989056
 21
229.51592585550762
  0
ARC
  8
_4-0_
  6
CONTINUOUS
 62
    7
 10
106.71417674989056
 20
228.31592585550763
 40
1
 50
270
 51
0
  0
LINE
  8
_4-0_
  6
CONTINUOUS
 62
    7
 10
106.71417674989056
 20
227.31592585550763
 11
102.71417674989056
 21
227.31592585550763
  0
ARC
  8
_4-0_
  6
CONTINUOUS
 62
    7
 10
101.71417674989056
 20
227.21592585550763
 40
2
 50
180
 51
270
  0
LINE
  8
_4-0_
  6
CONTINUOUS
 62
    7
 10
99.714176749890555
 20
227.21592585550763
 11
99.714176749890555
 21
229.51592585550762
  0
LINE
  8
_4-0_
  6
CONTINUOUS
 62
    7
 10
109.71417674989056
 20
227.21592585550763
 11
109.71417674989056
 21
229.51592585550762
  0
ARC
  8
_4-0_
  6
CONTINUOUS
 62
    7
 10
107.71417674989056
 20
227.21592585550763
 40
2
 50
270
 51
0
  0
LINE
  8
_4-0_
  6
CONTINUOUS
 62
    7
 10
107.71417674989056
 20
225.21592585550763
 11
101.71417674989056
 21
225.21592585550763
  0
LINE
  8
_4-0_
  6
CONTINUOUS
 62
    7
 10
94.714176749890555
 20
218.71592585550763
 11
134.71417674989056
 21
218.71592585550763
  0
LINE
  8
_4-0_
  6
CONTINUOUS
 62
    7
 10
94.714176749890555
 20
218.71592585550763
 11
94.714176749890555
 21
232.71592585550763
  0
LINE
  8
_4-0_
  6
CONTINUOUS
 62
    7
 10
134.71417674989056
 20
218.71592585550763
 11
134.71417674989056
 21
232.71592585550763
  0
LINE
  8
_4-0_
  6
CENTER1
 62
    2
 10
90.895526352740717
 20
288.0001178555076
 11
139.37568715275597
 21
288.0001178555076
  0
LINE
  8
_4-0_
  6
CENTER1
 62
    2
 10
114.71417674989056
 20
271.13270287351139
 11
114.71417674989056
 21
303.39931207593315
  0
LINE
  8
_4-0_
  6
CENTER1
 62
    2
 10
114.71417674989056
 20
213.00199030707836
 11
114.71417674989056
 21
242.82080852228009
  0
LINE
  8
_4-0_
  6
CONTINUOUS
 62
    4
 10
85.497176790849494
 20
299.60011785550762
 11
85.497176790849494
 21
277.0001178555076
  0
LINE
  8
_4-0_
  6
CONTINUOUS
 62
    4
 10
85.497176790849494
 20
299.60011785550762
 11
86.273634790849542
 21
296.7023398555076
  0
LINE
  8
_4-0_
  6
CONTINUOUS
 62
    4
 10
85.497176790849494
 20
299.60011785550762
 11
84.720718790849446
 21
296.7023398555076
  0
LINE
  8
_4-0_
  6
CONTINUOUS
 62
    4
 10
85.497176790849494
 20
277.0001178555076
 11
84.720718790849446
 21
279.89789585550761
  0
LINE
  8
_4-0_
  6
CONTINUOUS
 62
    4
 10
85.497176790849494
 20
277.0001178555076
 11
86.273634790849542
 21
279.89789585550761
  0
TEXT
  8
_4-0_
 62
    7
 10
85.497176790849494
 20
280.30011785550761
 40
8
 41
1
 50
90
  1
11.3
  0
LINE
  8
_4-0_
  6
CONTINUOUS
 62
    4
 10
81.497176790849494
 20
299.60011785550762
 11
90.350441674728586
 21
299.60011785550762
  0
LINE
  8
_4-0_
  6
CONTINUOUS
 62
    4
 10
81.497176790849494
 20
277.0001178555076
 11
90.222178338366007
 21
277.0001178555076
  0
TEXT
  8
_4-0_
 62
    7
 10
76.507237764898946
 20
312.78905672542749
 40
8
 41
1
 50
0
  1
φ4.5 金具固定ネジ用穴
  0
LINE
  8
_4-0_
  6
CONTINUOUS
 62
    4
 10
158.94616904539521
 20
260.49100785550763
 11
175.94616904539521
 21
260.49100785550763
  0
LINE
  8
_4-0_
  6
__18
 62
    7
 10
175.94616904539521
 20
297.10011785550762
 11
175.94616904539521
 21
278.90011785550763
  0
LINE
  8
_4-0_
  6
__18
 62
    7
 10
175.54616904539512
 20
296.07802385550764
 11
175.54616904539512
 21
279.92221185550761
  0
LINE
  8
_4-0_
  6
CONTINUOUS
 62
    7
 10
166.81864104539522
 20
297.5001178555076
 11
164.71864104539509
 21
299.60011785550762
  0
LINE
  8
_4-0_
  6
CONTINUOUS
 62
    7
 10
167.24290504539522
 20
297.92438185550759
 11
165.56716904539508
 21
299.60011785550762
  0
LINE
  8
_4-0_
  6
CONTINUOUS
 62
    7
 10
166.81864104539522
 20
297.5001178555076
 11
167.24290504539522
 21
297.92438185550759
  0
LINE
  8
_4-0_
  6
CONTINUOUS
 62
    7
 10
166.81864104539522
 20
278.5001178555076
 11
167.24290504539522
 21
278.0758538555076
  0
LINE
  8
_4-0_
  6
CONTINUOUS
 62
    7
 10
166.81864104539522
 20
278.5001178555076
 11
164.71864104539509
 21
276.40011785550763
  0
LINE
  8
_4-0_
  6
CONTINUOUS
 62
    7
 10
167.24290504539522
 20
278.0758538555076
 11
165.56716904539508
 21
276.40011785550763
  0
LINE
  8
_4-0_
  6
CONTINUOUS
 62
    7
 10
176.01017304539505
 20
277.4440318555076
 11
175.54616904539512
 21
288.0001178555076
  0
ARC
  8
_4-0_
  6
CONTINUOUS
 62
    7
 10
175.01113704539512
 20
277.40011785550763
 40
1
 50
270
 51
2.5168759999999968
  0
LINE
  8
_4-0_
  6
CONTINUOUS
 62
    7
 10
176.01017304539505
 20
298.55620385550759
 11
175.54616904539512
 21
288.0001178555076
  0
ARC
  8
_4-0_
  6
CONTINUOUS
 62
    7
 10
175.01113704539512
 20
298.60011785550762
 40
1
 50
357.48312399999998
 51
90
  0
LINE
  8
_4-0_
  6
CONTINUOUS
 62
    7
 10
175.41075304539504
 20
298.58255185550763
 11
174.94674904539511
 21
288.02646585550764
  0
ARC
  8
_4-0_
  6
CONTINUOUS
 62
    7
 10
175.01113704539512
 20
298.60011785550762
 40
0.4
 50
357.48312399999998
 51
90
  0
LINE
  8
_4-0_
  6
CONTINUOUS
 62
    7
 10
175.41075304539504
 20
277.41768385550762
 11
174.94674904539511
 21
287.97376985550761
  0
ARC
  8
_4-0_
  6
CONTINUOUS
 62
    7
 10
175.01113704539512
 20
277.40011785550763
 40
0.4
 50
270
 51
2.5168759999999968
  0
LINE
  8
_4-0_
  6
CONTINUOUS
 62
    7
 10
175.01113704539512
 20
276.40011785550763
 11
158.94616904539521
 21
276.40011785550763
  0
LINE
  8
_4-0_
  6
CONTINUOUS
 62
    7
 10
158.94616904539521
 20
277.0001178555076
 11
158.94616904539521
 21
276.40011785550763
  0
LINE
  8
_4-0_
  6
CONTINUOUS
 62
    7
 10
175.01113704539512
 20
277.0001178555076
 11
158.94616904539521
 21
277.0001178555076
  0
LINE
  8
_4-0_
  6
CONTINUOUS
 62
    7
 10
175.01113704539512
 20
299.0001178555076
 11
158.94616904539521
 21
299.0001178555076
  0
LINE
  8
_4-0_
  6
CONTINUOUS
 62
    7
 10
158.94616904539521
 20
299.0001178555076
 11
158.94616904539521
 21
299.60011785550762
  0
LINE
  8
_4-0_
  6
CONTINUOUS
 62
    7
 10
175.01113704539512
 20
299.60011785550762
 11
158.94616904539521
 21
299.60011785550762
  0
LINE
  8
_4-0_
  6
CONTINUOUS
 62
    4
 10
158.94616904539521
 20
256.49100785550763
 11
158.94616904539521
 21
272.40011785550763
  0
LINE
  8
_4-0_
  6
CONTINUOUS
 62
    4
 10
175.94616904539521
 20
256.49100785550763
 11
175.94616904539521
 21
275.33532785550761
  0
LINE
  8
_4-0_
  6
CONTINUOUS
 62
    4
 10
158.94616904539521
 20
260.49100785550763
 11
161.84394704539523
 21
261.26746585550762
  0
LINE
  8
_4-0_
  6
CONTINUOUS
 62
    4
 10
158.94616904539521
 20
260.49100785550763
 11
161.84394704539523
 21
259.71455185550764
  0
LINE
  8
_4-0_
  6
CONTINUOUS
 62
    4
 10
175.94616904539521
 20
260.49100785550763
 11
173.04839304539519
 21
259.71455185550764
  0
LINE
  8
_4-0_
  6
CONTINUOUS
 62
    4
 10
175.94616904539521
 20
260.49100785550763
 11
173.04839304539519
 21
261.26746585550762
  0
TEXT
  8
_4-0_
 62
    7
 10
161.44616904539521
 20
262.52786868245784
 40
8
 41
1
 50
0
  1
8.5
  0
LINE
  8
_4-0_
  6
CENTER1
 62
    2
 10
149.09959215286824
 20
288.0001178555076
 11
183.67507839563456
 21
288.0001178555076
  0
LINE
  8
_4-0_
  6
CONTINUOUS
 62
    7
 10
246.26917111859137
 20
269.82331494103454
 11
246.69343511859137
 21
269.39905094103455
  0
LINE
  8
_4-0_
  6
CONTINUOUS
 62
    7
 10
227.26917111859126
 20
269.82331494103454
 11
226.84490711859127
 21
269.39905094103455
  0
LINE
  8
_4-0_
  6
CONTINUOUS
 62
    7
 10
225.76917111859126
 20
277.69578594103456
 11
225.16917111859135
 21
277.69578594103456
  0
LINE
  8
_4-0_
  6
CONTINUOUS
 62
    7
 10
247.76917111859137
 20
277.69578594103456
 11
248.3691711185914
 21
277.69578594103456
  0
LINE
  8
_4-0_
  6
CONTINUOUS
 62
    7
 10
227.26917111859126
 20
269.82331494103454
 11
225.76917111859126
 21
271.32331494103454
  0
LINE
  8
_4-0_
  6
CONTINUOUS
 62
    7
 10
226.84490711859127
 20
269.39905094103455
 11
225.76917111859126
 21
270.47478694103455
  0
LINE
  8
_4-0_
  6
CONTINUOUS
 62
    7
 10
246.26917111859137
 20
269.82331494103454
 11
247.76917111859137
 21
271.32331494103454
  0
LINE
  8
_4-0_
  6
CONTINUOUS
 62
    7
 10
246.69343511859137
 20
269.39905094103455
 11
247.76917111859137
 21
270.47478694103455
  0
ARC
  8
_4-0_
  6
CONTINUOUS
 62
    7
 10
229.21917111859131
 20
261.54578594103458
 40
0.45
 50
90
 51
270
  0
LINE
  8
_4-0_
  6
CONTINUOUS
 62
    7
 10
229.21917111859131
 20
261.99578594103457
 11
244.31917111859133
 21
261.99578594103457
  0
ARC
  8
_4-0_
  6
CONTINUOUS
 62
    7
 10
244.31917111859133
 20
261.54578594103458
 40
0.45
 50
270
 51
90
  0
ARC
  8
_4-0_
  6
CONTINUOUS
 62
    7
 10
236.76917111859137
 20
236.63555894103456
 40
26.460227
 50
73.421191000000007
 51
106.57880900000001
  0
LINE
  8
_4-0_
  6
CONTINUOUS
 62
    7
 10
225.76917111859126
 20
261.49578594103457
 11
225.76917111859126
 21
277.69578594103456
  0
ARC
  8
_4-0_
  6
CONTINUOUS
 62
    7
 10
226.16917111859135
 20
261.49578594103457
 40
0.4
 50
180
 51
270
  0
LINE
  8
_4-0_
  6
CONTINUOUS
 62
    7
 10
247.76917111859137
 20
261.49578594103457
 11
247.76917111859137
 21
277.69578594103456
  0
LINE
  8
_4-0_
  6
CONTINUOUS
 62
    7
 10
225.16917111859135
 20
261.69578594103456
 11
225.16917111859135
 21
277.69578594103456
  0
ARC
  8
_4-0_
  6
CONTINUOUS
 62
    7
 10
226.16917111859135
 20
261.69578594103456
 40
1
 50
180
 51
270
  0
LINE
  8
_4-0_
  6
CONTINUOUS
 62
    7
 10
248.3691711185914
 20
261.69578594103456
 11
248.3691711185914
 21
277.69578594103456
  0
ARC
  8
_4-0_
  6
CONTINUOUS
 62
    7
 10
247.3691711185914
 20
261.69578594103456
 40
1
 50
270
 51
0
  0
LINE
  8
_4-0_
  6
CONTINUOUS
 62
    7
 10
247.3691711185914
 20
260.69578594103456
 11
226.16917111859135
 21
260.69578594103456
  0
LINE
  8
_4-0_
  6
CONTINUOUS
 62
    7
 10
247.3691711185914
 20
261.09578594103453
 11
226.16917111859135
 21
261.09578594103453
  0
ARC
  8
_4-0_
  6
CONTINUOUS
 62
    7
 10
247.3691711185914
 20
261.49578594103457
 40
0.4
 50
270
 51
0
  0
LINE
  8
_4-0_
  6
CONTINUOUS
 62
    7
 10
240.76917111859137
 20
260.69578594103456
 11
240.76917111859137
 21
244.54393794103459
  0
LINE
  8
_4-0_
  6
CONTINUOUS
 62
    7
 10
232.76917111859126
 20
260.69578594103456
 11
232.76917111859126
 21
244.54393794103459
  0
LINE
  8
_4-0_
  6
CONTINUOUS
 62
    7
 10
236.76917111859137
 20
241.09578594103453
 11
232.76917111859126
 21
244.54393794103459
  0
LINE
  8
_4-0_
  6
CONTINUOUS
 62
    7
 10
236.76917111859137
 20
241.09578594103453
 11
240.76917111859137
 21
244.54393794103459
  0
LINE
  8
_4-0_
  6
CONTINUOUS
 62
    4
 10
225.16917111859135
 20
282.26435894103457
 11
248.3691711185914
 21
282.26435894103457
  0
LINE
  8
_4-0_
  6
CONTINUOUS
 62
    4
 10
225.16917111859135
 20
284.26435894103457
 11
225.16917111859135
 21
279.69578594103456
  0
LINE
  8
_4-0_
  6
CONTINUOUS
 62
    4
 10
248.3691711185914
 20
284.26435894103457
 11
248.3691711185914
 21
279.69578594103456
  0
LINE
  8
_4-0_
  6
CONTINUOUS
 62
    4
 10
214.56889311859123
 20
277.69578594103456
 11
214.56889311859123
 21
260.69578594103456
  0
LINE
  8
_4-0_
  6
CONTINUOUS
 62
    4
 10
212.56889311859123
 20
277.69578594103456
 11
223.76917111859126
 21
277.69578594103456
  0
LINE
  8
_4-0_
  6
CONTINUOUS
 62
    4
 10
212.56889311859123
 20
260.69578594103456
 11
224.16917111859135
 21
260.69578594103456
  0
TEXT
  8
_4-0_
 62
    7
 10
212.73404068572609
 20
263.82051189110803
 40
8
 41
1
 50
90
  1
8.5
  0
TEXT
  8
_4-0_
 62
    7
 10
229.17853932506134
 20
284.89854329622278
 40
8
 41
1
 50
0
  1
11.6
  0
LINE
  8
_4-0_
  6
CONTINUOUS
 62
    4
 10
214.53604479452252
 20
277.82343025267221
 11
215.31250279452257
 21
274.92565225267225
  0
LINE
  8
_4-0_
  6
CONTINUOUS
 62
    4
 10
214.53604479452252
 20
277.82343025267221
 11
213.75958679452248
 21
274.92565225267225
  0
LINE
  8
_4-0_
  6
CONTINUOUS
 62
    4
 10
214.60065331408106
 20
260.68116192269281
 11
213.82419531408101
 21
263.57893992269283
  0
LINE
  8
_4-0_
  6
CONTINUOUS
 62
    4
 10
214.60065331408106
 20
260.68116192269281
 11
215.37711131408111
 21
263.57893992269283
  0
LINE
  8
_4-0_
  6
CONTINUOUS
 62
    4
 10
225.06836385996476
 20
282.29330741589064
 11
227.96614185996478
 21
283.06976541589063
  0
LINE
  8
_4-0_
  6
CONTINUOUS
 62
    4
 10
225.06836385996476
 20
282.29330741589064
 11
227.96614185996478
 21
281.51685141589064
  0
LINE
  8
_4-0_
  6
CONTINUOUS
 62
    4
 10
248.41234927045417
 20
282.29330741589064
 11
245.51457127045416
 21
281.51685141589064
  0
LINE
  8
_4-0_
  6
CONTINUOUS
 62
    4
 10
248.41234927045417
 20
282.29330741589064
 11
245.51457127045416
 21
283.06976541589063
  0
ARC
  8
_4-0_
  6
CONTINUOUS
 62
    7
 10
226.8691711185914
 20
312.05121205269478
 40
0.5999999999999999
 50
180
 51
270.000001
  0
ARC
  8
_4-0_
  6
CONTINUOUS
 62
    7
 10
246.66917111859135
 20
312.05121205269478
 40
0.5999999999999999
 50
270.000001
 51
0
  0
LINE
  8
_4-0_
  6
CONTINUOUS
 62
    7
 10
227.06701411859132
 20
316.78172405269476
 11
226.41205411859124
 21
317.33131505269478
  0
LINE
  8
_4-0_
  6
CONTINUOUS
 62
    7
 10
226.32276611859135
 20
314.89270205269474
 11
227.06700611859134
 21
316.18172405269479
  0
LINE
  8
_4-0_
  6
CONTINUOUS
 62
    7
 10
227.06700611859134
 20
316.18939005269476
 11
227.06701411859132
 21
316.78939005269478
  0
LINE
  8
_4-0_
  6
CONTINUOUS
 62
    7
 10
226.26917111859126
 20
314.69269705269477
 11
226.26917111859126
 21
312.05121205269478
  0
ARC
  8
_4-0_
  6
CONTINUOUS
 62
    7
 10
226.66917311859135
 20
314.69269705269477
 40
0.4
 50
149.999236
 51
180
  0
LINE
  8
_4-0_
  6
CONTINUOUS
 62
    7
 10
246.47132611859132
 20
316.78172405269476
 11
247.12628611859139
 21
317.33131505269478
  0
LINE
  8
_4-0_
  6
CONTINUOUS
 62
    7
 10
247.26917111859137
 20
314.69269705269477
 11
247.26917111859137
 21
312.05121205269478
  0
ARC
  8
_4-0_
  6
CONTINUOUS
 62
    7
 10
246.86916711859129
 20
314.69269705269477
 40
0.4
 50
0
 51
30.000764000000004
  0
LINE
  8
_4-0_
  6
CONTINUOUS
 62
    7
 10
247.21557511859129
 20
314.89270205269474
 11
246.4713341185913
 21
316.18172405269479
  0
LINE
  8
_4-0_
  6
CONTINUOUS
 62
    7
 10
246.4713341185913
 20
316.18172405269479
 11
246.47132611859132
 21
316.78939005269478
  0
ARC
  8
_4-0_
  6
CONTINUOUS
 62
    7
 10
226.66917311859135
 20
317.63772905269479
 40
0.4
 50
180
 51
229.99923599999997
  0
ARC
  8
_4-0_
  6
CONTINUOUS
 62
    7
 10
228.8691711185914
 20
318.85121205269479
 40
0.5999999999999999
 50
180
 51
270
  0
ARC
  8
_4-0_
  6
CONTINUOUS
 62
    7
 10
244.66917111859135
 20
318.85121205269479
 40
0.5999999999999999
 50
270
 51
0.0000010000000039
  0
ARC
  8
_4-0_
  6
CONTINUOUS
 62
    7
 10
246.86916711859129
 20
317.63772905269479
 40
0.4
 50
310.000764
 51
0
  0
ARC
  8
_4-0_
  6
CONTINUOUS
 62
    7
 10
238.52659311859139
 20
312.74794205269478
 40
0.5999999999999999
 50
296.26848899999999
 51
352.87498399999998
  0
LINE
  8
_4-0_
  6
CONTINUOUS
 62
    7
 10
234.41638211859134
 20
312.67352105269475
 11
234.16917111859135
 21
314.65121205269475
  0
LINE
  8
_4-0_
  6
CONTINUOUS
 62
    7
 10
234.16917111859135
 20
314.65121205269475
 11
234.96917111859131
 21
316.25121205269477
  0
LINE
  8
_4-0_
  6
CONTINUOUS
 62
    7
 10
234.96917111859131
 20
316.25121205269477
 11
238.56917111859133
 21
316.25121205269477
  0
LINE
  8
_4-0_
  6
CONTINUOUS
 62
    7
 10
238.56917111859133
 20
316.25121205269477
 11
239.3691711185914
 21
314.65121205269475
  0
LINE
  8
_4-0_
  6
CONTINUOUS
 62
    7
 10
239.3691711185914
 20
314.65121205269475
 11
239.12196011859129
 21
312.67352105269475
  0
ARC
  8
_4-0_
  6
CONTINUOUS
 62
    7
 10
235.01174911859135
 20
312.74794205269478
 40
0.5999999999999999
 50
187.12501599999999
 51
243.73151100000001
  0
ARC
  8
_4-0_
  6
CONTINUOUS
 62
    7
 10
238.96917111859131
 20
311.85121205269479
 40
0.4
 50
116.268489
 51
270
  0
ARC
  8
_4-0_
  6
CONTINUOUS
 62
    7
 10
234.56917111859133
 20
311.85121205269479
 40
0.4
 50
270
 51
63.731510999999998
  0
LINE
  8
_4-0_
  6
CONTINUOUS
 62
    7
 10
234.56917111859133
 20
311.45121205269476
 11
230.82253111859137
 21
311.45121205269476
  0
LINE
  8
_4-0_
  6
CONTINUOUS
 62
    7
 10
230.82253111859137
 20
311.45121205269476
 11
226.8691711185914
 21
311.45121205269476
  0
LINE
  8
_4-0_
  6
CONTINUOUS
 62
    7
 10
242.71580911859138
 20
311.45121205269476
 11
238.96917111859131
 21
311.45121205269476
  0
LINE
  8
_4-0_
  6
CONTINUOUS
 62
    7
 10
242.71580911859138
 20
311.45121205269476
 11
246.66917111859135
 21
311.45121205269476
  0
LINE
  8
_4-0_
  6
CONTINUOUS
 62
    7
 10
229.3680891185914
 20
317.6177780526948
 11
229.3680891185914
 21
317.65121205269475
  0
LINE
  8
_4-0_
  6
CONTINUOUS
 62
    7
 10
232.46808911859131
 20
318.25121205269477
 11
236.76917011859138
 21
318.25121205269477
  0
ARC
  8
_4-0_
  6
CONTINUOUS
 62
    7
 10
232.46808911859131
 20
317.65121205269475
 40
0.5999999999999999
 50
90
 51
180
  0
LINE
  8
_4-0_
  6
CONTINUOUS
 62
    7
 10
231.8680891185914
 20
317.65121205269475
 11
231.8680891185914
 21
317.6177780526948
  0
ARC
  8
_4-0_
  6
CONTINUOUS
 62
    7
 10
232.46808911859131
 20
317.6177780526948
 40
0.5999999999999999
 50
180
 51
216.45268199999998
  0
ARC
  8
_4-0_
  6
CONTINUOUS
 62
    7
 10
242.92025311859135
 20
316.25121305269477
 40
1.7
 50
143.54731799999999
 51
36.452681999999982
  0
LINE
  8
_4-0_
  6
CONTINUOUS
 62
    7
 10
244.17025311859135
 20
317.6177780526948
 11
244.17025311859135
 21
317.65121205269475
  0
ARC
  8
_4-0_
  6
CONTINUOUS
 62
    7
 10
244.77025311859137
 20
317.65121205269475
 40
0.5999999999999999
 50
90
 51
180
  0
ARC
  8
_4-0_
  6
CONTINUOUS
 62
    7
 10
241.07025311859132
 20
317.6177780526948
 40
0.5999999999999999
 50
323.54731800000002
 51
0
  0
ARC
  8
_4-0_
  6
CONTINUOUS
 62
    7
 10
244.77025311859137
 20
317.6177780526948
 40
0.5999999999999999
 50
180
 51
216.45268200000001
  0
LINE
  8
_4-0_
  6
CONTINUOUS
 62
    7
 10
241.67025311859135
 20
317.65121205269475
 11
241.67025311859135
 21
317.6177780526948
  0
ARC
  8
_4-0_
  6
CONTINUOUS
 62
    7
 10
241.07025311859132
 20
317.6177780526948
 40
0.5999999999999999
 50
323.54731800000002
 51
0
  0
LINE
  8
_4-0_
  6
CONTINUOUS
 62
    7
 10
236.76917011859138
 20
318.25121205269477
 11
241.07025311859132
 21
318.25121205269477
  0
ARC
  8
_4-0_
  6
CONTINUOUS
 62
    7
 10
241.07025311859132
 20
317.65121205269475
 40
0.5999999999999999
 50
0
 51
90
  0
ARC
  8
_4-0_
  6
CONTINUOUS
 62
    7
 10
230.6180891185914
 20
316.25121305269477
 40
1.7
 50
143.54731799999999
 51
36.452681999999982
  0
ARC
  8
_4-0_
  6
CONTINUOUS
 62
    7
 10
228.76808911859126
 20
317.6177780526948
 40
0.5999999999999999
 50
323.54731800000002
 51
0
  0
LINE
  8
_4-0_
  6
CONTINUOUS
 62
    7
 10
228.8691711185914
 20
318.25121205269477
 11
228.76808911859126
 21
318.25121205269477
  0
ARC
  8
_4-0_
  6
CONTINUOUS
 62
    7
 10
228.76808911859126
 20
317.65121205269475
 40
0.5999999999999999
 50
0
 51
90
  0
ARC
  8
_4-0_
  6
CONTINUOUS
 62
    7
 10
248.36917211859139
 20
334.06091405269478
 40
0.4
 50
0
 51
90
  0
ARC
  8
_4-0_
  6
CONTINUOUS
 62
    7
 10
247.01729611859133
 20
333.06091405269478
 40
0.4
 50
0
 51
90
  0
LINE
  8
_4-0_
  6
CONTINUOUS
 62
    7
 10
246.76916711859138
 20
333.46091405269476
 11
247.01729611859133
 21
333.46091405269476
  0
ARC
  8
_4-0_
  6
CONTINUOUS
 62
    7
 10
246.76916711859138
 20
333.86091405269474
 40
0.4
 50
180
 51
270
  0
LINE
  8
_4-0_
  6
CONTINUOUS
 62
    7
 10
246.36916711859129
 20
334.06091405269478
 11
246.36916711859129
 21
333.86091405269474
  0
LINE
  8
_4-0_
  6
CONTINUOUS
 62
    7
 10
247.41729611859131
 20
333.06091405269478
 11
247.41729611859131
 21
332.98320705269475
  0
ARC
  8
_4-0_
  6
CONTINUOUS
 62
    7
 10
247.01729611859133
 20
332.98320705269475
 40
0.4
 50
326
 51
0
  0
LINE
  8
_4-0_
  6
CONTINUOUS
 62
    7
 10
247.34891111859139
 20
332.7595300526948
 11
246.76917111859137
 21
331.90002905269478
  0
ARC
  8
_4-0_
  6
CONTINUOUS
 62
    7
 10
225.16917011859124
 20
334.06091405269478
 40
0.4
 50
90
 51
180
  0
ARC
  8
_4-0_
  6
CONTINUOUS
 62
    7
 10
226.52104611859141
 20
333.06091405269478
 40
0.4
 50
90
 51
180
  0
LINE
  8
_4-0_
  6
CONTINUOUS
 62
    7
 10
226.76917511859125
 20
333.46091405269476
 11
226.52104611859141
 21
333.46091405269476
  0
ARC
  8
_4-0_
  6
CONTINUOUS
 62
    7
 10
226.76917511859125
 20
333.86091405269474
 40
0.4
 50
270
 51
0
  0
LINE
  8
_4-0_
  6
CONTINUOUS
 62
    7
 10
227.16917511859134
 20
334.06091405269478
 11
227.16917511859134
 21
333.86091405269474
  0
LINE
  8
_4-0_
  6
CONTINUOUS
 62
    7
 10
226.12104611859132
 20
333.06091405269478
 11
226.12104611859132
 21
332.98320705269475
  0
ARC
  8
_4-0_
  6
CONTINUOUS
 62
    7
 10
226.52104611859141
 20
332.98320705269475
 40
0.4
 50
180
 51
214
  0
LINE
  8
_4-0_
  6
CONTINUOUS
 62
    7
 10
226.18943111859136
 20
332.7595300526948
 11
226.76917111859126
 21
331.90002905269478
  0
LINE
  8
_4-0_
  6
CONTINUOUS
 62
    7
 10
225.16917011859124
 20
334.46091405269476
 11
226.76917511859125
 21
334.46091405269476
  0
ARC
  8
_4-0_
  6
CONTINUOUS
 62
    7
 10
226.76917511859125
 20
334.06091405269478
 40
0.4
 50
0
 51
90
  0
LINE
  8
_4-0_
  6
CONTINUOUS
 62
    7
 10
248.36917211859139
 20
334.46091405269476
 11
246.76916711859138
 21
334.46091405269476
  0
ARC
  8
_4-0_
  6
CONTINUOUS
 62
    7
 10
246.76916711859138
 20
334.06091405269478
 40
0.4
 50
90
 51
180
  0
LINE
  8
_4-0_
  6
CONTINUOUS
 62
    7
 10
224.76917111859126
 20
334.06091405269478
 11
224.76917111859126
 21
327.79974105269474
  0
ARC
  8
_4-0_
  6
CONTINUOUS
 62
    7
 10
225.3691711185914
 20
327.79974105269474
 40
0.5999999999999999
 50
180
 51
224.99999300000002
  0
LINE
  8
_4-0_
  6
CONTINUOUS
 62
    7
 10
226.09343511859134
 20
326.22694805269475
 11
224.9449071185914
 21
327.37547705269475
  0
LINE
  8
_4-0_
  6
CONTINUOUS
 62
    7
 10
226.26917111859126
 20
325.80268405269476
 11
226.26917111859126
 21
317.63772905269479
  0
ARC
  8
_4-0_
  6
CONTINUOUS
 62
    7
 10
225.66917111859135
 20
325.80268405269476
 40
0.5999999999999999
 50
0
 51
44.999993000000003
  0
LINE
  8
_4-0_
  6
CONTINUOUS
 62
    7
 10
228.26917111859126
 20
326.63111105269473
 11
228.26917111859126
 21
318.85121205269479
  0
ARC
  8
_4-0_
  6
CONTINUOUS
 62
    7
 10
227.66917111859135
 20
326.63111105269473
 40
0.5999999999999999
 50
0
 51
45
  0
LINE
  8
_4-0_
  6
CONTINUOUS
 62
    7
 10
226.9449071185914
 20
328.20390305269473
 11
228.09343511859134
 21
327.05537505269473
  0
LINE
  8
_4-0_
  6
CONTINUOUS
 62
    7
 10
226.76917111859126
 20
331.90002905269478
 11
226.76917111859126
 21
328.62816705269478
  0
ARC
  8
_4-0_
  6
CONTINUOUS
 62
    7
 10
227.3691711185914
 20
328.62816705269478
 40
0.5999999999999999
 50
180
 51
225
  0
LINE
  8
_4-0_
  6
CONTINUOUS
 62
    7
 10
246.76917111859137
 20
331.90002905269478
 11
246.76917111859137
 21
328.62816705269478
  0
ARC
  8
_4-0_
  6
CONTINUOUS
 62
    7
 10
246.16917111859135
 20
328.62816705269478
 40
0.5999999999999999
 50
315
 51
0
  0
LINE
  8
_4-0_
  6
CONTINUOUS
 62
    7
 10
246.59343511859134
 20
328.20390305269473
 11
245.44490711859129
 21
327.05537505269473
  0
LINE
  8
_4-0_
  6
CONTINUOUS
 62
    7
 10
245.26917111859137
 20
326.63111105269473
 11
245.26917111859137
 21
318.85121205269479
  0
ARC
  8
_4-0_
  6
CONTINUOUS
 62
    7
 10
245.8691711185914
 20
326.63111105269473
 40
0.5999999999999999
 50
135
 51
180
  0
LINE
  8
_4-0_
  6
CONTINUOUS
 62
    7
 10
247.26917111859137
 20
325.80268405269476
 11
247.26917111859137
 21
317.63772905269479
  0
ARC
  8
_4-0_
  6
CONTINUOUS
 62
    7
 10
247.8691711185914
 20
325.80268405269476
 40
0.5999999999999999
 50
135.00000700000004
 51
180.00000000000003
  0
LINE
  8
_4-0_
  6
CONTINUOUS
 62
    7
 10
247.44490711859129
 20
326.22694805269475
 11
248.59343511859134
 21
327.37547605269475
  0
LINE
  8
_4-0_
  6
CONTINUOUS
 62
    7
 10
248.76917111859137
 20
334.06091405269478
 11
248.76917111859137
 21
327.79974005269474
  0
ARC
  8
_4-0_
  6
CONTINUOUS
 62
    7
 10
248.16917111859135
 20
327.79974005269474
 40
0.5999999999999999
 50
315.00000699999998
 51
0
  0
LINE
  8
_4-0_
  6
CONTINUOUS
 62
    7
 10
224.76917111859126
 20
335.06093505269473
 11
224.76917111859126
 21
334.8609350526948
  0
ARC
  8
_4-0_
  6
CONTINUOUS
 62
    7
 10
226.3691711185914
 20
335.06093505269473
 40
1.6000000000000001
 50
90
 51
180
  0
ARC
  8
_4-0_
  6
CONTINUOUS
 62
    7
 10
225.16917111859135
 20
334.8609350526948
 40
0.4
 50
180
 51
270
  0
LINE
  8
_4-0_
  6
CONTINUOUS
 62
    7
 10
227.36915911859143
 20
334.06093505269473
 11
227.36915911859143
 21
333.66093505269475
  0
ARC
  8
_4-0_
  6
CONTINUOUS
 62
    7
 10
226.96915911859134
 20
333.66093505269475
 40
0.4
 50
270
 51
0
  0
LINE
  8
_4-0_
  6
CONTINUOUS
 62
    7
 10
226.96915911859134
 20
333.26093505269478
 11
226.52104611859141
 21
333.26093505269478
  0
ARC
  8
_4-0_
  6
CONTINUOUS
 62
    7
 10
226.52104611859141
 20
333.06093505269473
 40
0.2
 50
90
 51
180
  0
LINE
  8
_4-0_
  6
CONTINUOUS
 62
    7
 10
226.32104611859137
 20
333.06093505269473
 11
226.32104611859137
 21
332.92208105269481
  0
LINE
  8
_4-0_
  6
CONTINUOUS
 62
    7
 10
225.16917011859124
 20
334.46093505269477
 11
226.96915911859134
 21
334.46093505269477
  0
ARC
  8
_4-0_
  6
CONTINUOUS
 62
    7
 10
226.96915911859134
 20
334.06093505269473
 40
0.4
 50
0
 51
90
  0
LINE
  8
_4-0_
  6
CONTINUOUS
 62
    7
 10
226.32104611859137
 20
332.92208105269481
 11
227.17170011859145
 21
331.66093505269475
  0
LINE
  8
_4-0_
  6
CONTINUOUS
 62
    7
 10
227.17170011859145
 20
331.66093505269475
 11
236.76917111859137
 21
331.66093505269475
  0
LINE
  8
_4-0_
  6
CONTINUOUS
 62
    7
 10
246.3666421185913
 20
331.66093505269475
 11
236.76917111859137
 21
331.66093505269475
  0
LINE
  8
_4-0_
  6
CONTINUOUS
 62
    7
 10
248.76917111859137
 20
335.06093505269473
 11
248.76917111859137
 21
334.8609350526948
  0
ARC
  8
_4-0_
  6
CONTINUOUS
 62
    7
 10
247.16917111859135
 20
335.06093505269473
 40
1.6000000000000001
 50
0
 51
90
  0
ARC
  8
_4-0_
  6
CONTINUOUS
 62
    7
 10
248.3691711185914
 20
334.8609350526948
 40
0.4
 50
270
 51
0
  0
LINE
  8
_4-0_
  6
CONTINUOUS
 62
    7
 10
246.16918311859132
 20
334.06093505269473
 11
246.16918311859132
 21
333.66093505269475
  0
ARC
  8
_4-0_
  6
CONTINUOUS
 62
    7
 10
246.5691831185913
 20
333.66093505269475
 40
0.4
 50
180
 51
270
  0
LINE
  8
_4-0_
  6
CONTINUOUS
 62
    7
 10
246.5691831185913
 20
333.26093505269478
 11
247.01729611859133
 21
333.26093505269478
  0
ARC
  8
_4-0_
  6
CONTINUOUS
 62
    7
 10
247.01729611859133
 20
333.06093505269473
 40
0.2
 50
0
 51
90
  0
LINE
  8
_4-0_
  6
CONTINUOUS
 62
    7
 10
247.21729611859138
 20
333.06093505269473
 11
247.21729611859138
 21
332.92208105269481
  0
LINE
  8
_4-0_
  6
CONTINUOUS
 62
    7
 10
248.36917211859139
 20
334.46093505269477
 11
246.5691831185913
 21
334.46093505269477
  0
ARC
  8
_4-0_
  6
CONTINUOUS
 62
    7
 10
246.5691831185913
 20
334.06093505269473
 40
0.4
 50
90
 51
180
  0
LINE
  8
_4-0_
  6
CONTINUOUS
 62
    7
 10
247.21729611859138
 20
332.92208105269481
 11
246.3666421185913
 21
331.66093505269475
  0
LINE
  8
_4-0_
  6
CONTINUOUS
 62
    7
 10
229.3691711185914
 20
318.25121205269477
 11
244.16917111859135
 21
318.25121205269477
  0
LINE
  8
_4-0_
  6
CONTINUOUS
 62
    7
 10
229.3691711185914
 20
322.35082205269475
 11
244.16917111859135
 21
322.35082205269475
  0
LINE
  8
_4-0_
  6
CONTINUOUS
 62
    7
 10
244.16917111859135
 20
322.35082205269475
 11
244.16917111859135
 21
318.25121205269477
  0
LINE
  8
_4-0_
  6
CONTINUOUS
 62
    7
 10
229.3691711185914
 20
322.35082205269475
 11
229.3691711185914
 21
318.25121205269477
  0
LINE
  8
_4-0_
  6
CONTINUOUS
 62
    7
 10
234.26917111859137
 20
324.10423905269477
 11
234.26917111859137
 21
322.35082205269475
  0
LINE
  8
_4-0_
  6
CONTINUOUS
 62
    7
 10
234.26917111859137
 20
324.10423905269477
 11
239.26917111859137
 21
324.10423905269477
  0
LINE
  8
_4-0_
  6
CONTINUOUS
 62
    7
 10
229.3691711185914
 20
319.15082205269476
 11
244.16917111859135
 21
319.15082205269476
  0
LINE
  8
_4-0_
  6
CONTINUOUS
 62
    7
 10
239.26917111859137
 20
324.10423905269477
 11
239.26917111859137
 21
322.35082205269475
  0
LINE
  8
_4-0_
  6
CONTINUOUS
 62
    7
 10
236.86918311859137
 20
336.66093505269475
 11
247.36919511859134
 21
336.66093505269475
  0
LINE
  8
_4-0_
  6
CONTINUOUS
 62
    7
 10
236.86918311859137
 20
336.66093505269475
 11
226.3691711185914
 21
336.66093505269475
  0
LINE
  8
_4-0_
  6
CONTINUOUS
 62
    7
 10
236.72384457991589
 20
294.84531335897134
 11
238.27675885053097
 21
300.64086831670568
  0
LINE
  8
_4-0_
  6
CONTINUOUS
 62
    7
 10
236.72384457991589
 20
294.84531335897134
 11
235.17093030930076
 21
300.64086831670568
  0
LINE
  8
_4-0_
  6
CONTINUOUS
 62
    7
 10
236.7378688003096
 20
294.82998822383939
 11
236.7378688003096
 21
308.82482607066356
  0
ARC
  8
_4-0_
  6
CONTINUOUS
 62
    7
 10
326.86595723700896
 20
267.04819294103459
 40
0.5999999999999999
 50
270.000001
 51
0
  0
LINE
  8
_4-0_
  6
CONTINUOUS
 62
    7
 10
307.26380023700892
 20
271.77870394103456
 11
306.60884023700885
 21
272.32829494103459
  0
LINE
  8
_4-0_
  6
CONTINUOUS
 62
    7
 10
306.51955223700895
 20
269.88968194103455
 11
307.26379223700894
 21
271.17870394103454
  0
LINE
  8
_4-0_
  6
CONTINUOUS
 62
    7
 10
307.26379223700894
 20
271.18637094103457
 11
307.26380023700892
 21
271.78637094103453
  0
LINE
  8
_4-0_
  6
CONTINUOUS
 62
    7
 10
326.66811323700892
 20
271.77870394103456
 11
327.32307223700889
 21
272.32829494103459
  0
LINE
  8
_4-0_
  6
CONTINUOUS
 62
    7
 10
327.46595723700887
 20
269.68967694103458
 11
327.46595723700887
 21
267.04819294103459
  0
ARC
  8
_4-0_
  6
CONTINUOUS
 62
    7
 10
327.06595323700878
 20
269.68967694103458
 40
0.4
 50
0
 51
30.000764000000004
  0
LINE
  8
_4-0_
  6
CONTINUOUS
 62
    7
 10
327.41236123700889
 20
269.88968194103455
 11
326.6681212370089
 21
271.17870394103454
  0
LINE
  8
_4-0_
  6
CONTINUOUS
 62
    7
 10
326.6681212370089
 20
271.17870394103454
 11
326.66811323700892
 21
271.78637094103453
  0
ARC
  8
_4-0_
  6
CONTINUOUS
 62
    7
 10
309.06595723700877
 20
273.84819294103454
 40
0.5999999999999999
 50
180
 51
270
  0
ARC
  8
_4-0_
  6
CONTINUOUS
 62
    7
 10
324.86595723700896
 20
273.84819294103454
 40
0.5999999999999999
 50
270
 51
0.0000010000000039
  0
ARC
  8
_4-0_
  6
CONTINUOUS
 62
    7
 10
327.06595323700878
 20
272.63470994103454
 40
0.4
 50
310.000764
 51
0
  0
LINE
  8
_4-0_
  6
CONTINUOUS
 62
    7
 10
316.16680523700882
 20
271.24819294103457
 11
317.78256923700894
 21
271.24819294103457
  0
ARC
  8
_4-0_
  6
CONTINUOUS
 62
    7
 10
318.72337923700877
 20
267.74492294103453
 40
0.5999999999999999
 50
296.26848899999999
 51
352.87498399999998
  0
LINE
  8
_4-0_
  6
CONTINUOUS
 62
    7
 10
314.61316923700895
 20
267.67050194103456
 11
314.36595723700896
 21
269.64819294103455
  0
LINE
  8
_4-0_
  6
CONTINUOUS
 62
    7
 10
314.36595723700896
 20
269.64819294103455
 11
315.16595723700891
 21
271.24819294103457
  0
LINE
  8
_4-0_
  6
CONTINUOUS
 62
    7
 10
315.16595723700891
 20
271.24819294103457
 11
318.76595723700882
 21
271.24819294103457
  0
LINE
  8
_4-0_
  6
CONTINUOUS
 62
    7
 10
318.76595723700882
 20
271.24819294103457
 11
319.56595723700877
 21
269.64819294103455
  0
LINE
  8
_4-0_
  6
CONTINUOUS
 62
    7
 10
319.56595723700877
 20
269.64819294103455
 11
319.3187462370089
 21
267.67050194103456
  0
ARC
  8
_4-0_
  6
CONTINUOUS
 62
    7
 10
315.20853523700896
 20
267.74492294103453
 40
0.5999999999999999
 50
187.12501599999999
 51
243.73151100000001
  0
ARC
  8
_4-0_
  6
CONTINUOUS
 62
    7
 10
319.16595723700891
 20
266.84819294103454
 40
0.4
 50
116.268489
 51
270
  0
ARC
  8
_4-0_
  6
CONTINUOUS
 62
    7
 10
314.76595723700882
 20
266.84819294103454
 40
0.4
 50
270
 51
63.731510999999998
  0
LINE
  8
_4-0_
  6
CONTINUOUS
 62
    7
 10
314.76595723700882
 20
266.44819194103457
 11
311.01931723700875
 21
266.44819194103457
  0
LINE
  8
_4-0_
  6
CONTINUOUS
 62
    7
 10
311.01931723700875
 20
266.44819194103457
 11
307.06595723700877
 21
266.44819194103457
  0
LINE
  8
_4-0_
  6
CONTINUOUS
 62
    7
 10
322.91259523700876
 20
266.44819294103456
 11
319.16595723700891
 21
266.44819294103456
  0
LINE
  8
_4-0_
  6
CONTINUOUS
 62
    7
 10
322.91259523700876
 20
266.44819294103456
 11
326.86595723700896
 21
266.44819294103456
  0
LINE
  8
_4-0_
  6
CONTINUOUS
 62
    7
 10
309.56487523700878
 20
272.61475794103455
 11
309.56487523700878
 21
272.64819294103455
  0
LINE
  8
_4-0_
  6
CONTINUOUS
 62
    7
 10
312.66487523700891
 20
273.24819294103457
 11
316.96595623700875
 21
273.24819294103457
  0
ARC
  8
_4-0_
  6
CONTINUOUS
 62
    7
 10
312.66487523700891
 20
272.64819294103455
 40
0.5999999999999999
 50
90
 51
180
  0
LINE
  8
_4-0_
  6
CONTINUOUS
 62
    7
 10
312.06487523700878
 20
272.64819294103455
 11
312.06487523700878
 21
272.61475794103455
  0
ARC
  8
_4-0_
  6
CONTINUOUS
 62
    7
 10
312.66487523700891
 20
272.61475794103455
 40
0.5999999999999999
 50
180
 51
216.45268199999998
  0
ARC
  8
_4-0_
  6
CONTINUOUS
 62
    7
 10
323.11703923700895
 20
271.24819294103457
 40
1.7
 50
143.54731799999999
 51
36.452681999999982
  0
LINE
  8
_4-0_
  6
CONTINUOUS
 62
    7
 10
324.36703923700895
 20
272.61475794103455
 11
324.36703923700895
 21
272.64819294103455
  0
ARC
  8
_4-0_
  6
CONTINUOUS
 62
    7
 10
324.96703923700886
 20
272.64819294103455
 40
0.5999999999999999
 50
90
 51
180
  0
ARC
  8
_4-0_
  6
CONTINUOUS
 62
    7
 10
321.26703923700882
 20
272.61475794103455
 40
0.5999999999999999
 50
323.54731800000002
 51
0
  0
ARC
  8
_4-0_
  6
CONTINUOUS
 62
    7
 10
324.96703923700886
 20
272.61475794103455
 40
0.5999999999999999
 50
180
 51
216.45268200000001
  0
LINE
  8
_4-0_
  6
CONTINUOUS
 62
    7
 10
321.86703923700895
 20
272.64819294103455
 11
321.86703923700895
 21
272.61475794103455
  0
ARC
  8
_4-0_
  6
CONTINUOUS
 62
    7
 10
321.26703923700882
 20
272.61475794103455
 40
0.5999999999999999
 50
323.54731800000002
 51
0
  0
LINE
  8
_4-0_
  6
CONTINUOUS
 62
    7
 10
316.96595623700875
 20
273.24819294103457
 11
321.26703923700882
 21
273.24819294103457
  0
ARC
  8
_4-0_
  6
CONTINUOUS
 62
    7
 10
321.26703923700882
 20
272.64819294103455
 40
0.5999999999999999
 50
0
 51
90
  0
ARC
  8
_4-0_
  6
CONTINUOUS
 62
    7
 10
310.81487523700878
 20
271.24819294103457
 40
1.7
 50
143.54731799999999
 51
36.452681999999982
  0
ARC
  8
_4-0_
  6
CONTINUOUS
 62
    7
 10
308.96487523700887
 20
272.61475794103455
 40
0.5999999999999999
 50
323.54731800000002
 51
0
  0
LINE
  8
_4-0_
  6
CONTINUOUS
 62
    7
 10
309.06595723700877
 20
273.24819294103457
 11
308.96487523700887
 21
273.24819294103457
  0
ARC
  8
_4-0_
  6
CONTINUOUS
 62
    7
 10
308.96487523700887
 20
272.64819294103455
 40
0.5999999999999999
 50
0
 51
90
  0
ARC
  8
_4-0_
  6
CONTINUOUS
 62
    7
 10
328.56595823700889
 20
289.05789494103453
 40
0.4
 50
0
 51
90
  0
ARC
  8
_4-0_
  6
CONTINUOUS
 62
    7
 10
327.21408223700894
 20
288.05789494103453
 40
0.4
 50
0
 51
90
  0
LINE
  8
_4-0_
  6
CONTINUOUS
 62
    7
 10
326.96595323700888
 20
288.45789494103457
 11
327.21408223700894
 21
288.45789494103457
  0
ARC
  8
_4-0_
  6
CONTINUOUS
 62
    7
 10
326.96595323700888
 20
288.85789494103454
 40
0.4
 50
180
 51
270
  0
LINE
  8
_4-0_
  6
CONTINUOUS
 62
    7
 10
326.56595323700878
 20
289.05789494103453
 11
326.56595323700878
 21
288.85789494103454
  0
LINE
  8
_4-0_
  6
CONTINUOUS
 62
    7
 10
327.6140822370088
 20
288.05789494103453
 11
327.6140822370088
 21
287.98018694103456
  0
ARC
  8
_4-0_
  6
CONTINUOUS
 62
    7
 10
327.21408223700894
 20
287.98018694103456
 40
0.4
 50
326
 51
0
  0
LINE
  8
_4-0_
  6
CONTINUOUS
 62
    7
 10
327.54569723700877
 20
287.75650994103455
 11
326.96595723700887
 21
286.89700994103458
  0
ARC
  8
_4-0_
  6
CONTINUOUS
 62
    7
 10
306.96596123700886
 20
288.85789494103454
 40
0.4
 50
270
 51
0
  0
LINE
  8
_4-0_
  6
CONTINUOUS
 62
    7
 10
307.36596123700895
 20
289.05789494103453
 11
307.36596123700895
 21
288.85789494103454
  0
ARC
  8
_4-0_
  6
CONTINUOUS
 62
    7
 10
306.96596123700886
 20
289.05789494103453
 40
0.4
 50
0
 51
90
  0
LINE
  8
_4-0_
  6
CONTINUOUS
 62
    7
 10
328.56595823700889
 20
289.45789494103457
 11
326.96595323700888
 21
289.45789494103457
  0
ARC
  8
_4-0_
  6
CONTINUOUS
 62
    7
 10
326.96595323700888
 20
289.05789494103453
 40
0.4
 50
90
 51
180
  0
LINE
  8
_4-0_
  6
CONTINUOUS
 62
    7
 10
308.46595723700887
 20
281.62809094103454
 11
308.46595723700887
 21
273.84819294103454
  0
ARC
  8
_4-0_
  6
CONTINUOUS
 62
    7
 10
307.86595723700896
 20
281.62809094103454
 40
0.5999999999999999
 50
0
 51
45
  0
LINE
  8
_4-0_
  6
CONTINUOUS
 62
    7
 10
307.14169323700878
 20
283.20088294103454
 11
308.29022123700895
 21
282.05235494103454
  0
LINE
  8
_4-0_
  6
CONTINUOUS
 62
    7
 10
326.96595723700887
 20
286.89700994103458
 11
326.96595723700887
 21
283.62514694103459
  0
ARC
  8
_4-0_
  6
CONTINUOUS
 62
    7
 10
326.36595723700896
 20
283.62514694103459
 40
0.5999999999999999
 50
315
 51
0
  0
LINE
  8
_4-0_
  6
CONTINUOUS
 62
    7
 10
326.79022123700895
 20
283.20088294103454
 11
325.64169323700878
 21
282.05235494103454
  0
LINE
  8
_4-0_
  6
CONTINUOUS
 62
    7
 10
325.46595723700887
 20
281.62809094103454
 11
325.46595723700887
 21
273.84819294103454
  0
ARC
  8
_4-0_
  6
CONTINUOUS
 62
    7
 10
326.06595723700877
 20
281.62809094103454
 40
0.5999999999999999
 50
135
 51
180
  0
LINE
  8
_4-0_
  6
CONTINUOUS
 62
    7
 10
327.46595723700887
 20
280.79966394103457
 11
327.46595723700887
 21
272.63470994103454
  0
ARC
  8
_4-0_
  6
CONTINUOUS
 62
    7
 10
328.06595723700877
 20
280.79966394103457
 40
0.5999999999999999
 50
135.00000700000004
 51
180.00000000000003
  0
LINE
  8
_4-0_
  6
CONTINUOUS
 62
    7
 10
327.64169323700878
 20
281.22392794103456
 11
328.79022123700895
 21
282.37245694103456
  0
LINE
  8
_4-0_
  6
CONTINUOUS
 62
    7
 10
328.96595723700887
 20
289.05789494103453
 11
328.96595723700887
 21
282.79672094103455
  0
ARC
  8
_4-0_
  6
CONTINUOUS
 62
    7
 10
328.36595723700896
 20
282.79672094103455
 40
0.5999999999999999
 50
315.00000699999998
 51
0
  0
LINE
  8
_4-0_
  6
CONTINUOUS
 62
    7
 10
326.46595723700887
 20
270.92722994103457
 11
326.89022123700886
 21
270.50296594103457
  0
LINE
  8
_4-0_
  6
CONTINUOUS
 62
    7
 10
307.46595723700887
 20
270.92722994103457
 11
307.04169323700887
 21
270.50296594103457
  0
LINE
  8
_4-0_
  6
CONTINUOUS
 62
    7
 10
327.96595723700887
 20
278.79970094103459
 11
328.56595723700877
 21
278.79970094103459
  0
LINE
  8
_4-0_
  6
CONTINUOUS
 62
    7
 10
307.46595723700887
 20
270.92722994103457
 11
305.96595723700887
 21
272.42722994103457
  0
LINE
  8
_4-0_
  6
CONTINUOUS
 62
    7
 10
326.46595723700887
 20
270.92722994103457
 11
327.96595723700887
 21
272.42722994103457
  0
LINE
  8
_4-0_
  6
CONTINUOUS
 62
    7
 10
326.89022123700886
 20
270.50296594103457
 11
327.96595723700887
 21
271.57870194103458
  0
LINE
  8
_4-0_
  6
CONTINUOUS
 62
    7
 10
307.5659452370088
 20
289.05791494103454
 11
307.5659452370088
 21
288.65791494103456
  0
ARC
  8
_4-0_
  6
CONTINUOUS
 62
    7
 10
307.16594523700894
 20
288.65791494103456
 40
0.4
 50
270
 51
0
  0
ARC
  8
_4-0_
  6
CONTINUOUS
 62
    7
 10
307.16594523700894
 20
289.05791494103454
 40
0.4
 50
0
 51
90
  0
LINE
  8
_4-0_
  6
CONTINUOUS
 62
    7
 10
306.51783223700875
 20
287.91906094103456
 11
307.36848623700882
 21
286.65791494103456
  0
LINE
  8
_4-0_
  6
CONTINUOUS
 62
    7
 10
307.36848623700882
 20
286.65791494103456
 11
316.96595723700887
 21
286.65791494103456
  0
LINE
  8
_4-0_
  6
CONTINUOUS
 62
    7
 10
326.56342923700879
 20
286.65791494103456
 11
316.96595723700887
 21
286.65791494103456
  0
ARC
  8
_4-0_
  6
CONTINUOUS
 62
    7
 10
328.56595723700877
 20
289.85791494103455
 40
0.4
 50
270
 51
0
  0
LINE
  8
_4-0_
  6
CONTINUOUS
 62
    7
 10
326.36596923700893
 20
289.05791494103454
 11
326.36596923700893
 21
288.65791494103456
  0
ARC
  8
_4-0_
  6
CONTINUOUS
 62
    7
 10
326.76596923700879
 20
288.65791494103456
 40
0.4
 50
180
 51
270
  0
LINE
  8
_4-0_
  6
CONTINUOUS
 62
    7
 10
326.76596923700879
 20
288.25791494103458
 11
327.21408223700894
 21
288.25791494103458
  0
ARC
  8
_4-0_
  6
CONTINUOUS
 62
    7
 10
327.21408223700894
 20
288.05791494103454
 40
0.2
 50
0
 51
90
  0
LINE
  8
_4-0_
  6
CONTINUOUS
 62
    7
 10
327.41408223700876
 20
288.05791494103454
 11
327.41408223700876
 21
287.91906094103456
  0
LINE
  8
_4-0_
  6
CONTINUOUS
 62
    7
 10
328.56595823700889
 20
289.45791494103457
 11
326.76596923700879
 21
289.45791494103457
  0
ARC
  8
_4-0_
  6
CONTINUOUS
 62
    7
 10
326.76596923700879
 20
289.05791494103454
 40
0.4
 50
90
 51
180
  0
LINE
  8
_4-0_
  6
CONTINUOUS
 62
    7
 10
327.41408223700876
 20
287.91906094103456
 11
326.56342923700879
 21
286.65791494103456
  0
ARC
  8
_4-0_
  6
CONTINUOUS
 62
    7
 10
309.41595723700891
 20
262.64970094103455
 40
0.45
 50
90
 51
270
  0
LINE
  8
_4-0_
  6
CONTINUOUS
 62
    7
 10
309.41595723700891
 20
263.09970094103454
 11
324.51595723700882
 21
263.09970094103454
  0
ARC
  8
_4-0_
  6
CONTINUOUS
 62
    7
 10
324.51595723700882
 20
262.64970094103455
 40
0.45
 50
270
 51
90
  0
ARC
  8
_4-0_
  6
CONTINUOUS
 62
    7
 10
316.96595723700887
 20
237.73947394103459
 40
26.460227
 50
73.421191000000007
 51
106.57880900000001
  0
LINE
  8
_4-0_
  6
CONTINUOUS
 62
    7
 10
309.56595723700877
 20
273.24819294103457
 11
324.36595723700896
 21
273.24819294103457
  0
LINE
  8
_4-0_
  6
CONTINUOUS
 62
    7
 10
309.56595723700877
 20
277.34780294103456
 11
324.36595723700896
 21
277.34780294103456
  0
LINE
  8
_4-0_
  6
CONTINUOUS
 62
    7
 10
324.36595723700896
 20
277.34780294103456
 11
324.36595723700896
 21
273.24819294103457
  0
LINE
  8
_4-0_
  6
CONTINUOUS
 62
    7
 10
309.56595723700877
 20
277.34780294103456
 11
309.56595723700877
 21
273.24819294103457
  0
LINE
  8
_4-0_
  6
CONTINUOUS
 62
    7
 10
314.46595723700887
 20
279.10121894103457
 11
314.46595723700887
 21
277.34780294103456
  0
LINE
  8
_4-0_
  6
CONTINUOUS
 62
    7
 10
314.46595723700887
 20
279.10121894103457
 11
319.46595723700887
 21
279.10121894103457
  0
LINE
  8
_4-0_
  6
CONTINUOUS
 62
    7
 10
309.56595723700877
 20
274.14780294103457
 11
324.36595723700896
 21
274.14780294103457
  0
LINE
  8
_4-0_
  6
CONTINUOUS
 62
    7
 10
319.46595723700887
 20
279.10121894103457
 11
319.46595723700887
 21
277.34780294103456
  0
LINE
  8
_4-0_
  6
CONTINUOUS
 62
    7
 10
327.96595723700887
 20
262.59970094103454
 11
327.96595723700887
 21
278.79970094103459
  0
LINE
  8
_4-0_
  6
CONTINUOUS
 62
    7
 10
328.56595723700877
 20
262.79970094103459
 11
328.56595723700877
 21
278.79970094103459
  0
ARC
  8
_4-0_
  6
CONTINUOUS
 62
    7
 10
327.56595723700877
 20
262.79970094103459
 40
1
 50
270
 51
0
  0
LINE
  8
_4-0_
  6
CONTINUOUS
 62
    7
 10
327.56595723700877
 20
261.79970094103459
 11
306.36595723700896
 21
261.79970094103459
  0
LINE
  8
_4-0_
  6
CONTINUOUS
 62
    7
 10
327.56595723700877
 20
262.19970094103456
 11
306.36595723700896
 21
262.19970094103456
  0
ARC
  8
_4-0_
  6
CONTINUOUS
 62
    7
 10
327.56595723700877
 20
262.59970094103454
 40
0.4
 50
270
 51
0
  0
LINE
  8
_4-0_
  6
CONTINUOUS
 62
    7
 10
320.96595723700887
 20
261.79970094103459
 11
320.96595723700887
 21
245.64785294103456
  0
LINE
  8
_4-0_
  6
CONTINUOUS
 62
    7
 10
312.96595723700887
 20
261.79970094103459
 11
312.96595723700887
 21
245.64785294103456
  0
LINE
  8
_4-0_
  6
CONTINUOUS
 62
    7
 10
316.96595723700887
 20
242.19970094103456
 11
312.96595723700887
 21
245.64785294103456
  0
LINE
  8
_4-0_
  6
CONTINUOUS
 62
    7
 10
316.96595723700887
 20
242.19970094103456
 11
320.96595723700887
 21
245.64785294103456
  0
LINE
  8
_4-0_
  6
CONTINUOUS
 62
    7
 10
299.56888023700878
 20
261.79970094103459
 11
333.53750323700876
 21
261.79970094103459
  0
LINE
  8
_4-0_
  6
CONTINUOUS
 62
    7
 10
330.13504823700885
 20
238.05172494103454
 11
333.53750323700876
 21
241.45417994103457
  0
LINE
  8
_4-0_
  6
CONTINUOUS
 62
    7
 10
327.30662123700893
 20
238.05172494103454
 11
333.53750323700876
 21
244.28260694103454
  0
LINE
  8
_4-0_
  6
CONTINUOUS
 62
    7
 10
324.4781932370089
 20
238.05172494103454
 11
333.53750323700876
 21
247.11103494103457
  0
LINE
  8
_4-0_
  6
CONTINUOUS
 62
    7
 10
321.64976623700875
 20
238.05172494103454
 11
333.53750323700876
 21
249.93946194103455
  0
LINE
  8
_4-0_
  6
CONTINUOUS
 62
    7
 10
318.82133923700883
 20
238.05172494103454
 11
333.53750323700876
 21
252.76788894103456
  0
LINE
  8
_4-0_
  6
CONTINUOUS
 62
    7
 10
315.99291223700891
 20
238.05172494103454
 11
333.53750323700876
 21
255.59631594103456
  0
LINE
  8
_4-0_
  6
CONTINUOUS
 62
    7
 10
313.16448523700876
 20
238.05172494103454
 11
333.53750323700876
 21
258.42474294103454
  0
LINE
  8
_4-0_
  6
CONTINUOUS
 62
    7
 10
310.33605823700884
 20
238.05172494103454
 11
333.53750323700876
 21
261.25316994103457
  0
LINE
  8
_4-0_
  6
CONTINUOUS
 62
    7
 10
307.50763123700892
 20
238.05172494103454
 11
331.25560623700892
 21
261.79970094103459
  0
LINE
  8
_4-0_
  6
CONTINUOUS
 62
    7
 10
304.67920423700878
 20
238.05172494103454
 11
328.42717923700877
 21
261.79970094103459
  0
LINE
  8
_4-0_
  6
CONTINUOUS
 62
    7
 10
301.85077623700874
 20
238.05172494103454
 11
325.59875223700885
 21
261.79970094103459
  0
LINE
  8
_4-0_
  6
CONTINUOUS
 62
    7
 10
299.56888023700878
 20
238.59825494103455
 11
322.77032523700893
 21
261.79970094103459
  0
LINE
  8
_4-0_
  6
CONTINUOUS
 62
    7
 10
299.56888023700878
 20
241.42668194103453
 11
319.94189823700879
 21
261.79970094103459
  0
LINE
  8
_4-0_
  6
CONTINUOUS
 62
    7
 10
299.56888023700878
 20
244.25510994103456
 11
317.11347123700887
 21
261.79970094103459
  0
LINE
  8
_4-0_
  6
CONTINUOUS
 62
    7
 10
299.56888023700878
 20
247.08353694103454
 11
314.28504423700895
 21
261.79970094103459
  0
LINE
  8
_4-0_
  6
CONTINUOUS
 62
    7
 10
299.56888023700878
 20
249.91196394103457
 11
311.4566172370088
 21
261.79970094103459
  0
LINE
  8
_4-0_
  6
CONTINUOUS
 62
    7
 10
299.56888023700878
 20
252.74039094103455
 11
308.62818923700877
 21
261.79970094103459
  0
LINE
  8
_4-0_
  6
CONTINUOUS
 62
    7
 10
299.56888023700878
 20
255.56881794103455
 11
305.79976223700885
 21
261.79970094103459
  0
LINE
  8
_4-0_
  6
CONTINUOUS
 62
    7
 10
299.56888023700878
 20
258.39724494103456
 11
302.97133523700893
 21
261.79970094103459
  0
LINE
  8
_4-0_
  6
CONTINUOUS
 62
    7
 10
316.96595723700887
 20
291.65791494103456
 11
327.46596923700884
 21
291.65791494103456
  0
LINE
  8
_4-0_
  6
CONTINUOUS
 62
    7
 10
316.96595723700887
 20
291.65791494103456
 11
306.4659452370089
 21
291.65791494103456
  0
LINE
  8
_4-0_
  6
CONTINUOUS
 62
    7
 10
328.96595723700887
 20
290.05791494103454
 11
328.96595723700887
 21
289.85791494103455
  0
ARC
  8
_4-0_
  6
CONTINUOUS
 62
    7
 10
327.36595723700896
 20
290.05791494103454
 40
1.6000000000000001
 50
0
 51
90
  0
LINE
  8
_4-0_
  6
CONTINUOUS
 62
    4
 10
304.96595723700887
 20
306.79312194103454
 11
304.96595723700887
 21
290.21556594103458
  0
LINE
  8
_4-0_
  6
CONTINUOUS
 62
    4
 10
328.96595723700887
 20
306.79312194103454
 11
328.96595723700887
 21
290.14041394103458
  0
LINE
  8
_4-0_
  6
CONTINUOUS
 62
    4
 10
304.96595723700887
 20
304.79312194103454
 11
328.96595723700887
 21
304.79312194103454
  0
ARC
  8
_4-0_
  6
CONTINUOUS
 62
    7
 10
307.06595723700877
 20
267.04819194103453
 40
0.5999999999999999
 50
180
 51
270.000001
  0
LINE
  8
_4-0_
  6
CONTINUOUS
 62
    7
 10
306.46595723700887
 20
269.68967694103458
 11
306.46595723700887
 21
267.04819194103453
  0
ARC
  8
_4-0_
  6
CONTINUOUS
 62
    7
 10
306.86595923700895
 20
269.68967694103458
 40
0.4
 50
149.999236
 51
180
  0
ARC
  8
_4-0_
  6
CONTINUOUS
 62
    7
 10
306.86595923700895
 20
272.63470994103454
 40
0.4
 50
180
 51
229.99923599999997
  0
ARC
  8
_4-0_
  6
CONTINUOUS
 62
    7
 10
305.36595623700885
 20
289.05789494103453
 40
0.4
 50
90
 51
180
  0
ARC
  8
_4-0_
  6
CONTINUOUS
 62
    7
 10
306.71783223700879
 20
288.05789494103453
 40
0.4
 50
90
 51
180
  0
LINE
  8
_4-0_
  6
CONTINUOUS
 62
    7
 10
306.96596123700886
 20
288.45789494103457
 11
306.71783223700879
 21
288.45789494103457
  0
LINE
  8
_4-0_
  6
CONTINUOUS
 62
    7
 10
306.31783223700893
 20
288.05789494103453
 11
306.31783223700893
 21
287.98018694103456
  0
ARC
  8
_4-0_
  6
CONTINUOUS
 62
    7
 10
306.71783223700879
 20
287.98018694103456
 40
0.4
 50
180
 51
214
  0
LINE
  8
_4-0_
  6
CONTINUOUS
 62
    7
 10
306.38621723700896
 20
287.75650994103455
 11
306.96595723700887
 21
286.89700994103458
  0
LINE
  8
_4-0_
  6
CONTINUOUS
 62
    7
 10
305.36595623700885
 20
289.45789494103457
 11
306.96596123700886
 21
289.45789494103457
  0
LINE
  8
_4-0_
  6
CONTINUOUS
 62
    7
 10
304.96595723700887
 20
289.05789494103453
 11
304.96595723700887
 21
282.79672094103455
  0
ARC
  8
_4-0_
  6
CONTINUOUS
 62
    7
 10
305.56595723700877
 20
282.79672094103455
 40
0.5999999999999999
 50
180
 51
224.99999300000002
  0
LINE
  8
_4-0_
  6
CONTINUOUS
 62
    7
 10
306.29022123700895
 20
281.22392794103456
 11
305.14169323700878
 21
282.37245694103456
  0
LINE
  8
_4-0_
  6
CONTINUOUS
 62
    7
 10
306.46595723700887
 20
280.79966394103457
 11
306.46595723700887
 21
272.63470994103454
  0
ARC
  8
_4-0_
  6
CONTINUOUS
 62
    7
 10
305.86595723700896
 20
280.79966394103457
 40
0.5999999999999999
 50
0
 51
44.999993000000003
  0
LINE
  8
_4-0_
  6
CONTINUOUS
 62
    7
 10
306.96595723700887
 20
286.89700994103458
 11
306.96595723700887
 21
283.62514694103459
  0
ARC
  8
_4-0_
  6
CONTINUOUS
 62
    7
 10
307.56595723700877
 20
283.62514694103459
 40
0.5999999999999999
 50
180
 51
225
  0
LINE
  8
_4-0_
  6
CONTINUOUS
 62
    7
 10
305.96595723700887
 20
278.79970094103459
 11
305.36595723700896
 21
278.79970094103459
  0
LINE
  8
_4-0_
  6
CONTINUOUS
 62
    7
 10
307.04169323700887
 20
270.50296594103457
 11
305.96595723700887
 21
271.57870194103458
  0
ARC
  8
_4-0_
  6
CONTINUOUS
 62
    7
 10
305.36595723700896
 20
289.85791494103455
 40
0.4
 50
180
 51
270
  0
LINE
  8
_4-0_
  6
CONTINUOUS
 62
    7
 10
307.16594523700894
 20
288.25791494103458
 11
306.71783223700879
 21
288.25791494103458
  0
ARC
  8
_4-0_
  6
CONTINUOUS
 62
    7
 10
306.71783223700879
 20
288.05791494103454
 40
0.2
 50
90
 51
180
  0
LINE
  8
_4-0_
  6
CONTINUOUS
 62
    7
 10
306.51783223700875
 20
288.05791494103454
 11
306.51783223700875
 21
287.91906094103456
  0
LINE
  8
_4-0_
  6
CONTINUOUS
 62
    7
 10
305.36595623700885
 20
289.45791494103457
 11
307.16594523700894
 21
289.45791494103457
  0
LINE
  8
_4-0_
  6
CONTINUOUS
 62
    7
 10
305.96595723700887
 20
262.59970094103454
 11
305.96595723700887
 21
278.79970094103459
  0
ARC
  8
_4-0_
  6
CONTINUOUS
 62
    7
 10
306.36595723700896
 20
262.59970094103454
 40
0.4
 50
180
 51
270
  0
LINE
  8
_4-0_
  6
CONTINUOUS
 62
    7
 10
305.36595723700896
 20
262.79970094103459
 11
305.36595723700896
 21
278.79970094103459
  0
ARC
  8
_4-0_
  6
CONTINUOUS
 62
    7
 10
306.36595723700896
 20
262.79970094103459
 40
1
 50
180
 51
270
  0
LINE
  8
_4-0_
  6
CONTINUOUS
 62
    7
 10
299.56888023700878
 20
261.22567194103453
 11
300.14290823700878
 21
261.79970094103459
  0
LINE
  8
_4-0_
  6
CONTINUOUS
 62
    4
 10
293.35272323700895
 20
261.79970094103459
 11
293.35272323700895
 21
291.65791494103456
  0
LINE
  8
_4-0_
  6
CONTINUOUS
 62
    4
 10
291.35272323700895
 20
291.65791494103456
 11
305.64770123700885
 21
291.65791494103456
  0
LINE
  8
_4-0_
  6
CONTINUOUS
 62
    4
 10
291.35272323700895
 20
261.79970094103459
 11
304.36595723700896
 21
261.79970094103459
  0
LINE
  8
_4-0_
  6
CONTINUOUS
 62
    7
 10
304.96595723700887
 20
290.05791494103454
 11
304.96595723700887
 21
289.85791494103455
  0
ARC
  8
_4-0_
  6
CONTINUOUS
 62
    7
 10
306.56595723700877
 20
290.05791494103454
 40
1.6000000000000001
 50
90
 51
180
  0
TEXT
  8
_4-0_
 62
    7
 10
312.98751332262623
 20
306.14278696956535
 40
8
 41
1
 50
0
  1
12
  0
TEXT
  8
_4-0_
 62
    7
 10
291.45605017088633
 20
268.87125536458552
 40
8
 41
1
 50
90
  1
(15)
  0
LINE
  8
_4-0_
  6
CONTINUOUS
 62
    4
 10
293.33408882826279
 20
291.78676257911115
 11
294.11054682826284
 21
288.8889845791112
  0
LINE
  8
_4-0_
  6
CONTINUOUS
 62
    4
 10
293.33408882826279
 20
291.78676257911115
 11
292.55763082826275
 21
288.8889845791112
  0
LINE
  8
_4-0_
  6
CONTINUOUS
 62
    4
 10
293.34894747236967
 20
261.77406385350457
 11
292.57248947236963
 21
264.67184185350459
  0
LINE
  8
_4-0_
  6
CONTINUOUS
 62
    4
 10
293.34894747236967
 20
261.77406385350457
 11
294.12540547236972
 21
264.67184185350459
  0
LINE
  8
_4-0_
  6
CONTINUOUS
 62
    4
 10
304.95575181974164
 20
304.78110846342088
 11
307.85352981974165
 21
305.55756646342087
  0
LINE
  8
_4-0_
  6
CONTINUOUS
 62
    4
 10
304.95575181974164
 20
304.78110846342088
 11
307.85352981974165
 21
304.00465246342088
  0
LINE
  8
_4-0_
  6
CONTINUOUS
 62
    4
 10
328.83925229642045
 20
304.72976752561561
 11
325.94147429642044
 21
303.95331152561562
  0
LINE
  8
_4-0_
  6
CONTINUOUS
 62
    4
 10
328.83925229642045
 20
304.72976752561561
 11
325.94147429642044
 21
305.5062255256156
  0
TEXT
  8
_4-0_
 62
    7
 10
256.94027324542799
 20
239.51839439356579
 40
6
 41
1
 50
0
  1
タッピン1種
  0
TEXT
  8
_4-0_
 62
    7
 10
259.59212003432219
 20
246.50067453016695
 40
6
 41
1
 50
0
  1
ラミタイト
  0
TEXT
  8
_4-0_
 62
    7
 10
262.88274951135548
 20
232.35892210940543
 40
6
 41
1
 50
0
  1
φ4.0×12
  0
LINE
  8
_4-0_
  6
CONTINUOUS
 62
    4
 10
292.5818086201985
 20
242.78539343076889
 11
314.14887043407759
 21
251.33564870609374
  0
TEXT
  8
_4-0_
 62
    7
 10
293.88653943072507
 20
222.89604183353748
 40
8
 41
1
 50
0
  1
金具取付寸法
  0
TEXT
  8
_1-0_
 62
    7
 10
628.5674896186157
 20
186.67994694505302
 40
7
 41
1
 50
0
  1
※本製品は入力電圧DC24V専用です。
  0
TEXT
  8
_1-0_
 62
    7
 10
433.31020004118841
 20
160.24081703935943
 40
10
 41
0.9999999999999996
 50
0
  1
K：片側仕様 / R：両側仕様
  0
TEXT
  8
_1-0_
 62
    7
 10
433.72730762496337
 20
135.29940022572015
 40
10
 41
0.9999999999999996
 50
0
  1
CR:クリップ / MG:マグネット
  0
TEXT
  8
_0-0_1
 62
    7
 10
732.99305212032993
 20
61.945408162915385
 40
6
 41
1
 50
0
  1
2020年07月22日
  0
TEXT
  8
_4-0_
 62
    7
 10
359.95401409151185
 20
274.91397110317706
 40
6
 41
1
 50
0
  1
1000以下
  0
LINE
  8
_4-0_
  6
CONTINUOUS
 62
    7
 10
351.62232663599548
 20
290.45276199351179
 11
431.51799212287312
 21
290.45276199351179
  0
TEXT
  8
_4-0_
 62
    7
 10
359.95401409151185
 20
265.93606262861476
 40
6
 41
1
 50
0
  1
1001～1500以下
  0
TEXT
  8
_4-0_
 62
    7
 10
359.95401409151185
 20
257.00403149078841
 40
6
 41
1
 50
0
  1
1501以上
  0
TEXT
  8
_4-0_
 62
    7
 10
359.95401409151185
 20
248.26455889527546
 40
6
 41
1
 50
0
  1
2000以上
  0
LINE
  8
_4-0_
  6
CONTINUOUS
 62
    7
 10
351.62232663599548
 20
290.45276199351179
 11
351.62232663599548
 21
246.85276199351182
  0
LINE
  8
_4-0_
  6
CONTINUOUS
 62
    7
 10
351.62232663599548
 20
246.85276199351182
 11
431.51799212287312
 21
246.85276199351182
  0
LINE
  8
_4-0_
  6
CONTINUOUS
 62
    7
 10
431.51799212287312
 20
290.45276199351179
 11
431.51799212287312
 21
246.85276199351182
  0
LINE
  8
_4-0_
  6
CONTINUOUS
 62
    7
 10
351.62232663599548
 20
282.45276199351179
 11
431.51799212287312
 21
282.45276199351179
  0
LINE
  8
_4-0_
  6
CONTINUOUS
 62
    7
 10
351.62232663599548
 20
273.55276199351181
 11
431.51799212287312
 21
273.55276199351181
  0
LINE
  8
_4-0_
  6
CONTINUOUS
 62
    7
 10
351.62232663599548
 20
264.65276199351183
 11
431.51799212287312
 21
264.65276199351183
  0
LINE
  8
_4-0_
  6
CONTINUOUS
 62
    7
 10
351.62232663599548
 20
255.75276199351183
 11
431.51799212287312
 21
255.75276199351183
  0
LINE
  8
_4-0_
  6
CONTINUOUS
 62
    7
 10
412.99941147525698
 20
290.28949889655257
 11
412.99941147525698
 21
247.04644099472912
  0
TEXT
  8
_4-0_
 62
    7
 10
354.60657178675768
 20
283.73710255068607
 40
5
 41
1
 50
0
  1
アルミフレーム全長[mm]
  0
TEXT
  8
_4-0_
 62
    7
 10
355.57956716627359
 20
292.41689575173763
 40
5
 41
1
 50
0
  1
固定金具(CR)必要数
  0
TEXT
  8
_4-0_
 62
    7
 10
418.1975028886078
 20
275.12869190051975
 40
6
 41
1
 50
0
  1
2個
  0
TEXT
  8
_4-0_
 62
    7
 10
418.1975028886078
 20
266.01520296316204
 40
6
 41
1
 50
0
  1
3個
  0
TEXT
  8
_4-0_
 62
    7
 10
418.1975028886078
 20
256.48083652049445
 40
6
 41
1
 50
0
  1
4個
  0
TEXT
  8
_4-0_
 62
    7
 10
418.1975028886078
 20
248.14101647928578
 40
6
 41
1
 50
0
  1
5個
  0
TEXT
  8
_4-0_
 62
    7
 10
417.27170945994214
 20
283.73710255068607
 40
5
 41
1
 50
0
  1
個数
  0
TEXT
  8
_1-0_
 62
    7
 10
628.5674896186157
 20
169.65032459838835
 40
7
 41
1
 50
0
  1
※定格表を参考にして最大連結長さを守って下さい。
  0
TEXT
  8
_4-0_
 62
    7
 10
190.28391405667981
 20
234.02155947759996
 40
8
 41
1
 50
0
  1
固定金具
  0
TEXT
  8
_3-0_
 62
    7
 10
190.72357853466659
 20
225.58354494022467
 40
5
 41
1
 50
0
  1
※マグネット仕様時
  0
TEXT
  8
_3-0_
 62
    7
 10
190.72357853466659
 20
218.72713767435377
 40
5
 41
1
 50
0
  1
(オプション)には
  0
TEXT
  8
_3-0_
 62
    7
 10
190.72357853466659
 20
211.02104857586218
 40
5
 41
1
 50
0
  1
付属しません。
  0
LINE
  8
_4-0_
  6
CONTINUOUS
 62
    4
 10
226.49735089591752
 20
260.61914446646438
 11
214.5573679363888
 21
244.01510566336981
  0
TEXT
  8
_1-0_
 62
    7
 10
102.44498607005119
 20
19.800000000000011
 40
7
 41
1
 50
0
  1
WW:3500K / L30:3000K / L27:2700K / L25:2500K
  0
ENDSEC
  0
EOF
