  0
SECTION
  2
HEADER
  9
$ACADVER
  1
AC1009
  9
$INSBASE
 10
0
 20
0
 30
0
  9
$EXTMIN
 10
0
 20
0
  9
$EXTMAX
 10
840
 20
594
  9
$LIMMIN
 10
0
 20
0
  9
$LIMMAX
 10
840
 20
594
  9
$LTSCALE
 40
2
  0
ENDSEC
  0
SECTION
  2
TABLES
  0
TABLE
  2
LTYPE
 70
     9
  0
LTYPE
  2
CONTINUOUS
 70
    64
  3
実線
 72
    65
 73
     0
 40
0.0
  0
LTYPE
  2
DASHED1
 70
    64
  3
--  --  --  --  --  --  --  --  
 72
    65
 73
     2
 40
2.5
 49
1.25
 49
-1.25
  0
LTYPE
  2
DASHED2
 70
    64
  3
----    ----    ----    ----    
 72
    65
 73
     2
 40
5.0
 49
2.5
 49
-2.5
  0
LTYPE
  2
DASHED3
 70
    64
  3
------  ------  ------  ------  
 72
    65
 73
     2
 40
5.0
 49
3.75
 49
-1.25
  0
LTYPE
  2
CENTER1
 70
    64
  3
----- - ----- - ----- - ----- - 
 72
    65
 73
     4
 40
10.0
 49
6.25
 49
-1.25
 49
1.25
 49
-1.25
  0
LTYPE
  2
CENTER2
 70
    64
  3
----------  --  ----------  --  
 72
    65
 73
     4
 40
20.0
 49
12.5
 49
-2.5
 49
2.5
 49
-2.5
  0
LTYPE
  2
PHANTOM1
 70
    64
  3
--- - - --- - - --- - - --- - - 
 72
    65
 73
     6
 40
10.0
 49
3.25
 49
-1.25
 49
1.25
 49
-1.25
 49
1.25
 49
-1.25
  0
LTYPE
  2
PHANTOM2
 70
    64
  3
--------  -  -  --------  -  -  
 72
    65
 73
     6
 40
20.0
 49
10.0
 49
-2.5
 49
1.25
 49
-2.5
 49
1.25
 49
-2.5
  0
LTYPE
  2
DOT
 70
    64
  3
-   -   -   -   -   -   -   -   
 72
    65
 73
     2
 40
2.5
 49
0.625
 49
-1.875
  0
LTYPE
  2
DUMMY
 70
    64
  3
ダミー
 72
    65
 73
     0
 40
0.0
  0
LTYPE
  2
RAND1
 70
    64
  3
ランダム線1
 72
    65
 73
     4
 40
10.0
 49
1.0
 49
-2.0
 49
3.0
 49
-4.0
  0
LTYPE
  2
RAND2
 70
    64
  3
ランダム線2
 72
    65
 73
     4
 40
14.0
 49
2.0
 49
-3.0
 49
4.0
 49
-5.0
  0
LTYPE
  2
RAND3
 70
    64
  3
ランダム線3
 72
    65
 73
     4
 40
18.0
 49
3.0
 49
-4.0
 49
5.0
 49
-6.0
  0
LTYPE
  2
RAND4
 70
    64
  3
ランダム線4
 72
    65
 73
     4
 40
22.0
 49
4.0
 49
-5.0
 49
6.0
 49
-7.0
  0
LTYPE
  2
RAND5
 70
    64
  3
ランダム線5
 72
    65
 73
     4
 40
26.0
 49
5.0
 49
-6.0
 49
7.0
 49
-8.0
  0
LTYPE
  2
LONG1
 70
    64
  3
----------  --  ----------  --  
 72
    65
 73
     4
 40
40.0
 49
32.5
 49
-2.5
 49
2.5
 49
-2.5
  0
LTYPE
  2
LONG2
 70
    64
  3
--------  -  -  --------  -  -  
 72
    65
 73
     6
 40
40.0
 49
30.0
 49
-2.5
 49
1.25
 49
-2.5
 49
1.25
 49
-2.5
  0
LTYPE
  2
LONG3
 70
    64
  3
+++++++++++++++..+++++++++++++++
 72
    65
 73
     2
 40
40.0
 49
37.5
 49
-2.5
  0
LTYPE
  2
LONG4
 70
    64
  3
+++++++++++++++..+++++++++++++++
 72
    65
 73
     2
 40
80.0
 49
75.0
 49
-5.0
  0
LTYPE
  2
LONG5
 70
    64
  3
----------  --  ----------  --  
 72
    65
 73
     4
 40
60.0
 49
37.5
 49
-7.5
 49
7.5
 49
-7.5
  0
LTYPE
  2
dashed
 70
   64
  3
-------   -------------   ------
 72
   65
 73
    2
 40
7.5
 49
6
 49
-1.5
  0
LTYPE
  2
dashed_spaced
 70
   64
  3
----        --------        ----
 72
   65
 73
    2
 40
12
 49
6
 49
-6
  0
LTYPE
  2
long_dashed_dotted
 70
   64
  3
------------- --- --------------
 72
   65
 73
    4
 40
15.25
 49
12
 49
-1.5
 49
0.25
 49
-1.5
  0
LTYPE
  2
long_dashed_double-dotted
 70
   64
  3
----------- --- --- ------------
 72
   65
 73
    6
 40
17
 49
12
 49
-1.5
 49
0.25
 49
-1.5
 49
0.25
 49
-1.5
  0
LTYPE
  2
long_dashed_triplicate-dotted
 70
   64
  3
--------- --- --- --- ----------
 72
   65
 73
    8
 40
18.75
 49
12
 49
-1.5
 49
0.25
 49
-1.5
 49
0.25
 49
-1.5
 49
0.25
 49
-1.5
  0
LTYPE
  2
dotted
 70
   64
  3
   -       -       -       -    
 72
   65
 73
    2
 40
1.75
 49
0.25
 49
-1.5
  0
LTYPE
  2
chain
 70
   64
  3
-------------- -- --------------
 72
   65
 73
    4
 40
18.5
 49
12
 49
-1.5
 49
3.5
 49
-1.5
  0
LTYPE
  2
chain_double_dash
 70
   64
  3
------------ -- -- -------------
 72
   65
 73
    6
 40
23.5
 49
12
 49
-1.5
 49
3.5
 49
-1.5
 49
3.5
 49
-1.5
  0
LTYPE
  2
dashed_dotted
 70
   64
  3
-----------     -     ----------
 72
   65
 73
    4
 40
9.25
 49
6
 49
-1.5
 49
0.25
 49
-1.5
  0
LTYPE
  2
double-dashed_dotted
 70
   64
  3
------   -----------   -   -----
 72
   65
 73
    6
 40
16.75
 49
6
 49
-1.5
 49
6
 49
-1.5
 49
0.25
 49
-1.5
  0
LTYPE
  2
dashed_double-dotted
 70
   64
  3
---------    -    -    ---------
 72
   65
 73
    6
 40
11
 49
6
 49
-1.5
 49
0.25
 49
-1.5
 49
0.25
 49
-1.5
  0
LTYPE
  2
double-dashed_double-dotted
 70
   64
  3
-----   ---------   -   -   ----
 72
   65
 73
    8
 40
18.5
 49
6
 49
-1.5
 49
6
 49
-1.5
 49
0.25
 49
-1.5
 49
0.25
 49
-1.5
  0
LTYPE
  2
dashed_triplicate-dotted
 70
   64
  3
-------    -    -    -    ------
 72
   65
 73
    8
 40
12.75
 49
6
 49
-1.5
 49
0.25
 49
-1.5
 49
0.25
 49
-1.5
 49
0.25
 49
-1.5
  0
LTYPE
  2
double-dashed_triplicate-dotted
 70
   64
  3
-----  ---------  -  -  -  -----
 72
   65
 73
   10
 40
20.25
 49
6
 49
-1.5
 49
6
 49
-1.5
 49
0.25
 49
-1.5
 49
0.25
 49
-1.5
 49
0.25
 49
-1.5
  0
LTYPE
  2
undefined
 70
   64
  3
--------------------------------
 72
   65
 73
    0
 40
0
  0
LTYPE
  2
_
 70
   64
  3
                                
 72
   65
 73
    0
 40
0
  0
LTYPE
  2
__18
 70
   64
  3
                                
 72
   65
 73
    0
 40
0
  0
LTYPE
  2
__19
 70
   64
  3
                                
 72
   65
 73
    0
 40
0
  0
LTYPE
  2
__20
 70
   64
  3
                                
 72
   65
 73
    0
 40
0
  0
LTYPE
  2
__21
 70
   64
  3
                                
 72
   65
 73
    0
 40
0
  0
LTYPE
  2
__22
 70
   64
  3
                                
 72
   65
 73
    0
 40
0
  0
LTYPE
  2
__23
 70
   64
  3
                                
 72
   65
 73
    0
 40
0
  0
LTYPE
  2
__24
 70
   64
  3
                                
 72
   65
 73
    0
 40
0
  0
LTYPE
  2
__25
 70
   64
  3
                                
 72
   65
 73
    0
 40
0
  0
LTYPE
  2
__26
 70
   64
  3
                                
 72
   65
 73
    0
 40
0
  0
LTYPE
  2
__27
 70
   64
  3
                                
 72
   65
 73
    0
 40
0
  0
LTYPE
  2
__28
 70
   64
  3
                                
 72
   65
 73
    0
 40
0
  0
LTYPE
  2
__29
 70
   64
  3
                                
 72
   65
 73
    0
 40
0
  0
LTYPE
  2
__30
 70
   64
  3
                                
 72
   65
 73
    0
 40
0
  0
LTYPE
  2
__31
 70
   64
  3
                                
 72
   65
 73
    0
 40
0
  0
LTYPE
  2
__32
 70
   64
  3
                                
 72
   65
 73
    0
 40
0
  0
ENDTAB
  0
TABLE
  2
STYLE
  5
3
100
AcDbSymbolTable
 70
     1
  0
STYLE
  5
10
100
AcDbSymbolTableRecord
100
AcDbTextStyleTableRecord
  2
STANDARD
 70
     0
 40
0.0
 41
1.0
 50
0.0
 71
     0
 42
0.2
  3
txt
  4
bigfont.shx
  0
STYLE
  5
26
100
AcDbSymbolTableRecord
100
AcDbTextStyleTableRecord
  2
TATEGAKI
 70
    68
 40
0.0
 41
1.0
 50
0.0
 71
     0
 42
1.0
  3
txt
  4
bigfont.shx
  0
ENDTAB
  0
TABLE
  2
LAYER
 70
    5
  0
LAYER
  2
_0-0_1
 70
   64
 62
    7
  6
CONTINUOUS
  0
LAYER
  2
_1-0_
 70
   64
 62
    7
  6
CONTINUOUS
  0
LAYER
  2
_1-6_23
 70
   64
 62
    7
  6
CONTINUOUS
  0
LAYER
  2
_2-0_
 70
   64
 62
    7
  6
CONTINUOUS
  0
LAYER
  2
ADD_LINE
 70
   64
 62
    7
  6
CONTINUOUS
  0
ENDTAB
  0
ENDSEC
  0
SECTION
  2
BLOCKS
  0
ENDSEC
  0
SECTION
  2
ENTITIES
  0
TEXT
  8
_1-0_
 62
    7
 10
81.057940904893826
 20
91.297271765993742
 40
10
 41
1
 50
0
  1
LXSS-FGC-505-N
  0
TEXT
  8
_1-0_
 62
    7
 10
81.057940904893826
 20
75.770271419546106
 40
10
 41
1
 50
0
  1
LXSS-FGC-1000-N
  0
TEXT
  8
_1-0_
 62
    7
 10
81.057940904893826
 20
60.175578315595089
 40
10
 41
1
 50
0
  1
LXSS-FGC-1495-N
  0
TEXT
  8
_1-0_
 62
    7
 10
81.057940904893826
 20
43.931106332312794
 40
10
 41
1
 50
0
  1
LXSS-FGC-1990-N
  0
TEXT
  8
_1-0_
 62
    7
 10
537.86620017493442
 20
90.060481686600326
 40
9.9999999999999716
 41
1.0000000000000029
 50
0
  1
[lm]
  0
LINE
  8
_1-6_23
  6
CONTINUOUS
 62
    7
 10
818.24613889818374
 20
96.813026878876087
 11
628.2461548981837
 21
96.813026878876087
  0
LINE
  8
_1-6_23
  6
CONTINUOUS
 62
    7
 10
818.24613889818374
 20
106.81302687887609
 11
628.2461548981837
 21
106.81302687887609
  0
LINE
  8
_1-6_23
  6
CONTINUOUS
 62
    7
 10
818.24613889818374
 20
116.81302687887609
 11
628.2461548981837
 21
116.81302687887609
  0
TEXT
  8
_0-0_1
 62
    7
 10
64.00822186560606
 20
184.74056006602689
 40
10
 41
1.0000000000000013
 50
0
  1
◆型式内容
  0
LINE
  8
_0-0_1
  6
CONTINUOUS
 62
    7
 10
64.5684695864432
 20
183.92324281811977
 11
115.37110116539054
 21
183.92324281811977
  0
LINE
  8
_1-6_23
  6
CONTINUOUS
 62
    7
 10
818.24613889818374
 20
126.81302687887609
 11
628.2461548981837
 21
126.81302687887609
  0
LINE
  8
_0-0_1
  6
CONTINUOUS
 62
    7
 10
578.29442489818371
 20
520.01924487887607
 11
578.29442489818371
 21
510.01928487887614
  0
LINE
  8
_0-0_1
  6
CONTINUOUS
 62
    7
 10
598.29444089818367
 20
520.01924487887607
 11
598.29444089818367
 21
510.01928487887614
  0
LINE
  8
_0-0_1
  6
CONTINUOUS
 62
    7
 10
658.29444089818367
 20
520.01924487887607
 11
658.29444089818367
 21
510.01928487887614
  0
LINE
  8
_0-0_1
  6
CONTINUOUS
 62
    7
 10
578.29442489818371
 20
530.81302887887614
 11
578.29442489818371
 21
520.01924487887607
  0
LINE
  8
_0-0_1
  6
CONTINUOUS
 62
    7
 10
598.29444089818367
 20
530.81302887887614
 11
598.29444089818367
 21
520.01924487887607
  0
LINE
  8
_0-0_1
  6
CONTINUOUS
 62
    7
 10
658.29444089818367
 20
530.81302887887614
 11
658.29444089818367
 21
520.01924487887607
  0
LINE
  8
_0-0_1
  6
CONTINUOUS
 62
    7
 10
778.29444089818367
 20
530.81302887887614
 11
778.29444089818367
 21
510.01928487887614
  0
LINE
  8
_0-0_1
  6
CONTINUOUS
 62
    7
 10
798.29444089818355
 20
530.81302887887614
 11
798.29444089818355
 21
510.01928487887614
  0
LINE
  8
_0-0_1
  6
CONTINUOUS
 62
    7
 10
818.24613889818374
 20
520.01924487887607
 11
578.29445689818363
 21
520.01924487887607
  0
LINE
  8
_0-0_1
  6
CONTINUOUS
 62
    7
 10
578.29442489818371
 20
510.01928487887614
 11
818.24613889818374
 21
510.01928487887614
  0
TEXT
  8
_0-0_1
 62
    7
 10
581.92572491889473
 20
522.33613221977896
 40
6
 41
1
 50
0
  1
Ｎｏ
  0
TEXT
  8
_0-0_1
 62
    7
 10
612.62840636708427
 20
522.43485466816537
 40
6
 41
1.0000000000000007
 50
0
  1
年　月　日
  0
TEXT
  8
_0-0_1
 62
    7
 10
694.07442628591548
 20
522.2867709955857
 40
6
 41
1.0000000000000011
 50
0
  1
訂　正　記　事
  0
TEXT
  8
_0-0_1
 62
    7
 10
780.90081964180854
 20
521.01571947261004
 40
8.0000000000000284
 41
0.9999999999999973
 50
0
  1
担当
  0
TEXT
  8
_0-0_1
 62
    7
 10
800.250419525555
 20
521.11444192099657
 40
8
 41
1.0000000000000009
 50
0
  1
検印
  0
LINE
  8
_0-0_1
  6
CONTINUOUS
 62
    7
 10
58.246204898183635
 20
530.81302887887614
 11
818.24613889818374
 21
530.81302887887614
  0
LINE
  8
_0-0_1
  6
CONTINUOUS
 62
    7
 10
58.252538898183673
 20
16.813014878876174
 11
58.246204898183635
 21
530.81302887887614
  0
LINE
  8
_0-0_1
  6
CONTINUOUS
 62
    7
 10
818.24613889818374
 20
16.813014878876174
 11
58.246204898183635
 21
16.813014878876174
  0
LINE
  8
_0-0_1
  6
CONTINUOUS
 62
    7
 10
818.24613889818374
 20
530.81302887887614
 11
818.24613889818374
 21
16.813014878876174
  0
LINE
  8
_0-0_1
  6
CONTINUOUS
 62
    7
 10
728.24613889818374
 20
56.813022878876097
 11
728.24613889818374
 21
16.813014878876174
  0
LINE
  8
_0-0_1
  6
CONTINUOUS
 62
    7
 10
728.24613889818374
 20
76.813026878876087
 11
728.24613889818374
 21
56.813022878876097
  0
LINE
  8
_0-0_1
  6
CONTINUOUS
 62
    7
 10
718.2461548981837
 20
56.813022878876097
 11
718.2461548981837
 21
16.813014878876174
  0
LINE
  8
_0-0_1
  6
CONTINUOUS
 62
    7
 10
648.29209689818367
 20
49.37143087887614
 11
648.29209689818367
 21
43.371436878876125
  0
LINE
  8
_0-0_1
  6
CONTINUOUS
 62
    7
 10
648.29209689818367
 20
49.37143087887614
 11
662.29209289818368
 21
52.371428878876088
  0
LINE
  8
_0-0_1
  6
CONTINUOUS
 62
    7
 10
662.29209289818368
 20
52.371428878876088
 11
662.29209289818368
 21
40.371426878876093
  0
LINE
  8
_0-0_1
  6
CONTINUOUS
 62
    7
 10
648.29209689818367
 20
43.371436878876125
 11
662.29209289818368
 21
40.371426878876093
  0
LINE
  8
_0-0_1
  6
CENTER1
 62
    7
 10
666.29205689818377
 20
46.371432878876135
 11
630.2920868981837
 21
46.371432878876135
  0
LINE
  8
_0-0_1
  6
CENTER1
 62
    7
 10
638.29206489818375
 20
54.37143487887613
 11
638.29206489818375
 21
38.371428878876088
  0
LINE
  8
_0-0_1
  6
CONTINUOUS
 62
    7
 10
718.2461548981837
 20
76.813026878876087
 11
718.2461548981837
 21
16.813014878876174
  0
LINE
  8
_0-0_1
  6
CONTINUOUS
 62
    7
 10
778.2461548981837
 20
76.813026878876087
 11
778.2461548981837
 21
56.813022878876097
  0
LINE
  8
_0-0_1
  6
CONTINUOUS
 62
    7
 10
788.24623889818372
 20
76.813026878876087
 11
788.24623889818372
 21
56.813022878876097
  0
LINE
  8
_0-0_1
  6
CONTINUOUS
 62
    7
 10
668.24618889818362
 20
56.813022878876097
 11
668.24618889818362
 21
36.813016878876169
  0
LINE
  8
_0-0_1
  6
CONTINUOUS
 62
    7
 10
678.24617289818366
 20
56.813022878876097
 11
678.24617289818366
 21
36.813016878876169
  0
LINE
  8
_0-0_1
  6
CONTINUOUS
 62
    7
 10
698.24623889818372
 20
76.813026878876087
 11
698.24623889818372
 21
56.813022878876097
  0
LINE
  8
_0-0_1
  6
CONTINUOUS
 62
    7
 10
688.2461548981837
 20
76.813026878876087
 11
688.2461548981837
 21
56.813022878876097
  0
LINE
  8
_0-0_1
  6
CONTINUOUS
 62
    7
 10
668.24618889818362
 20
76.813026878876087
 11
668.24618889818362
 21
56.813022878876097
  0
LINE
  8
_0-0_1
  6
CONTINUOUS
 62
    7
 10
658.2461548981837
 20
76.813026878876087
 11
658.2461548981837
 21
56.813022878876097
  0
LINE
  8
_0-0_1
  6
CONTINUOUS
 62
    7
 10
638.24613889818374
 20
76.813026878876087
 11
638.24613889818374
 21
56.813022878876097
  0
LINE
  8
_0-0_1
  6
CONTINUOUS
 62
    7
 10
818.24613889818374
 20
76.813026878876087
 11
628.2461548981837
 21
76.813026878876087
  0
LINE
  8
_0-0_1
  6
CONTINUOUS
 62
    7
 10
818.24613889818374
 20
56.813022878876097
 11
628.2461548981837
 21
56.813022878876097
  0
LINE
  8
_0-0_1
  6
CONTINUOUS
 62
    7
 10
818.24613889818374
 20
36.813016878876169
 11
628.2461548981837
 21
36.813016878876169
  0
CIRCLE
  8
_0-0_1
  6
CONTINUOUS
 62
    7
 10
638.29206489818375
 20
46.371432878876135
 40
6
  0
CIRCLE
  8
_0-0_1
  6
CONTINUOUS
 62
    7
 10
638.29206489818375
 20
46.371432878876135
 40
3
  0
LINE
  8
_0-0_1
  6
CONTINUOUS
 62
    7
 10
818.24613889818374
 20
86.813026878876087
 11
628.2461548981837
 21
86.813026878876087
  0
LINE
  8
_0-0_1
  6
CONTINUOUS
 62
    7
 10
668.24618889818362
 20
76.813026878876087
 11
668.24618889818362
 21
86.813026878876087
  0
TEXT
  8
_0-0_1
 62
    7
 10
639.72501689818364
 20
77.604776878876123
 40
8
 41
1.0000000000000009
 50
0
  1
出図
  0
LINE
  8
_0-0_1
  6
CONTINUOUS
 62
    7
 10
728.2461548981837
 20
76.813026878876087
 11
728.2461548981837
 21
86.813026878876087
  0
TEXT
  8
_0-0_1
 62
    7
 10
691.57108889818369
 20
78.605196878876143
 40
6
 41
2
 50
0
  1
.   .
  0
LINE
  8
_0-0_1
  6
CONTINUOUS
 62
    7
 10
798.24613889818363
 20
86.813026878876087
 11
798.24613889818363
 21
76.813026878876087
  0
TEXT
  8
_0-0_1
 62
    7
 10
632.96866889818375
 20
72.802968878876129
 40
6
 41
1
 50
0
  1
設計
  7
TATEGAKI
  0
TEXT
  8
_0-0_1
 62
    7
 10
662.87419089818377
 20
72.802968878876129
 40
6
 41
1
 50
0
  1
製図
  7
TATEGAKI
  0
TEXT
  8
_0-0_1
 62
    7
 10
692.60065489818362
 20
72.802968878876129
 40
6
 41
1
 50
0
  1
検図
  7
TATEGAKI
  0
TEXT
  8
_0-0_1
 62
    7
 10
723.30341689818374
 20
72.965028878876126
 40
5.9999999999999822
 41
1.0000000000000029
 50
0
  1
作図
  7
TATEGAKI
  0
TEXT
  8
_0-0_1
 62
    7
 10
783.29835889818378
 20
72.840602878876098
 40
6
 41
1
 50
0
  1
尺度
  7
TATEGAKI
  0
TEXT
  8
_0-0_1
 62
    7
 10
673.51938089818373
 20
53.368536878876171
 40
6
 41
1
 50
0
  1
材質
  7
TATEGAKI
  0
TEXT
  8
_0-0_1
 62
    7
 10
723.27120889818366
 20
53.368536878876171
 40
6
 41
1
 50
0
  1
品名
  7
TATEGAKI
  0
TEXT
  8
_0-0_1
 62
    7
 10
723.69572689818369
 20
33.065162878876151
 40
6
 41
1
 50
0
  1
図番
  7
TATEGAKI
  0
TEXT
  8
_0-0_1
 62
    7
 10
695.22081778077472
 20
42.37764287887606
 40
8.0000000000000568
 41
0.9999999999999964
 50
0
  1
-
  0
TEXT
  8
_0-0_1
 62
    7
 10
641.53094567047697
 20
21.576153643551322
 40
8
 41
0.9999999999999994
 50
0
  1
ＦＫＫ株式会社
  0
LINE
  8
_0-0_1
  6
CONTINUOUS
 62
    7
 10
628.2461548981837
 20
86.425776182987988
 11
628.2461548981837
 21
16.813014878876174
  0
LINE
  8
_1-0_
  6
CONTINUOUS
 62
    7
 10
648.26590889818351
 20
136.81302687887609
 11
648.26590889818351
 21
86.813026878876087
  0
LINE
  8
_1-0_
  6
CONTINUOUS
 62
    7
 10
648.26590889818351
 20
136.81302687887609
 11
648.26590889818351
 21
146.64181645146996
  0
LINE
  8
_1-0_
  6
CONTINUOUS
 62
    7
 10
798.24613889818363
 20
136.81302687887609
 11
798.24613889818363
 21
146.73493814459161
  0
TEXT
  8
_0-0_1
 62
    7
 10
617.42990388038447
 20
511.74724101103595
 40
6
 41
1
 50
0
  1
.　　.
  0
LINE
  8
_1-0_
  6
CONTINUOUS
 62
    7
 10
74.72867713211275
 20
120.74284121895695
 11
74.72867713211275
 21
40.742841218956983
  0
LINE
  8
_1-0_
  6
CONTINUOUS
 62
    7
 10
74.72867713211275
 20
40.742841218956983
 11
559.90037099802862
 21
40.742841218956983
  0
LINE
  8
_1-0_
  6
CONTINUOUS
 62
    7
 10
74.72867713211275
 20
120.74284121895695
 11
559.90037099802862
 21
120.74284121895695
  0
LINE
  8
_1-0_
  6
CONTINUOUS
 62
    7
 10
559.90037099802862
 20
120.74284121895695
 11
559.90037099802862
 21
40.742841218956983
  0
TEXT
  8
_1-0_
 62
    7
 10
107.79151985306402
 20
106.55826265958288
 40
11.199999999999989
 41
0.9999999999999995
 50
0
  1
型式
  0
TEXT
  8
_1-0_
 62
    7
 10
515.29900074665636
 20
110.29331556963569
 40
9.9999999999999716
 41
1.0000000000000031
 50
0
  1
全光束
  0
TEXT
  8
_1-0_
 62
    7
 10
520.32757217522783
 20
104.42664890296905
 40
6
 41
1.0000000000000007
 50
0
  1
N:5000K
  0
LINE
  8
_1-0_
  6
CONTINUOUS
 62
    7
 10
559.90037099802862
 20
120.74284121895695
 11
614.1942388418945
 21
120.74284121895695
  0
LINE
  8
_1-0_
  6
CONTINUOUS
 62
    7
 10
614.1942388418945
 20
120.74284121895695
 11
614.1942388418945
 21
40.742841218956983
  0
LINE
  8
_1-0_
  6
CONTINUOUS
 62
    7
 10
559.90037099802862
 20
40.742841218956983
 11
614.1942388418945
 21
40.742841218956983
  0
LINE
  8
_1-0_
  6
CONTINUOUS
 62
    7
 10
559.90037099802862
 20
104.74284121895693
 11
613.63550868316429
 21
104.74284121895693
  0
LINE
  8
_1-0_
  6
CONTINUOUS
 62
    7
 10
178.538048231913
 20
120.74284121895695
 11
178.538048231913
 21
40.742841218956983
  0
TEXT
  8
_1-0_
 62
    7
 10
669.97882144036555
 20
87.83692227157573
 40
8
 41
1
 50
0
  1
樹脂カバー
  0
TEXT
  8
_1-0_
 62
    7
 10
660.75977382131794
 20
97.614700049353502
 40
8
 41
1
 50
0
  1
アルミフレーム
  0
LINE
  8
_1-0_
  6
CONTINUOUS
 62
    7
 10
798.24613889818363
 20
136.81302687887609
 11
798.24613889818363
 21
86.813026878876087
  0
TEXT
  8
_1-0_
 62
    7
 10
294.25623178722026
 20
133.14240434094671
 40
10
 41
0.9999999999999996
 50
0
  1
④　LED発光色
  0
TEXT
  8
_1-0_
 62
    7
 10
412.70702543801389
 20
171.69478529332767
 40
10
 41
0.9999999999999996
 50
0
  1
⑤　電源コネクター仕様
  0
TEXT
  8
_1-0_
 62
    7
 10
412.98639051737894
 20
147.66938846793084
 40
10
 41
0.9999999999999996
 50
0
  1
⑥　固定仕様
  0
TEXT
  8
_1-0_
 62
    7
 10
294.12481910043596
 20
171.10387500935258
 40
10
 41
1.0000000000000004
 50
0
  1
①　LED基板
  0
TEXT
  8
_1-0_
 62
    7
 10
294.14611656961574
 20
158.7262297292009
 40
10
 41
0.9999999999999996
 50
0
  1
②　アルミフレーム
  0
TEXT
  8
_1-0_
 62
    7
 10
74.497021761917438
 20
28.309060472902274
 40
7
 41
1
 50
0
  1
発光色  D:6500K / DN:5700K / N:5000K / NW:4500K / W:4000K 
  0
TEXT
  8
_1-0_
 62
    7
 10
310.4706480766996
 20
28.872036057221408
 40
7
 41
1
 50
0
  1
全光束比率  D:6500K(97%) / DN:5700K(99%) / N:5000K(100%) / NW:4500K(99%) / W:4000K(97%)
  0
TEXT
  8
_1-0_
 62
    7
 10
310.82875115332115
 20
20.350970017636655
 40
7
 41
1
 50
0
  1
N色基準
  0
TEXT
  8
_1-0_
 62
    7
 10
352.51622910746579
 20
20.009523809523785
 40
7
 41
1
 50
0
  1
WW:3500K(93%) / L30:3000K(93%) / L27:2700K(90%) / L25:2500K(77%)
  0
LINE
  8
_1-0_
  6
CONTINUOUS
 62
    7
 10
74.72867713211275
 20
104.74284121895693
 11
559.90037099802862
 21
104.74284121895693
  0
TEXT
  8
_1-0_
 62
    7
 10
537.86620017493442
 20
73.956382293558761
 40
10
 41
1.0000000000000007
 50
0
  1
[lm]
  0
TEXT
  8
_1-0_
 62
    7
 10
537.86620017493442
 20
57.519094637212902
 40
10
 41
1.0000000000000007
 50
0
  1
[lm]
  0
TEXT
  8
_1-0_
 62
    7
 10
537.86620017493442
 20
41.970309016345141
 40
10
 41
1
 50
0
  1
[lm]
  0
TEXT
  8
_1-0_
 62
    7
 10
634.42048976853198
 20
138.03396226415094
 40
7
 41
1
 50
0
  1
⑥
  0
TEXT
  8
_1-0_
 62
    7
 10
634.42048976853198
 20
127.69053724418453
 40
7
 41
1
 50
0
  1
⑤
  0
TEXT
  8
_1-0_
 62
    7
 10
634.42048976853198
 20
117.97888158264055
 40
7
 41
1
 50
0
  1
④
  0
TEXT
  8
_1-0_
 62
    7
 10
634.42048976853198
 20
107.90919184722145
 40
7
 41
1
 50
0
  1
③
  0
TEXT
  8
_1-0_
 62
    7
 10
634.42048976853198
 20
97.98758578438202
 40
7
 41
1
 50
0
  1
②
  0
TEXT
  8
_1-0_
 62
    7
 10
634.42048976853198
 20
87.917896048962916
 40
7
 41
1
 50
0
  1
①
  0
LINE
  8
_1-0_
  6
CONTINUOUS
 62
    7
 10
818.24613889818374
 20
136.81302687887609
 11
628.2461548981837
 21
136.81302687887609
  0
TEXT
  8
_1-0_
 62
    7
 10
806.0673116302487
 20
137.45914449379796
 40
8
 41
1
 50
0
  1
1
  0
TEXT
  8
_1-0_
 62
    7
 10
806.0673116302487
 20
127.58824502289849
 40
8
 41
1
 50
0
  1
1
  0
TEXT
  8
_1-0_
 62
    7
 10
806.0673116302487
 20
118.0898323244858
 40
8
 41
1
 50
0
  1
1
  0
TEXT
  8
_1-0_
 62
    7
 10
806.0673116302487
 20
107.47395930861279
 40
8
 41
1
 50
0
  1
1
  0
TEXT
  8
_1-0_
 62
    7
 10
806.0673116302487
 20
97.69618153083502
 40
8
 41
1
 50
0
  1
1
  0
TEXT
  8
_1-0_
 62
    7
 10
806.0673116302487
 20
87.88736318868331
 40
8
 41
1
 50
0
  1
1
  0
TEXT
  8
_1-0_
 62
    7
 10
742.22602274147198
 20
97.343095111081908
 40
4
 41
1
 50
0
  1
アルミ : A6063SS-T5
  0
TEXT
  8
_1-0_
 62
    7
 10
743.18395277267723
 20
89.070863691016513
 40
5
 41
0.8800000000000001
 50
0
  1
ポリカーボネイト 乳白色
  0
TEXT
  8
_1-0_
 62
    7
 10
743.18395277267723
 20
129.42928901661875
 40
5
 41
0.8800000000000001
 50
0
  1
ポリカーボネイト 乳白色
  0
TEXT
  8
_1-0_
 62
    7
 10
743.18395277267723
 20
139.45303011370737
 40
5
 41
0.8800000000000001
 50
0
  1
ポリカーボネイト 乳白色
  0
TEXT
  8
_1-0_
 62
    7
 10
742.22602274147198
 20
101.87501750967098
 40
4
 41
1
 50
0
  1
シルバーアルマイト加工
  0
TEXT
  8
_1-0_
 62
    7
 10
742.10971746522205
 20
122.01172060477319
 40
4
 41
1
 50
0
  1
日本圧着端子SMP-02V-NC
  0
TEXT
  8
_1-0_
 62
    7
 10
742.10971746522205
 20
117.40079970011243
 40
4
 41
1
 50
0
  1
リード線：AWG26 0.12sq L=60
  0
TEXT
  8
_1-0_
 62
    7
 10
742.10971746522205
 20
107.50517661837071
 40
4
 41
1
 50
0
  1
リード線：AWG26 0.12sq L=60
  0
TEXT
  8
_1-0_
 62
    7
 10
742.10971746522205
 20
112.11609752303147
 40
4
 41
1
 50
0
  1
日本圧着端子SMP-02V-N
  0
LINE
  8
_1-6_23
  6
CONTINUOUS
 62
    7
 10
628.2461548981837
 20
146.71302687887609
 11
628.2461548981837
 21
86.847046785550731
  0
LINE
  8
_1-0_
  6
CONTINUOUS
 62
    7
 10
628.2461548981837
 20
146.71302687887609
 11
818.24613889818374
 21
146.71302687887609
  0
LINE
  8
_1-0_
  6
CONTINUOUS
 62
    7
 10
740.09278889818358
 20
87.073472447832046
 11
740.09278889818358
 21
146.63173975832404
  0
LINE
  8
_2-0_
  6
CONTINUOUS
 62
    7
 10
58.248172549031608
 20
371.13943188292455
 11
818.24613889818352
 21
371.13943188292455
  0
LINE
  8
_0-0_1
  6
CONTINUOUS
 62
    7
 10
658.29444089818355
 20
510.01928487887608
 11
658.29444089818344
 21
371.4905660377359
  0
TEXT
  8
_2-0_
 62
    7
 10
679.74144671026215
 20
427.26167042943348
 40
8
 41
1
 50
90
  1
12.6
  0
TEXT
  8
_2-0_
 62
    7
 10
712.26810051872417
 20
496.30031238285642
 40
8
 41
1
 50
0
  1
A-A 断面図
  0
LINE
  8
_2-0_
  6
CONTINUOUS
 62
    7
 10
726.47219704734403
 20
431.31865848350265
 11
741.47219704734403
 21
431.31865848350265
  0
LINE
  8
_2-0_
  6
CONTINUOUS
 62
    7
 10
741.47219704734403
 20
431.31865848350265
 11
741.47219704734403
 21
426.05840850843902
  0
LINE
  8
_2-0_
  6
CONTINUOUS
 62
    7
 10
726.47219704734403
 20
431.31865848350265
 11
726.47219704734403
 21
426.05840850843902
  0
ARC
  8
_2-0_
  6
CONTINUOUS
 62
    7
 10
716.57219704734325
 20
464.48872376785357
 40
1.199999999999994
 50
269.99999999999989
 51
359.99999999999989
  0
LINE
  8
_2-0_
  6
CONTINUOUS
 62
    7
 10
717.7721970473433
 20
464.48872376785357
 11
717.7721970473433
 21
465.68872376785362
  0
ARC
  8
_2-0_
  6
CONTINUOUS
 62
    7
 10
716.57219704734325
 20
465.68872376785362
 40
1.1999999999999984
 50
359.99999999999989
 51
89.999999999999901
  0
LINE
  8
_2-0_
  6
CONTINUOUS
 62
    7
 10
716.57219704734325
 20
466.88872376785355
 11
711.17219704734316
 21
466.88872376785355
  0
ARC
  8
_2-0_
  6
CONTINUOUS
 62
    7
 10
711.17219704734316
 20
468.08872376785359
 40
1.1999999999999984
 50
179.99999999999986
 51
269.99999999999989
  0
LINE
  8
_2-0_
  6
CONTINUOUS
 62
    7
 10
709.97219704734312
 20
468.08872376785359
 11
709.97219704734312
 21
468.68872376785362
  0
ARC
  8
_2-0_
  6
CONTINUOUS
 62
    7
 10
714.7721970473433
 20
468.68872376785362
 40
4.8000000000000043
 50
89.999999999999986
 51
179.99999999999997
  0
LINE
  8
_2-0_
  6
CONTINUOUS
 62
    7
 10
714.7721970473433
 20
473.48872376785357
 11
753.17219704734316
 21
473.48872376785357
  0
ARC
  8
_2-0_
  6
CONTINUOUS
 62
    7
 10
753.17219704734316
 20
468.68872376785362
 40
4.8000000000000043
 50
0.0000000000000508
 51
90.000000000000128
  0
LINE
  8
_2-0_
  6
CONTINUOUS
 62
    7
 10
757.97219704734312
 20
468.68872376785362
 11
757.97219704734312
 21
468.08872376785359
  0
ARC
  8
_2-0_
  6
CONTINUOUS
 62
    7
 10
756.77219704734307
 20
468.08872376785359
 40
1.2000000000000262
 50
270.00000000000006
 51
359.99999999999875
  0
LINE
  8
_2-0_
  6
CONTINUOUS
 62
    7
 10
756.77219704734307
 20
466.88872376785355
 11
751.37219704734321
 21
466.88872376785355
  0
ARC
  8
_2-0_
  6
CONTINUOUS
 62
    7
 10
751.37219704734321
 20
465.68872376785362
 40
1.1999999999999984
 50
90.000000000000099
 51
180.00000000000011
  0
LINE
  8
_2-0_
  6
CONTINUOUS
 62
    7
 10
750.17219704734316
 20
465.68872376785362
 11
750.17219704734316
 21
464.48872376785357
  0
ARC
  8
_2-0_
  6
CONTINUOUS
 62
    7
 10
751.37219704734321
 20
464.48872376785357
 40
1.199999999999994
 50
180.00000000000014
 51
270.00000000000011
  0
LINE
  8
_2-0_
  6
CONTINUOUS
 62
    7
 10
751.37219704734321
 20
463.28872376785358
 11
752.71653689846107
 21
463.28872376785358
  0
ARC
  8
_2-0_
  6
CONTINUOUS
 62
    7
 10
752.71653689846107
 20
462.68872376785362
 40
0.5999999999999894
 50
359.99999999999983
 51
89.999999999999844
  0
LINE
  8
_2-0_
  6
CONTINUOUS
 62
    7
 10
753.31653689846098
 20
462.68872376785362
 11
753.31653689846098
 21
462.27216217672878
  0
LINE
  8
_2-0_
  6
CONTINUOUS
 62
    7
 10
753.31653689846098
 20
462.27216217672878
 11
750.84551649074706
 21
458.60872376785358
  0
LINE
  8
_2-0_
  6
CONTINUOUS
 62
    7
 10
750.84551649074706
 20
458.60872376785358
 11
717.09887760393917
 21
458.60872376785358
  0
LINE
  8
_2-0_
  6
CONTINUOUS
 62
    7
 10
717.09887760393917
 20
458.60872376785358
 11
714.62785719622525
 21
462.27216217672878
  0
LINE
  8
_2-0_
  6
CONTINUOUS
 62
    7
 10
714.62785719622525
 20
462.27216217672878
 11
714.62785719622525
 21
462.68872376785362
  0
ARC
  8
_2-0_
  6
CONTINUOUS
 62
    7
 10
715.22785719622539
 20
462.68872376785362
 40
0.5999999999999894
 50
90.000000000000213
 51
180.0000000000002
  0
LINE
  8
_2-0_
  6
CONTINUOUS
 62
    7
 10
715.22785719622539
 20
463.28872376785358
 11
716.57219704734325
 21
463.28872376785358
  0
LINE
  8
ADD_LINE
  6
DOT
 62
    9
 10
733.97219704734312
 20
475.29326050240775
 11
733.97219704734312
 21
455.33736635645744
  0
LINE
  8
ADD_LINE
  6
DOT
 62
    9
 10
716.57219704734325
 20
466.88872376785355
 11
751.37219704734321
 21
466.88872376785355
  0
LINE
  8
_2-0_
  6
CONTINUOUS
 62
    7
 10
751.97216104734321
 20
459.20606802286744
 11
751.97216104734321
 21
417.35957869101333
  0
LINE
  8
_2-0_
  6
CONTINUOUS
 62
    7
 10
751.97216104734321
 20
417.35957869101333
 11
715.97223304734325
 21
417.35957869101333
  0
LINE
  8
_2-0_
  6
CONTINUOUS
 62
    7
 10
715.97223304734325
 20
459.20606802286744
 11
715.97223304734325
 21
417.35957869101333
  0
LINE
  8
_2-0_
  6
CONTINUOUS
 62
    7
 10
714.02785719622534
 20
462.08872376785359
 11
715.97223304734325
 21
459.20606802286744
  0
LINE
  8
_2-0_
  6
CONTINUOUS
 62
    7
 10
714.02785719622534
 20
462.68872376785362
 11
714.02785719622534
 21
462.08872376785359
  0
ARC
  8
_2-0_
  6
CONTINUOUS
 62
    7
 10
715.22785719622539
 20
462.68872376785362
 40
1.1999999999999906
 50
89.999999999999744
 51
180.00000000000051
  0
LINE
  8
_2-0_
  6
CONTINUOUS
 62
    7
 10
715.97224504734322
 20
463.88872376785355
 11
715.22785719622539
 21
463.88872376785355
  0
ARC
  8
_2-0_
  6
CONTINUOUS
 62
    7
 10
715.97224504734322
 20
465.08872376785359
 40
1.2000000000000013
 50
270.0000000000004
 51
0.0000000000000127
  0
LINE
  8
_2-0_
  6
CONTINUOUS
 62
    7
 10
717.17224504734327
 20
465.6887237678535
 11
717.17224504734327
 21
465.08872376785359
  0
ARC
  8
_2-0_
  6
CONTINUOUS
 62
    7
 10
715.97224504734322
 20
465.68872376785362
 40
1.1999999999999853
 50
359.99999999999847
 51
90.000000000000227
  0
LINE
  8
_2-0_
  6
CONTINUOUS
 62
    7
 10
711.17224504734327
 20
466.88872376785355
 11
715.97224504734322
 21
466.88872376785355
  0
ARC
  8
_2-0_
  6
CONTINUOUS
 62
    7
 10
711.17224504734327
 20
465.68872376785362
 40
1.2000000000000064
 50
90.000000000000256
 51
179.99999999999974
  0
LINE
  8
_2-0_
  6
CONTINUOUS
 62
    7
 10
709.97224504734322
 20
465.68872376785362
 11
709.97224504734322
 21
413.06213207246503
  0
ARC
  8
_2-0_
  6
CONTINUOUS
 62
    7
 10
711.17224504734304
 20
413.06213207246503
 40
1.1999999999999986
 50
180
 51
229.99999999999994
  0
LINE
  8
_2-0_
  6
CONTINUOUS
 62
    7
 10
710.40089991571926
 20
412.14287874072227
 11
712.37224504734309
 21
410.48872376785357
  0
LINE
  8
_2-0_
  6
CONTINUOUS
 62
    7
 10
712.37224504734309
 20
410.48872376785357
 11
712.37224504734309
 21
408.68872376785356
  0
LINE
  8
_2-0_
  6
CONTINUOUS
 62
    7
 10
712.37224504734309
 20
408.68872376785356
 11
710.13301456280192
 21
404.81026279877091
  0
ARC
  8
_2-0_
  6
CONTINUOUS
 62
    7
 10
711.17224504734327
 20
404.21026279877088
 40
1.2000000000000501
 50
150.00000000000097
 51
179.99999999999955
  0
LINE
  8
_2-0_
  6
CONTINUOUS
 62
    7
 10
709.97224504734322
 20
404.21026279877094
 11
709.97224504734322
 21
399.95961349101333
  0
ARC
  8
_2-0_
  6
CONTINUOUS
 62
    7
 10
711.77224144734328
 20
399.95961349101339
 40
1.7999964000000637
 50
180.00000000000253
 51
270.00000000000148
  0
LINE
  8
_2-0_
  6
CONTINUOUS
 62
    7
 10
753.91653689846112
 20
462.08872376785359
 11
751.97216104734321
 21
459.20606802286744
  0
LINE
  8
_2-0_
  6
CONTINUOUS
 62
    7
 10
753.91653689846112
 20
462.68872376785362
 11
753.91653689846112
 21
462.08872376785359
  0
ARC
  8
_2-0_
  6
CONTINUOUS
 62
    7
 10
752.71653689846107
 20
462.68872376785362
 40
1.1999999999999929
 50
359.99999999999949
 51
90.000000000000227
  0
LINE
  8
_2-0_
  6
CONTINUOUS
 62
    7
 10
751.97214904734324
 20
463.88872376785355
 11
752.71653689846107
 21
463.88872376785355
  0
ARC
  8
_2-0_
  6
CONTINUOUS
 62
    7
 10
751.97214904734324
 20
465.08872376785359
 40
1.2000000000000013
 50
180
 51
269.9999999999996
  0
LINE
  8
_2-0_
  6
CONTINUOUS
 62
    7
 10
750.77214904734319
 20
465.6887237678535
 11
750.77214904734319
 21
465.08872376785359
  0
ARC
  8
_2-0_
  6
CONTINUOUS
 62
    7
 10
751.97214904734324
 20
465.68872376785362
 40
1.1999999999999906
 50
89.999999999999744
 51
180.00000000000153
  0
LINE
  8
_2-0_
  6
CONTINUOUS
 62
    7
 10
756.77214904734319
 20
466.88872376785355
 11
751.97214904734324
 21
466.88872376785355
  0
ARC
  8
_2-0_
  6
CONTINUOUS
 62
    7
 10
756.77214904734319
 20
465.68872376785362
 40
1.2000000000000035
 50
0.0000000000002274
 51
89.999999999999716
  0
LINE
  8
_2-0_
  6
CONTINUOUS
 62
    7
 10
757.94387340467915
 20
412.80272415696271
 11
757.97214904734324
 21
465.68872376785362
  0
LINE
  8
_2-0_
  6
CONTINUOUS
 62
    7
 10
739.4311664945119
 20
412.55938984199827
 11
741.77218144734343
 21
407.7595978910133
  0
LINE
  8
_2-0_
  6
CONTINUOUS
 62
    7
 10
741.77218144734343
 20
407.7595978910133
 11
741.03054886869563
 21
401.82653714489493
  0
ARC
  8
_2-0_
  6
CONTINUOUS
 62
    7
 10
739.24445226281182
 20
402.04979922063342
 40
1.7999963999999622
 50
296.26848914799973
 51
352.87498365100095
  0
ARC
  8
_2-0_
  6
CONTINUOUS
 62
    7
 10
740.5721838592367
 20
399.35961468004348
 40
1.1999976090897493
 50
116.26848878631512
 51
193.13424393488918
  0
ARC
  8
_2-0_
  6
CONTINUOUS
 62
    7
 10
740.57218384734324
 20
399.35961469101346
 40
1.1999976000001245
 50
193.13424457400353
 51
269.99999999999409
  0
LINE
  8
_2-0_
  6
CONTINUOUS
 62
    7
 10
728.51322760017479
 20
412.55938984199827
 11
739.4311664945119
 21
412.55938984199827
  0
LINE
  8
_2-0_
  6
CONTINUOUS
 62
    7
 10
726.17221264734326
 20
407.7595978910133
 11
728.51322760017479
 21
412.55938984199827
  0
LINE
  8
_2-0_
  6
CONTINUOUS
 62
    7
 10
726.91384524407499
 20
401.8265371471586
 11
726.17221264734326
 21
407.7595978910133
  0
ARC
  8
_2-0_
  6
CONTINUOUS
 62
    7
 10
728.69994187963721
 20
402.04979924820833
 40
1.799996432588524
 50
187.12501703128402
 51
243.73151073345349
  0
ARC
  8
_2-0_
  6
CONTINUOUS
 62
    7
 10
727.37221023818643
 20
399.35961469315009
 40
1.1999976094027542
 50
346.86575542599422
 51
63.73150976943117
  0
ARC
  8
_2-0_
  6
CONTINUOUS
 62
    7
 10
727.37221024734322
 20
399.35961469101329
 40
1.1999975999999519
 50
269.99999999999932
 51
346.86575542600292
  0
LINE
  8
_2-0_
  6
CONTINUOUS
 62
    7
 10
740.57218384734301
 20
398.15961709101327
 11
743.57823904734369
 21
398.15961709101327
  0
LINE
  8
_2-0_
  6
CONTINUOUS
 62
    7
 10
743.57823904734369
 20
398.15961709101327
 11
756.17215264734318
 21
398.15961709101327
  0
ARC
  8
_2-0_
  6
CONTINUOUS
 62
    7
 10
756.17215264734318
 20
399.95961349101333
 40
1.799996400000021
 50
270
 51
359.99999999999886
  0
LINE
  8
_2-0_
  6
CONTINUOUS
 62
    7
 10
757.97214904734324
 20
399.95961349101333
 11
757.97243275802248
 21
404.21058280002194
  0
ARC
  8
_2-0_
  6
CONTINUOUS
 62
    7
 10
756.7724327581293
 20
404.21056680002198
 40
1.199999999999932
 50
0.0007639437251892
 51
30.000763943726792
  0
LINE
  8
_2-0_
  6
CONTINUOUS
 62
    7
 10
757.81165524257813
 20
404.81058065637507
 11
755.57237304542286
 21
408.68901176870656
  0
LINE
  8
_2-0_
  6
CONTINUOUS
 62
    7
 10
755.57237304542286
 20
408.68901176870656
 11
755.57234904542292
 21
410.48901176854656
  0
LINE
  8
_2-0_
  6
CONTINUOUS
 62
    7
 10
755.57234904542292
 20
410.48901176854656
 11
757.5436721214719
 21
412.14319302586995
  0
ARC
  8
_2-0_
  6
CONTINUOUS
 62
    7
 10
756.77231473320558
 20
413.06243607292924
 40
1.2000000000000077
 50
310.00076394372616
 51
0.000763943725682
  0
LINE
  8
_2-0_
  6
CONTINUOUS
 62
    7
 10
711.77224144734328
 20
398.15961709101327
 11
712.36615504734277
 21
398.15961709101327
  0
LINE
  8
_2-0_
  6
CONTINUOUS
 62
    7
 10
712.36615504734277
 20
398.15961709101327
 11
724.36615504734277
 21
398.15961709101327
  0
LINE
  8
_2-0_
  6
CONTINUOUS
 62
    7
 10
724.36615504734277
 20
398.15961709101327
 11
727.37221024734322
 21
398.15961709101327
  0
LINE
  8
ADD_LINE
  6
DOT
 62
    9
 10
715.97224504734322
 20
466.88872376785355
 11
751.97214904734324
 21
466.88872376785355
  0
LINE
  8
ADD_LINE
  6
DOT
 62
    9
 10
733.97219704734312
 20
474.24168537261153
 11
733.97219704734312
 21
387.59773990348566
  0
LINE
  8
_2-0_
  6
CONTINUOUS
 62
    7
 10
717.47219704734403
 20
417.35957869101333
 11
750.47219704734403
 21
417.35957869101333
  0
LINE
  8
_2-0_
  6
CONTINUOUS
 62
    7
 10
739.37219704734321
 20
412.55961709101325
 11
728.57219704734325
 21
412.55961709101325
  0
LINE
  8
ADD_LINE
  6
DOT
 62
    9
 10
728.73296656280195
 20
398.15961709101327
 11
739.21142753188451
 21
398.15961709101327
  0
LINE
  8
ADD_LINE
  6
DOT
 62
    9
 10
733.97219704734312
 20
414.61786138413311
 11
733.97219704734312
 21
395.37084354131036
  0
TEXT
  8
_2-0_
 62
    7
 10
693.42172938869044
 20
477.11983129825796
 40
8
 41
1
 50
90
  1
1.1
  0
LINE
  8
_2-0_
  6
CONTINUOUS
 62
    7
 10
717.47219704734403
 20
420.05840850843902
 11
750.47219704734403
 21
420.05840850843902
  0
LINE
  8
_2-0_
  6
CONTINUOUS
 62
    7
 10
717.47219704734403
 20
426.05840850843902
 11
750.47219704734403
 21
426.05840850843902
  0
LINE
  8
_2-0_
  6
CONTINUOUS
 62
    7
 10
717.47219704734403
 20
426.05840850843902
 11
717.47219704734403
 21
417.35957869101333
  0
LINE
  8
_2-0_
  6
CONTINUOUS
 62
    7
 10
750.47219704734403
 20
426.05840850843902
 11
750.47219704734403
 21
417.35957869101333
  0
LINE
  8
_2-0_
  6
CONTINUOUS
 62
    2
 10
715.19322159071453
 20
461.43397499247226
 11
717.04797036609602
 21
463.28872376785364
  0
LINE
  8
_2-0_
  6
CONTINUOUS
 62
    2
 10
714.33873287101528
 20
462.7008066163329
 11
714.92665002253602
 21
463.28872376785364
  0
CIRCLE
  8
_2-0_
  6
CONTINUOUS
 62
    7
 10
733.95304245518332
 20
405.26109230258066
 40
7.2232703811684917
  0
LINE
  8
_2-0_
  6
CONTINUOUS
 62
    2
 10
709.97919782711915
 20
468.94787329023416
 11
714.51304752496117
 21
473.48172298807617
  0
LINE
  8
_2-0_
  6
CONTINUOUS
 62
    2
 10
710.24531894572328
 20
467.09267406528102
 11
716.64136864829607
 21
473.48872376785368
  0
LINE
  8
_2-0_
  6
CONTINUOUS
 62
    2
 10
712.16268899185525
 20
466.88872376785304
 11
718.76268899185652
 21
473.48872376785425
  0
LINE
  8
_2-0_
  6
CONTINUOUS
 62
    2
 10
714.2840093354157
 20
466.88872376785343
 11
720.88400933541629
 21
473.48872376785403
  0
LINE
  8
_2-0_
  6
CONTINUOUS
 62
    2
 10
716.40532967897548
 20
466.88872376785326
 11
723.0053296789763
 21
473.48872376785403
  0
LINE
  8
_2-0_
  6
CONTINUOUS
 62
    2
 10
717.77219704734352
 20
466.13427079266114
 11
725.12665002253607
 21
473.48872376785391
  0
LINE
  8
_2-0_
  6
CONTINUOUS
 62
    2
 10
717.7721970473433
 20
464.01295044910091
 11
727.24797036609607
 21
473.48872376785368
  0
LINE
  8
_2-0_
  6
CONTINUOUS
 62
    2
 10
716.047710310414
 20
460.16714336861162
 11
729.3692907096563
 21
473.48872376785403
  0
LINE
  8
_2-0_
  6
CONTINUOUS
 62
    2
 10
716.90219903011325
 20
458.90031174475098
 11
731.4906110532163
 21
473.4887237678538
  0
LINE
  8
_2-0_
  6
CONTINUOUS
 62
    2
 10
718.73193139677369
 20
458.60872376785414
 11
733.61193139677289
 21
473.4887237678534
  0
LINE
  8
_2-0_
  6
CONTINUOUS
 62
    2
 10
720.85325174033346
 20
458.60872376785397
 11
735.73325174033357
 21
473.48872376785403
  0
LINE
  8
_2-0_
  6
CONTINUOUS
 62
    2
 10
722.97457208389324
 20
458.60872376785375
 11
737.85457208389334
 21
473.4887237678538
  0
LINE
  8
_2-0_
  6
CONTINUOUS
 62
    2
 10
725.09589242745369
 20
458.60872376785414
 11
739.9758924274538
 21
473.48872376785408
  0
LINE
  8
_2-0_
  6
CONTINUOUS
 62
    2
 10
727.21721277101346
 20
458.60872376785392
 11
742.09721277101357
 21
473.48872376785391
  0
LINE
  8
_2-0_
  6
CONTINUOUS
 62
    2
 10
729.33853311457347
 20
458.60872376785392
 11
744.21853311457357
 21
473.48872376785391
  0
LINE
  8
_2-0_
  6
CONTINUOUS
 62
    2
 10
731.45985345813347
 20
458.60872376785375
 11
746.33985345813335
 21
473.48872376785374
  0
LINE
  8
_2-0_
  6
CONTINUOUS
 62
    2
 10
733.58117380169142
 20
458.60872376785301
 11
748.46117380169176
 21
473.48872376785346
  0
LINE
  8
_2-0_
  6
CONTINUOUS
 62
    2
 10
735.70249414525051
 20
458.60872376785358
 11
750.58249414524994
 21
473.48872376785312
  0
LINE
  8
_2-0_
  6
CONTINUOUS
 62
    2
 10
737.82381448881029
 20
458.60872376785341
 11
752.70381448881062
 21
473.48872376785368
  0
LINE
  8
_2-0_
  6
CONTINUOUS
 62
    2
 10
739.94513483237029
 20
458.60872376785346
 11
754.60599030775734
 21
473.26957924324051
  0
LINE
  8
_2-0_
  6
CONTINUOUS
 62
    2
 10
742.06645517593029
 20
458.60872376785329
 11
756.01446596018309
 21
472.55673455210621
  0
LINE
  8
_2-0_
  6
CONTINUOUS
 62
    2
 10
752.46777551949003
 20
466.88872376785321
 11
757.06960222451085
 21
471.49055047287396
  0
LINE
  8
_2-0_
  6
CONTINUOUS
 62
    2
 10
744.18777551949074
 20
458.60872376785369
 11
750.17719615876535
 21
464.59814440712847
  0
LINE
  8
_2-0_
  6
CONTINUOUS
 62
    2
 10
746.30909586305052
 20
458.60872376785358
 11
751.03689308127127
 21
463.33652098607445
  0
LINE
  8
_2-0_
  6
CONTINUOUS
 62
    2
 10
748.43041620661029
 20
458.60872376785341
 11
753.11041620661035
 21
463.28872376785341
  0
LINE
  8
_2-0_
  6
CONTINUOUS
 62
    2
 10
750.55173655016802
 20
458.6087237678538
 11
751.45430990701584
 21
459.51129712470163
  0
LINE
  8
_2-0_
  6
CONTINUOUS
 62
    2
 10
754.58909586305003
 20
466.88872376785304
 11
757.76944061043218
 21
470.0690685152353
  0
LINE
  8
_2-0_
  6
CONTINUOUS
 62
    2
 10
756.71041620661072
 20
466.88872376785366
 11
757.9706827358109
 21
468.14899029705401
  0
TEXT
  8
_2-0_
 62
    7
 10
731.97219704734312
 20
385.34172787122714
 40
8
 41
1
 50
0
  1
8
  0
TEXT
  8
_2-0_
 62
    7
 10
722.39939304539666
 20
485.58256404144487
 40
8
 41
1
 50
0
  1
3 : 1
  0
TEXT
  8
_2-0_
 62
    7
 10
693.2685116661562
 20
427.40823365384347
 40
8
 41
1
 50
90
  1
11.5
  0
TEXT
  8
_2-0_
 62
    7
 10
771.31395699441248
 20
413.625343503191
 40
6
 41
1
 50
0
  1
マグネット
  0
TEXT
  8
_2-0_
 62
    7
 10
771.31395699441248
 20
408.09584061879463
 40
4
 41
1
 50
0
  1
(オプション)
  0
TEXT
  8
_2-0_
 62
    7
 10
771.31395699441248
 20
480.48206019634722
 40
6
 41
1
 50
0
  1
樹脂カバー
  0
TEXT
  8
_2-0_
 62
    7
 10
771.31395699441248
 20
436.24603712117619
 40
6
 41
1
 50
0
  1
LED基板
  0
TEXT
  8
_2-0_
 62
    7
 10
771.31395699441248
 20
456.5208810306296
 40
6
 41
1
 50
0
  1
アルミフレーム
  0
LINE
  8
_2-0_
  6
CONTINUOUS
 62
    7
 10
769.68596148796678
 20
483.43423548706534
 11
755.15545324605625
 21
470.41732185368721
  0
LINE
  8
_2-0_
  6
CONTINUOUS
 62
    7
 10
770.74547771393941
 20
459.21672175054789
 11
755.91225055032237
 21
446.04844865631651
  0
LINE
  8
_2-0_
  6
CONTINUOUS
 62
    7
 10
768.77780472284735
 20
439.53999183962742
 11
739.1113503956135
 21
428.03667281478158
  0
LINE
  8
_2-0_
  6
CONTINUOUS
 62
    7
 10
771.35091555735244
 20
414.41432133799049
 11
737.14367740452144
 21
404.42459692167705
  0
LINE
  8
ADD_LINE
  6
DOT
 62
    7
 10
726.18937242904781
 20
405.25750954638636
 11
741.47671444400407
 21
405.25750954638636
  0
TEXT
  8
_0-0_1
 62
    7
 10
746.92615269274029
 20
19.84513307509684
 40
12
 41
1
 50
0
  1
F5207010
  0
TEXT
  8
_2-0_
 62
    7
 10
731.90161189553919
 20
38.064200924653221
 40
8
 41
1
 50
0
  1
仕様図
  0
TEXT
  8
_2-0_
 62
    7
 10
640.36486317630897
 20
62.229289016618765
 40
8
 41
1
 50
0
  1
森田
  0
TEXT
  8
_2-0_
 62
    7
 10
670.15069348994132
 20
62.229289016618765
 40
8
 41
1
 50
0
  1
森田
  0
LINE
  8
_2-0_
  6
CONTINUOUS
 62
    7
 10
442.36274318871602
 20
245.59580885435437
 11
442.36274318871602
 21
229.73872581047971
  0
LINE
  8
_2-0_
  6
CONTINUOUS
 62
    7
 10
438.36274318871602
 20
245.33216918721527
 11
442.36435966723178
 21
245.33216918721527
  0
LINE
  8
_2-0_
  6
CONTINUOUS
 62
    7
 10
442.34561686078592
 20
230.17475414736515
 11
438.36274318871602
 21
230.17262469318911
  0
LINE
  8
_2-0_
  6
CONTINUOUS
 62
    7
 10
438.36274318871602
 20
245.33216918721527
 11
438.36274318871602
 21
230.17262469318911
  0
LINE
  8
_2-0_
  6
CONTINUOUS
 62
    7
 10
522.36274318871597
 20
239.34855572757024
 11
522.36274318871597
 21
236.07892616953046
  0
LINE
  8
_2-0_
  6
CONTINUOUS
 62
    7
 10
682.36274318871597
 20
239.34855572757024
 11
682.36274318871597
 21
236.07892616953046
  0
LINE
  8
_2-0_
  6
CONTINUOUS
 62
    7
 10
722.36274318871597
 20
239.34855572757024
 11
722.36274318871597
 21
236.07892616953046
  0
ARC
  8
_2-0_
  6
CONTINUOUS
 62
    2
 10
731.037025369189
 20
243.86406234328214
 40
10.793215373849014
 50
315.60640298124792
 51
56.046281077863661
  0
ARC
  8
_2-0_
  6
CONTINUOUS
 62
    2
 10
744.32561316456395
 20
230.85382457385509
 40
7.8039040916062508
 50
135.60640298124798
 51
234.19178192632754
  0
ARC
  8
_2-0_
  6
CONTINUOUS
 62
    2
 10
729.23840889381995
 20
243.86406234328214
 40
9.793215373849014
 50
315.60640298124792
 51
56.046281077863661
  0
ARC
  8
_2-0_
  6
CONTINUOUS
 62
    2
 10
742.5269966891949
 20
230.85382457385509
 40
8.8039040916062508
 50
135.60640298124798
 51
234.19178192632754
  0
LINE
  8
_2-0_
  6
CONTINUOUS
 62
    7
 10
770.66157258715089
 20
229.73872581047971
 11
736.70521799816015
 21
229.73872581047971
  0
LINE
  8
_2-0_
  6
CONTINUOUS
 62
    7
 10
770.12646409801118
 20
235.93872581047975
 11
738.45938158838658
 21
235.93872581047975
  0
LINE
  8
_2-0_
  6
CONTINUOUS
 62
    7
 10
770.12646409801118
 20
239.39580885435439
 11
740.7982663753553
 21
239.39580885435439
  0
LINE
  8
_2-0_
  6
CONTINUOUS
 62
    7
 10
770.39401834258103
 20
245.59580885435437
 11
741.85076452949124
 21
245.59580885435437
  0
LINE
  8
_2-0_
  6
CONTINUOUS
 62
    7
 10
737.99160463099292
 20
239.39580885435439
 11
442.36274318871602
 21
239.39580885435439
  0
LINE
  8
_2-0_
  6
CONTINUOUS
 62
    7
 10
735.53577560467579
 20
235.93872581047975
 11
442.36274318871602
 21
235.93872581047975
  0
LINE
  8
_2-0_
  6
CONTINUOUS
 62
    7
 10
739.04410278512887
 20
245.59580885435437
 11
442.36274318871602
 21
245.59580885435437
  0
LINE
  8
_2-0_
  6
CONTINUOUS
 62
    7
 10
733.66466777510084
 20
229.73872581047971
 11
442.36274318871602
 21
229.73872581047971
  0
LINE
  8
_2-0_
  6
CONTINUOUS
 62
    7
 10
484.62254701266858
 20
235.91304904461617
 11
488.02778476152127
 21
239.31828679346881
  0
LINE
  8
_2-0_
  6
CONTINUOUS
 62
    7
 10
487.46825635190521
 20
235.93033125910605
 11
490.85621188626772
 21
239.31828679346859
  0
LINE
  8
_2-0_
  6
CONTINUOUS
 62
    7
 10
490.29513022039362
 20
235.92877800284779
 11
493.68463901101416
 21
239.31828679346839
  0
LINE
  8
_2-0_
  6
CONTINUOUS
 62
    7
 10
482.41724367887082
 20
236.53617283556505
 11
485.1993576367737
 21
239.31828679346796
  0
LINE
  8
_2-0_
  6
CONTINUOUS
 62
    7
 10
482.36274318871602
 20
239.34855572757024
 11
482.36274318871602
 21
235.94569110493347
  0
LINE
  8
_2-0_
  6
CONTINUOUS
 62
    7
 10
493.08915173741315
 20
235.89437239512068
 11
496.5130661357606
 21
239.31828679346816
  0
LINE
  8
_2-0_
  6
CONTINUOUS
 62
    7
 10
495.967392987072
 20
235.94418652003282
 11
499.34149326050704
 21
239.31828679346793
  0
LINE
  8
_2-0_
  6
CONTINUOUS
 62
    7
 10
498.8722529219541
 20
236.02061933016836
 11
502.16992038525348
 21
239.31828679346773
  0
LINE
  8
_2-0_
  6
CONTINUOUS
 62
    7
 10
501.5508540324368
 20
235.87079331590607
 11
505.14437653759205
 21
239.46431582106135
  0
LINE
  8
_2-0_
  6
CONTINUOUS
 62
    7
 10
507.25080810927204
 20
235.91304904461617
 11
510.65604585812474
 21
239.31828679346881
  0
LINE
  8
_2-0_
  6
CONTINUOUS
 62
    7
 10
510.09651744850873
 20
235.93033125910605
 11
513.48447298287124
 21
239.31828679346859
  0
LINE
  8
_2-0_
  6
CONTINUOUS
 62
    7
 10
512.92339131699714
 20
235.92877800284779
 11
516.31290010761768
 21
239.31828679346839
  0
LINE
  8
_2-0_
  6
CONTINUOUS
 62
    7
 10
515.71741283401661
 20
235.89437239512068
 11
519.14132723236412
 21
239.31828679346816
  0
LINE
  8
_2-0_
  6
CONTINUOUS
 62
    7
 10
518.59565408367541
 20
235.94418652003282
 11
521.96975435711056
 21
239.31828679346793
  0
LINE
  8
_2-0_
  6
CONTINUOUS
 62
    7
 10
504.50937338708167
 20
236.00004144717238
 11
507.82761873337716
 21
239.31828679346796
  0
LINE
  8
_2-0_
  6
CONTINUOUS
 62
    7
 10
521.50051401855762
 20
236.02061933016836
 11
522.28457590427865
 21
236.80468121588933
  0
LINE
  8
_2-0_
  6
CONTINUOUS
 62
    7
 10
482.37625143009097
 20
238.56599062686541
 11
483.160313315812
 21
239.35005251258642
  0
LINE
  8
_2-0_
  6
CONTINUOUS
 62
    7
 10
684.65184493620995
 20
235.91304904461617
 11
688.0570826850626
 21
239.31828679346881
  0
LINE
  8
_2-0_
  6
CONTINUOUS
 62
    7
 10
687.49755427544653
 20
235.93033125910605
 11
690.88550980980904
 21
239.31828679346859
  0
LINE
  8
_2-0_
  6
CONTINUOUS
 62
    7
 10
690.32442814393494
 20
235.92877800284779
 11
693.71393693455548
 21
239.31828679346839
  0
LINE
  8
_2-0_
  6
CONTINUOUS
 62
    7
 10
682.44654160241214
 20
236.53617283556505
 11
685.22865556031502
 21
239.31828679346796
  0
LINE
  8
_2-0_
  6
CONTINUOUS
 62
    7
 10
693.11844966095441
 20
235.89437239512068
 11
696.54236405930192
 21
239.31828679346816
  0
LINE
  8
_2-0_
  6
CONTINUOUS
 62
    7
 10
695.99669091061332
 20
235.94418652003282
 11
699.37079118404836
 21
239.31828679346793
  0
LINE
  8
_2-0_
  6
CONTINUOUS
 62
    7
 10
698.90155084549542
 20
236.02061933016836
 11
702.1992183087948
 21
239.31828679346773
  0
LINE
  8
_2-0_
  6
CONTINUOUS
 62
    7
 10
701.58015195597818
 20
235.87079331590607
 11
705.17367446113337
 21
239.46431582106135
  0
LINE
  8
_2-0_
  6
CONTINUOUS
 62
    7
 10
707.28010603281336
 20
235.91304904461617
 11
710.68534378166601
 21
239.31828679346881
  0
LINE
  8
_2-0_
  6
CONTINUOUS
 62
    7
 10
710.12581537205006
 20
235.93033125910605
 11
713.51377090641245
 21
239.31828679346859
  0
LINE
  8
_2-0_
  6
CONTINUOUS
 62
    7
 10
712.95268924053835
 20
235.92877800284779
 11
716.34219803115889
 21
239.31828679346839
  0
LINE
  8
_2-0_
  6
CONTINUOUS
 62
    7
 10
715.74671075755793
 20
235.89437239512068
 11
719.17062515590533
 21
239.31828679346816
  0
LINE
  8
_2-0_
  6
CONTINUOUS
 62
    7
 10
718.62495200721673
 20
235.94418652003282
 11
721.99905228065177
 21
239.31828679346793
  0
LINE
  8
_2-0_
  6
CONTINUOUS
 62
    7
 10
704.53867131062293
 20
236.00004144717238
 11
707.85691665691843
 21
239.31828679346796
  0
LINE
  8
_2-0_
  6
CONTINUOUS
 62
    7
 10
721.52981194209895
 20
236.02061933016836
 11
722.31387382781986
 21
236.80468121588933
  0
LINE
  8
_2-0_
  6
CONTINUOUS
 62
    7
 10
682.4055493536323
 20
238.56599062686541
 11
683.18961123935333
 21
239.35005251258642
  0
LINE
  8
_2-0_
  6
CONTINUOUS
 62
    4
 10
502.36274318871602
 20
218.10982556069774
 11
702.36274318871597
 21
218.10982556069774
  0
LINE
  8
_2-0_
  6
CONTINUOUS
 62
    4
 10
502.36274318871602
 20
218.10982556069774
 11
508.15829814645042
 21
219.66273983131288
  0
LINE
  8
_2-0_
  6
CONTINUOUS
 62
    4
 10
502.36274318871602
 20
218.10982556069774
 11
508.15829814645042
 21
216.55691129008264
  0
LINE
  8
_2-0_
  6
CONTINUOUS
 62
    4
 10
702.36274318871597
 20
218.10982556069774
 11
696.56718823098163
 21
216.55691129008264
  0
LINE
  8
_2-0_
  6
CONTINUOUS
 62
    4
 10
702.36274318871597
 20
218.10982556069774
 11
696.56718823098163
 21
219.66273983131288
  0
TEXT
  8
_2-0_
 62
    7
 10
595.86274318871597
 20
219.10982556069774
 40
8
 41
1
 50
0
  1
100
  0
LINE
  8
_2-0_
  6
CONTINUOUS
 62
    4
 10
502.36274318871602
 20
217.10982556069774
 11
502.36274318871602
 21
228.40498398006406
  0
LINE
  8
_2-0_
  6
CONTINUOUS
 62
    4
 10
702.36274318871597
 20
217.10982556069774
 11
702.36274318871597
 21
228.18593805624778
  0
LINE
  8
_2-0_
  6
CONTINUOUS
 62
    7
 10
593.07838813113995
 20
251.47074560602911
 11
581.95998028433064
 21
237.45290788715698
  0
LINE
  8
_2-0_
  6
CONTINUOUS
 62
    7
 10
722.55355443019505
 20
337.21614470175075
 11
722.55355443019505
 21
332.60645447719679
  0
LINE
  8
_2-0_
  6
CONTINUOUS
 62
    7
 10
742.83933511112832
 20
332.60645447719611
 11
747.44902533568245
 21
337.2161447017503
  0
LINE
  8
_2-0_
  6
CONTINUOUS
 62
    7
 10
739.2472326627003
 20
332.60645447719628
 11
743.85692288725443
 21
337.21614470175052
  0
LINE
  8
_2-0_
  6
CONTINUOUS
 62
    7
 10
735.65513021427228
 20
332.60645447719662
 11
740.26482043882652
 21
337.21614470175081
  0
LINE
  8
_2-0_
  6
CONTINUOUS
 62
    7
 10
732.06302776584437
 20
332.60645447719691
 11
736.6727179903985
 21
337.21614470175115
  0
LINE
  8
_2-0_
  6
CONTINUOUS
 62
    7
 10
728.47092531741635
 20
332.60645447719719
 11
733.08061554197047
 21
337.21614470175138
  0
LINE
  8
_2-0_
  6
CONTINUOUS
 62
    7
 10
724.87882286898696
 20
332.60645447719611
 11
729.48851309354257
 21
337.21614470175166
  0
LINE
  8
_2-0_
  6
CONTINUOUS
 62
    7
 10
722.55355443019528
 20
333.87328848683273
 11
725.89641064511318
 21
337.21614470175058
  0
LINE
  8
_2-0_
  6
CONTINUOUS
 62
    7
 10
722.55355443019505
 20
337.21614470175075
 11
762.55355443019505
 21
337.21614470175075
  0
LINE
  8
_2-0_
  6
CONTINUOUS
 62
    7
 10
762.55355443019505
 20
332.60645447719679
 11
722.55355443019505
 21
332.60645447719679
  0
LINE
  8
_2-0_
  6
CONTINUOUS
 62
    7
 10
746.43143755955396
 20
332.60645447719571
 11
750.8161966031555
 21
336.99121352079726
  0
LINE
  8
_2-0_
  6
CONTINUOUS
 62
    7
 10
757.51931188187689
 20
332.60645447719662
 11
762.12900210643113
 21
337.21614470175081
  0
LINE
  8
_2-0_
  6
CONTINUOUS
 62
    7
 10
753.92720943344898
 20
332.60645447719691
 11
758.53689965800311
 21
337.21614470175115
  0
LINE
  8
_2-0_
  6
CONTINUOUS
 62
    7
 10
750.33510698502096
 20
332.60645447719719
 11
754.94479720957509
 21
337.21614470175138
  0
LINE
  8
_2-0_
  6
CONTINUOUS
 62
    7
 10
762.55355443019505
 20
337.21614470175075
 11
762.55355443019505
 21
332.60645447719679
  0
LINE
  8
_2-0_
  6
CONTINUOUS
 62
    7
 10
761.11141433030491
 20
332.60645447719628
 11
762.49447570042457
 21
333.989515847316
  0
LINE
  8
_2-0_
  6
CONTINUOUS
 62
    4
 10
722.55355443019505
 20
320.59350272374945
 11
762.55355443019505
 21
320.59350272374945
  0
LINE
  8
_2-0_
  6
CONTINUOUS
 62
    4
 10
722.55355443019505
 20
320.59350272374945
 11
728.3491093879295
 21
322.14641699436459
  0
LINE
  8
_2-0_
  6
CONTINUOUS
 62
    4
 10
722.55355443019505
 20
320.59350272374945
 11
728.3491093879295
 21
319.04058845313432
  0
LINE
  8
_2-0_
  6
CONTINUOUS
 62
    4
 10
762.55355443019505
 20
320.59350272374945
 11
756.7579994724606
 21
319.04058845313432
  0
LINE
  8
_2-0_
  6
CONTINUOUS
 62
    4
 10
762.55355443019505
 20
320.59350272374945
 11
756.7579994724606
 21
322.14641699436459
  0
LINE
  8
_2-0_
  6
CONTINUOUS
 62
    4
 10
722.55355443019505
 20
319.59350272374945
 11
722.55355443019505
 21
330.34142013207986
  0
LINE
  8
_2-0_
  6
CONTINUOUS
 62
    4
 10
762.55355443019505
 20
319.59350272374945
 11
762.55355443019505
 21
330.34142013207986
  0
TEXT
  8
_2-0_
 62
    7
 10
738.30355443019505
 20
321.59350272374945
 40
8
 41
1
 50
0
  1
20
  0
TEXT
  8
_2-0_
 62
    7
 10
705.88549374658714
 20
323.28551085795658
 40
8
 41
1
 50
90
  1
Φ2.3
  0
TEXT
  8
_2-0_
 62
    7
 10
74.68867924528297
 20
333.97241011035953
 40
10
 41
1
 50
0
  1
付属品：固定金具
  0
TEXT
  8
_2-0_
 62
    7
 10
411.38786044855817
 20
333.97241011035953
 40
10
 41
1
 50
0
  1
オプション品：マグネット
  0
LINE
  8
_2-0_
  6
CONTINUOUS
 62
    7
 10
442.36274318871602
 20
303.06023877054798
 11
442.36274318871602
 21
287.20315572667329
  0
LINE
  8
_2-0_
  6
CONTINUOUS
 62
    7
 10
438.36274318871602
 20
302.79659910340882
 11
442.36435966723178
 21
302.79659910340882
  0
LINE
  8
_2-0_
  6
CONTINUOUS
 62
    7
 10
442.34561686078592
 20
287.63918406355873
 11
438.36274318871602
 21
287.63705460938269
  0
LINE
  8
_2-0_
  6
CONTINUOUS
 62
    7
 10
438.36274318871602
 20
302.79659910340882
 11
438.36274318871602
 21
287.63705460938269
  0
LINE
  8
_2-0_
  6
CONTINUOUS
 62
    7
 10
522.36274318871597
 20
296.81298564376385
 11
522.36274318871597
 21
293.54335608572404
  0
LINE
  8
_2-0_
  6
CONTINUOUS
 62
    7
 10
484.62254701266858
 20
293.37747896080975
 11
488.02778476152127
 21
296.7827167096624
  0
LINE
  8
_2-0_
  6
CONTINUOUS
 62
    7
 10
487.46825635190521
 20
293.39476117529966
 11
490.85621188626772
 21
296.78271670966217
  0
LINE
  8
_2-0_
  6
CONTINUOUS
 62
    7
 10
490.29513022039362
 20
293.39320791904134
 11
493.68463901101416
 21
296.78271670966194
  0
LINE
  8
_2-0_
  6
CONTINUOUS
 62
    7
 10
482.41724367887082
 20
294.00060275175866
 11
485.1993576367737
 21
296.78271670966154
  0
LINE
  8
_2-0_
  6
CONTINUOUS
 62
    7
 10
482.36274318871602
 20
296.81298564376385
 11
482.36274318871602
 21
293.41012102112705
  0
LINE
  8
_2-0_
  6
CONTINUOUS
 62
    7
 10
493.08915173741315
 20
293.35880231131426
 11
496.5130661357606
 21
296.78271670966171
  0
LINE
  8
_2-0_
  6
CONTINUOUS
 62
    7
 10
495.967392987072
 20
293.4086164362264
 11
499.34149326050704
 21
296.78271670966149
  0
LINE
  8
_2-0_
  6
CONTINUOUS
 62
    7
 10
498.8722529219541
 20
293.48504924636194
 11
502.16992038525348
 21
296.78271670966132
  0
LINE
  8
_2-0_
  6
CONTINUOUS
 62
    7
 10
501.5508540324368
 20
293.33522323209962
 11
505.14437653759205
 21
296.92874573725493
  0
LINE
  8
_2-0_
  6
CONTINUOUS
 62
    7
 10
507.25080810927204
 20
293.37747896080975
 11
510.65604585812474
 21
296.7827167096624
  0
LINE
  8
_2-0_
  6
CONTINUOUS
 62
    7
 10
510.09651744850873
 20
293.39476117529966
 11
513.48447298287124
 21
296.78271670966217
  0
LINE
  8
_2-0_
  6
CONTINUOUS
 62
    7
 10
512.92339131699714
 20
293.39320791904134
 11
516.31290010761768
 21
296.78271670966194
  0
LINE
  8
_2-0_
  6
CONTINUOUS
 62
    7
 10
515.71741283401661
 20
293.35880231131426
 11
519.14132723236412
 21
296.78271670966171
  0
LINE
  8
_2-0_
  6
CONTINUOUS
 62
    7
 10
518.59565408367541
 20
293.4086164362264
 11
521.96975435711056
 21
296.78271670966149
  0
LINE
  8
_2-0_
  6
CONTINUOUS
 62
    7
 10
504.50937338708167
 20
293.46447136336599
 11
507.82761873337716
 21
296.78271670966154
  0
LINE
  8
_2-0_
  6
CONTINUOUS
 62
    7
 10
521.50051401855762
 20
293.48504924636194
 11
522.28457590427865
 21
294.26911113208291
  0
LINE
  8
_2-0_
  6
CONTINUOUS
 62
    7
 10
482.37625143009097
 20
296.03042054305899
 11
483.160313315812
 21
296.81448242877997
  0
LINE
  8
_2-0_
  6
CONTINUOUS
 62
    4
 10
502.36274318871602
 20
275.57425547689132
 11
508.15829814645042
 21
277.12716974750646
  0
LINE
  8
_2-0_
  6
CONTINUOUS
 62
    4
 10
502.36274318871602
 20
275.57425547689132
 11
508.15829814645042
 21
274.02134120627619
  0
LINE
  8
_2-0_
  6
CONTINUOUS
 62
    4
 10
502.36274318871602
 20
274.57425547689132
 11
502.36274318871602
 21
285.86941389625764
  0
LINE
  8
_2-0_
  6
CONTINUOUS
 62
    7
 10
551.37445147705557
 20
308.93517552222272
 11
540.25604363024615
 21
294.91733780335056
  0
LINE
  8
_2-0_
  6
CONTINUOUS
 62
    7
 10
622.36274318871597
 20
296.81298564376385
 11
622.36274318871597
 21
293.54335608572404
  0
LINE
  8
_2-0_
  6
CONTINUOUS
 62
    7
 10
584.62254701266852
 20
293.37747896080975
 11
588.02778476152127
 21
296.7827167096624
  0
LINE
  8
_2-0_
  6
CONTINUOUS
 62
    7
 10
587.46825635190521
 20
293.39476117529966
 11
590.85621188626772
 21
296.78271670966217
  0
LINE
  8
_2-0_
  6
CONTINUOUS
 62
    7
 10
590.29513022039362
 20
293.39320791904134
 11
593.68463901101416
 21
296.78271670966194
  0
LINE
  8
_2-0_
  6
CONTINUOUS
 62
    7
 10
582.41724367887082
 20
294.00060275175866
 11
585.1993576367737
 21
296.78271670966154
  0
LINE
  8
_2-0_
  6
CONTINUOUS
 62
    7
 10
582.36274318871597
 20
296.81298564376385
 11
582.36274318871597
 21
293.41012102112705
  0
LINE
  8
_2-0_
  6
CONTINUOUS
 62
    7
 10
593.0891517374132
 20
293.35880231131426
 11
596.5130661357606
 21
296.78271670966171
  0
LINE
  8
_2-0_
  6
CONTINUOUS
 62
    7
 10
595.96739298707189
 20
293.4086164362264
 11
599.34149326050704
 21
296.78271670966149
  0
LINE
  8
_2-0_
  6
CONTINUOUS
 62
    7
 10
598.8722529219541
 20
293.48504924636194
 11
602.16992038525348
 21
296.78271670966132
  0
LINE
  8
_2-0_
  6
CONTINUOUS
 62
    7
 10
601.55085403243675
 20
293.33522323209962
 11
605.14437653759205
 21
296.92874573725493
  0
LINE
  8
_2-0_
  6
CONTINUOUS
 62
    7
 10
607.25080810927204
 20
293.37747896080975
 11
610.6560458581248
 21
296.7827167096624
  0
LINE
  8
_2-0_
  6
CONTINUOUS
 62
    7
 10
610.09651744850862
 20
293.39476117529966
 11
613.48447298287124
 21
296.78271670966217
  0
LINE
  8
_2-0_
  6
CONTINUOUS
 62
    7
 10
612.92339131699714
 20
293.39320791904134
 11
616.31290010761768
 21
296.78271670966194
  0
LINE
  8
_2-0_
  6
CONTINUOUS
 62
    7
 10
615.71741283401661
 20
293.35880231131426
 11
619.14132723236412
 21
296.78271670966171
  0
LINE
  8
_2-0_
  6
CONTINUOUS
 62
    7
 10
618.59565408367541
 20
293.4086164362264
 11
621.96975435711056
 21
296.78271670966149
  0
LINE
  8
_2-0_
  6
CONTINUOUS
 62
    7
 10
604.50937338708161
 20
293.46447136336599
 11
607.82761873337722
 21
296.78271670966154
  0
LINE
  8
_2-0_
  6
CONTINUOUS
 62
    7
 10
621.50051401855762
 20
293.48504924636194
 11
622.28457590427865
 21
294.26911113208291
  0
LINE
  8
_2-0_
  6
CONTINUOUS
 62
    7
 10
582.37625143009097
 20
296.03042054305899
 11
583.16031331581189
 21
296.81448242877997
  0
LINE
  8
_2-0_
  6
CONTINUOUS
 62
    4
 10
602.36274318871597
 20
275.57425547689132
 11
596.56718823098163
 21
274.02134120627619
  0
LINE
  8
_2-0_
  6
CONTINUOUS
 62
    4
 10
602.36274318871597
 20
275.57425547689132
 11
596.56718823098163
 21
277.12716974750646
  0
LINE
  8
_2-0_
  6
CONTINUOUS
 62
    4
 10
602.36274318871597
 20
274.57425547689132
 11
602.36274318871597
 21
285.65036797244136
  0
TEXT
  8
_2-0_
 62
    7
 10
545.10887848590096
 20
276.98059793422112
 40
8
 41
1
 50
0
  1
50
  0
ARC
  8
_2-0_
  6
CONTINUOUS
 62
    2
 10
632.64550443229655
 20
301.32849225947569
 40
10.793215373849014
 50
315.60640298124792
 51
56.046281077863661
  0
ARC
  8
_2-0_
  6
CONTINUOUS
 62
    2
 10
645.93409222767173
 20
288.31825449004867
 40
7.8039040916062508
 50
135.60640298124798
 51
234.19178192632754
  0
ARC
  8
_2-0_
  6
CONTINUOUS
 62
    2
 10
630.84688795692773
 20
301.32849225947569
 40
9.793215373849014
 50
315.60640298124792
 51
56.046281077863661
  0
ARC
  8
_2-0_
  6
CONTINUOUS
 62
    2
 10
644.13547575230268
 20
288.31825449004867
 40
8.8039040916062508
 50
135.60640298124798
 51
234.19178192632754
  0
LINE
  8
_2-0_
  6
CONTINUOUS
 62
    7
 10
639.69695524084864
 20
303.06023877054798
 11
442.36274318871602
 21
303.06023877054798
  0
LINE
  8
_2-0_
  6
CONTINUOUS
 62
    7
 10
639.17436918142903
 20
296.86023877054794
 11
442.36274318871602
 21
296.86023877054794
  0
LINE
  8
_2-0_
  6
CONTINUOUS
 62
    7
 10
636.30014585462118
 20
293.40315572667333
 11
442.36274318871602
 21
293.40315572667333
  0
LINE
  8
_2-0_
  6
CONTINUOUS
 62
    7
 10
634.73238767636235
 20
287.20315572667329
 11
442.36274318871602
 21
287.20315572667329
  0
LINE
  8
_2-0_
  6
CONTINUOUS
 62
    4
 10
502.36274318871602
 20
275.57425547689132
 11
602.85463805176676
 21
275.57425547689132
  0
LINE
  8
_2-0_
  6
CONTINUOUS
 62
    7
 10
659.81651852850325
 20
303.06023877054798
 11
643.3550576567859
 21
303.06023877054798
  0
LINE
  8
_2-0_
  6
CONTINUOUS
 62
    7
 10
659.81651852850325
 20
296.86023877054794
 11
642.30988553794668
 21
296.86023877054794
  0
LINE
  8
_2-0_
  6
CONTINUOUS
 62
    7
 10
659.29393246908364
 20
293.40315572667333
 11
639.95824827055844
 21
293.40315572667333
  0
LINE
  8
_2-0_
  6
CONTINUOUS
 62
    7
 10
659.55522549879345
 20
287.20315572667329
 11
638.39049009229961
 21
287.20315572667329
  0
TEXT
  8
_2-0_
 62
    7
 10
424.33766464934138
 20
313.55335049429033
 40
8
 41
1
 50
0
  1
・50mmピッチ
  0
TEXT
  8
_2-0_
 62
    7
 10
424.33766464934138
 20
256.57369170523316
 40
8
 41
1
 50
0
  1
・100mmピッチ
  0
TEXT
  8
_2-0_
 62
    7
 10
588.82355734020302
 20
253.15614601478089
 40
8
 41
1
 50
0
  1
※1
  0
LINE
  8
_2-0_
  6
CONTINUOUS
 62
    4
 10
788.40246360241758
 20
270.84643794687628
 11
788.40246360241758
 21
284.65248027491862
  0
LINE
  8
_2-0_
  6
CONTINUOUS
 62
    4
 10
723.47522550717952
 20
270.84643794687628
 11
723.47522550717952
 21
284.65248027491862
  0
LINE
  8
_2-0_
  6
CONTINUOUS
 62
    4
 10
788.40246360241758
 20
272.11643794687626
 11
781.0421088060948
 21
274.08863907055746
  0
LINE
  8
_2-0_
  6
CONTINUOUS
 62
    4
 10
788.40246360241758
 20
272.11643794687626
 11
781.0421088060948
 21
270.14423682319506
  0
LINE
  8
_2-0_
  6
CONTINUOUS
 62
    4
 10
723.47522550717952
 20
272.11643794687626
 11
730.83558030350207
 21
270.14423682319506
  0
LINE
  8
_2-0_
  6
CONTINUOUS
 62
    4
 10
723.47522550717952
 20
272.11643794687626
 11
730.83558030350207
 21
274.08863907055746
  0
LINE
  8
_2-0_
  6
CONTINUOUS
 62
    4
 10
723.47522550717952
 20
272.11643794687626
 11
788.40246360241758
 21
272.11643794687626
  0
LINE
  8
_2-0_
  6
CONTINUOUS
 62
    7
 10
757.70691045159981
 20
289.10286490979007
 11
788.40246360241758
 21
289.10286490979007
  0
LINE
  8
_2-0_
  6
CONTINUOUS
 62
    7
 10
723.47522550717952
 20
289.10286490979007
 11
754.74490105601012
 21
289.10286490979007
  0
LINE
  8
_2-0_
  6
CONTINUOUS
 62
    7
 10
757.55193663802743
 20
293.67486490979007
 11
788.40246360241758
 21
293.67486490979007
  0
LINE
  8
_2-0_
  6
CONTINUOUS
 62
    7
 10
723.47522550717952
 20
293.67486490979007
 11
754.62650821732086
 21
293.67486490979007
  0
ARC
  8
_2-0_
  6
CONTINUOUS
 62
    7
 10
758.84960609604605
 20
291.52306519342119
 40
4.7397043908516867
 50
152.9997428828153
 51
209.99998474121088
  0
LINE
  8
_2-0_
  6
CONTINUOUS
 62
    7
 10
757.55193663802743
 20
293.67486490979007
 11
756.94460351471855
 21
292.62293632735071
  0
LINE
  8
_2-0_
  6
CONTINUOUS
 62
    7
 10
756.94460351471855
 20
290.42321628135517
 11
757.70691045159981
 21
289.10286490979007
  0
LINE
  8
_2-0_
  6
CONTINUOUS
 62
    7
 10
754.74489457965467
 20
289.15321456047013
 11
754.74489640199465
 21
289.15321140411851
  0
ARC
  8
_2-0_
  6
CONTINUOUS
 62
    7
 10
758.84960609604605
 20
291.52306519342119
 40
2.1997045948560632
 50
150
 51
209.99998474121094
  0
LINE
  8
_2-0_
  6
CONTINUOUS
 62
    7
 10
788.40246360241758
 20
293.67486490979007
 11
788.40246360241758
 21
289.10286490979007
  0
LINE
  8
_2-0_
  6
CONTINUOUS
 62
    7
 10
723.47522550717952
 20
293.67486490979007
 11
723.47522550717952
 21
289.10286490979007
  0
TEXT
  8
_2-0_
 62
    7
 10
705.23956993028241
 20
279.97074084404653
 40
8
 41
1
 50
90
  1
Φ2.1
  0
TEXT
  8
_2-0_
 62
    7
 10
727.82835575731951
 20
276.65418083044796
 40
6
 41
1
 50
0
  1
ピッチにより変動
  0
TEXT
  8
_1-0_
 62
    7
 10
102.44498607005119
 20
19.800000000000011
 40
7
 41
1
 50
0
  1
WW:3500K / L30:3000K / L27:2700K / L25:2500K
  0
TEXT
  8
_1-0_
 62
    7
 10
96.803321734310202
 20
149.05513455939203
 40
8
 41
1
 50
0
  1
①
  0
TEXT
  8
_1-0_
 62
    7
 10
80.976699527151027
 20
160.93625548314125
 40
16
 41
1
 50
0
  1
LXSS-FGC-1000-N K CR
  0
LINE
  8
_1-0_
  6
CONTINUOUS
 62
    7
 10
80.972633903622295
 20
158.92603403029153
 11
115.68593619497949
 21
158.92603403029153
  0
LINE
  8
_1-0_
  6
CONTINUOUS
 62
    7
 10
126.24961691997083
 20
158.92603403029153
 11
152.65881873244905
 21
158.92603403029153
  0
LINE
  8
_1-0_
  6
CONTINUOUS
 62
    7
 10
164.3543223922608
 20
158.92603403029153
 11
197.17718750205518
 21
158.92603403029153
  0
LINE
  8
_1-0_
  6
CONTINUOUS
 62
    7
 10
206.98631960383278
 20
158.92603403029153
 11
216.04090308239674
 21
158.92603403029153
  0
LINE
  8
_1-0_
  6
CONTINUOUS
 62
    7
 10
225.47276087256753
 20
158.92603403029153
 11
233.395521416311
 21
158.92603403029153
  0
LINE
  8
_1-0_
  6
CONTINUOUS
 62
    7
 10
244.33647645290912
 20
158.92603403029153
 11
261.31382047521652
 21
158.92603403029153
  0
TEXT
  8
_1-0_
 62
    7
 10
135.45421782620991
 20
149.89322979748727
 40
8
 41
1
 50
0
  1
②
  0
TEXT
  8
_1-0_
 62
    7
 10
176.95439210296141
 20
149.89322979748727
 40
8
 41
1
 50
0
  1
③
  0
TEXT
  8
_1-0_
 62
    7
 10
207.13633703150794
 20
149.80010810436559
 40
8
 41
1
 50
0
  1
④
  0
TEXT
  8
_1-0_
 62
    7
 10
226.00005261184953
 20
149.89322979748727
 40
8
 41
1
 50
0
  1
⑤
  0
TEXT
  8
_1-0_
 62
    7
 10
249.01378561986624
 20
150.35883826309575
 40
8
 41
1
 50
0
  1
⑥
  0
TEXT
  8
_1-0_
 62
    7
 10
294.03506776605616
 20
145.79531439385673
 40
10
 41
0.9999999999999996
 50
0
  1
③　全長
  0
TEXT
  8
_1-0_
 62
    7
 10
480.74833091338218
 20
90.642917622879509
 40
10
 41
1
 50
0
  1
[A]
  0
TEXT
  8
_1-0_
 62
    7
 10
424.76850577032872
 20
90.355816219926794
 40
9.9999999999999716
 41
1.0000000000000029
 50
0
  1
[W]
  0
LINE
  8
_1-0_
  6
CONTINUOUS
 62
    7
 10
499.5764852500547
 20
120.74284121895695
 11
499.5764852500547
 21
40.742841218956983
  0
LINE
  8
_1-0_
  6
CONTINUOUS
 62
    7
 10
443.36090027700607
 20
120.74284121895695
 11
443.36090027700607
 21
40.742841218956983
  0
TEXT
  8
_1-0_
 62
    7
 10
448.7153189430785
 20
106.67824631890275
 40
11.199999999999989
 41
1.0000000000000004
 50
0
  1
入力電流
  0
LINE
  8
_1-0_
  6
CONTINUOUS
 62
    7
 10
387.88347814110193
 20
120.74284121895695
 11
387.88347814110193
 21
40.742841218956983
  0
TEXT
  8
_1-0_
 62
    7
 10
393.27627668040327
 20
106.67824631890275
 40
11.199999999999989
 41
1.0000000000000009
 50
0
  1
入力電力
  0
TEXT
  8
_1-0_
 62
    7
 10
364.72495417090522
 20
106.40058943281582
 40
11.200000000000017
 41
0.9999999999999976
 50
0
  1
Ra
  0
TEXT
  8
_1-0_
 62
    7
 10
353.65497617624044
 20
66.637797118094255
 40
10.000000000000057
 41
0.9999999999999943
 50
0
  1
80以上
  0
LINE
  8
_1-0_
  6
CONTINUOUS
 62
    7
 10
349.03634884703979
 20
120.74284121895695
 11
349.03634884703979
 21
40.742841218956983
  0
LINE
  8
_1-0_
  6
CONTINUOUS
 62
    7
 10
240.07058332149003
 20
120.74284121895695
 11
240.07058332149003
 21
40.742841218956983
  0
TEXT
  8
_1-0_
 62
    7
 10
220.62872431929844
 20
59.594537079853581
 40
8
 41
0.9999999999999994
 50
0
  1
[mm]
  0
TEXT
  8
_1-0_
 62
    7
 10
220.46046428105748
 20
44.338960279343723
 40
8
 41
1.0000000000000004
 50
0
  1
[mm]
  0
TEXT
  8
_1-0_
 62
    7
 10
220.45559378823759
 20
91.297271765993742
 40
8
 41
0.9999999999999994
 50
0
  1
[mm]
  0
TEXT
  8
_1-0_
 62
    7
 10
220.63094249304834
 20
75.899985495949181
 40
8
 41
0.9999999999999994
 50
0
  1
[mm]
  0
LINE
  8
_1-0_
  6
CONTINUOUS
 62
    7
 10
295.12406313998298
 20
120.97902985534995
 11
295.12406313998298
 21
40.742841218956983
  0
TEXT
  8
_1-0_
 62
    7
 10
196.75555687844061
 20
106.52501931124345
 40
11.200000000000017
 41
0.9999999999999965
 50
0
  1
全長
  0
TEXT
  8
_1-0_
 62
    7
 10
257.7442472738677
 20
106.15650758679982
 40
11.200000000000017
 41
0.9999999999999965
 50
0
  1
重量
  0
TEXT
  8
_1-0_
 62
    7
 10
332.35820505839058
 20
91.666066892386823
 40
9.9999999999999716
 41
1.0000000000000029
 50
0
  1
個
  0
TEXT
  8
_1-0_
 62
    7
 10
332.68413098431654
 20
76.021622447942377
 40
9.9999999999999716
 41
1.0000000000000029
 50
0
  1
個
  0
TEXT
  8
_1-0_
 62
    7
 10
332.68413098431654
 20
60.377178003497932
 40
9.9999999999999716
 41
1.0000000000000029
 50
0
  1
個
  0
TEXT
  8
_1-0_
 62
    7
 10
333.11869888555111
 20
43.832557192210515
 40
9.9999999999999716
 41
1.0000000000000029
 50
0
  1
個
  0
TEXT
  8
_1-0_
 62
    7
 10
424.91880466016642
 20
73.822938337774758
 40
10
 41
1.0000000000000002
 50
0
  1
[W]
  0
TEXT
  8
_1-0_
 62
    7
 10
424.8311303077611
 20
58.104179442243947
 40
10
 41
1
 50
0
  1
[W]
  0
TEXT
  8
_1-0_
 62
    7
 10
425.15677790240954
 20
42.322796009280694
 40
10
 41
1.0000000000000002
 50
0
  1
[W]
  0
TEXT
  8
_1-0_
 62
    7
 10
480.74833091338218
 20
75.380507263770767
 40
10
 41
1
 50
0
  1
[A]
  0
TEXT
  8
_1-0_
 62
    7
 10
480.74833091338218
 20
59.736062819326321
 40
10
 41
1
 50
0
  1
[A]
  0
TEXT
  8
_1-0_
 62
    7
 10
480.74833091338218
 20
44.091618374881875
 40
10
 41
1
 50
0
  1
[A]
  0
TEXT
  8
_1-0_
 62
    7
 10
280.51153988490216
 20
90.793650793650784
 40
11.200000000000017
 41
0.9999999999999965
 50
0
  1
ｇ
  0
TEXT
  8
_1-0_
 62
    7
 10
280.51153988490216
 20
74.590476190476181
 40
11.200000000000017
 41
0.9999999999999965
 50
0
  1
ｇ
  0
TEXT
  8
_1-0_
 62
    7
 10
280.51153988490216
 20
58.946031746031736
 40
11.200000000000017
 41
0.9999999999999965
 50
0
  1
ｇ
  0
TEXT
  8
_1-0_
 62
    7
 10
280.51153988490216
 20
43.022222222222183
 40
11.200000000000017
 41
0.9999999999999965
 50
0
  1
ｇ
  0
TEXT
  8
_1-0_
 62
    7
 10
196.58404287488602
 20
75.770271419546106
 40
10
 41
1
 50
0
  1
1000
  0
TEXT
  8
_1-0_
 62
    7
 10
196.58404287488602
 20
60.175578315595089
 40
10
 41
1
 50
0
  1
1495
  0
TEXT
  8
_1-0_
 62
    7
 10
196.58404287488602
 20
43.931106332312794
 40
10
 41
1
 50
0
  1
1990
  0
TEXT
  8
_1-0_
 62
    7
 10
200.94255602063132
 20
91.297271765993742
 40
10
 41
1
 50
0
  1
505
  0
TEXT
  8
_1-0_
 62
    7
 10
263.54710235877587
 20
91.297271765993742
 40
10
 41
1
 50
0
  1
67
  0
TEXT
  8
_1-0_
 62
    7
 10
259.18858921303058
 20
75.770271419546106
 40
10
 41
1
 50
0
  1
134
  0
TEXT
  8
_1-0_
 62
    7
 10
259.18858921303058
 20
60.175578315595089
 40
10
 41
1
 50
0
  1
198
  0
TEXT
  8
_1-0_
 62
    7
 10
259.18858921303058
 20
43.931106332312794
 40
10
 41
1
 50
0
  1
264
  0
TEXT
  8
_1-0_
 62
    7
 10
310.33597008730766
 20
91.297271765993742
 40
10
 41
1
 50
0
  1
108
  0
TEXT
  8
_1-0_
 62
    7
 10
310.33597008730766
 20
75.770271419546106
 40
10
 41
1
 50
0
  1
216
  0
TEXT
  8
_1-0_
 62
    7
 10
310.33597008730766
 20
60.175578315595089
 40
10
 41
1
 50
0
  1
324
  0
TEXT
  8
_1-0_
 62
    7
 10
310.33597008730766
 20
43.931106332312794
 40
10
 41
1
 50
0
  1
432
  0
TEXT
  8
_1-0_
 62
    7
 10
402.11035107093016
 20
75.770271419546106
 40
10
 41
1
 50
0
  1
15.5
  0
TEXT
  8
_1-0_
 62
    7
 10
402.11035107093016
 20
60.175578315595089
 40
10
 41
1
 50
0
  1
23.2
  0
TEXT
  8
_1-0_
 62
    7
 10
402.11035107093016
 20
43.931106332312794
 40
10
 41
1
 50
0
  1
31.0
  0
TEXT
  8
_1-0_
 62
    7
 10
406.98369266591487
 20
91.297271765993742
 40
10
 41
1
 50
0
  1
7.7
  0
TEXT
  8
_1-0_
 62
    7
 10
458.16066513517666
 20
91.297271765993742
 40
10
 41
1
 50
0
  1
0.32
  0
TEXT
  8
_1-0_
 62
    7
 10
458.16066513517666
 20
75.770271419546106
 40
10
 41
1
 50
0
  1
0.65
  0
TEXT
  8
_1-0_
 62
    7
 10
458.16066513517666
 20
60.175578315595089
 40
10
 41
1
 50
0
  1
0.97
  0
TEXT
  8
_1-0_
 62
    7
 10
458.16066513517666
 20
43.931106332312794
 40
10
 41
1
 50
0
  1
1.30
  0
LINE
  8
_1-0_
  6
CONTINUOUS
 62
    7
 10
74.72867713211275
 20
88.742841218956983
 11
349.19714994343036
 21
88.742841218956983
  0
LINE
  8
_1-0_
  6
CONTINUOUS
 62
    7
 10
74.72867713211275
 20
72.742841218956983
 11
348.91975895985615
 21
72.742841218956983
  0
LINE
  8
_1-0_
  6
CONTINUOUS
 62
    7
 10
74.72867713211275
 20
56.742841218957039
 11
349.05845445164323
 21
56.742841218957039
  0
LINE
  8
_1-0_
  6
CONTINUOUS
 62
    7
 10
387.89319215202806
 20
56.742841218957039
 11
559.90037099802862
 21
56.742841218957039
  0
LINE
  8
_1-0_
  6
CONTINUOUS
 62
    7
 10
388.44797411917642
 20
72.742841218956983
 11
559.90037099802862
 21
72.742841218956983
  0
LINE
  8
_1-0_
  6
CONTINUOUS
 62
    7
 10
387.89319215202806
 20
88.742841218956983
 11
559.90037099802862
 21
88.742841218956983
  0
TEXT
  8
_1-0_
 62
    7
 10
513.12303721835576
 20
60.175578315595089
 40
10
 41
1
 50
0
  1
1366
  0
TEXT
  8
_1-0_
 62
    7
 10
513.12303721835576
 20
43.931106332312794
 40
10
 41
1
 50
0
  1
1822
  0
TEXT
  8
_1-0_
 62
    7
 10
517.70172902124591
 20
91.297271765993742
 40
10
 41
1
 50
0
  1
455
  0
TEXT
  8
_1-0_
 62
    7
 10
517.70172902124591
 20
75.770271419546106
 40
10
 41
1
 50
0
  1
911
  0
TEXT
  8
_1-0_
 62
    7
 10
563.10757156048021
 20
108.61712509344522
 40
8
 41
1
 50
0
  1
最大連結長さ
  0
TEXT
  8
_1-0_
 62
    7
 10
599.89540607346999
 20
66.817636195752527
 40
10
 41
1
 50
0
  1
㎜
  0
TEXT
  8
_1-0_
 62
    7
 10
571.62280701754389
 20
66.637797118094255
 40
10.000000000000057
 41
0.9999999999999943
 50
0
  1
3465
  0
TEXT
  8
_1-0_
 62
    7
 10
297.77807017543864
 20
105.70707218339226
 40
11.200000000000017
 41
0.9999999999999965
 50
0
  1
LED PKG数
  0
TEXT
  8
_1-0_
 62
    7
 10
75.401409424706117
 20
122.12406751117976
 40
12
 41
0.9999999999999994
 50
0
  1
◆ 代表特性　定格入力DC24V　LXSS使用
  0
TEXT
  8
_0-0_1
 62
    7
 10
63.037579667993896
 20
515.03071852504854
 40
10.000000000000021
 41
0.9999999999999973
 50
0
  1
◆外形図
  0
LINE
  8
_0-0_1
  6
CONTINUOUS
 62
    7
 10
63.741148992167382
 20
514.83289943027376
 11
105.25577100646353
 21
514.83289943027376
  0
LINE
  8
_2-0_
  6
CONTINUOUS
 62
    7
 10
89.481661599681956
 20
469.05717884186583
 11
89.481661599681956
 21
487.77905384186579
  0
LINE
  8
ADD_LINE
  6
DOT
 62
    9
 10
89.481661599681956
 20
478.41811634186581
 11
126.60457308725199
 21
478.41811634186581
  0
LINE
  8
_2-0_
  6
CONTINUOUS
 62
    7
 10
99.481661599681956
 20
483.77905384186579
 11
89.481661599681956
 21
483.77905384186579
  0
LINE
  8
_2-0_
  6
CONTINUOUS
 62
    7
 10
89.481661599681956
 20
473.05717884186583
 11
99.481661599681956
 21
473.05717884186583
  0
LINE
  8
_2-0_
  6
CONTINUOUS
 62
    7
 10
101.88166159968193
 20
487.77905384186579
 11
89.481661599681956
 21
487.77905384186579
  0
LINE
  8
_2-0_
  6
CONTINUOUS
 62
    7
 10
101.88166159968193
 20
469.05717884186583
 11
89.481661599681956
 21
469.05717884186583
  0
ARC
  8
_2-0_
  6
CONTINUOUS
 62
    2
 10
147.66664110559066
 20
483.12678781683326
 40
8.713413616482713
 50
320.661199489333
 51
54.386441387944416
  0
ARC
  8
_2-0_
  6
CONTINUOUS
 62
    2
 10
161.75677285264203
 20
471.57820568174361
 40
9.5047520974462323
 50
140.66119948933292
 51
214.56691244988951
  0
ARC
  8
_2-0_
  6
CONTINUOUS
 62
    2
 10
161.75677285264203
 20
471.57820568174361
 40
11.504752097446232
 50
140.66119948933292
 51
214.56691244988951
  0
ARC
  8
_2-0_
  6
CONTINUOUS
 62
    2
 10
147.66664110559066
 20
483.12678781683326
 40
6.713413616482713
 50
320.661199489333
 51
54.386441387944416
  0
LINE
  8
_2-0_
  6
CONTINUOUS
 62
    7
 10
184.9437175534739
 20
479.41811634186581
 11
155.5513942876928
 21
479.41811634186581
  0
LINE
  8
_2-0_
  6
CONTINUOUS
 62
    7
 10
153.26268240964998
 20
479.41811634186581
 11
126.60457308725199
 21
479.41811634186581
  0
LINE
  8
_2-0_
  6
CONTINUOUS
 62
    7
 10
184.9437175534739
 20
483.01811634186583
 11
156.37937703424336
 21
483.01811634186583
  0
LINE
  8
_2-0_
  6
CONTINUOUS
 62
    7
 10
154.37917512014167
 20
483.01811634186583
 11
126.60457308725199
 21
483.01811634186583
  0
LINE
  8
_2-0_
  6
CONTINUOUS
 62
    7
 10
184.9437175534739
 20
477.41811634186581
 11
154.25772251838646
 21
477.41811634186581
  0
LINE
  8
_2-0_
  6
CONTINUOUS
 62
    7
 10
151.84441872733532
 20
477.41811634186581
 11
126.60457308725199
 21
477.41811634186581
  0
LINE
  8
_2-0_
  6
CONTINUOUS
 62
    7
 10
184.9437175534739
 20
473.81811634186585
 11
152.51972177188145
 21
473.81811634186585
  0
LINE
  8
_2-0_
  6
CONTINUOUS
 62
    7
 10
150.47217622456685
 20
473.81811634186585
 11
126.60457308725199
 21
473.81811634186585
  0
LINE
  8
ADD_LINE
  6
DOT
 62
    9
 10
186.95883562268102
 20
478.41811634186581
 11
562.83694308058
 21
478.41811634186581
  0
LINE
  8
ADD_LINE
  6
DOT
 62
    9
 10
126.60457308725199
 20
483.21889759186581
 11
126.60457308725199
 21
473.61733509186587
  0
LINE
  8
_2-0_
  6
CONTINUOUS
 62
    7
 10
126.60457308725199
 20
471.45717884186587
 11
126.60457308725199
 21
485.37905384186581
  0
LINE
  8
_2-0_
  6
CONTINUOUS
 62
    7
 10
103.88166159968193
 20
471.45717884186587
 11
126.60457308725199
 21
471.45717884186587
  0
LINE
  8
_2-0_
  6
CONTINUOUS
 62
    7
 10
126.60457308725199
 20
485.37905384186581
 11
103.88166159968193
 21
485.37905384186581
  0
LINE
  8
_2-0_
  6
CONTINUOUS
 62
    7
 10
125.60457308725199
 20
471.45717884186587
 11
125.60457308725199
 21
485.37905384186581
  0
LINE
  8
_2-0_
  6
CONTINUOUS
 62
    7
 10
95.481661599681956
 20
482.41811634186593
 11
117.88166159968193
 21
482.41811634186593
  0
LINE
  8
_2-0_
  6
CONTINUOUS
 62
    7
 10
99.481661599681956
 20
482.41811634186593
 11
99.481661599681956
 21
483.77905384186579
  0
LINE
  8
_2-0_
  6
CONTINUOUS
 62
    7
 10
95.481661599681956
 20
480.41811634186593
 11
117.88166159968193
 21
480.41811634186593
  0
LINE
  8
_2-0_
  6
CONTINUOUS
 62
    7
 10
95.481661599681956
 20
474.41811634186587
 11
117.88166159968193
 21
474.41811634186587
  0
LINE
  8
_2-0_
  6
CONTINUOUS
 62
    7
 10
99.481661599681956
 20
473.05717884186583
 11
99.481661599681956
 21
474.41811634186587
  0
LINE
  8
_2-0_
  6
CONTINUOUS
 62
    7
 10
95.481661599681956
 20
476.41811634186587
 11
117.88166159968193
 21
476.41811634186587
  0
LINE
  8
_2-0_
  6
CONTINUOUS
 62
    7
 10
95.481661599681956
 20
474.41811634186587
 11
95.481661599681956
 21
482.41811634186593
  0
LINE
  8
_2-0_
  6
CONTINUOUS
 62
    7
 10
117.88166159968193
 20
474.41811634186587
 11
117.88166159968193
 21
482.41811634186593
  0
LINE
  8
_2-0_
  6
CONTINUOUS
 62
    7
 10
103.88166159968193
 20
485.77905384186579
 11
103.88166159968193
 21
482.41811634186593
  0
ARC
  8
_2-0_
  6
CONTINUOUS
 62
    7
 10
101.88166159968193
 20
485.77905384186579
 40
2
 50
0
 51
90.000000000000014
  0
LINE
  8
_2-0_
  6
CONTINUOUS
 62
    7
 10
103.88166159968193
 20
471.05717884186583
 11
103.88166159968193
 21
474.41811634186587
  0
ARC
  8
_2-0_
  6
CONTINUOUS
 62
    7
 10
101.88166159968193
 20
471.05717884186583
 40
2
 50
270
 51
0
  0
LINE
  8
_2-0_
  6
CONTINUOUS
 62
    4
 10
289.20677294472034
 20
499.60799772888492
 11
271.69273926388632
 21
482.76758072808298
  0
LINE
  8
_2-0_
  6
CONTINUOUS
 62
    2
 10
473.17821651261443
 20
470.4181323418656
 11
489.03529955648935
 21
486.27521538574047
  0
LINE
  8
_2-0_
  6
CONTINUOUS
 62
    2
 10
470.34978938786799
 20
470.41813234186583
 11
486.20687243174291
 21
486.27521538574069
  0
LINE
  8
_2-0_
  6
CONTINUOUS
 62
    2
 10
467.52136226312155
 20
470.41813234186606
 11
483.37844530699647
 21
486.27521538574103
  0
LINE
  8
_2-0_
  6
CONTINUOUS
 62
    2
 10
464.69293513837511
 20
470.41813234186628
 11
480.55001818225003
 21
486.27521538574126
  0
LINE
  8
_2-0_
  6
CONTINUOUS
 62
    2
 10
461.86450801363213
 20
470.41813234186634
 11
477.72159105750711
 21
486.27521538574126
  0
LINE
  8
_2-0_
  6
CONTINUOUS
 62
    2
 10
459.03608088888404
 20
470.41813234186498
 11
474.89316393275897
 21
486.2752153857399
  0
LINE
  8
_2-0_
  6
CONTINUOUS
 62
    2
 10
456.2076537641376
 20
470.4181323418652
 11
472.06473680801258
 21
486.27521538574013
  0
LINE
  8
_2-0_
  6
CONTINUOUS
 62
    2
 10
453.37922663939122
 20
470.41813234186543
 11
469.23630968326614
 21
486.27521538574035
  0
LINE
  8
_2-0_
  6
CONTINUOUS
 62
    2
 10
450.55079951464472
 20
470.41813234186566
 11
466.4078825585197
 21
486.27521538574058
  0
LINE
  8
_2-0_
  6
CONTINUOUS
 62
    2
 10
447.72237238989834
 20
470.41813234186588
 11
463.57945543377326
 21
486.27521538574081
  0
LINE
  8
_2-0_
  6
CONTINUOUS
 62
    2
 10
444.89394526515184
 20
470.41813234186611
 11
460.75102830902682
 21
486.27521538574103
  0
LINE
  8
_2-0_
  6
CONTINUOUS
 62
    2
 10
442.06551814040546
 20
470.41813234186634
 11
457.92260118427987
 21
486.27521538574081
  0
LINE
  8
_2-0_
  6
CONTINUOUS
 62
    2
 10
439.23709101566232
 20
470.41813234186628
 11
455.09417405953735
 21
486.27521538574126
  0
LINE
  8
_2-0_
  6
CONTINUOUS
 62
    2
 10
436.4086638909144
 20
470.41813234186498
 11
452.26574693478938
 21
486.2752153857399
  0
LINE
  8
_2-0_
  6
CONTINUOUS
 62
    2
 10
433.58023676616796
 20
470.4181323418652
 11
449.43731981004294
 21
486.27521538574013
  0
LINE
  8
_2-0_
  6
CONTINUOUS
 62
    2
 10
430.75180964142152
 20
470.41813234186543
 11
446.6088926852965
 21
486.27521538574047
  0
LINE
  8
_2-0_
  6
CONTINUOUS
 62
    2
 10
427.92338251667508
 20
470.41813234186566
 11
443.78046556055006
 21
486.27521538574069
  0
LINE
  8
_2-0_
  6
CONTINUOUS
 62
    2
 10
425.09495539192864
 20
470.41813234186588
 11
440.95203843580362
 21
486.27521538574092
  0
LINE
  8
_2-0_
  6
CONTINUOUS
 62
    2
 10
422.2665282671822
 20
470.41813234186611
 11
438.12361131105718
 21
486.27521538574115
  0
LINE
  8
_2-0_
  6
CONTINUOUS
 62
    2
 10
419.43810114243576
 20
470.41813234186634
 11
435.29518418631011
 21
486.27521538574069
  0
LINE
  8
_2-0_
  6
CONTINUOUS
 62
    2
 10
416.60967401769113
 20
470.41813234186475
 11
432.46675706156617
 21
486.27521538573978
  0
LINE
  8
_2-0_
  6
CONTINUOUS
 62
    2
 10
413.78124689294469
 20
470.41813234186503
 11
429.63832993681973
 21
486.27521538574001
  0
LINE
  8
_2-0_
  6
CONTINUOUS
 62
    2
 10
410.95281976819831
 20
470.41813234186526
 11
426.80990281207329
 21
486.27521538574024
  0
LINE
  8
_2-0_
  6
CONTINUOUS
 62
    2
 10
408.12439264345187
 20
470.41813234186549
 11
423.98147568732685
 21
486.27521538574047
  0
LINE
  8
_2-0_
  6
CONTINUOUS
 62
    2
 10
405.29596551870543
 20
470.41813234186571
 11
421.15304856258041
 21
486.27521538574069
  0
LINE
  8
_2-0_
  6
CONTINUOUS
 62
    2
 10
402.46753839395899
 20
470.41813234186594
 11
418.32462143783403
 21
486.27521538574092
  0
LINE
  8
_2-0_
  6
CONTINUOUS
 62
    2
 10
399.63911126921255
 20
470.41813234186617
 11
415.49619431308759
 21
486.27521538574115
  0
LINE
  8
_2-0_
  6
CONTINUOUS
 62
    2
 10
396.81068414446918
 20
470.41813234186583
 11
412.66776718834427
 21
486.27521538574092
  0
LINE
  8
_2-0_
  6
CONTINUOUS
 62
    2
 10
393.98225701972149
 20
470.4181323418648
 11
409.83934006359652
 21
486.2752153857399
  0
LINE
  8
_2-0_
  6
CONTINUOUS
 62
    2
 10
391.15382989497505
 20
470.41813234186503
 11
407.01091293885008
 21
486.27521538574013
  0
LINE
  8
_2-0_
  6
CONTINUOUS
 62
    2
 10
388.32540277022861
 20
470.41813234186526
 11
404.18248581410364
 21
486.27521538574035
  0
LINE
  8
_2-0_
  6
CONTINUOUS
 62
    2
 10
385.49697564548217
 20
470.41813234186549
 11
401.35405868935726
 21
486.27521538574058
  0
LINE
  8
_2-0_
  6
CONTINUOUS
 62
    2
 10
382.66854852073573
 20
470.41813234186571
 11
398.52563156461076
 21
486.27521538574081
  0
LINE
  8
_2-0_
  6
CONTINUOUS
 62
    2
 10
379.84012139598929
 20
470.41813234186594
 11
395.69720443986438
 21
486.27521538574103
  0
LINE
  8
_2-0_
  6
CONTINUOUS
 62
    2
 10
377.01169427124285
 20
470.41813234186623
 11
392.86877731511703
 21
486.27521538574035
  0
LINE
  8
_2-0_
  6
CONTINUOUS
 62
    2
 10
374.18326714649822
 20
470.41813234186458
 11
390.04035019037332
 21
486.27521538573967
  0
LINE
  8
_2-0_
  6
CONTINUOUS
 62
    2
 10
371.35484002175178
 20
470.41813234186486
 11
387.21192306562688
 21
486.2752153857399
  0
LINE
  8
_2-0_
  6
CONTINUOUS
 62
    2
 10
368.52641289700534
 20
470.41813234186503
 11
384.38349594088049
 21
486.27521538574013
  0
LINE
  8
_2-0_
  6
CONTINUOUS
 62
    2
 10
365.6979857722589
 20
470.41813234186532
 11
381.55506881613405
 21
486.27521538574035
  0
LINE
  8
_2-0_
  6
CONTINUOUS
 62
    2
 10
362.86955864751246
 20
470.41813234186554
 11
378.72664169138761
 21
486.27521538574058
  0
LINE
  8
_2-0_
  6
CONTINUOUS
 62
    2
 10
360.04113152276602
 20
470.41813234186577
 11
375.89821456664117
 21
486.27521538574081
  0
LINE
  8
_2-0_
  6
CONTINUOUS
 62
    2
 10
357.21270439801958
 20
470.418132341866
 11
373.06978744189473
 21
486.27521538574115
  0
LINE
  8
_2-0_
  6
CONTINUOUS
 62
    2
 10
354.38427727327604
 20
470.41813234186543
 11
370.24136031715119
 21
486.27521538574058
  0
LINE
  8
_2-0_
  6
CONTINUOUS
 62
    2
 10
343.07056877429005
 20
470.41813234186611
 11
358.92765181816463
 21
486.27521538574069
  0
LINE
  8
_2-0_
  6
CONTINUOUS
 62
    2
 10
340.24214164954361
 20
470.41813234186634
 11
356.09922469341819
 21
486.27521538574092
  0
LINE
  8
_2-0_
  6
CONTINUOUS
 62
    2
 10
314.78629752682747
 20
470.41813234186657
 11
330.64338057070211
 21
486.27521538574115
  0
LINE
  8
_2-0_
  6
CONTINUOUS
 62
    2
 10
311.95787040208103
 20
470.41813234186679
 11
327.81495344595476
 21
486.27521538574058
  0
LINE
  8
_2-0_
  6
CONTINUOUS
 62
    2
 10
309.12944327733646
 20
470.4181323418652
 11
324.98652632121104
 21
486.27521538573978
  0
LINE
  8
_2-0_
  6
CONTINUOUS
 62
    2
 10
306.30101615258997
 20
470.41813234186543
 11
322.1580991964646
 21
486.27521538574001
  0
LINE
  8
_2-0_
  6
CONTINUOUS
 62
    2
 10
303.47258902784358
 20
470.41813234186566
 11
319.32967207171816
 21
486.27521538574035
  0
LINE
  8
_2-0_
  6
CONTINUOUS
 62
    2
 10
300.64416190309714
 20
470.41813234186594
 11
316.50124494697172
 21
486.27521538574058
  0
LINE
  8
_2-0_
  6
CONTINUOUS
 62
    2
 10
297.81573477835065
 20
470.41813234186617
 11
313.67281782222528
 21
486.27521538574081
  0
LINE
  8
_2-0_
  6
CONTINUOUS
 62
    2
 10
294.9873076536042
 20
470.4181323418664
 11
310.84439069747884
 21
486.27521538574103
  0
LINE
  8
_2-0_
  6
CONTINUOUS
 62
    2
 10
292.15888052885782
 20
470.41813234186662
 11
308.0159635727324
 21
486.27521538574126
  0
LINE
  8
_2-0_
  6
CONTINUOUS
 62
    2
 10
289.33045340411422
 20
470.41813234186606
 11
305.1875364479888
 21
486.27521538574069
  0
LINE
  8
_2-0_
  6
CONTINUOUS
 62
    2
 10
286.5020262793667
 20
470.41813234186526
 11
302.35910932324134
 21
486.2752153857399
  0
LINE
  8
_2-0_
  6
CONTINUOUS
 62
    2
 10
283.67359915462032
 20
470.41813234186549
 11
299.5306821984949
 21
486.27521538574013
  0
LINE
  8
_2-0_
  6
CONTINUOUS
 62
    2
 10
280.84517202987388
 20
470.41813234186571
 11
296.70225507374846
 21
486.27521538574035
  0
LINE
  8
_2-0_
  6
CONTINUOUS
 62
    2
 10
278.01674490512744
 20
470.41813234186594
 11
293.87382794900208
 21
486.27521538574058
  0
LINE
  8
_2-0_
  6
CONTINUOUS
 62
    2
 10
275.18831778038094
 20
470.41813234186617
 11
291.04540082425564
 21
486.27521538574081
  0
LINE
  8
_2-0_
  6
CONTINUOUS
 62
    2
 10
272.35989065563456
 20
470.4181323418664
 11
288.2169736995092
 21
486.27521538574103
  0
LINE
  8
_2-0_
  6
CONTINUOUS
 62
    2
 10
269.53146353088812
 20
470.41813234186662
 11
285.38854657476213
 21
486.27521538574069
  0
LINE
  8
_2-0_
  6
CONTINUOUS
 62
    2
 10
266.70303640614452
 20
470.41813234186606
 11
282.56011945001814
 21
486.27521538573967
  0
LINE
  8
_2-0_
  6
CONTINUOUS
 62
    2
 10
263.874609281397
 20
470.41813234186526
 11
279.73169232527169
 21
486.2752153857399
  0
LINE
  8
_2-0_
  6
CONTINUOUS
 62
    2
 10
261.04618215665062
 20
470.41813234186549
 11
276.90326520052531
 21
486.27521538574013
  0
LINE
  8
_2-0_
  6
CONTINUOUS
 62
    2
 10
258.21775503190412
 20
470.41813234186571
 11
274.07483807577881
 21
486.27521538574035
  0
LINE
  8
_2-0_
  6
CONTINUOUS
 62
    2
 10
255.38932790715774
 20
470.41813234186594
 11
271.24641095103243
 21
486.27521538574058
  0
LINE
  8
_2-0_
  6
CONTINUOUS
 62
    2
 10
252.56090078241124
 20
470.41813234186617
 11
268.41798382628593
 21
486.27521538574081
  0
LINE
  8
_2-0_
  6
CONTINUOUS
 62
    2
 10
249.73247365766485
 20
470.4181323418664
 11
265.58955670153955
 21
486.27521538574103
  0
LINE
  8
_2-0_
  6
CONTINUOUS
 62
    2
 10
246.90404653291966
 20
470.41813234186611
 11
262.76112957679396
 21
486.27521538574035
  0
LINE
  8
_2-0_
  6
CONTINUOUS
 62
    2
 10
244.07561940817379
 20
470.41813234186503
 11
259.93270245204849
 21
486.27521538573978
  0
LINE
  8
_2-0_
  6
CONTINUOUS
 62
    2
 10
241.24719228342735
 20
470.41813234186526
 11
257.10427532730205
 21
486.2752153857399
  0
LINE
  8
_2-0_
  6
CONTINUOUS
 62
    2
 10
238.41876515868091
 20
470.41813234186549
 11
254.27584820255561
 21
486.27521538574013
  0
LINE
  8
_2-0_
  6
CONTINUOUS
 62
    2
 10
235.59033803393447
 20
470.41813234186571
 11
251.44742107780917
 21
486.27521538574047
  0
LINE
  8
_2-0_
  6
CONTINUOUS
 62
    2
 10
232.76191090918803
 20
470.41813234186594
 11
248.61899395306273
 21
486.27521538574069
  0
LINE
  8
_2-0_
  6
CONTINUOUS
 62
    2
 10
229.93348378444159
 20
470.41813234186617
 11
245.79056682831629
 21
486.27521538574092
  0
LINE
  8
_2-0_
  6
CONTINUOUS
 62
    2
 10
227.10505665969515
 20
470.4181323418664
 11
242.96213970356985
 21
486.27521538574115
  0
LINE
  8
_2-0_
  6
CONTINUOUS
 62
    2
 10
224.27662953495155
 20
470.41813234186583
 11
240.13371257882631
 21
486.27521538574058
  0
LINE
  8
_2-0_
  6
CONTINUOUS
 62
    2
 10
221.44820241020409
 20
470.41813234186503
 11
237.30528545407884
 21
486.27521538573978
  0
LINE
  8
_2-0_
  6
CONTINUOUS
 62
    2
 10
218.61977528545765
 20
470.41813234186526
 11
234.4768583293324
 21
486.27521538574001
  0
LINE
  8
_2-0_
  6
CONTINUOUS
 62
    2
 10
215.79134816071121
 20
470.41813234186549
 11
231.64843120458596
 21
486.27521538574024
  0
LINE
  8
_2-0_
  6
CONTINUOUS
 62
    2
 10
212.96292103596477
 20
470.41813234186571
 11
228.82000407983946
 21
486.27521538574047
  0
LINE
  8
_2-0_
  6
CONTINUOUS
 62
    2
 10
210.13449391121833
 20
470.41813234186594
 11
225.99157695509308
 21
486.27521538574069
  0
LINE
  8
_2-0_
  6
CONTINUOUS
 62
    2
 10
207.30606678647189
 20
470.41813234186617
 11
223.16314983034664
 21
486.27521538574092
  0
LINE
  8
_2-0_
  6
CONTINUOUS
 62
    2
 10
204.47763966172545
 20
470.4181323418664
 11
220.33472270559997
 21
486.27521538574092
  0
LINE
  8
_2-0_
  6
CONTINUOUS
 62
    2
 10
201.64921253698083
 20
470.4181323418648
 11
217.50629558085558
 21
486.27521538573956
  0
LINE
  8
_2-0_
  6
CONTINUOUS
 62
    2
 10
198.82078541223439
 20
470.41813234186503
 11
214.67786845610914
 21
486.27521538573978
  0
LINE
  8
_2-0_
  6
CONTINUOUS
 62
    2
 10
195.99235828748795
 20
470.41813234186526
 11
211.8494413313627
 21
486.27521538574001
  0
LINE
  8
_2-0_
  6
CONTINUOUS
 62
    2
 10
193.16393116274151
 20
470.41813234186549
 11
209.02101420661626
 21
486.27521538574024
  0
LINE
  8
_2-0_
  6
CONTINUOUS
 62
    2
 10
190.33550403799507
 20
470.41813234186571
 11
206.19258708186982
 21
486.27521538574047
  0
LINE
  8
ADD_LINE
  6
DOT
 62
    9
 10
502.09549612109004
 20
478.41811634186581
 11
553.89841935730612
 21
478.41811634186581
  0
ARC
  8
_2-0_
  6
CONTINUOUS
 62
    2
 10
532.83635133896746
 20
483.12678781683326
 40
8.713413616482713
 50
125.61355861205558
 51
219.33880051066703
  0
ARC
  8
_2-0_
  6
CONTINUOUS
 62
    2
 10
518.74621959191609
 20
471.57820568174361
 40
9.5047520974462323
 50
325.43308755011049
 51
39.33880051066707
  0
ARC
  8
_2-0_
  6
CONTINUOUS
 62
    2
 10
518.74621959191609
 20
471.57820568174361
 40
11.504752097446232
 50
325.43308755011049
 51
39.33880051066707
  0
ARC
  8
_2-0_
  6
CONTINUOUS
 62
    2
 10
532.83635133896746
 20
483.12678781683326
 40
6.713413616482713
 50
125.61355861205558
 51
219.33880051066703
  0
LINE
  8
_2-0_
  6
CONTINUOUS
 62
    7
 10
495.55927489108421
 20
479.41811634186581
 11
524.95159815686532
 21
479.41811634186581
  0
LINE
  8
_2-0_
  6
CONTINUOUS
 62
    7
 10
527.24031003490813
 20
479.41811634186581
 11
553.89841935730612
 21
479.41811634186581
  0
LINE
  8
_2-0_
  6
CONTINUOUS
 62
    7
 10
495.55927489108421
 20
483.01811634186583
 11
524.12361541031476
 21
483.01811634186583
  0
LINE
  8
_2-0_
  6
CONTINUOUS
 62
    7
 10
526.12381732441645
 20
483.01811634186583
 11
553.89841935730612
 21
483.01811634186583
  0
LINE
  8
_2-0_
  6
CONTINUOUS
 62
    7
 10
495.55927489108421
 20
477.41811634186581
 11
526.24526992617166
 21
477.41811634186581
  0
LINE
  8
_2-0_
  6
CONTINUOUS
 62
    7
 10
528.65857371722279
 20
477.41811634186581
 11
553.89841935730612
 21
477.41811634186581
  0
LINE
  8
_2-0_
  6
CONTINUOUS
 62
    7
 10
495.55927489108421
 20
473.81811634186585
 11
527.98327067267667
 21
473.81811634186585
  0
LINE
  8
_2-0_
  6
CONTINUOUS
 62
    7
 10
530.03081621999127
 20
473.81811634186585
 11
553.89841935730612
 21
473.81811634186585
  0
LINE
  8
_2-0_
  6
CONTINUOUS
 62
    7
 10
553.89841935730612
 20
475.9266895223036
 11
553.89841935730612
 21
478.32668952230358
  0
LINE
  8
_2-0_
  6
CONTINUOUS
 62
    7
 10
553.89841935730612
 20
472.32668952230358
 11
553.89841935730612
 21
484.32668952230358
  0
LINE
  8
_2-0_
  6
CONTINUOUS
 62
    7
 10
577.50877389744437
 20
472.32668952230358
 11
577.50877389744437
 21
484.32668952230358
  0
LINE
  8
_2-0_
  6
CONTINUOUS
 62
    7
 10
553.89841935730612
 20
484.32668952230358
 11
577.50877389744437
 21
484.32668952230358
  0
LINE
  8
_2-0_
  6
CONTINUOUS
 62
    7
 10
577.50877389744437
 20
472.32668952230358
 11
553.89841935730612
 21
472.32668952230358
  0
LINE
  8
_2-0_
  6
CONTINUOUS
 62
    7
 10
556.2984193573061
 20
472.32668952230358
 11
556.2984193573061
 21
484.32668952230358
  0
LINE
  8
_2-0_
  6
CONTINUOUS
 62
    7
 10
569.10877389744428
 20
479.52668952230351
 11
569.10877389744428
 21
481.9266895223036
  0
LINE
  8
_2-0_
  6
CONTINUOUS
 62
    7
 10
569.10877389744428
 20
474.72668952230362
 11
569.10877389744428
 21
477.12668952230359
  0
LINE
  8
_2-0_
  6
CONTINUOUS
 62
    7
 10
569.10877389744428
 20
474.72668952230362
 11
577.50877389744437
 21
474.72668952230362
  0
LINE
  8
_2-0_
  6
CONTINUOUS
 62
    7
 10
569.10877389744428
 20
477.12668952230359
 11
577.50877389744437
 21
477.12668952230359
  0
LINE
  8
_2-0_
  6
CONTINUOUS
 62
    7
 10
569.10877389744428
 20
479.52668952230351
 11
577.50877389744437
 21
479.52668952230351
  0
LINE
  8
_2-0_
  6
CONTINUOUS
 62
    7
 10
569.10877389744428
 20
481.9266895223036
 11
577.50877389744437
 21
481.9266895223036
  0
LINE
  8
_2-0_
  6
CONTINUOUS
 62
    7
 10
566.34249670718771
 20
486.71821652399569
 11
559.50062361489108
 21
486.36432653646307
  0
LINE
  8
_2-0_
  6
CONTINUOUS
 62
    7
 10
559.50062361489108
 20
486.36432653646307
 11
566.9323133530753
 21
489.01850144295747
  0
LINE
  8
_2-0_
  6
CONTINUOUS
 62
    7
 10
569.76933603197153
 20
484.32668952230358
 11
566.34249670718771
 21
486.71821652399569
  0
LINE
  8
_2-0_
  6
CONTINUOUS
 62
    7
 10
566.9323133530753
 20
489.01850144295747
 11
571.30580986697237
 21
484.32668952230358
  0
LINE
  8
_2-0_
  6
CONTINUOUS
 62
    7
 10
566.9323133530753
 20
467.63487760164975
 11
571.30580986697237
 21
472.32668952230358
  0
LINE
  8
_2-0_
  6
CONTINUOUS
 62
    7
 10
559.50062361489108
 20
470.2890525081441
 11
566.9323133530753
 21
467.63487760164975
  0
LINE
  8
_2-0_
  6
CONTINUOUS
 62
    7
 10
566.34249670718771
 20
469.93516252061153
 11
559.50062361489108
 21
470.2890525081441
  0
LINE
  8
_2-0_
  6
CONTINUOUS
 62
    7
 10
569.76933603197153
 20
472.32668952230358
 11
566.34249670718771
 21
469.93516252061153
  0
ARC
  8
_2-0_
  6
CONTINUOUS
 62
    2
 10
323.47556551927551
 20
484.54346887466824
 40
10.793215373849014
 50
315.60640298124792
 51
56.046281077863661
  0
ARC
  8
_2-0_
  6
CONTINUOUS
 62
    2
 10
336.76415331465051
 20
471.53323110524121
 40
7.8039040916062508
 50
135.60640298124798
 51
234.19178192632754
  0
ARC
  8
_2-0_
  6
CONTINUOUS
 62
    2
 10
321.67694904390657
 20
484.54346887466824
 40
9.793215373849014
 50
315.60640298124792
 51
56.046281077863661
  0
ARC
  8
_2-0_
  6
CONTINUOUS
 62
    2
 10
334.96553683928153
 20
471.53323110524121
 40
8.8039040916062508
 50
135.60640298124798
 51
234.19178192632754
  0
LINE
  8
_2-0_
  6
CONTINUOUS
 62
    2
 10
317.61472465157391
 20
470.41813234186634
 11
331.15720065346773
 21
483.9606083437601
  0
LINE
  8
_2-0_
  6
CONTINUOUS
 62
    2
 10
320.44315177632035
 20
470.41813234186611
 11
330.35926510170049
 21
480.33424566724625
  0
LINE
  8
_2-0_
  6
CONTINUOUS
 62
    2
 10
323.27157890106679
 20
470.41813234186588
 11
325.69832288792674
 21
472.84487632872583
  0
LINE
  8
_2-0_
  6
CONTINUOUS
 62
    2
 10
334.38735751849367
 20
484.36233808403944
 11
336.30023482019499
 21
486.27521538574069
  0
LINE
  8
_2-0_
  6
CONTINUOUS
 62
    2
 10
333.72149057055577
 20
480.86804401135487
 11
339.12866194494137
 21
486.27521538574047
  0
LINE
  8
_2-0_
  6
CONTINUOUS
 62
    2
 10
329.42373701731253
 20
473.74186333336496
 11
342.03628868300927
 21
486.3544149990617
  0
LINE
  8
_2-0_
  6
CONTINUOUS
 62
    2
 10
328.92843315055967
 20
470.41813234186543
 11
344.96929118941938
 21
486.45899038072514
  0
LINE
  8
_2-0_
  6
CONTINUOUS
 62
    2
 10
331.75686027530719
 20
470.41813234186628
 11
347.24195067668308
 21
485.90322274324217
  0
LINE
  8
_2-0_
  6
CONTINUOUS
 62
    2
 10
334.52482362932108
 20
470.35766857113708
 11
350.44237044392531
 21
486.27521538574138
  0
LINE
  8
_2-0_
  6
CONTINUOUS
 62
    2
 10
337.65592904147513
 20
470.66034685854453
 11
353.27079756867175
 21
486.27521538574115
  0
LINE
  8
_2-0_
  6
CONTINUOUS
 62
    2
 10
351.82568430916587
 20
470.68796650250192
 11
367.41293319240367
 21
486.27521538573978
  0
LINE
  8
_2-0_
  6
CONTINUOUS
 62
    2
 10
345.89899589903649
 20
470.41813234186588
 11
361.90696320873184
 21
486.42609965156123
  0
LINE
  8
_2-0_
  6
CONTINUOUS
 62
    2
 10
348.72742302378293
 20
470.41813234186566
 11
364.44375990365404
 21
486.13446922173682
  0
LINE
  8
_2-0_
  6
CONTINUOUS
 62
    4
 10
184.9437175534739
 20
449.70970753831807
 11
555.55927489108421
 21
449.70970753831807
  0
LINE
  8
_2-0_
  6
CONTINUOUS
 62
    4
 10
184.9437175534739
 20
449.70970753831807
 11
190.7392725112083
 21
451.2626218089332
  0
LINE
  8
_2-0_
  6
CONTINUOUS
 62
    4
 10
184.9437175534739
 20
449.70970753831807
 11
190.7392725112083
 21
448.15679326770299
  0
LINE
  8
_2-0_
  6
CONTINUOUS
 62
    4
 10
126.60457308725199
 20
449.70970753831807
 11
184.9437175534739
 21
449.70970753831807
  0
LINE
  8
_2-0_
  6
CONTINUOUS
 62
    4
 10
126.60457308725199
 20
449.70970753831807
 11
132.40012804498633
 21
451.2626218089332
  0
LINE
  8
_2-0_
  6
CONTINUOUS
 62
    4
 10
126.60457308725199
 20
449.70970753831807
 11
132.40012804498633
 21
448.15679326770299
  0
LINE
  8
_2-0_
  6
CONTINUOUS
 62
    4
 10
184.9437175534739
 20
449.70970753831807
 11
179.14816259573956
 21
451.2626218089332
  0
LINE
  8
_2-0_
  6
CONTINUOUS
 62
    4
 10
184.9437175534739
 20
449.70970753831807
 11
179.14816259573956
 21
448.15679326770299
  0
TEXT
  8
_2-0_
 62
    7
 10
149.68406007647536
 20
450.3885868486629
 40
8
 41
1
 50
0
  1
50
  0
LINE
  8
_2-0_
  6
CONTINUOUS
 62
    4
 10
495.55927489108416
 20
449.70970753831807
 11
489.76371993334982
 21
451.2626218089332
  0
LINE
  8
_2-0_
  6
CONTINUOUS
 62
    4
 10
495.55927489108416
 20
449.70970753831807
 11
489.76371993334982
 21
448.15679326770299
  0
LINE
  8
_2-0_
  6
CONTINUOUS
 62
    4
 10
495.55927489108421
 20
449.70970753831807
 11
489.76371993334976
 21
451.2626218089332
  0
LINE
  8
_2-0_
  6
CONTINUOUS
 62
    4
 10
495.55927489108421
 20
449.70970753831807
 11
489.76371993334976
 21
448.15679326770299
  0
LINE
  8
_2-0_
  6
CONTINUOUS
 62
    4
 10
553.89841935730612
 20
449.70970753831807
 11
495.55927489108421
 21
449.70970753831807
  0
LINE
  8
_2-0_
  6
CONTINUOUS
 62
    4
 10
553.89841935730612
 20
449.70970753831807
 11
548.10286439957179
 21
451.2626218089332
  0
LINE
  8
_2-0_
  6
CONTINUOUS
 62
    4
 10
553.89841935730612
 20
449.70970753831807
 11
548.10286439957179
 21
448.15679326770299
  0
LINE
  8
_2-0_
  6
CONTINUOUS
 62
    4
 10
495.55927489108421
 20
449.70970753831807
 11
501.35482984881855
 21
451.2626218089332
  0
LINE
  8
_2-0_
  6
CONTINUOUS
 62
    4
 10
495.55927489108421
 20
449.70970753831807
 11
501.35482984881855
 21
448.15679326770299
  0
LINE
  8
_2-0_
  6
CONTINUOUS
 62
    4
 10
495.55927489108421
 20
448.70970753831807
 11
495.55927489108421
 21
466.55012453912002
  0
TEXT
  8
_2-0_
 62
    7
 10
521.55641207864164
 20
452.03846968597139
 40
8
 41
1
 50
0
  1
50
  0
TEXT
  8
_2-0_
 62
    7
 10
345.39793310612424
 20
451.29523114093166
 40
8
 41
1
 50
0
  1
全長
  0
LINE
  8
_2-0_
  6
CONTINUOUS
 62
    4
 10
495.55927489108416
 20
448.70970753831807
 11
495.55927489108416
 21
465.32249149616723
  0
LINE
  8
_2-0_
  6
CONTINUOUS
 62
    4
 10
184.9437175534739
 20
448.70970753831807
 11
184.9437175534739
 21
461.1635141983167
  0
LINE
  8
_2-0_
  6
CONTINUOUS
 62
    4
 10
495.55927489108421
 20
448.70970753831807
 11
495.55927489108421
 21
460.02465781093645
  0
LINE
  8
_2-0_
  6
CONTINUOUS
 62
    2
 10
478.83507076210731
 20
470.41813234186515
 11
491.37060346320845
 21
482.95366504296624
  0
LINE
  8
_2-0_
  6
CONTINUOUS
 62
    2
 10
481.66349788685375
 20
470.41813234186492
 11
491.3674730328903
 21
480.12210748790142
  0
LINE
  8
_2-0_
  6
CONTINUOUS
 62
    2
 10
484.49192501159837
 20
470.41813234186651
 11
491.19618314581032
 21
477.12239047607841
  0
LINE
  8
_2-0_
  6
CONTINUOUS
 62
    2
 10
188.83776175262585
 20
483.06252568022614
 11
192.05045145813949
 21
486.27521538573978
  0
LINE
  8
_2-0_
  6
CONTINUOUS
 62
    2
 10
189.25484923727834
 20
480.65118604013196
 11
194.87887858288593
 21
486.27521538573956
  0
LINE
  8
_2-0_
  6
CONTINUOUS
 62
    2
 10
189.19961384301035
 20
477.76752352111743
 11
197.7073057076334
 21
486.27521538574047
  0
LINE
  8
_2-0_
  6
CONTINUOUS
 62
    2
 10
189.30181940838077
 20
475.04130196174475
 11
200.53573283237699
 21
486.27521538574092
  0
LINE
  8
_2-0_
  6
CONTINUOUS
 62
    2
 10
189.77138721291328
 20
472.68244264153066
 11
203.36415995712343
 21
486.27521538574069
  0
LINE
  8
ADD_LINE
  6
DOT
 62
    9
 10
187.20413309955416
 20
478.41811634186581
 11
126.60457308725199
 21
478.41811634186581
  0
LINE
  8
_2-0_
  6
CONTINUOUS
 62
    7
 10
491.55927489108416
 20
486.27521538574047
 11
334.1509742784873
 21
486.27521538574047
  0
LINE
  8
_2-0_
  6
CONTINUOUS
 62
    7
 10
491.65430361240084
 20
486.01157571860136
 11
495.55927489108416
 21
486.01157571860136
  0
LINE
  8
_2-0_
  6
CONTINUOUS
 62
    7
 10
495.55927489108416
 20
470.85253239381609
 11
491.58072106552504
 21
470.85040524925762
  0
LINE
  8
_2-0_
  6
CONTINUOUS
 62
    7
 10
495.55927489108416
 20
486.01157571860136
 11
495.55927489108416
 21
470.85253239381609
  0
LINE
  8
_2-0_
  6
CONTINUOUS
 62
    7
 10
491.55927489108416
 20
486.27521538574047
 11
491.55927489108416
 21
470.41813234186583
  0
LINE
  8
_2-0_
  6
CONTINUOUS
 62
    7
 10
491.55927489108416
 20
470.41813234186583
 11
328.93426442723057
 21
470.41813234186583
  0
LINE
  8
_2-0_
  6
CONTINUOUS
 62
    7
 10
331.37753359807232
 20
486.27521538574047
 11
188.9437175534739
 21
486.27521538574047
  0
LINE
  8
_2-0_
  6
CONTINUOUS
 62
    7
 10
184.9437175534739
 20
486.01157571860136
 11
188.94533403198972
 21
486.01157571860136
  0
LINE
  8
_2-0_
  6
CONTINUOUS
 62
    7
 10
188.92659122554386
 20
470.85416067875127
 11
184.9437175534739
 21
470.85203122457517
  0
LINE
  8
_2-0_
  6
CONTINUOUS
 62
    7
 10
184.9437175534739
 20
486.01157571860136
 11
184.9437175534739
 21
470.85203122457517
  0
LINE
  8
_2-0_
  6
CONTINUOUS
 62
    7
 10
325.96272084107159
 20
470.41813234186583
 11
188.9437175534739
 21
470.41813234186583
  0
LINE
  8
_2-0_
  6
CONTINUOUS
 62
    7
 10
188.9437175534739
 20
486.27521538574047
 11
188.9437175534739
 21
470.41813234186583
  0
LINE
  8
_2-0_
  6
CONTINUOUS
 62
    2
 10
476.00664363736087
 20
470.41813234186537
 11
491.34211502212651
 21
485.75360372663101
  0
LINE
  8
_2-0_
  6
CONTINUOUS
 62
    2
 10
487.32035213634481
 20
470.41813234186628
 11
491.60097841885005
 21
474.69875862437152
  0
LINE
  8
_2-0_
  6
CONTINUOUS
 62
    2
 10
490.14877926109125
 20
470.41813234186606
 11
491.65847770272023
 21
471.92783078349498
  0
LINE
  8
_2-0_
  6
CONTINUOUS
 62
    4
 10
184.9437175534739
 20
448.70970753831807
 11
184.9437175534739
 21
466.98111539742717
  0
LINE
  8
_2-0_
  6
CONTINUOUS
 62
    4
 10
126.60457308725199
 20
448.70970753831807
 11
126.60457308725199
 21
466.98111539742717
  0
LINE
  8
_2-0_
  6
CONTINUOUS
 62
    4
 10
553.89841935730612
 20
448.70970753831807
 11
553.89841935730612
 21
466.98111539742717
  0
LINE
  8
_2-0_
  6
CONTINUOUS
 62
    4
 10
561.29979620053427
 20
481.42034736801884
 11
549.5025883267374
 21
499.91326781883561
  0
LINE
  8
_2-0_
  6
CONTINUOUS
 62
    4
 10
486.8121587442522
 20
499.28620593881874
 11
493.74365013082047
 21
484.47801979478641
  0
TEXT
  8
_2-0_
 62
    7
 10
543.92952316621086
 20
500.21030728065961
 40
10
 41
1
 50
0
  1
④
  0
TEXT
  8
_2-0_
 62
    7
 10
481.23916374198814
 20
500.21030728065961
 40
10
 41
1
 50
0
  1
⑥
  0
LINE
  8
_2-0_
  6
CONTINUOUS
 62
    4
 10
192.24979197477461
 20
499.09052633368771
 11
185.98829652133782
 21
483.9765717909093
  0
TEXT
  8
_2-0_
 62
    7
 10
188.52463564161002
 20
500.21030728065961
 40
10
 41
1
 50
0
  1
⑤
  0
LINE
  8
_2-0_
  6
CONTINUOUS
 62
    4
 10
105.13487543685977
 20
499.64278182484952
 11
96.899878039586838
 21
479.76520190039764
  0
TEXT
  8
_2-0_
 62
    7
 10
101.10907084651069
 20
500.21030728065961
 40
10
 41
1
 50
0
  1
③
  0
TEXT
  8
_2-0_
 62
    7
 10
287.09759805019769
 20
500.21030728065961
 40
10
 41
1
 50
0
  1
①
  0
LINE
  8
_2-0_
  6
CONTINUOUS
 62
    7
 10
411.55927489108416
 20
492.27521538574047
 11
411.55927489108416
 21
464.41813234186583
  0
LINE
  8
_2-0_
  6
CONTINUOUS
 62
    7
 10
417.174778542757
 20
492.27521538574047
 11
411.55927489108416
 21
492.27521538574047
  0
LINE
  8
_2-0_
  6
CONTINUOUS
 62
    7
 10
417.174778542757
 20
464.41813234186583
 11
411.55927489108416
 21
464.41813234186583
  0
TEXT
  8
_2-0_
 62
    7
 10
419.54395566609168
 20
489.19171204445081
 40
6
 41
1
 50
0
  1
A
  0
TEXT
  8
_2-0_
 62
    7
 10
419.54395566609168
 20
461.50385710925678
 40
6
 41
1
 50
0
  1
A
  0
LINE
  8
_2-0_
  6
CONTINUOUS
 62
    7
 10
103.88166159968193
 20
418.21834699785245
 11
89.481661599681956
 21
418.21834699785245
  0
LINE
  8
_2-0_
  6
CONTINUOUS
 62
    7
 10
103.88166159968193
 20
406.21834699785245
 11
89.481661599681956
 21
406.21834699785245
  0
LINE
  8
_2-0_
  6
CONTINUOUS
 62
    7
 10
98.881661599681934
 20
415.21834699785245
 11
89.481661599681956
 21
415.21834699785245
  0
LINE
  8
_2-0_
  6
CONTINUOUS
 62
    7
 10
89.481661599681956
 20
418.21834699785245
 11
89.481661599681956
 21
415.21834699785245
  0
LINE
  8
_2-0_
  6
CONTINUOUS
 62
    7
 10
98.881661599681934
 20
409.21834699785245
 11
89.481661599681956
 21
409.21834699785245
  0
LINE
  8
_2-0_
  6
CONTINUOUS
 62
    7
 10
89.481661599681956
 20
409.21834699785245
 11
89.481661599681956
 21
406.21834699785245
  0
LINE
  8
_2-0_
  6
CONTINUOUS
 62
    7
 10
103.88166159968193
 20
418.21834699785245
 11
103.88166159968193
 21
406.21834699785245
  0
ARC
  8
_2-0_
  6
CONTINUOUS
 62
    2
 10
147.66664110559066
 20
417.63706468929468
 40
8.713413616482713
 50
320.661199489333
 51
54.386441387944416
  0
ARC
  8
_2-0_
  6
CONTINUOUS
 62
    2
 10
161.75677285264203
 20
406.08848255420497
 40
9.5047520974462323
 50
140.66119948933292
 51
214.56691244988951
  0
ARC
  8
_2-0_
  6
CONTINUOUS
 62
    2
 10
161.75677285264203
 20
406.08848255420497
 40
11.504752097446232
 50
140.66119948933292
 51
214.56691244988951
  0
ARC
  8
_2-0_
  6
CONTINUOUS
 62
    2
 10
147.66664110559066
 20
417.63706468929468
 40
6.713413616482713
 50
320.661199489333
 51
54.386441387944416
  0
LINE
  8
_2-0_
  6
CONTINUOUS
 62
    7
 10
184.9437175534739
 20
414.01834699785246
 11
155.59308161325555
 21
414.01834699785246
  0
LINE
  8
_2-0_
  6
CONTINUOUS
 62
    7
 10
153.32126794169744
 20
414.01834699785246
 11
126.60457308725199
 21
414.01834699785246
  0
LINE
  8
_2-0_
  6
CONTINUOUS
 62
    7
 10
184.9437175534739
 20
410.4183469978525
 11
153.2955326165096
 21
410.4183469978525
  0
LINE
  8
_2-0_
  6
CONTINUOUS
 62
    7
 10
151.09789886317526
 20
410.4183469978525
 11
126.60457308725199
 21
410.4183469978525
  0
LINE
  8
_2-0_
  6
CONTINUOUS
 62
    7
 10
126.60457308725199
 20
416.21834699785245
 11
103.88166159968193
 21
416.21834699785245
  0
LINE
  8
_2-0_
  6
CONTINUOUS
 62
    7
 10
126.60457308725199
 20
408.21834699785245
 11
103.88166159968193
 21
408.21834699785245
  0
LINE
  8
_2-0_
  6
CONTINUOUS
 62
    7
 10
125.60457308725199
 20
416.21834699785245
 11
125.60457308725199
 21
408.21834699785245
  0
LINE
  8
_2-0_
  6
CONTINUOUS
 62
    7
 10
126.60457308725199
 20
416.21834699785245
 11
126.60457308725199
 21
408.21834699785245
  0
LINE
  8
_2-0_
  6
CONTINUOUS
 62
    7
 10
117.88166159968193
 20
420.21834699785245
 11
95.481661599681956
 21
420.21834699785245
  0
LINE
  8
_2-0_
  6
CONTINUOUS
 62
    7
 10
95.481661599681956
 20
420.21834699785245
 11
95.481661599681956
 21
418.21834699785245
  0
LINE
  8
_2-0_
  6
CONTINUOUS
 62
    7
 10
117.88166159968193
 20
417.21834699785245
 11
103.88166159968193
 21
417.21834699785245
  0
LINE
  8
_2-0_
  6
CONTINUOUS
 62
    7
 10
117.88166159968193
 20
420.21834699785245
 11
117.88166159968193
 21
417.21834699785245
  0
LINE
  8
_2-0_
  6
CONTINUOUS
 62
    7
 10
106.88166159968193
 20
417.21834699785245
 11
106.88166159968193
 21
416.21834699785245
  0
LINE
  8
_2-0_
  6
CONTINUOUS
 62
    7
 10
98.881661599681934
 20
415.21834699785245
 11
98.881661599681934
 21
409.21834699785245
  0
LINE
  8
_2-0_
  6
CONTINUOUS
 62
    4
 10
418.5411755108791
 20
389.37831592240519
 11
403.04799187014129
 21
410.93404968343162
  0
LINE
  8
_2-0_
  6
CONTINUOUS
 62
    2
 10
482.28374334003888
 20
422.39480796543825
 11
484.48374334003904
 21
424.59480796543841
  0
LINE
  8
_2-0_
  6
CONTINUOUS
 62
    2
 10
479.45531621529176
 20
422.39480796543785
 11
481.65531621529192
 21
424.59480796543801
  0
LINE
  8
_2-0_
  6
CONTINUOUS
 62
    2
 10
476.6268890905443
 20
422.39480796543705
 11
478.82688909054548
 21
424.59480796543824
  0
LINE
  8
_2-0_
  6
CONTINUOUS
 62
    2
 10
473.79846196579786
 20
422.39480796543728
 11
475.99846196579801
 21
424.59480796543744
  0
LINE
  8
_2-0_
  6
CONTINUOUS
 62
    2
 10
470.97003484105142
 20
422.39480796543756
 11
473.17003484105157
 21
424.59480796543767
  0
LINE
  8
_2-0_
  6
CONTINUOUS
 62
    2
 10
468.14160771630503
 20
422.39480796543779
 11
470.34160771630513
 21
424.59480796543789
  0
LINE
  8
_2-0_
  6
CONTINUOUS
 62
    2
 10
465.31318059155808
 20
422.39480796543751
 11
467.51318059155869
 21
424.59480796543818
  0
LINE
  8
_2-0_
  6
CONTINUOUS
 62
    2
 10
462.48475346681164
 20
422.39480796543774
 11
464.68475346681225
 21
424.59480796543841
  0
LINE
  8
_2-0_
  6
CONTINUOUS
 62
    2
 10
459.65632634206861
 20
422.39480796543774
 11
461.85632634206871
 21
424.59480796543784
  0
LINE
  8
_2-0_
  6
CONTINUOUS
 62
    2
 10
456.82789921732115
 20
422.39480796543694
 11
459.02789921732233
 21
424.59480796543806
  0
LINE
  8
_2-0_
  6
CONTINUOUS
 62
    2
 10
453.99947209257471
 20
422.39480796543717
 11
456.19947209257481
 21
424.59480796543727
  0
LINE
  8
_2-0_
  6
CONTINUOUS
 62
    2
 10
451.17104496782827
 20
422.39480796543739
 11
453.37104496782842
 21
424.5948079654375
  0
LINE
  8
_2-0_
  6
CONTINUOUS
 62
    2
 10
448.34261784308183
 20
422.39480796543768
 11
450.54261784308198
 21
424.59480796543772
  0
LINE
  8
_2-0_
  6
CONTINUOUS
 62
    2
 10
445.51419071833482
 20
422.39480796543728
 11
447.71419071833554
 21
424.59480796543801
  0
LINE
  8
_2-0_
  6
CONTINUOUS
 62
    2
 10
442.68576359358838
 20
422.39480796543751
 11
444.8857635935891
 21
424.59480796543824
  0
LINE
  8
_2-0_
  6
CONTINUOUS
 62
    2
 10
439.85733646884586
 20
422.39480796543802
 11
442.05733646884596
 21
424.59480796543812
  0
LINE
  8
_2-0_
  6
CONTINUOUS
 62
    2
 10
437.02890934409902
 20
422.39480796543785
 11
439.22890934409912
 21
424.59480796543795
  0
LINE
  8
_2-0_
  6
CONTINUOUS
 62
    2
 10
434.20048221935156
 20
422.39480796543705
 11
436.40048221935268
 21
424.59480796543818
  0
LINE
  8
_2-0_
  6
CONTINUOUS
 62
    2
 10
431.37205509460512
 20
422.39480796543728
 11
433.57205509460522
 21
424.59480796543738
  0
LINE
  8
_2-0_
  6
CONTINUOUS
 62
    2
 10
428.54362796985868
 20
422.39480796543751
 11
430.74362796985878
 21
424.59480796543761
  0
LINE
  8
_2-0_
  6
CONTINUOUS
 62
    2
 10
425.71520084511229
 20
422.39480796543779
 11
427.91520084511234
 21
424.59480796543784
  0
LINE
  8
_2-0_
  6
CONTINUOUS
 62
    2
 10
422.88677372036511
 20
422.39480796543728
 11
425.0867737203659
 21
424.59480796543806
  0
LINE
  8
_2-0_
  6
CONTINUOUS
 62
    2
 10
420.05834659561867
 20
422.39480796543751
 11
422.25834659561946
 21
424.59480796543829
  0
LINE
  8
_2-0_
  6
CONTINUOUS
 62
    2
 10
417.22991947087587
 20
422.39480796543774
 11
419.42991947087592
 21
424.59480796543778
  0
LINE
  8
_2-0_
  6
CONTINUOUS
 62
    2
 10
414.40149234612841
 20
422.39480796543694
 11
416.60149234612948
 21
424.59480796543801
  0
LINE
  8
_2-0_
  6
CONTINUOUS
 62
    2
 10
411.57306522138197
 20
422.39480796543717
 11
413.77306522138201
 21
424.59480796543721
  0
LINE
  8
_2-0_
  6
CONTINUOUS
 62
    2
 10
408.74463809663553
 20
422.39480796543739
 11
410.94463809663557
 21
424.59480796543744
  0
LINE
  8
_2-0_
  6
CONTINUOUS
 62
    2
 10
405.91621097188909
 20
422.39480796543768
 11
408.11621097188913
 21
424.59480796543767
  0
LINE
  8
_2-0_
  6
CONTINUOUS
 62
    2
 10
403.08778384714185
 20
422.39480796543705
 11
405.28778384714269
 21
424.59480796543795
  0
LINE
  8
_2-0_
  6
CONTINUOUS
 62
    2
 10
400.25935672239541
 20
422.39480796543728
 11
402.45935672239631
 21
424.59480796543818
  0
LINE
  8
_2-0_
  6
CONTINUOUS
 62
    2
 10
397.43092959765289
 20
422.39480796543779
 11
399.63092959765294
 21
424.59480796543784
  0
LINE
  8
_2-0_
  6
CONTINUOUS
 62
    2
 10
394.60250247290628
 20
422.39480796543785
 11
396.80250247290633
 21
424.59480796543789
  0
LINE
  8
_2-0_
  6
CONTINUOUS
 62
    2
 10
391.77407534815882
 20
422.39480796543705
 11
393.97407534815989
 21
424.59480796543812
  0
LINE
  8
_2-0_
  6
CONTINUOUS
 62
    2
 10
388.94564822341238
 20
422.39480796543728
 11
391.14564822341242
 21
424.59480796543727
  0
LINE
  8
_2-0_
  6
CONTINUOUS
 62
    2
 10
386.11722109866594
 20
422.39480796543751
 11
388.31722109866598
 21
424.59480796543755
  0
LINE
  8
_2-0_
  6
CONTINUOUS
 62
    2
 10
383.28879397391955
 20
422.39480796543779
 11
385.48879397391954
 21
424.59480796543778
  0
LINE
  8
_2-0_
  6
CONTINUOUS
 62
    2
 10
380.46036684917215
 20
422.39480796543705
 11
382.6603668491731
 21
424.59480796543801
  0
LINE
  8
_2-0_
  6
CONTINUOUS
 62
    2
 10
377.63193972442571
 20
422.39480796543728
 11
379.83193972442666
 21
424.59480796543824
  0
LINE
  8
_2-0_
  6
CONTINUOUS
 62
    2
 10
374.80351259968319
 20
422.39480796543779
 11
377.00351259968318
 21
424.59480796543784
  0
LINE
  8
_2-0_
  6
CONTINUOUS
 62
    2
 10
371.97508547493669
 20
422.39480796543796
 11
374.17508547493668
 21
424.59480796543795
  0
LINE
  8
_2-0_
  6
CONTINUOUS
 62
    2
 10
369.14665835018923
 20
422.39480796543717
 11
371.3466583501903
 21
424.59480796543824
  0
LINE
  8
_2-0_
  6
CONTINUOUS
 62
    2
 10
366.31823122544279
 20
422.39480796543739
 11
368.51823122544278
 21
424.59480796543738
  0
LINE
  8
_2-0_
  6
CONTINUOUS
 62
    2
 10
363.48980410069635
 20
422.39480796543768
 11
365.68980410069634
 21
424.59480796543761
  0
LINE
  8
_2-0_
  6
CONTINUOUS
 62
    2
 10
357.83294985120335
 20
422.39480796543796
 11
360.03294985120334
 21
424.59480796543795
  0
LINE
  8
_2-0_
  6
CONTINUOUS
 62
    2
 10
355.00452272645691
 20
422.39480796543819
 11
357.20452272645696
 21
424.59480796543824
  0
LINE
  8
_2-0_
  6
CONTINUOUS
 62
    2
 10
352.17609560171434
 20
422.39480796543864
 11
354.37609560171438
 21
424.59480796543869
  0
LINE
  8
_2-0_
  6
CONTINUOUS
 62
    2
 10
326.72025147899615
 20
422.39480796543688
 11
328.92025147899813
 21
424.59480796543886
  0
LINE
  8
_2-0_
  6
CONTINUOUS
 62
    2
 10
323.89182435424971
 20
422.39480796543711
 11
326.09182435424981
 21
424.59480796543716
  0
LINE
  8
_2-0_
  6
CONTINUOUS
 62
    2
 10
321.06339722950327
 20
422.39480796543734
 11
323.26339722950337
 21
424.59480796543738
  0
LINE
  8
_2-0_
  6
CONTINUOUS
 62
    2
 10
318.23497010475683
 20
422.39480796543756
 11
320.43497010475693
 21
424.59480796543761
  0
LINE
  8
_2-0_
  6
CONTINUOUS
 62
    2
 10
315.40654298001044
 20
422.39480796543779
 11
317.60654298001049
 21
424.59480796543784
  0
LINE
  8
_2-0_
  6
CONTINUOUS
 62
    2
 10
312.578115855264
 20
422.39480796543802
 11
314.7781158552641
 21
424.59480796543812
  0
LINE
  8
_2-0_
  6
CONTINUOUS
 62
    2
 10
309.74968873052114
 20
422.39480796543825
 11
311.9496887305213
 21
424.59480796543835
  0
LINE
  8
_2-0_
  6
CONTINUOUS
 62
    2
 10
306.92126160577294
 20
422.39480796543666
 11
309.12126160577486
 21
424.59480796543858
  0
LINE
  8
_2-0_
  6
CONTINUOUS
 62
    2
 10
304.0928344810265
 20
422.39480796543688
 11
306.29283448102728
 21
424.59480796543772
  0
LINE
  8
_2-0_
  6
CONTINUOUS
 62
    2
 10
301.26440735628006
 20
422.39480796543711
 11
303.46440735628016
 21
424.59480796543721
  0
LINE
  8
_2-0_
  6
CONTINUOUS
 62
    2
 10
298.43598023153362
 20
422.39480796543734
 11
300.63598023153372
 21
424.59480796543744
  0
LINE
  8
_2-0_
  6
CONTINUOUS
 62
    2
 10
295.60755310678718
 20
422.39480796543756
 11
297.80755310678728
 21
424.59480796543772
  0
LINE
  8
_2-0_
  6
CONTINUOUS
 62
    2
 10
292.7791259820408
 20
422.39480796543785
 11
294.97912598204084
 21
424.59480796543795
  0
LINE
  8
_2-0_
  6
CONTINUOUS
 62
    2
 10
289.95069885729782
 20
422.39480796543791
 11
292.15069885729793
 21
424.59480796543806
  0
LINE
  8
_2-0_
  6
CONTINUOUS
 62
    2
 10
287.12227173255133
 20
422.39480796543813
 11
289.32227173255149
 21
424.59480796543829
  0
LINE
  8
_2-0_
  6
CONTINUOUS
 62
    2
 10
284.29384460780329
 20
422.39480796543671
 11
286.49384460780504
 21
424.59480796543846
  0
LINE
  8
_2-0_
  6
CONTINUOUS
 62
    2
 10
281.46541748305685
 20
422.39480796543694
 11
283.66541748305696
 21
424.59480796543704
  0
LINE
  8
_2-0_
  6
CONTINUOUS
 62
    2
 10
278.63699035831041
 20
422.39480796543717
 11
280.83699035831052
 21
424.59480796543727
  0
LINE
  8
_2-0_
  6
CONTINUOUS
 62
    2
 10
275.80856323356397
 20
422.39480796543739
 11
278.00856323356413
 21
424.59480796543755
  0
LINE
  8
_2-0_
  6
CONTINUOUS
 62
    2
 10
272.98013610881753
 20
422.39480796543762
 11
275.18013610881769
 21
424.59480796543778
  0
LINE
  8
_2-0_
  6
CONTINUOUS
 62
    2
 10
270.15170898407109
 20
422.39480796543785
 11
272.35170898407125
 21
424.59480796543801
  0
LINE
  8
_2-0_
  6
CONTINUOUS
 62
    2
 10
267.32328185932801
 20
422.39480796543779
 11
269.52328185932822
 21
424.59480796543801
  0
LINE
  8
_2-0_
  6
CONTINUOUS
 62
    2
 10
264.49485473458157
 20
422.39480796543802
 11
266.69485473458172
 21
424.59480796543818
  0
LINE
  8
_2-0_
  6
CONTINUOUS
 62
    2
 10
261.66642760983359
 20
422.39480796543671
 11
263.86642760983528
 21
424.59480796543841
  0
LINE
  8
_2-0_
  6
CONTINUOUS
 62
    2
 10
258.83800048508715
 20
422.394807965437
 11
261.03800048508731
 21
424.5948079654371
  0
LINE
  8
_2-0_
  6
CONTINUOUS
 62
    2
 10
256.00957336034071
 20
422.39480796543717
 11
258.20957336034093
 21
424.59480796543738
  0
LINE
  8
_2-0_
  6
CONTINUOUS
 62
    2
 10
253.18114623559433
 20
422.39480796543745
 11
255.38114623559449
 21
424.59480796543761
  0
LINE
  8
_2-0_
  6
CONTINUOUS
 62
    2
 10
250.35271911084783
 20
422.39480796543768
 11
252.55271911084805
 21
424.59480796543784
  0
LINE
  8
_2-0_
  6
CONTINUOUS
 62
    2
 10
247.52429198610145
 20
422.39480796543791
 11
249.7242919861016
 21
424.59480796543806
  0
LINE
  8
_2-0_
  6
CONTINUOUS
 62
    2
 10
244.69586486135825
 20
422.39480796543774
 11
246.8958648613584
 21
424.59480796543789
  0
LINE
  8
_2-0_
  6
CONTINUOUS
 62
    2
 10
241.86743773661038
 20
422.39480796543654
 11
244.06743773661196
 21
424.59480796543812
  0
LINE
  8
_2-0_
  6
CONTINUOUS
 62
    2
 10
239.03901061186394
 20
422.39480796543677
 11
241.23901061186444
 21
424.59480796543727
  0
LINE
  8
_2-0_
  6
CONTINUOUS
 62
    2
 10
236.2105834871175
 20
422.394807965437
 11
238.41058348711766
 21
424.59480796543716
  0
LINE
  8
_2-0_
  6
CONTINUOUS
 62
    2
 10
233.38215636237106
 20
422.39480796543722
 11
235.58215636237128
 21
424.59480796543744
  0
LINE
  8
_2-0_
  6
CONTINUOUS
 62
    2
 10
230.55372923762462
 20
422.39480796543745
 11
232.75372923762484
 21
424.59480796543767
  0
LINE
  8
_2-0_
  6
CONTINUOUS
 62
    2
 10
227.72530211287818
 20
422.39480796543768
 11
229.9253021128784
 21
424.59480796543789
  0
LINE
  8
_2-0_
  6
CONTINUOUS
 62
    2
 10
224.89687498813487
 20
422.39480796543739
 11
227.09687498813508
 21
424.59480796543761
  0
LINE
  8
_2-0_
  6
CONTINUOUS
 62
    2
 10
222.06844786338843
 20
422.39480796543762
 11
224.26844786338864
 21
424.59480796543784
  0
LINE
  8
_2-0_
  6
CONTINUOUS
 62
    2
 10
219.24002073864074
 20
422.3948079654366
 11
221.4400207386422
 21
424.59480796543806
  0
LINE
  8
_2-0_
  6
CONTINUOUS
 62
    2
 10
216.41159361389424
 20
422.39480796543677
 11
218.61159361389446
 21
424.59480796543704
  0
LINE
  8
_2-0_
  6
CONTINUOUS
 62
    2
 10
213.58316648914786
 20
422.39480796543705
 11
215.78316648914807
 21
424.59480796543727
  0
LINE
  8
_2-0_
  6
CONTINUOUS
 62
    2
 10
210.75473936440142
 20
422.39480796543728
 11
212.95473936440163
 21
424.5948079654375
  0
LINE
  8
_2-0_
  6
CONTINUOUS
 62
    2
 10
207.92631223965498
 20
422.39480796543751
 11
210.12631223965519
 21
424.59480796543772
  0
LINE
  8
_2-0_
  6
CONTINUOUS
 62
    2
 10
205.09788511490854
 20
422.39480796543774
 11
207.29788511490875
 21
424.59480796543795
  0
LINE
  8
_2-0_
  6
CONTINUOUS
 62
    2
 10
202.26945799016505
 20
422.39480796543728
 11
204.46945799016532
 21
424.59480796543755
  0
LINE
  8
_2-0_
  6
CONTINUOUS
 62
    2
 10
199.44103086541747
 20
422.39480796543637
 11
201.64103086541883
 21
424.59480796543772
  0
LINE
  8
_2-0_
  6
CONTINUOUS
 62
    2
 10
196.61260374067103
 20
422.3948079654366
 11
198.81260374067136
 21
424.59480796543693
  0
LINE
  8
_2-0_
  6
CONTINUOUS
 62
    2
 10
193.78417661592459
 20
422.39480796543683
 11
195.98417661592487
 21
424.5948079654371
  0
LINE
  8
_2-0_
  6
CONTINUOUS
 62
    2
 10
190.95574949117815
 20
422.39480796543705
 11
193.15574949117843
 21
424.59480796543733
  0
LINE
  8
_2-0_
  6
CONTINUOUS
 62
    2
 10
487.73958746275105
 20
422.39480796543779
 11
489.93958746275149
 21
424.59480796543818
  0
LINE
  8
_2-0_
  6
CONTINUOUS
 62
    2
 10
484.91116033800859
 20
422.39480796543825
 11
487.11116033800874
 21
424.59480796543846
  0
ARC
  8
_2-0_
  6
CONTINUOUS
 62
    2
 10
532.83635133896746
 20
417.63706468929468
 40
8.713413616482713
 50
125.61355861205558
 51
219.33880051066703
  0
ARC
  8
_2-0_
  6
CONTINUOUS
 62
    2
 10
518.74621959191609
 20
406.08848255420497
 40
9.5047520974462323
 50
325.43308755011049
 51
39.33880051066707
  0
ARC
  8
_2-0_
  6
CONTINUOUS
 62
    2
 10
518.74621959191609
 20
406.08848255420497
 40
11.504752097446232
 50
325.43308755011049
 51
39.33880051066707
  0
ARC
  8
_2-0_
  6
CONTINUOUS
 62
    2
 10
532.83635133896746
 20
417.63706468929468
 40
6.713413616482713
 50
125.61355861205558
 51
219.33880051066703
  0
LINE
  8
_2-0_
  6
CONTINUOUS
 62
    7
 10
495.55927489108421
 20
414.01834699785246
 11
524.90991083130257
 21
414.01834699785246
  0
LINE
  8
_2-0_
  6
CONTINUOUS
 62
    7
 10
527.18172450286067
 20
414.01834699785246
 11
553.89841935730612
 21
414.01834699785246
  0
LINE
  8
_2-0_
  6
CONTINUOUS
 62
    7
 10
495.55927489108421
 20
410.4183469978525
 11
527.20745982804851
 21
410.4183469978525
  0
LINE
  8
_2-0_
  6
CONTINUOUS
 62
    7
 10
529.40509358138286
 20
410.4183469978525
 11
553.89841935730612
 21
410.4183469978525
  0
LINE
  8
_2-0_
  6
CONTINUOUS
 62
    7
 10
553.89841935730612
 20
418.21834699785245
 11
553.89841935730612
 21
406.21834699785245
  0
LINE
  8
_2-0_
  6
CONTINUOUS
 62
    7
 10
553.89841935730612
 20
406.21834699785245
 11
577.50877389744437
 21
406.21834699785245
  0
LINE
  8
_2-0_
  6
CONTINUOUS
 62
    7
 10
577.50877389744437
 20
418.21834699785245
 11
577.50877389744437
 21
406.21834699785245
  0
LINE
  8
_2-0_
  6
CONTINUOUS
 62
    7
 10
553.89841935730612
 20
418.21834699785245
 11
577.50877389744437
 21
418.21834699785245
  0
LINE
  8
_2-0_
  6
CONTINUOUS
 62
    7
 10
571.30580986697237
 20
415.01834699785246
 11
571.30580986697237
 21
409.4183469978525
  0
LINE
  8
_2-0_
  6
CONTINUOUS
 62
    7
 10
559.50062361489108
 20
415.01834699785246
 11
571.30580986697237
 21
415.01834699785246
  0
LINE
  8
_2-0_
  6
CONTINUOUS
 62
    7
 10
559.50062361489108
 20
409.4183469978525
 11
571.30580986697237
 21
409.4183469978525
  0
LINE
  8
_2-0_
  6
CONTINUOUS
 62
    7
 10
559.50062361489108
 20
415.01834699785246
 11
559.50062361489108
 21
409.4183469978525
  0
LINE
  8
_2-0_
  6
CONTINUOUS
 62
    7
 10
566.9323133530753
 20
415.01834699785246
 11
566.9323133530753
 21
409.4183469978525
  0
LINE
  8
_2-0_
  6
CONTINUOUS
 62
    2
 10
339.34766847696585
 20
422.39480796543683
 11
341.54766847696794
 21
424.59480796543892
  0
LINE
  8
_2-0_
  6
CONTINUOUS
 62
    2
 10
336.51924135221941
 20
422.39480796543705
 11
338.71924135222042
 21
424.59480796543806
  0
LINE
  8
_2-0_
  6
CONTINUOUS
 62
    2
 10
333.69081422747297
 20
422.39480796543728
 11
335.89081422747302
 21
424.59480796543733
  0
LINE
  8
_2-0_
  6
CONTINUOUS
 62
    2
 10
329.50382519770739
 20
429.74288653208475
 11
329.50382519770739
 21
429.74288653208475
  0
LINE
  8
_2-0_
  6
CONTINUOUS
 62
    2
 10
329.50382519770739
 20
429.74288653208475
 11
330.96688905932837
 21
428.32351421142948
  0
LINE
  8
_2-0_
  6
CONTINUOUS
 62
    2
 10
330.96688905932837
 20
428.32351421142948
 11
332.20233284597754
 21
426.62083529758019
  0
LINE
  8
_2-0_
  6
CONTINUOUS
 62
    2
 10
332.20233284597754
 20
426.62083529758019
 11
333.17261822336212
 21
424.68658482773719
  0
LINE
  8
_2-0_
  6
CONTINUOUS
 62
    2
 10
333.17261822336212
 20
424.68658482773719
 11
333.84826356127854
 21
422.57953402364865
  0
LINE
  8
_2-0_
  6
CONTINUOUS
 62
    2
 10
333.84826356127854
 20
422.57953402364865
 11
334.20873971802712
 21
420.36370455777757
  0
LINE
  8
_2-0_
  6
CONTINUOUS
 62
    2
 10
334.20873971802712
 20
420.36370455777757
 11
334.24309380799491
 21
418.10642328718075
  0
LINE
  8
_2-0_
  6
CONTINUOUS
 62
    2
 10
334.24309380799491
 20
418.10642328718075
 11
333.95028199954209
 21
415.8762765610258
  0
LINE
  8
_2-0_
  6
CONTINUOUS
 62
    2
 10
333.95028199954209
 20
415.8762765610258
 11
333.33920123129872
 21
413.74102625907824
  0
LINE
  8
_2-0_
  6
CONTINUOUS
 62
    2
 10
333.33920123129872
 20
413.74102625907824
 11
332.428418883186
 21
411.76555088127395
  0
LINE
  8
_2-0_
  6
CONTINUOUS
 62
    2
 10
332.428418883186
 20
411.76555088127395
 11
331.24560861597325
 21
410.0098742473287
  0
LINE
  8
_2-0_
  6
CONTINUOUS
 62
    2
 10
331.24560861597325
 20
410.0098742473287
 11
331.18786689778756
 21
409.93855613914167
  0
LINE
  8
_2-0_
  6
CONTINUOUS
 62
    2
 10
331.18786689778756
 20
409.93855613914178
 11
331.18786689778756
 21
409.93855613914178
  0
LINE
  8
_2-0_
  6
CONTINUOUS
 62
    2
 10
331.18786689778756
 20
409.93855613914178
 11
330.32455403594406
 21
408.67705160243901
  0
LINE
  8
_2-0_
  6
CONTINUOUS
 62
    2
 10
330.32455403594406
 20
408.67705160243901
 11
329.65690513958958
 21
407.2548169079754
  0
LINE
  8
_2-0_
  6
CONTINUOUS
 62
    2
 10
329.65690513958958
 20
407.2548169079754
 11
329.20520638259325
 21
405.71506593725672
  0
LINE
  8
_2-0_
  6
CONTINUOUS
 62
    2
 10
329.20520638259325
 20
405.71506593725672
 11
328.98318240311579
 21
404.10458324437673
  0
LINE
  8
_2-0_
  6
CONTINUOUS
 62
    2
 10
328.98318240311579
 20
404.10458324437673
 11
328.997579287424
 21
402.47230253101498
  0
LINE
  8
_2-0_
  6
CONTINUOUS
 62
    2
 10
328.997579287424
 20
402.47230253101498
 11
329.24795959347347
 21
400.86781982067311
  0
LINE
  8
_2-0_
  6
CONTINUOUS
 62
    2
 10
329.24795959347347
 20
400.86781982067311
 11
329.72671564236327
 21
399.33988650859732
  0
LINE
  8
_2-0_
  6
CONTINUOUS
 62
    2
 10
329.72671564236327
 20
399.33988650859732
 11
330.41930067381031
 21
397.93492807530362
  0
LINE
  8
_2-0_
  6
CONTINUOUS
 62
    2
 10
330.41930067381031
 20
397.93492807530362
 11
331.30467084209891
 21
396.69563347184425
  0
LINE
  8
_2-0_
  6
CONTINUOUS
 62
    2
 10
331.30467084209891
 20
396.69563347184425
 11
332.19829191783566
 21
395.79260585846816
  0
LINE
  8
_2-0_
  6
CONTINUOUS
 62
    2
 10
327.14668566228369
 20
428.7474997391256
 11
327.14668566228369
 21
428.7474997391256
  0
LINE
  8
_2-0_
  6
CONTINUOUS
 62
    2
 10
327.14668566228369
 20
428.7474997391256
 11
328.47419549195553
 21
427.45963339435349
  0
LINE
  8
_2-0_
  6
CONTINUOUS
 62
    2
 10
328.47419549195553
 20
427.45963339435349
 11
329.59517442787609
 21
425.9147090378695
  0
LINE
  8
_2-0_
  6
CONTINUOUS
 62
    2
 10
329.59517442787609
 20
425.9147090378695
 11
330.4755620923201
 21
424.1596684144759
  0
LINE
  8
_2-0_
  6
CONTINUOUS
 62
    2
 10
330.4755620923201
 20
424.1596684144759
 11
331.08860835160112
 21
422.24783754542113
  0
LINE
  8
_2-0_
  6
CONTINUOUS
 62
    2
 10
331.08860835160112
 20
422.24783754542113
 11
331.41568610534722
 21
420.23730644422835
  0
LINE
  8
_2-0_
  6
CONTINUOUS
 62
    2
 10
331.41568610534722
 20
420.23730644422835
 11
331.44685726152017
 21
418.18916408102939
  0
LINE
  8
_2-0_
  6
CONTINUOUS
 62
    2
 10
331.44685726152017
 20
418.18916408102939
 11
331.18117470031302
 21
416.16564222512011
  0
LINE
  8
_2-0_
  6
CONTINUOUS
 62
    2
 10
331.18117470031302
 20
416.16564222512011
 11
330.62671105190623
 21
414.22822456414076
  0
LINE
  8
_2-0_
  6
CONTINUOUS
 62
    2
 10
330.62671105190623
 20
414.22822456414076
 11
329.80031341368448
 21
412.43577855333962
  0
LINE
  8
_2-0_
  6
CONTINUOUS
 62
    2
 10
329.80031341368448
 20
412.43577855333962
 11
328.72709145970771
 21
410.84276675773339
  0
LINE
  8
_2-0_
  6
CONTINUOUS
 62
    2
 10
328.72709145970771
 20
410.84276675773339
 11
328.67469955769684
 21
410.77805632906694
  0
LINE
  8
_2-0_
  6
CONTINUOUS
 62
    2
 10
328.67469955769678
 20
410.778056329067
 11
328.67469955769678
 21
410.778056329067
  0
LINE
  8
_2-0_
  6
CONTINUOUS
 62
    2
 10
328.67469955769678
 20
410.778056329067
 11
327.70076093063255
 21
409.35490135152151
  0
LINE
  8
_2-0_
  6
CONTINUOUS
 62
    2
 10
327.70076093063255
 20
409.35490135152151
 11
326.94755884339861
 21
407.75042009459781
  0
LINE
  8
_2-0_
  6
CONTINUOUS
 62
    2
 10
326.94755884339861
 20
407.75042009459781
 11
326.43797896027689
 21
406.01336390938081
  0
LINE
  8
_2-0_
  6
CONTINUOUS
 62
    2
 10
326.43797896027689
 20
406.01336390938081
 11
326.1875046081563
 21
404.19651236906554
  0
LINE
  8
_2-0_
  6
CONTINUOUS
 62
    2
 10
326.1875046081563
 20
404.19651236906554
 11
326.20374632347978
 21
402.35506958833327
  0
LINE
  8
_2-0_
  6
CONTINUOUS
 62
    2
 10
326.20374632347978
 20
402.35506958833327
 11
326.48621060994594
 21
400.5449868742615
  0
LINE
  8
_2-0_
  6
CONTINUOUS
 62
    2
 10
326.48621060994594
 20
400.5449868742615
 11
327.02631493314442
 21
398.82126267417124
  0
LINE
  8
_2-0_
  6
CONTINUOUS
 62
    2
 10
327.02631493314442
 20
398.82126267417124
 11
327.8076484965207
 21
397.2362714756357
  0
LINE
  8
_2-0_
  6
CONTINUOUS
 62
    2
 10
327.8076484965207
 20
397.2362714756357
 11
328.80647087512551
 21
395.83817243417815
  0
LINE
  8
_2-0_
  6
CONTINUOUS
 62
    2
 10
328.80647087512551
 20
395.83817243417815
 11
329.81460144063141
 21
394.81942996798273
  0
LINE
  8
_2-0_
  6
CONTINUOUS
 62
    2
 10
329.54867860374452
 20
422.39480796543853
 11
330.25329293901626
 21
423.09942230071027
  0
LINE
  8
_2-0_
  6
CONTINUOUS
 62
    2
 10
360.44908023444475
 20
422.39480796543796
 11
362.6490802344448
 21
424.59480796543795
  0
LINE
  8
_2-0_
  6
CONTINUOUS
 62
    2
 10
347.17216460812745
 20
422.39480796543796
 11
349.37216460812743
 21
424.59480796543795
  0
LINE
  8
_2-0_
  6
CONTINUOUS
 62
    2
 10
344.34373748338101
 20
422.39480796543819
 11
346.54373748338105
 21
424.59480796543824
  0
LINE
  8
_2-0_
  6
CONTINUOUS
 62
    2
 10
341.51531035863843
 20
422.39480796543864
 11
343.71531035863848
 21
424.59480796543869
  0
LINE
  8
_2-0_
  6
CONTINUOUS
 62
    2
 10
349.78829499136884
 20
422.39480796543796
 11
351.98829499136889
 21
424.59480796543795
  0
TEXT
  8
_2-0_
 62
    7
 10
415.13776457715403
 20
378.50860974929816
 40
10
 41
1
 50
0
  1
②
  0
LINE
  8
_2-0_
  6
CONTINUOUS
 62
    7
 10
491.55441160345475
 20
422.39480796543751
 11
333.97404338981784
 21
422.39480796543751
  0
LINE
  8
_2-0_
  6
CONTINUOUS
 62
    7
 10
491.55441160345475
 20
404.26303424638269
 11
329.190618631056
 21
404.26303424638269
  0
LINE
  8
_2-0_
  6
CONTINUOUS
 62
    7
 10
491.55441160345475
 20
403.59490396566849
 11
328.90924070407004
 21
403.59490396566849
  0
LINE
  8
_2-0_
  6
CONTINUOUS
 62
    7
 10
491.55441160345475
 20
402.99490396572185
 11
329.1343430456588
 21
402.99490396572185
  0
LINE
  8
_2-0_
  6
CONTINUOUS
 62
    7
 10
491.55441160345475
 20
401.50209430949366
 11
329.2468942164532
 21
401.50209430949366
  0
LINE
  8
_2-0_
  6
CONTINUOUS
 62
    2
 10
490.56801458749749
 20
422.39480796543756
 11
491.31468156727044
 21
423.14147494521046
  0
LINE
  8
_2-0_
  6
CONTINUOUS
 62
    7
 10
331.1039885345607
 20
422.39480796543751
 11
188.88566319356926
 21
422.39480796543751
  0
LINE
  8
_2-0_
  6
CONTINUOUS
 62
    2
 10
189.17779798220141
 20
423.44528358120698
 11
190.32732236643199
 21
424.59480796543755
  0
LINE
  8
_2-0_
  6
CONTINUOUS
 62
    7
 10
326.15173701960731
 20
404.26303424638269
 11
189.05777835269947
 21
404.26303424638269
  0
LINE
  8
_2-0_
  6
CONTINUOUS
 62
    7
 10
326.03918584881291
 20
403.59490396566849
 11
188.88566319356926
 21
403.59490396566849
  0
LINE
  8
_2-0_
  6
CONTINUOUS
 62
    7
 10
326.20801260500451
 20
401.50209430949366
 11
188.92869198335183
 21
401.50209430949366
  0
LINE
  8
_2-0_
  6
CONTINUOUS
 62
    7
 10
326.09546143421011
 20
402.99490396572185
 11
189.0147495629169
 21
402.99490396572185
  0
LINE
  8
_2-0_
  6
CONTINUOUS
 62
    7
 10
491.55927489108416
 20
424.5948079654375
 11
333.12990960885986
 21
424.5948079654375
  0
LINE
  8
_2-0_
  6
CONTINUOUS
 62
    7
 10
491.55927489108416
 20
399.48510573982406
 11
329.92220124121957
 21
399.48510573982406
  0
LINE
  8
_2-0_
  6
CONTINUOUS
 62
    7
 10
491.55927489108416
 20
424.5948079654375
 11
491.55927489108416
 21
399.48510573982406
  0
LINE
  8
_2-0_
  6
CONTINUOUS
 62
    7
 10
495.55927489108416
 20
399.91166370442289
 11
491.65636132244884
 21
399.91166370442289
  0
LINE
  8
_2-0_
  6
CONTINUOUS
 62
    7
 10
495.55927489108416
 20
424.17832204914612
 11
491.63592536525806
 21
424.17832204914612
  0
LINE
  8
_2-0_
  6
CONTINUOUS
 62
    7
 10
495.55927489108416
 20
424.17832204914612
 11
495.55927489108416
 21
399.91166370442289
  0
LINE
  8
_2-0_
  6
CONTINUOUS
 62
    7
 10
330.03475241201397
 20
424.5948079654375
 11
188.9437175534739
 21
424.5948079654375
  0
LINE
  8
_2-0_
  6
CONTINUOUS
 62
    7
 10
326.71449287357927
 20
399.48510573982406
 11
188.9437175534739
 21
399.48510573982406
  0
LINE
  8
_2-0_
  6
CONTINUOUS
 62
    7
 10
188.9437175534739
 20
424.5948079654375
 11
188.9437175534739
 21
399.48510573982406
  0
LINE
  8
_2-0_
  6
CONTINUOUS
 62
    7
 10
189.01220333688781
 20
424.17832204914612
 11
184.9437175534739
 21
424.17832204914612
  0
LINE
  8
_2-0_
  6
CONTINUOUS
 62
    7
 10
189.01220333688775
 20
399.91166370442289
 11
184.9437175534739
 21
399.91166370442289
  0
LINE
  8
_2-0_
  6
CONTINUOUS
 62
    7
 10
184.9437175534739
 20
424.17832204914612
 11
184.9437175534739
 21
399.91166370442289
  0
TEXT
  8
_0-0_1
 62
    7
 10
63.037579667993896
 20
355.05243974168764
 40
10.000000000000021
 41
0.9999999999999973
 50
0
  1
◆付属品/オプション品
  0
LINE
  8
_0-0_1
  6
CONTINUOUS
 62
    7
 10
63.741148992167382
 20
354.85462064691291
 11
169.52908587257616
 21
354.85462064691291
  0
ARC
  8
_2-0_
  6
CONTINUOUS
 62
    7
 10
628.50166431823163
 20
470.82262300716047
 40
0.3998399999999994
 50
270
 51
319.99999999999994
  0
ARC
  8
_2-0_
  6
CONTINUOUS
 62
    7
 10
631.45100586700983
 20
486.01660555239431
 40
0.3998399999999772
 50
90.000763943725246
 51
120.00076394372681
  0
ARC
  8
_2-0_
  6
CONTINUOUS
 62
    7
 10
610.96648396532828
 20
470.82262300716047
 40
0.399840000000002
 50
180.00000000000026
 51
269.99999999999977
  0
LINE
  8
ADD_LINE
  6
DOT
 62
    9
 10
607.76625232537481
 20
478.41956701356048
 11
614.41555625480544
 21
478.41956701356048
  0
LINE
  8
_2-0_
  6
CONTINUOUS
 62
    7
 10
609.96688396532841
 20
486.41636701356049
 11
610.1668039653282
 21
486.41636701356049
  0
ARC
  8
_2-0_
  6
CONTINUOUS
 62
    7
 10
609.96688396532841
 20
484.81700701356044
 40
1.5993600000000012
 50
90.000000000000057
 51
180.00000000000011
  0
LINE
  8
_2-0_
  6
CONTINUOUS
 62
    7
 10
608.36752396532825
 20
472.02212701356046
 11
608.36752396532825
 21
484.81700701356044
  0
ARC
  8
_2-0_
  6
CONTINUOUS
 62
    7
 10
609.96688396532841
 20
472.02212701356046
 40
1.5993600000000012
 50
180
 51
270
  0
LINE
  8
_2-0_
  6
CONTINUOUS
 62
    7
 10
610.1668039653282
 20
470.42276701356042
 11
609.96688396532841
 21
470.42276701356042
  0
ARC
  8
_2-0_
  6
CONTINUOUS
 62
    7
 10
610.1668039653282
 20
470.82260701356034
 40
0.3998399999999994
 50
269.99999999999989
 51
359.99999999999989
  0
LINE
  8
_2-0_
  6
CONTINUOUS
 62
    7
 10
622.19452816856005
 20
481.91816701356072
 11
623.8618975751358
 21
481.91816701356072
  0
ARC
  8
_2-0_
  6
CONTINUOUS
 62
    7
 10
628.50156302527716
 20
486.01656622648977
 40
0.3998400000000024
 50
40.000763943726184
 51
90.00076394372573
  0
LINE
  8
_2-0_
  6
CONTINUOUS
 62
    7
 10
628.58809903567715
 20
486.40692957582479
 11
610.96648396532828
 21
486.41635101996042
  0
LINE
  8
_2-0_
  6
CONTINUOUS
 62
    7
 10
610.96648396532828
 20
470.42278300716049
 11
628.50166431823163
 21
470.42278300716049
  0
LINE
  8
ADD_LINE
  6
DOT
 62
    9
 10
627.9832953115839
 20
478.41956701356042
 11
634.39640165681249
 21
478.41956701356042
  0
LINE
  8
ADD_LINE
  6
DOT
 62
    9
 10
633.4671823100515
 20
476.67385541611122
 11
633.4671823100515
 21
480.16527861100963
  0
ARC
  8
_2-0_
  6
CONTINUOUS
 62
    7
 10
633.26726231005148
 20
479.81900701356039
 40
0.39984
 50
0
 51
90
  0
LINE
  8
_2-0_
  6
CONTINUOUS
 62
    7
 10
633.66710231005163
 20
477.02012701356045
 11
633.66710231005163
 21
479.81900701356039
  0
LINE
  8
_2-0_
  6
CONTINUOUS
 62
    7
 10
633.4671823100515
 20
475.21883381916024
 11
633.4671823100515
 21
476.22045141180047
  0
LINE
  8
_2-0_
  6
CONTINUOUS
 62
    7
 10
633.4671823100515
 20
471.22043381916018
 11
633.4671823100515
 21
475.21883381916024
  0
LINE
  8
_2-0_
  6
CONTINUOUS
 62
    7
 10
633.4671823100515
 20
471.02254180764049
 11
633.4671823100515
 21
471.22043381916018
  0
LINE
  8
_2-0_
  6
CONTINUOUS
 62
    7
 10
632.86742350957138
 20
486.41635101996042
 11
631.45100053580973
 21
486.41644555235882
  0
ARC
  8
_2-0_
  6
CONTINUOUS
 62
    7
 10
632.86742350957138
 20
485.81659221948047
 40
0.5997588004800068
 50
0.0000000000000254
 51
89.999999999998877
  0
LINE
  8
_2-0_
  6
CONTINUOUS
 62
    7
 10
633.4671823100515
 20
481.62030020796061
 11
633.4671823100515
 21
485.81659221948047
  0
LINE
  8
_2-0_
  6
CONTINUOUS
 62
    7
 10
633.4671823100515
 20
480.61868261532038
 11
633.4671823100515
 21
481.62030020796061
  0
ARC
  8
_2-0_
  6
CONTINUOUS
 62
    7
 10
633.06734310973138
 20
476.22045141180047
 40
0.3998392003199836
 50
359.99999999999937
 51
76.865755426002977
  0
ARC
  8
_2-0_
  6
CONTINUOUS
 62
    7
 10
632.86742350957138
 20
471.02254180764049
 40
0.599758800480021
 50
270.0000000000025
 51
0.0000000000014757
  0
LINE
  8
_2-0_
  6
CONTINUOUS
 62
    7
 10
631.45110716022657
 20
470.42278300716038
 11
632.86742350957138
 21
470.42278300716038
  0
ARC
  8
_2-0_
  6
CONTINUOUS
 62
    7
 10
631.45110716022657
 20
470.82262300716047
 40
0.3998400000000166
 50
240.00000000000097
 51
269.99999999999955
  0
LINE
  8
_2-0_
  6
CONTINUOUS
 62
    7
 10
631.81783552855086
 20
486.41636701356049
 11
631.80775093258831
 21
486.41636701356049
  0
LINE
  8
_2-0_
  6
CONTINUOUS
 62
    7
 10
625.86109757513577
 20
476.66653900239049
 11
625.86109757513577
 21
483.91736701356069
  0
LINE
  8
_2-0_
  6
CONTINUOUS
 62
    7
 10
622.19452816856005
 20
476.49726609839968
 11
622.19452816856005
 21
481.91816701356072
  0
LINE
  8
_2-0_
  6
CONTINUOUS
 62
    7
 10
623.8618975751358
 20
476.47308425497243
 11
623.8618975751358
 21
483.91736701356069
  0
LINE
  8
_2-0_
  6
CONTINUOUS
 62
    7
 10
623.8618975751358
 20
483.91736701356069
 11
626.31598055853681
 21
483.91736701356069
  0
LINE
  8
_2-0_
  6
CONTINUOUS
 62
    7
 10
618.0941537932672
 20
484.41715501836046
 11
626.26761687168232
 21
484.41715501836046
  0
ARC
  8
_2-0_
  6
CONTINUOUS
 62
    7
 10
633.06734310973138
 20
480.61868261532044
 40
0.3998392003200413
 50
265.79630172688292
 51
359.99999999999409
  0
LINE
  8
_2-0_
  6
CONTINUOUS
 62
    7
 10
633.26726231005148
 20
480.21884701356049
 11
633.04902703884113
 21
480.21884701356049
  0
ARC
  8
_2-0_
  6
CONTINUOUS
 62
    7
 10
633.26726231005148
 20
477.02012701356045
 40
0.39984
 50
244.09978738863524
 51
0
  0
ARC
  8
_2-0_
  6
CONTINUOUS
 62
    7
 10
633.06734310901948
 20
476.2204514087494
 40
0.3998392034529975
 50
76.865755425994237
 51
91.831823573035081
  0
ARC
  8
_2-0_
  6
CONTINUOUS
 62
    7
 10
610.96648396532828
 20
486.01651101996043
 40
0.399840000000001
 50
90.000000000000199
 51
180.55480857608399
  0
ARC
  8
_2-0_
  6
CONTINUOUS
 62
    7
 10
610.1668039653282
 20
486.01652701356045
 40
0.3998400000000086
 50
353.88698626033556
 51
89.999999999998778
  0
LINE
  8
_2-0_
  6
CONTINUOUS
 62
    7
 10
629.02134674660215
 20
486.01915961345645
 11
628.80785480855718
 21
486.27358250826012
  0
LINE
  8
_2-0_
  6
CONTINUOUS
 62
    7
 10
631.25108125007296
 20
486.36287448421268
 11
630.67479146894902
 21
486.03014317871907
  0
ARC
  8
_2-0_
  6
CONTINUOUS
 62
    7
 10
633.06734311338664
 20
480.61868261928333
 40
0.3998392033487042
 50
264.60000857606497
 51
283.13424393488924
  0
LINE
  8
_2-0_
  6
CONTINUOUS
 62
    7
 10
628.80795952836843
 20
470.56561080930334
 11
629.01373759181786
 21
470.8108475556964
  0
LINE
  8
_2-0_
  6
CONTINUOUS
 62
    7
 10
630.64711093927338
 20
470.82511497848964
 11
631.25118716022666
 21
470.47635140971119
  0
LINE
  8
_2-0_
  6
CONTINUOUS
 62
    7
 10
616.86360821226754
 20
485.99669804701051
 11
609.83955414930256
 21
486.00045347650416
  0
LINE
  8
_2-0_
  6
CONTINUOUS
 62
    7
 10
632.0746776024298
 20
485.98856540763944
 11
627.45164223240511
 21
485.99103712599793
  0
ARC
  8
_2-0_
  6
CONTINUOUS
 62
    7
 10
631.81783552855086
 20
484.81700701356044
 40
1.1828600000000007
 50
0.0000000000000254
 51
82.091078739462574
  0
ARC
  8
_2-0_
  6
CONTINUOUS
 62
    7
 10
609.96688396532841
 20
472.02212701356046
 40
1.1828600000000011
 50
180
 51
270
  0
ARC
  8
_2-0_
  6
CONTINUOUS
 62
    7
 10
609.96688396532841
 20
484.81700701356044
 40
1.1828600000000011
 50
90.000000000000057
 51
180
  0
LINE
  8
_2-0_
  6
CONTINUOUS
 62
    7
 10
608.78402396532829
 20
471.80286877631733
 11
608.78402396532829
 21
484.81700701356044
  0
LINE
  8
_2-0_
  6
CONTINUOUS
 62
    7
 10
633.05068231005157
 20
471.96248335920211
 11
633.05068231005157
 21
484.79657105636966
  0
LINE
  8
_2-0_
  6
CONTINUOUS
 62
    7
 10
609.9131366961783
 20
470.83928300716042
 11
631.82398663606682
 21
470.83928300716042
  0
ARC
  8
_2-0_
  6
CONTINUOUS
 62
    7
 10
631.81783552855086
 20
472.02212701356046
 40
1.1828600000000007
 50
270.29795080435326
 51
0
  0
ARC
  8
_2-0_
  6
CONTINUOUS
 62
    7
 10
616.89468500857402
 20
484.81700701356044
 40
1.1828600000000007
 50
0.0000000000000254
 51
82.091078739462574
  0
ARC
  8
_2-0_
  6
CONTINUOUS
 62
    7
 10
627.63792133256061
 20
484.81700701356044
 40
1.1828600000000011
 50
90.000000000000057
 51
180
  0
ARC
  8
_2-0_
  6
CONTINUOUS
 62
    7
 10
619.24160065386582
 20
477.6492852718913
 40
1.1828600000000011
 50
180
 51
270
  0
LINE
  8
_2-0_
  6
CONTINUOUS
 62
    7
 10
618.05668231005143
 20
477.60161140716212
 11
618.05668231005143
 21
484.92936797496799
  0
ARC
  8
_2-0_
  6
CONTINUOUS
 62
    7
 10
625.20361576088271
 20
477.63381273948107
 40
1.1828600000000007
 50
270.29795080435326
 51
0
  0
LINE
  8
_2-0_
  6
CONTINUOUS
 62
    7
 10
625.493817250142
 20
476.41258251325081
 11
619.25445132008508
 21
476.41591840711277
  0
LINE
  8
_2-0_
  6
CONTINUOUS
 62
    7
 10
626.38668231005158
 20
477.34363061835393
 11
626.38668231005158
 21
484.80516871110689
  0
TEXT
  8
_1-0_
 62
    7
 10
667.47647762163103
 20
127.82104925570272
 40
8
 41
1
 50
0
  1
FGC端板 2
  0
TEXT
  8
_1-0_
 62
    7
 10
667.75584270099603
 20
137.22634026099374
 40
8
 41
1
 50
0
  1
FGC端板 1
  0
LINE
  8
_2-0_
  6
CONTINUOUS
 62
    7
 10
509.99564744344462
 20
308.93517552222272
 11
498.87723959663532
 21
294.91733780335056
  0
TEXT
  8
_2-0_
 62
    7
 10
495.0457013507795
 20
310.73932655816549
 40
6
 41
1
 50
0
  1
マグネット
  0
LINE
  8
_2-0_
  6
CONTINUOUS
 62
    7
 10
610.21463197429898
 20
308.93517552222272
 11
599.09622412748968
 21
294.91733780335056
  0
TEXT
  8
_2-0_
 62
    7
 10
595.2646858816338
 20
310.73932655816549
 40
6
 41
1
 50
0
  1
マグネット
  0
LINE
  8
_2-0_
  6
CONTINUOUS
 62
    7
 10
509.99564744344462
 20
251.38442140976744
 11
498.87723959663532
 21
237.36658369089528
  0
TEXT
  8
_2-0_
 62
    7
 10
495.0457013507795
 20
253.18857244571021
 40
6
 41
1
 50
0
  1
マグネット
  0
LINE
  8
_2-0_
  6
CONTINUOUS
 62
    7
 10
704.93282349504102
 20
251.38442140976744
 11
693.8144156482316
 21
237.36658369089528
  0
TEXT
  8
_2-0_
 62
    7
 10
689.98287740237583
 20
253.18857244571021
 40
6
 41
1
 50
0
  1
マグネット
  0
TEXT
  8
_0-0_1
 62
    7
 10
796.43533678380822
 20
63.037782337899785
 40
6
 41
1
 50
0
  1
1：1
  0
TEXT
  8
_2-0_
 62
    7
 10
731.90161189553919
 20
46.792727727102289
 40
8
 41
1
 50
0
  1
LXSS-FGC モジュール
  0
TEXT
  8
_2-0_
 62
    7
 10
724.78547034928135
 20
301.50441166276005
 40
6
 41
1
 50
0
  1
※1 マグネットスペーサー
  0
TEXT
  8
_2-0_
 62
    7
 10
549.31881547685737
 20
310.53620018094853
 40
5
 41
1
 50
0
  1
※1
  0
LINE
  8
_2-0_
  6
CONTINUOUS
 62
    4
 10
596.79937375791008
 20
486.41635101996042
 11
596.79937375791008
 21
470.42278300716049
  0
LINE
  8
_2-0_
  6
CONTINUOUS
 62
    4
 10
596.79937375791008
 20
486.41635101996042
 11
598.35228802852521
 21
480.62079606222602
  0
LINE
  8
_2-0_
  6
CONTINUOUS
 62
    4
 10
596.79937375791008
 20
486.41635101996042
 11
595.24645948729494
 21
480.62079606222602
  0
LINE
  8
_2-0_
  6
CONTINUOUS
 62
    4
 10
596.79937375791008
 20
470.42278300716049
 11
595.24645948729494
 21
476.21833796489489
  0
LINE
  8
_2-0_
  6
CONTINUOUS
 62
    4
 10
596.79937375791008
 20
470.42278300716049
 11
598.35228802852521
 21
476.21833796489489
  0
TEXT
  8
_2-0_
 62
    7
 10
595.79937375791008
 20
476.41956701356048
 40
8
 41
1
 50
90
  1
8
  0
LINE
  8
_2-0_
  6
CONTINUOUS
 62
    4
 10
595.79937375791008
 20
486.41635101996042
 11
606.86986366689962
 21
486.41635101996042
  0
LINE
  8
_2-0_
  6
CONTINUOUS
 62
    4
 10
595.79937375791008
 20
470.42278300716049
 11
606.99101005177522
 21
470.42278300716049
  0
LINE
  8
_2-0_
  6
CONTINUOUS
 62
    4
 10
608.36752396532825
 20
456.50397812947529
 11
633.4671823100515
 21
456.50397812947529
  0
LINE
  8
_2-0_
  6
CONTINUOUS
 62
    4
 10
608.36752396532825
 20
456.50397812947529
 11
614.1630789230627
 21
458.05689240009042
  0
LINE
  8
_2-0_
  6
CONTINUOUS
 62
    4
 10
608.36752396532825
 20
456.50397812947529
 11
614.1630789230627
 21
454.95106385886015
  0
LINE
  8
_2-0_
  6
CONTINUOUS
 62
    4
 10
633.4671823100515
 20
456.50397812947529
 11
627.67162735231705
 21
454.95106385886015
  0
LINE
  8
_2-0_
  6
CONTINUOUS
 62
    4
 10
633.4671823100515
 20
456.50397812947529
 11
627.67162735231705
 21
458.05689240009042
  0
TEXT
  8
_2-0_
 62
    7
 10
611.93055154271258
 20
459.25132759722061
 40
8
 41
1
 50
0
  1
12.6
  0
LINE
  8
_2-0_
  6
CONTINUOUS
 62
    4
 10
608.36752396532825
 20
455.50397812947529
 11
608.36752396532825
 21
469.42762392676707
  0
LINE
  8
_2-0_
  6
CONTINUOUS
 62
    4
 10
633.4671823100515
 20
455.50397812947529
 11
633.4671823100515
 21
469.18533115701592
  0
TEXT
  8
_1-0_
 62
    7
 10
653.33316915314765
 20
118.26391516477634
 40
7.0000000000000284
 41
0.9999999999999954
 50
0
  1
接続コネクタ（出力側）
  0
TEXT
  8
_1-0_
 62
    7
 10
653.33316915314765
 20
108.27435258768196
 40
6.9999999999998579
 41
1.0000000000000202
 50
0
  1
接続コネクタ（入力側）
  0
LINE
  8
_1-0_
  6
CONTINUOUS
 62
    7
 10
58.250197536428061
 20
201.81301095214616
 11
818.24613889818352
 21
201.81301095214616
  0
TEXT
  8
_1-0_
 62
    7
 10
637.48941337852477
 20
152.81985354460326
 40
7
 41
1
 50
0
  1
落下等による破損の原因になります。
  0
TEXT
  8
_1-0_
 62
    7
 10
630.2848730591902
 20
179.30802945554325
 40
7
 41
1
 50
0
  1
※電源の入力は必ず片側からだけにしてください。
  0
TEXT
  8
_1-0_
 62
    7
 10
630.2848730591902
 20
162.27592400431536
 40
7
 41
1
 50
0
  1
※取付箇所の下地・強度にご注意下さい。
  0
LINE
  8
_2-0_
  6
CONTINUOUS
 62
    4
 10
709.92517416483167
 20
337.21614470175075
 11
709.92517416483167
 21
332.60645447719679
  0
LINE
  8
_2-0_
  6
CONTINUOUS
 62
    4
 10
709.92517416483167
 20
337.21614470175075
 11
707.95297304115047
 21
344.57649949807342
  0
LINE
  8
_2-0_
  6
CONTINUOUS
 62
    4
 10
709.92517416483167
 20
337.21614470175075
 11
711.89737528851299
 21
344.57649949807342
  0
LINE
  8
_2-0_
  6
CONTINUOUS
 62
    4
 10
709.92517416483167
 20
332.60645447719679
 11
711.89737528851299
 21
325.24609968087407
  0
LINE
  8
_2-0_
  6
CONTINUOUS
 62
    4
 10
709.92517416483167
 20
332.60645447719679
 11
707.95297304115047
 21
325.24609968087407
  0
LINE
  8
_2-0_
  6
CONTINUOUS
 62
    4
 10
708.65517416483169
 20
337.21614470175075
 11
718.44022178387945
 21
337.21614470175075
  0
LINE
  8
_2-0_
  6
CONTINUOUS
 62
    4
 10
708.65517416483169
 20
332.60645447719679
 11
718.44022178387945
 21
332.60645447719679
  0
LINE
  8
_2-0_
  6
CONTINUOUS
 62
    4
 10
709.92517416483167
 20
332.60645447719679
 11
709.92517416483167
 21
321.21064748226678
  0
LINE
  8
_2-0_
  6
CONTINUOUS
 62
    4
 10
709.92517416483167
 20
337.21614470175075
 11
709.92517416483167
 21
349.01116025311933
  0
LINE
  8
_2-0_
  6
CONTINUOUS
 62
    4
 10
709.92517416483167
 20
289.10286490979007
 11
709.92517416483167
 21
277.37569370331028
  0
LINE
  8
_2-0_
  6
CONTINUOUS
 62
    4
 10
709.92517416483167
 20
293.67486490979007
 11
709.92517416483167
 21
305.81887416419801
  0
LINE
  8
_2-0_
  6
CONTINUOUS
 62
    4
 10
709.92517416483167
 20
293.67486490979007
 11
707.95297304115047
 21
301.0352197061128
  0
LINE
  8
_2-0_
  6
CONTINUOUS
 62
    4
 10
709.92517416483167
 20
293.67486490979007
 11
711.89737528851299
 21
301.0352197061128
  0
LINE
  8
_2-0_
  6
CONTINUOUS
 62
    4
 10
708.65517416483169
 20
293.67486490979007
 11
718.44022178387945
 21
293.67486490979007
  0
LINE
  8
_2-0_
  6
CONTINUOUS
 62
    4
 10
708.65517416483169
 20
289.10286490979007
 11
718.44022178387945
 21
289.10286490979007
  0
LINE
  8
_2-0_
  6
CONTINUOUS
 62
    4
 10
709.92517416483167
 20
293.67486490979007
 11
709.92517416483167
 21
289.10286490979007
  0
LINE
  8
_2-0_
  6
CONTINUOUS
 62
    4
 10
709.92517416483167
 20
289.10286490979007
 11
707.95297304115047
 21
281.7425101134674
  0
LINE
  8
_2-0_
  6
CONTINUOUS
 62
    4
 10
709.92517416483167
 20
289.10286490979007
 11
711.89737528851299
 21
281.7425101134674
  0
LINE
  8
_2-0_
  6
CONTINUOUS
 62
    4
 10
693.0185116661562
 20
398.15961709101327
 11
693.0185116661562
 21
466.88872376785361
  0
LINE
  8
_2-0_
  6
CONTINUOUS
 62
    4
 10
693.0185116661562
 20
398.15961709101327
 11
691.85382596319505
 21
402.50628330931409
  0
LINE
  8
_2-0_
  6
CONTINUOUS
 62
    4
 10
693.0185116661562
 20
398.15961709101327
 11
694.18319736911781
 21
402.50628330931409
  0
LINE
  8
_2-0_
  6
CONTINUOUS
 62
    4
 10
693.0185116661562
 20
466.88872376785361
 11
691.85382596319505
 21
462.54205754955279
  0
LINE
  8
_2-0_
  6
CONTINUOUS
 62
    4
 10
693.0185116661562
 20
466.88872376785361
 11
694.18319736911781
 21
462.54205754955279
  0
LINE
  8
_2-0_
  6
CONTINUOUS
 62
    4
 10
692.2685116661562
 20
398.15961709101327
 11
703.95952008636482
 21
398.15961709101327
  0
LINE
  8
_2-0_
  6
CONTINUOUS
 62
    4
 10
692.2685116661562
 20
466.88872376785361
 11
703.95952008636482
 21
466.88872376785361
  0
LINE
  8
_2-0_
  6
CONTINUOUS
 62
    4
 10
693.0185116661562
 20
473.48872376785357
 11
691.85382596319505
 21
477.83538998615438
  0
LINE
  8
_2-0_
  6
CONTINUOUS
 62
    4
 10
693.0185116661562
 20
473.48872376785357
 11
694.18319736911781
 21
477.83538998615438
  0
LINE
  8
_2-0_
  6
CONTINUOUS
 62
    4
 10
693.0185116661562
 20
466.88872376785361
 11
691.85382596319505
 21
462.54205754955279
  0
LINE
  8
_2-0_
  6
CONTINUOUS
 62
    4
 10
693.0185116661562
 20
466.88872376785361
 11
694.18319736911781
 21
462.54205754955279
  0
LINE
  8
_2-0_
  6
CONTINUOUS
 62
    4
 10
692.2685116661562
 20
473.48872376785357
 11
703.95952008636482
 21
473.48872376785357
  0
LINE
  8
_2-0_
  6
CONTINUOUS
 62
    4
 10
679.49144671026215
 20
398.15961709101327
 11
679.49144671026215
 21
473.48872376785357
  0
LINE
  8
_2-0_
  6
CONTINUOUS
 62
    4
 10
679.49144671026215
 20
398.15961709101327
 11
678.32676100730077
 21
402.50628330931409
  0
LINE
  8
_2-0_
  6
CONTINUOUS
 62
    4
 10
679.49144671026215
 20
398.15961709101327
 11
680.65613241322353
 21
402.50628330931409
  0
LINE
  8
_2-0_
  6
CONTINUOUS
 62
    4
 10
679.49144671026215
 20
473.48872376785357
 11
678.32676100730077
 21
469.14205754955276
  0
LINE
  8
_2-0_
  6
CONTINUOUS
 62
    4
 10
679.49144671026215
 20
473.48872376785357
 11
680.65613241322353
 21
469.14205754955276
  0
LINE
  8
_2-0_
  6
CONTINUOUS
 62
    4
 10
678.74144671026215
 20
398.15961709101327
 11
700.37882642156933
 21
398.15961709101327
  0
LINE
  8
_2-0_
  6
CONTINUOUS
 62
    4
 10
678.74144671026215
 20
473.48872376785357
 11
700.37882642156933
 21
473.48872376785357
  0
LINE
  8
_2-0_
  6
CONTINUOUS
 62
    4
 10
693.0185116661562
 20
489.36191229264455
 11
693.0185116661562
 21
466.88872376785361
  0
LINE
  8
_2-0_
  6
CONTINUOUS
 62
    4
 10
709.97224504734322
 20
383.79650148491834
 11
757.97214904734324
 21
383.79650148491834
  0
LINE
  8
_2-0_
  6
CONTINUOUS
 62
    4
 10
709.97224504734322
 20
383.79650148491834
 11
714.31891126564392
 21
384.96118718787966
  0
LINE
  8
_2-0_
  6
CONTINUOUS
 62
    4
 10
709.97224504734322
 20
383.79650148491834
 11
714.31891126564392
 21
382.63181578195702
  0
LINE
  8
_2-0_
  6
CONTINUOUS
 62
    4
 10
757.97214904734324
 20
383.79650148491834
 11
753.62548282904231
 21
384.96118718787966
  0
LINE
  8
_2-0_
  6
CONTINUOUS
 62
    4
 10
757.97214904734324
 20
383.79650148491834
 11
753.62548282904231
 21
382.63181578195702
  0
LINE
  8
_2-0_
  6
CONTINUOUS
 62
    4
 10
709.97224504734322
 20
383.04650148491834
 11
709.97224504734322
 21
396.64058231024643
  0
LINE
  8
_2-0_
  6
CONTINUOUS
 62
    4
 10
757.97214904734324
 20
383.04650148491834
 11
757.97214904734324
 21
396.54059244795423
  0
TEXT
  8
_1-0_
 62
    7
 10
630.2848730591902
 20
188.04496613774512
 40
7
 41
1
 50
0
  1
※本製品は入力電圧DC24V専用です。
  0
TEXT
  8
_1-0_
 62
    7
 10
433.31020004118841
 20
160.24081703935943
 40
10
 41
0.9999999999999996
 50
0
  1
K:片側仕様 / R:両側仕様
  0
TEXT
  8
_1-0_
 62
    7
 10
433.72730762496337
 20
135.29940022572015
 40
10
 41
0.9999999999999996
 50
0
  1
CR:クリップ / MG:マグネット
  0
LINE
  8
_2-0_
  6
CONTINUOUS
 62
    7
 10
136.87684385591979
 20
278.67942812047488
 11
136.87684385591979
 21
296.87942812047481
  0
LINE
  8
_2-0_
  6
CONTINUOUS
 62
    7
 10
136.87684385591979
 20
278.67942812047488
 11
96.876843855919901
 21
278.67942812047482
  0
LINE
  8
_2-0_
  6
CONTINUOUS
 62
    7
 10
96.876843855919901
 20
278.67942812047482
 11
96.876843855919901
 21
296.87942812047481
  0
LINE
  8
_2-0_
  6
CONTINUOUS
 62
    7
 10
136.87684385591979
 20
296.87942812047481
 11
96.876843855919901
 21
296.87942812047481
  0
LINE
  8
_2-0_
  6
CONTINUOUS
 62
    7
 10
136.87684385591979
 20
296.27942812047479
 11
96.876843855919901
 21
296.27942812047479
  0
LINE
  8
_2-0_
  6
CONTINUOUS
 62
    7
 10
136.87684385591979
 20
279.27942812047479
 11
96.876843855919901
 21
279.27942812047479
  0
ARC
  8
_2-0_
  6
CONTINUOUS
 62
    7
 10
116.87684385591979
 20
289.57942812047486
 40
3.2000000000000002
 50
0
 51
180
  0
ARC
  8
_2-0_
  6
CONTINUOUS
 62
    7
 10
116.87684385591979
 20
285.97942812047484
 40
3.2000000000000002
 50
180
 51
0
  0
LINE
  8
_2-0_
  6
CONTINUOUS
 62
    7
 10
120.07684385591983
 20
289.57942812047486
 11
120.07684385591983
 21
285.97942812047484
  0
LINE
  8
_2-0_
  6
CONTINUOUS
 62
    7
 10
113.67684385591986
 20
289.57942812047486
 11
113.67684385591986
 21
285.97942812047484
  0
CIRCLE
  8
_2-0_
  6
CONTINUOUS
 62
    7
 10
130.87684385591979
 20
287.77942812047479
 40
2.5
  0
LINE
  8
_2-0_
  6
CENTER1
 62
    2
 10
130.87684385591979
 20
290.9775285615334
 11
130.87684385591979
 21
284.47291749497367
  0
CIRCLE
  8
_2-0_
  6
CONTINUOUS
 62
    7
 10
102.8768438559199
 20
287.77942812047479
 40
2.5
  0
LINE
  8
_2-0_
  6
CENTER1
 62
    2
 10
102.8768438559199
 20
290.9775285615334
 11
102.8768438559199
 21
284.47291749497367
  0
LINE
  8
_2-0_
  6
CENTER1
 62
    2
 10
116.87684385591979
 20
300.74654921109232
 11
116.87684385591979
 21
276.49634872993749
  0
LINE
  8
_2-0_
  6
CENTER1
 62
    2
 10
94.926054624808671
 20
287.77942812047479
 11
138.03752214686153
 21
287.77942812047479
  0
ARC
  8
_2-0_
  6
CONTINUOUS
 62
    7
 10
178.73561123379076
 20
279.67942812047477
 40
0.3999999999999999
 50
270
 51
2.5168756569395327
  0
LINE
  8
_2-0_
  6
CONTINUOUS
 62
    7
 10
160.20312059233231
 20
279.27942812047479
 11
160.20312059233231
 21
278.67942812047477
  0
LINE
  8
_2-0_
  6
CONTINUOUS
 62
    7
 10
179.73464656456824
 20
279.72334176138816
 11
179.38053287845455
 21
287.77942812047479
  0
LINE
  8
_2-0_
  6
CONTINUOUS
 62
    7
 10
178.73561123379076
 20
278.67942812047477
 11
160.20312059233231
 21
278.67942812047477
  0
ARC
  8
_2-0_
  6
CONTINUOUS
 62
    7
 10
178.73561123379076
 20
279.67942812047477
 40
1
 50
270
 51
2.5168756569395327
  0
LINE
  8
_2-0_
  6
CONTINUOUS
 62
    7
 10
179.13522536610171
 20
279.6969935768401
 11
178.78111167998802
 21
287.75307993592685
  0
LINE
  8
_2-0_
  6
CONTINUOUS
 62
    7
 10
178.73561123379076
 20
279.27942812047479
 11
160.20312059233231
 21
279.27942812047479
  0
LINE
  8
_2-0_
  6
CONTINUOUS
 62
    7
 10
169.38053287845457
 20
280.77942812047479
 11
169.80479694716652
 21
280.35516405176293
  0
LINE
  8
_2-0_
  6
CONTINUOUS
 62
    7
 10
169.38053287845457
 20
280.77942812047479
 11
167.28053287845466
 21
278.67942812047477
  0
LINE
  8
_2-0_
  6
CONTINUOUS
 62
    7
 10
169.80479694716652
 20
280.35516405176293
 11
168.12906101587851
 21
278.67942812047477
  0
ARC
  8
_2-0_
  6
CONTINUOUS
 62
    7
 10
178.73561123379076
 20
295.87942812047481
 40
0.3999999999999999
 50
357.48312434306047
 51
90
  0
LINE
  8
_2-0_
  6
CONTINUOUS
 62
    7
 10
160.20312059233231
 20
296.27942812047479
 11
160.20312059233231
 21
296.87942812047481
  0
LINE
  8
_2-0_
  6
CONTINUOUS
 62
    7
 10
179.73464656456824
 20
295.83551447956154
 11
179.38053287845455
 21
287.77942812047479
  0
LINE
  8
_2-0_
  6
CONTINUOUS
 62
    7
 10
178.73561123379076
 20
296.87942812047481
 11
160.20312059233231
 21
296.87942812047481
  0
ARC
  8
_2-0_
  6
CONTINUOUS
 62
    7
 10
178.73561123379076
 20
295.87942812047481
 40
1
 50
357.48312434306047
 51
90
  0
LINE
  8
_2-0_
  6
CONTINUOUS
 62
    7
 10
179.13522536610171
 20
295.86186266410948
 11
178.78111167998802
 21
287.80577630502279
  0
LINE
  8
_2-0_
  6
CONTINUOUS
 62
    7
 10
178.73561123379076
 20
296.27942812047479
 11
160.20312059233231
 21
296.27942812047479
  0
LINE
  8
_2-0_
  6
CONTINUOUS
 62
    7
 10
169.38053287845457
 20
294.77942812047479
 11
169.80479694716652
 21
295.20369218918677
  0
LINE
  8
_2-0_
  6
CONTINUOUS
 62
    7
 10
169.38053287845457
 20
294.77942812047479
 11
167.28053287845466
 21
296.87942812047481
  0
LINE
  8
_2-0_
  6
CONTINUOUS
 62
    7
 10
169.80479694716652
 20
295.20369218918677
 11
168.12906101587851
 21
296.87942812047481
  0
LINE
  8
_2-0_
  6
CENTER1
 62
    2
 10
181.48716229241242
 20
287.77942812047479
 11
158.41579100131378
 21
287.77942812047479
  0
LINE
  8
_2-0_
  6
CONTINUOUS
 62
    4
 10
119.37088740281297
 20
292.03421557948502
 11
135.86304517250869
 21
312.64941279160473
  0
LINE
  8
_2-0_
  6
CONTINUOUS
 62
    4
 10
85.793911191723737
 20
296.87942812047481
 11
84.240996921108604
 21
302.67498307820927
  0
LINE
  8
_2-0_
  6
CONTINUOUS
 62
    4
 10
85.793911191723737
 20
296.87942812047481
 11
87.34682546233887
 21
302.67498307820927
  0
LINE
  8
_2-0_
  6
CONTINUOUS
 62
    4
 10
85.793911191723737
 20
278.67942812047482
 11
84.240996921108604
 21
272.88387316274043
  0
LINE
  8
_2-0_
  6
CONTINUOUS
 62
    4
 10
85.793911191723737
 20
278.67942812047482
 11
87.34682546233887
 21
272.88387316274043
  0
LINE
  8
_2-0_
  6
CONTINUOUS
 62
    4
 10
84.793911191723737
 20
296.87942812047481
 11
93.99414174505182
 21
296.87942812047481
  0
LINE
  8
_2-0_
  6
CONTINUOUS
 62
    4
 10
84.793911191723737
 20
278.67942812047482
 11
93.99414174505182
 21
278.67942812047482
  0
LINE
  8
_2-0_
  6
CONTINUOUS
 62
    4
 10
85.793911191723737
 20
307.17812176201016
 11
85.793911191723737
 21
270.026056806116
  0
LINE
  8
_2-0_
  6
CONTINUOUS
 62
    4
 10
96.876843855919901
 20
263.61512055912323
 11
136.87684385591979
 21
263.61512055912323
  0
LINE
  8
_2-0_
  6
CONTINUOUS
 62
    4
 10
96.876843855919901
 20
263.61512055912323
 11
102.67239881365424
 21
265.16803482973836
  0
LINE
  8
_2-0_
  6
CONTINUOUS
 62
    4
 10
96.876843855919901
 20
263.61512055912323
 11
102.67239881365424
 21
262.06220628850809
  0
LINE
  8
_2-0_
  6
CONTINUOUS
 62
    4
 10
136.87684385591979
 20
263.61512055912323
 11
131.08128889818545
 21
265.16803482973836
  0
LINE
  8
_2-0_
  6
CONTINUOUS
 62
    4
 10
136.87684385591979
 20
263.61512055912323
 11
131.08128889818545
 21
262.06220628850809
  0
LINE
  8
_2-0_
  6
CONTINUOUS
 62
    4
 10
96.876843855919901
 20
262.61512055912323
 11
96.876843855919901
 21
276.55277091998931
  0
LINE
  8
_2-0_
  6
CONTINUOUS
 62
    4
 10
136.87684385591979
 20
262.61512055912323
 11
136.87684385591979
 21
276.55277091998931
  0
LINE
  8
_2-0_
  6
CENTER1
 62
    2
 10
116.87684385591979
 20
225.94174417051462
 11
116.87684385591979
 21
249.34992380162927
  0
LINE
  8
_2-0_
  6
CONTINUOUS
 62
    7
 10
109.87684385591979
 20
235.77531426209438
 11
103.8768438559199
 21
235.77531426209438
  0
ARC
  8
_2-0_
  6
CONTINUOUS
 62
    7
 10
109.87684385591979
 20
237.77531426209438
 40
1.9999999999999993
 50
270
 51
0
  0
LINE
  8
_2-0_
  6
CONTINUOUS
 62
    7
 10
111.87684385591979
 20
237.77531426209438
 11
111.87684385591979
 21
240.07531426209439
  0
LINE
  8
_2-0_
  6
CONTINUOUS
 62
    7
 10
101.8768438559199
 20
237.77531426209438
 11
101.8768438559199
 21
240.07531426209439
  0
ARC
  8
_2-0_
  6
CONTINUOUS
 62
    7
 10
103.8768438559199
 20
237.77531426209438
 40
1.9999999999999993
 50
180
 51
270
  0
LINE
  8
_2-0_
  6
CONTINUOUS
 62
    7
 10
108.87684385591979
 20
237.87531426209435
 11
104.87684385591979
 21
237.87531426209435
  0
ARC
  8
_2-0_
  6
CONTINUOUS
 62
    7
 10
108.87684385591979
 20
238.87531426209435
 40
0.9999999999999996
 50
270
 51
0
  0
LINE
  8
_2-0_
  6
CONTINUOUS
 62
    7
 10
109.87684385591979
 20
238.87531426209435
 11
109.87684385591979
 21
240.07531426209439
  0
ARC
  8
_2-0_
  6
CONTINUOUS
 62
    7
 10
104.87684385591979
 20
238.87531426209435
 40
0.9999999999999996
 50
180
 51
270
  0
LINE
  8
_2-0_
  6
CONTINUOUS
 62
    7
 10
103.8768438559199
 20
238.87531426209435
 11
103.8768438559199
 21
240.07531426209439
  0
LINE
  8
ADD_LINE
  6
DOT
 62
    9
 10
110.87684385591979
 20
240.07531426209439
 11
110.87684385591979
 21
241.07531426209439
  0
ARC
  8
_2-0_
  6
CONTINUOUS
 62
    7
 10
110.87684385591979
 20
240.07531426209439
 40
0.9999999999999996
 50
0.0000000000000254
 51
90.000000000000028
  0
ARC
  8
_2-0_
  6
CONTINUOUS
 62
    7
 10
110.87684385591979
 20
240.07531426209439
 40
0.9999999999999996
 50
90
 51
180
  0
LINE
  8
ADD_LINE
  6
DOT
 62
    9
 10
102.8768438559199
 20
240.07531426209439
 11
102.8768438559199
 21
241.07531426209439
  0
ARC
  8
_2-0_
  6
CONTINUOUS
 62
    7
 10
102.8768438559199
 20
240.07531426209439
 40
0.9999999999999996
 50
0.0000000000000254
 51
90.000000000000028
  0
ARC
  8
_2-0_
  6
CONTINUOUS
 62
    7
 10
102.8768438559199
 20
240.07531426209439
 40
0.9999999999999996
 50
90
 51
180
  0
LINE
  8
_2-0_
  6
CONTINUOUS
 62
    7
 10
123.87684385591979
 20
235.77531426209438
 11
129.87684385591979
 21
235.77531426209438
  0
ARC
  8
_2-0_
  6
CONTINUOUS
 62
    7
 10
123.87684385591979
 20
237.77531426209438
 40
2
 50
180
 51
270
  0
LINE
  8
_2-0_
  6
CONTINUOUS
 62
    7
 10
121.87684385591979
 20
237.77531426209438
 11
121.87684385591979
 21
240.07531426209439
  0
LINE
  8
_2-0_
  6
CONTINUOUS
 62
    7
 10
131.87684385591979
 20
237.77531426209438
 11
131.87684385591979
 21
240.07531426209439
  0
ARC
  8
_2-0_
  6
CONTINUOUS
 62
    7
 10
129.87684385591979
 20
237.77531426209438
 40
2
 50
270
 51
0.0000000000000127
  0
LINE
  8
_2-0_
  6
CONTINUOUS
 62
    7
 10
124.87684385591979
 20
237.87531426209435
 11
128.87684385591979
 21
237.87531426209435
  0
ARC
  8
_2-0_
  6
CONTINUOUS
 62
    7
 10
124.87684385591979
 20
238.87531426209435
 40
1
 50
180
 51
270
  0
LINE
  8
_2-0_
  6
CONTINUOUS
 62
    7
 10
123.87684385591979
 20
238.87531426209435
 11
123.87684385591979
 21
240.07531426209439
  0
ARC
  8
_2-0_
  6
CONTINUOUS
 62
    7
 10
128.87684385591979
 20
238.87531426209435
 40
1
 50
270
 51
0.0000000000000127
  0
LINE
  8
_2-0_
  6
CONTINUOUS
 62
    7
 10
129.87684385591979
 20
238.87531426209435
 11
129.87684385591979
 21
240.07531426209439
  0
LINE
  8
ADD_LINE
  6
DOT
 62
    9
 10
122.87684385591979
 20
240.07531426209439
 11
122.87684385591979
 21
241.07531426209439
  0
ARC
  8
_2-0_
  6
CONTINUOUS
 62
    7
 10
122.87684385591979
 20
240.07531426209439
 40
1
 50
90
 51
180
  0
ARC
  8
_2-0_
  6
CONTINUOUS
 62
    7
 10
122.87684385591979
 20
240.07531426209439
 40
1
 50
0
 51
90
  0
LINE
  8
ADD_LINE
  6
DOT
 62
    9
 10
130.87684385591979
 20
240.07531426209439
 11
130.87684385591979
 21
241.07531426209439
  0
ARC
  8
_2-0_
  6
CONTINUOUS
 62
    7
 10
130.87684385591979
 20
240.07531426209439
 40
1
 50
90
 51
180
  0
ARC
  8
_2-0_
  6
CONTINUOUS
 62
    7
 10
130.87684385591979
 20
240.07531426209439
 40
1
 50
0
 51
90
  0
ARC
  8
_2-0_
  6
CONTINUOUS
 62
    7
 10
99.876843855919901
 20
244.57531426209439
 40
3
 50
90.000000000000014
 51
180
  0
LINE
  8
_2-0_
  6
CONTINUOUS
 62
    7
 10
96.876843855919901
 20
244.57531426209439
 11
96.876843855919901
 21
227.97531426209437
  0
LINE
  8
_2-0_
  6
CONTINUOUS
 62
    7
 10
99.876843855919901
 20
247.57531426209439
 11
133.87684385591979
 21
247.57531426209439
  0
ARC
  8
_2-0_
  6
CONTINUOUS
 62
    7
 10
133.87684385591979
 20
244.57531426209439
 40
3
 50
0
 51
90
  0
LINE
  8
_2-0_
  6
CONTINUOUS
 62
    7
 10
136.87684385591979
 20
244.57531426209439
 11
136.87684385591979
 21
227.97531426209437
  0
LINE
  8
_2-0_
  6
CONTINUOUS
 62
    7
 10
136.87684385591979
 20
227.97531426209437
 11
96.876843855919901
 21
227.97531426209437
  0
LINE
  8
_2-0_
  6
DASHED1
 62
    7
 10
136.87684385591979
 20
228.57531426209439
 11
96.876843855919901
 21
228.57531426209439
  0
LINE
  8
_2-0_
  6
CONTINUOUS
 62
    4
 10
160.20312059233231
 20
262.61512055912323
 11
179.73464656456835
 21
262.61512055912323
  0
LINE
  8
_2-0_
  6
CONTINUOUS
 62
    4
 10
160.20312059233231
 20
262.61512055912323
 11
165.99867555006665
 21
264.16803482973836
  0
LINE
  8
_2-0_
  6
CONTINUOUS
 62
    4
 10
160.20312059233231
 20
262.61512055912323
 11
165.99867555006665
 21
261.06220628850809
  0
LINE
  8
_2-0_
  6
CONTINUOUS
 62
    4
 10
179.73464656456835
 20
262.61512055912323
 11
173.9390916068339
 21
264.16803482973836
  0
LINE
  8
_2-0_
  6
CONTINUOUS
 62
    4
 10
179.73464656456835
 20
262.61512055912323
 11
173.9390916068339
 21
261.06220628850809
  0
LINE
  8
_2-0_
  6
CONTINUOUS
 62
    4
 10
160.20312059233231
 20
261.61512055912323
 11
160.20312059233231
 21
276.55277091998931
  0
LINE
  8
_2-0_
  6
CONTINUOUS
 62
    4
 10
179.73464656456835
 20
261.61512055912323
 11
179.73464656456835
 21
276.55277091998931
  0
TEXT
  8
_2-0_
 62
    7
 10
84.195744400803278
 20
285.79207048855682
 40
8
 41
1
 50
90
  1
9
  0
TEXT
  8
_2-0_
 62
    7
 10
112.62684385591979
 20
264.61512055912323
 40
8
 41
1
 50
0
  1
20
  0
TEXT
  8
_2-0_
 62
    7
 10
163.46888357845035
 20
263.61512055912323
 40
8
 41
1
 50
0
  1
9.8
  0
TEXT
  8
_2-0_
 62
    7
 10
103.58380941328301
 20
314.90868636525454
 40
8
 41
1
 50
0
  1
3.2×5金具固定ネジ用穴
  0
ARC
  8
_2-0_
  6
CONTINUOUS
 62
    7
 10
243.70370511518934
 20
266.2419675693472
 40
0.3999999999999999
 50
180
 51
272.51687565693953
  0
LINE
  8
_2-0_
  6
CONTINUOUS
 62
    7
 10
243.30370511518936
 20
284.77445821080573
 11
242.70370511518934
 21
284.77445821080573
  0
LINE
  8
_2-0_
  6
CONTINUOUS
 62
    7
 10
243.74761875610261
 20
265.24293223856972
 11
251.80370511518936
 21
265.59704592468341
  0
LINE
  8
_2-0_
  6
CONTINUOUS
 62
    7
 10
242.70370511518934
 20
266.2419675693472
 11
242.70370511518934
 21
284.77445821080573
  0
ARC
  8
_2-0_
  6
CONTINUOUS
 62
    7
 10
243.70370511518934
 20
266.2419675693472
 40
1
 50
180
 51
272.51687565693953
  0
LINE
  8
_2-0_
  6
CONTINUOUS
 62
    7
 10
243.72127057155467
 20
265.84235343703625
 11
251.7773569306413
 21
266.19646712314994
  0
LINE
  8
_2-0_
  6
CONTINUOUS
 62
    7
 10
243.30370511518936
 20
266.2419675693472
 11
243.30370511518936
 21
284.77445821080573
  0
LINE
  8
_2-0_
  6
CONTINUOUS
 62
    7
 10
244.80370511518936
 20
275.59704592468341
 11
244.37944104647738
 21
275.17278185597149
  0
LINE
  8
_2-0_
  6
CONTINUOUS
 62
    7
 10
244.80370511518936
 20
275.59704592468341
 11
242.70370511518934
 21
277.69704592468338
  0
LINE
  8
_2-0_
  6
CONTINUOUS
 62
    7
 10
244.37944104647738
 20
275.17278185597149
 11
242.70370511518934
 21
276.84851778725954
  0
ARC
  8
_2-0_
  6
CONTINUOUS
 62
    7
 10
259.90370511518938
 20
266.2419675693472
 40
0.3999999999999999
 50
267.48312434306047
 51
0
  0
LINE
  8
_2-0_
  6
CONTINUOUS
 62
    7
 10
260.30370511518936
 20
284.77445821080573
 11
260.90370511518938
 21
284.77445821080573
  0
LINE
  8
_2-0_
  6
CONTINUOUS
 62
    7
 10
259.85979147427599
 20
265.24293223856972
 11
251.80370511518936
 21
265.59704592468341
  0
LINE
  8
_2-0_
  6
CONTINUOUS
 62
    7
 10
260.90370511518938
 20
266.2419675693472
 11
260.90370511518938
 21
284.77445821080573
  0
ARC
  8
_2-0_
  6
CONTINUOUS
 62
    7
 10
259.90370511518938
 20
266.2419675693472
 40
1
 50
267.48312434306047
 51
0
  0
LINE
  8
_2-0_
  6
CONTINUOUS
 62
    7
 10
259.88613965882405
 20
265.84235343703625
 11
251.8300532997373
 21
266.19646712314994
  0
LINE
  8
_2-0_
  6
CONTINUOUS
 62
    7
 10
260.30370511518936
 20
266.2419675693472
 11
260.30370511518936
 21
284.77445821080573
  0
LINE
  8
_2-0_
  6
CONTINUOUS
 62
    7
 10
258.80370511518936
 20
275.59704592468341
 11
259.22796918390122
 21
275.17278185597149
  0
LINE
  8
_2-0_
  6
CONTINUOUS
 62
    7
 10
258.80370511518936
 20
275.59704592468341
 11
260.90370511518938
 21
277.69704592468338
  0
LINE
  8
_2-0_
  6
CONTINUOUS
 62
    7
 10
259.22796918390122
 20
275.17278185597149
 11
260.90370511518927
 21
276.84851778725954
  0
LINE
  8
ADD_LINE
  6
DOT
 62
    9
 10
253.5501152767032
 20
271.70621042833727
 11
250.05729495367552
 21
271.70621042833727
  0
LINE
  8
_2-0_
  6
CONTINUOUS
 62
    7
 10
259.80368911518929
 20
294.21591265395068
 11
259.8036891151894
 21
276.67371542215454
  0
ARC
  8
_2-0_
  6
CONTINUOUS
 62
    7
 10
259.40368911518931
 20
276.67371542215454
 40
0.3999999999999994
 50
310.00000000000006
 51
0
  0
LINE
  8
_2-0_
  6
CONTINUOUS
 62
    7
 10
259.66080415906401
 20
276.3672976449069
 11
259.00368911518933
 21
275.81591265395065
  0
LINE
  8
_2-0_
  6
CONTINUOUS
 62
    7
 10
259.00368911518933
 20
275.81591265395065
 11
259.00368911518933
 21
275.21591265395068
  0
LINE
  8
_2-0_
  6
CONTINUOUS
 62
    7
 10
259.00368911518933
 20
275.21591265395068
 11
259.75009927670317
 21
273.92309233092311
  0
ARC
  8
_2-0_
  6
CONTINUOUS
 62
    7
 10
259.40368911518931
 20
273.72309233092312
 40
0.4000000000000167
 50
0.0000000000004452
 51
29.999999999999023
  0
LINE
  8
_2-0_
  6
CONTINUOUS
 62
    7
 10
259.8036891151894
 20
273.72309233092312
 11
259.8036891151894
 21
272.30620922833725
  0
ARC
  8
_2-0_
  6
CONTINUOUS
 62
    7
 10
259.20369031518931
 20
272.30620922833731
 40
0.5999988000000211
 50
269.99999999999852
 51
359.9999999999975
  0
LINE
  8
_2-0_
  6
CONTINUOUS
 62
    7
 10
243.81314632941064
 20
276.58724611698705
 11
243.80372111518932
 21
294.21591265395068
  0
LINE
  8
_2-0_
  6
CONTINUOUS
 62
    7
 10
249.98404863279984
 20
276.5061346786656
 11
249.20371031518937
 21
274.9062040283373
  0
LINE
  8
_2-0_
  6
CONTINUOUS
 62
    7
 10
249.20371031518937
 20
274.9062040283373
 11
249.4509211747386
 21
272.92851711296447
  0
ARC
  8
_2-0_
  6
CONTINUOUS
 62
    7
 10
250.0462867100332
 20
273.00293780487726
 40
0.5999987999999872
 50
187.12501634899908
 51
243.73151085200024
  0
ARC
  8
_2-0_
  6
CONTINUOUS
 62
    7
 10
249.60370951122479
 20
272.10620962468062
 40
0.3999992030299164
 50
346.86575606511082
 51
63.731511213684882
  0
ARC
  8
_2-0_
  6
CONTINUOUS
 62
    7
 10
249.60370951518928
 20
272.1062096283373
 40
0.3999992000000414
 50
270.00000000000591
 51
346.8657554259965
  0
LINE
  8
_2-0_
  6
CONTINUOUS
 62
    7
 10
253.62336159757888
 20
276.5061346786656
 11
249.98404863279984
 21
276.5061346786656
  0
LINE
  8
_2-0_
  6
CONTINUOUS
 62
    7
 10
254.40369991518935
 20
274.9062040283373
 11
253.62336159757888
 21
276.5061346786656
  0
LINE
  8
_2-0_
  6
CONTINUOUS
 62
    7
 10
254.15648904961211
 20
272.92851711371901
 11
254.40369991518935
 21
274.9062040283373
  0
ARC
  8
_2-0_
  6
CONTINUOUS
 62
    7
 10
253.5611235044247
 20
273.00293781406896
 40
0.5999988108628412
 50
296.26848926654651
 51
352.87498296871598
  0
ARC
  8
_2-0_
  6
CONTINUOUS
 62
    7
 10
254.00370071824159
 20
272.10620962904949
 40
0.3999992031342513
 50
116.26849023056882
 51
193.13424457400578
  0
ARC
  8
_2-0_
  6
CONTINUOUS
 62
    7
 10
254.00370071518932
 20
272.10620962833724
 40
0.3999991999999839
 50
193.13424457399705
 51
270.00000000000068
  0
LINE
  8
_2-0_
  6
CONTINUOUS
 62
    7
 10
249.60370951518939
 20
271.70621042833722
 11
248.60169111518917
 21
271.70621042833722
  0
LINE
  8
_2-0_
  6
CONTINUOUS
 62
    7
 10
248.60169111518917
 20
271.70621042833722
 11
244.4037199151893
 21
271.70621042833722
  0
ARC
  8
_2-0_
  6
CONTINUOUS
 62
    7
 10
244.4037199151893
 20
272.30620922833725
 40
0.5999988000000069
 50
180.00000000000114
 51
270
  0
LINE
  8
_2-0_
  6
CONTINUOUS
 62
    7
 10
243.80372111518932
 20
272.30620922833725
 11
243.80362654496287
 21
273.72319899800681
  0
ARC
  8
_2-0_
  6
CONTINUOUS
 62
    7
 10
244.20362654492737
 20
273.72319366467349
 40
0.3999999999999772
 50
149.99923605627322
 51
179.99923605627481
  0
LINE
  8
_2-0_
  6
CONTINUOUS
 62
    7
 10
243.8572190501111
 20
273.92319828345785
 11
244.60364644916274
 21
275.216008654235
  0
LINE
  8
_2-0_
  6
CONTINUOUS
 62
    7
 10
244.60364644916274
 20
275.216008654235
 11
244.60365444916272
 21
275.81600865418164
  0
LINE
  8
_2-0_
  6
CONTINUOUS
 62
    7
 10
244.60365444916272
 20
275.81600865418164
 11
243.94654675714639
 21
276.36740240662283
  0
ARC
  8
_2-0_
  6
CONTINUOUS
 62
    7
 10
244.2036658865685
 20
276.67381675564258
 40
0.4000000000000025
 50
179.99923605627433
 51
229.99923605627387
  0
LINE
  8
_2-0_
  6
CONTINUOUS
 62
    7
 10
259.20369031518931
 20
271.70621042833727
 11
259.00571911518955
 21
271.70621042833727
  0
LINE
  8
_2-0_
  6
CONTINUOUS
 62
    7
 10
259.00571911518955
 20
271.70621042833727
 11
255.00571911518955
 21
271.70621042833722
  0
LINE
  8
_2-0_
  6
CONTINUOUS
 62
    7
 10
255.00571911518955
 20
271.70621042833722
 11
254.00370071518932
 21
271.70621042833722
  0
LINE
  8
_2-0_
  6
CONTINUOUS
 62
    7
 10
250.00370511518929
 20
276.50621042833723
 11
253.60370511518931
 21
276.50621042833723
  0
LINE
  8
_2-0_
  6
CONTINUOUS
 62
    7
 10
248.30370511518902
 20
282.9833754358317
 11
248.30370511518902
 21
281.3153388146074
  0
LINE
  8
_2-0_
  6
CONTINUOUS
 62
    7
 10
255.30370511518902
 20
282.9833754358317
 11
255.30370511518902
 21
281.3153388146074
  0
LINE
  8
_2-0_
  6
CONTINUOUS
 62
    7
 10
255.30370511518902
 20
282.9833754358317
 11
248.30370511518902
 21
282.9833754358317
  0
LINE
  8
_2-0_
  6
CONTINUOUS
 62
    7
 10
246.30370511518902
 20
281.3153388146074
 11
246.30370511518902
 21
278.10619762833727
  0
LINE
  8
_2-0_
  6
CONTINUOUS
 62
    7
 10
257.30370511518902
 20
281.3153388146074
 11
257.30370511518902
 21
278.10619762833727
  0
LINE
  8
_2-0_
  6
CONTINUOUS
 62
    7
 10
257.30370511518902
 20
281.3153388146074
 11
246.30370511518902
 21
281.3153388146074
  0
LINE
  8
_2-0_
  6
CONTINUOUS
 62
    7
 10
257.30370511518902
 20
279.3153388146074
 11
246.30370511518902
 21
279.3153388146074
  0
ARC
  8
_2-0_
  6
CONTINUOUS
 62
    7
 10
257.60370511518931
 20
293.81591265395065
 40
0.3999999999999979
 50
180.00000000000011
 51
270.00000000000011
  0
LINE
  8
_2-0_
  6
CONTINUOUS
 62
    7
 10
257.20370511518934
 20
293.81591265395065
 11
257.20370511518934
 21
294.21591265395068
  0
ARC
  8
_2-0_
  6
CONTINUOUS
 62
    7
 10
257.60370511518931
 20
294.21591265395068
 40
0.3999999999999994
 50
90.000000000000114
 51
180.00000000000011
  0
LINE
  8
_2-0_
  6
CONTINUOUS
 62
    7
 10
257.60370511518931
 20
294.61591265395072
 11
259.40370511518927
 21
294.61591265395072
  0
ARC
  8
_2-0_
  6
CONTINUOUS
 62
    7
 10
259.40370511518927
 20
295.01591265395069
 40
0.3999999999999994
 50
270.00000000000011
 51
0.0000000000001017
  0
LINE
  8
_2-0_
  6
CONTINUOUS
 62
    7
 10
259.80370511518936
 20
295.01591265395069
 11
259.80370511518936
 21
295.21591265395068
  0
ARC
  8
_2-0_
  6
CONTINUOUS
 62
    7
 10
258.20370511518934
 20
295.21591265395068
 40
1.6000000000000012
 50
0.0000000000000254
 51
90.000000000000014
  0
LINE
  8
_2-0_
  6
CONTINUOUS
 62
    7
 10
258.20370511518934
 20
296.81591265395065
 11
245.40370511518938
 21
296.81591265395065
  0
ARC
  8
_2-0_
  6
CONTINUOUS
 62
    7
 10
245.40370511518927
 20
295.21591265395068
 40
1.6000000000000012
 50
89.999999999999872
 51
179.99999999999994
  0
LINE
  8
_2-0_
  6
CONTINUOUS
 62
    7
 10
243.80370511518936
 20
295.21591265395068
 11
243.80370511518936
 21
295.01591265395069
  0
ARC
  8
_2-0_
  6
CONTINUOUS
 62
    7
 10
244.20370511518934
 20
295.01591265395069
 40
0.4000000000000087
 50
180.00000000000122
 51
269.99999999999994
  0
LINE
  8
_2-0_
  6
CONTINUOUS
 62
    7
 10
244.20370511518934
 20
294.61591265395066
 11
246.00370511518929
 21
294.61591265395066
  0
ARC
  8
_2-0_
  6
CONTINUOUS
 62
    7
 10
246.00370511518929
 20
294.21591265395068
 40
0.3999999999999994
 50
359.99999999999989
 51
89.999999999999901
  0
LINE
  8
_2-0_
  6
CONTINUOUS
 62
    7
 10
246.40370511518927
 20
294.21591265395068
 11
246.40370511518927
 21
293.81591265395065
  0
ARC
  8
_2-0_
  6
CONTINUOUS
 62
    7
 10
246.00370511518929
 20
293.81591265395065
 40
0.3999999999999979
 50
269.99999999999989
 51
359.99999999999989
  0
LINE
  8
_2-0_
  6
CONTINUOUS
 62
    7
 10
246.00370511518929
 20
293.41591265395067
 11
245.55559183148341
 21
293.41591265395067
  0
ARC
  8
_2-0_
  6
CONTINUOUS
 62
    7
 10
245.55559183148341
 20
293.21591265395068
 40
0.1999999999999965
 50
90.000000000000213
 51
180.0000000000002
  0
LINE
  8
_2-0_
  6
CONTINUOUS
 62
    7
 10
245.35559183148337
 20
293.21591265395068
 11
245.35559183148337
 21
293.0770587902424
  0
LINE
  8
_2-0_
  6
CONTINUOUS
 62
    7
 10
245.35559183148337
 20
293.0770587902424
 11
246.17926530072134
 21
291.85591265395067
  0
LINE
  8
_2-0_
  6
CONTINUOUS
 62
    7
 10
246.17926530072134
 20
291.85591265395067
 11
257.42814492965726
 21
291.85591265395067
  0
LINE
  8
_2-0_
  6
CONTINUOUS
 62
    7
 10
257.42814492965726
 20
291.85591265395067
 11
258.25181839889524
 21
293.0770587902424
  0
LINE
  8
_2-0_
  6
CONTINUOUS
 62
    7
 10
258.25181839889524
 20
293.0770587902424
 11
258.25181839889524
 21
293.21591265395068
  0
ARC
  8
_2-0_
  6
CONTINUOUS
 62
    7
 10
258.05181839889531
 20
293.21591265395068
 40
0.1999999999999965
 50
359.99999999999983
 51
89.999999999999801
  0
LINE
  8
_2-0_
  6
CONTINUOUS
 62
    7
 10
258.05181839889531
 20
293.41591265395067
 11
257.60370511518931
 21
293.41591265395067
  0
LINE
  8
ADD_LINE
  6
DOT
 62
    9
 10
257.60370511518931
 20
294.61591265395072
 11
246.00370511518929
 21
294.61591265395066
  0
LINE
  8
_2-0_
  6
CONTINUOUS
 62
    7
 10
245.80371711518933
 20
292.05502740562196
 11
245.80371711518933
 21
278.10619762833727
  0
LINE
  8
_2-0_
  6
CONTINUOUS
 62
    7
 10
245.80371711518933
 20
278.10619762833727
 11
257.80369311518939
 21
278.10619762833727
  0
LINE
  8
_2-0_
  6
CONTINUOUS
 62
    7
 10
257.80369311518928
 20
292.05502740562196
 11
257.80369311518939
 21
278.10619762833727
  0
LINE
  8
_2-0_
  6
CONTINUOUS
 62
    7
 10
258.45181839889528
 20
293.01591265395069
 11
257.80369311518928
 21
292.05502740562196
  0
LINE
  8
_2-0_
  6
CONTINUOUS
 62
    7
 10
258.45181839889528
 20
293.21591265395068
 11
258.45181839889528
 21
293.01591265395069
  0
ARC
  8
_2-0_
  6
CONTINUOUS
 62
    7
 10
258.05181839889531
 20
293.21591265395068
 40
0.3999999999999968
 50
359.99999999999949
 51
90.000000000000256
  0
LINE
  8
_2-0_
  6
CONTINUOUS
 62
    7
 10
257.80368911518929
 20
293.61591265395072
 11
258.05181839889531
 21
293.61591265395072
  0
ARC
  8
_2-0_
  6
CONTINUOUS
 62
    7
 10
257.80368911518929
 20
294.01591265395069
 40
0.4000000000000003
 50
180
 51
269.9999999999996
  0
LINE
  8
_2-0_
  6
CONTINUOUS
 62
    7
 10
257.40368911518931
 20
294.21591265395062
 11
257.40368911518931
 21
294.01591265395069
  0
ARC
  8
_2-0_
  6
CONTINUOUS
 62
    7
 10
257.80368911518929
 20
294.21591265395068
 40
0.399999999999995
 50
89.999999999999773
 51
180.00000000000153
  0
LINE
  8
_2-0_
  6
CONTINUOUS
 62
    7
 10
259.40368911518931
 20
294.61591265395072
 11
257.80368911518929
 21
294.61591265395072
  0
ARC
  8
_2-0_
  6
CONTINUOUS
 62
    7
 10
259.40368911518931
 20
294.21591265395068
 40
0.4000000000000021
 50
0.0000000000002544
 51
89.999999999999744
  0
LINE
  8
_2-0_
  6
CONTINUOUS
 62
    7
 10
245.15559183148332
 20
293.01591265395069
 11
245.80371711518933
 21
292.05502740562196
  0
LINE
  8
_2-0_
  6
CONTINUOUS
 62
    7
 10
245.15559183148332
 20
293.21591265395068
 11
245.15559183148332
 21
293.01591265395069
  0
ARC
  8
_2-0_
  6
CONTINUOUS
 62
    7
 10
245.55559183148341
 20
293.21591265395068
 40
0.3999999999999976
 50
89.999999999999773
 51
180.00000000000051
  0
LINE
  8
_2-0_
  6
CONTINUOUS
 62
    7
 10
245.80372111518932
 20
293.61591265395066
 11
245.55559183148341
 21
293.61591265395066
  0
ARC
  8
_2-0_
  6
CONTINUOUS
 62
    7
 10
245.80372111518932
 20
294.01591265395069
 40
0.4000000000000003
 50
270.0000000000004
 51
0.0000000000000127
  0
LINE
  8
_2-0_
  6
CONTINUOUS
 62
    7
 10
246.2037211151893
 20
294.21591265395062
 11
246.2037211151893
 21
294.01591265395069
  0
ARC
  8
_2-0_
  6
CONTINUOUS
 62
    7
 10
245.80372111518932
 20
294.21591265395068
 40
0.3999999999999968
 50
359.99999999999847
 51
90.000000000000256
  0
LINE
  8
_2-0_
  6
CONTINUOUS
 62
    7
 10
244.2037211151893
 20
294.61591265395066
 11
245.80372111518932
 21
294.61591265395066
  0
ARC
  8
_2-0_
  6
CONTINUOUS
 62
    7
 10
244.2037211151893
 20
294.21591265395068
 40
0.4000000000000012
 50
90.000000000000284
 51
179.99999999999977
  0
LINE
  8
ADD_LINE
  6
DOT
 62
    9
 10
257.80368911518929
 20
294.61591265395072
 11
245.80372111518932
 21
294.61591265395066
  0
LINE
  8
_2-0_
  6
CONTINUOUS
 62
    7
 10
257.30370511518902
 20
278.10619762833727
 11
246.30370511518902
 21
278.10619762833727
  0
LINE
  8
_2-0_
  6
CONTINUOUS
 62
    4
 10
229.27598859554223
 20
265.24293223856972
 11
229.27598859554223
 21
296.81591265395065
  0
LINE
  8
_2-0_
  6
CONTINUOUS
 62
    4
 10
229.27598859554223
 20
265.24293223856972
 11
227.7230743249271
 21
271.03848719630412
  0
LINE
  8
_2-0_
  6
CONTINUOUS
 62
    4
 10
229.27598859554223
 20
265.24293223856972
 11
230.82890286615736
 21
271.03848719630412
  0
LINE
  8
_2-0_
  6
CONTINUOUS
 62
    4
 10
229.27598859554223
 20
296.81591265395065
 11
227.7230743249271
 21
291.02035769621625
  0
LINE
  8
_2-0_
  6
CONTINUOUS
 62
    4
 10
229.27598859554223
 20
296.81591265395065
 11
230.82890286615736
 21
291.02035769621625
  0
LINE
  8
_2-0_
  6
CONTINUOUS
 62
    4
 10
228.27598859554223
 20
265.24293223856972
 11
239.84700904461999
 21
265.24293223856972
  0
LINE
  8
_2-0_
  6
CONTINUOUS
 62
    4
 10
228.27598859554223
 20
296.81591265395065
 11
239.84700904461999
 21
296.81591265395065
  0
LINE
  8
_2-0_
  6
CONTINUOUS
 62
    2
 10
291.98359481922898
 20
265.24293223856972
 11
206.06748098978835
 21
265.24293223856972
  0
LINE
  8
ADD_LINE
  6
DOT
 62
    9
 10
206.06748098978835
 20
265.24293223856972
 11
206.06748098978835
 21
255.24293223856972
  0
LINE
  8
ADD_LINE
  6
DOT
 62
    9
 10
206.06748098978835
 20
255.24293223856972
 11
291.98359481922898
 21
255.24293223856972
  0
LINE
  8
ADD_LINE
  6
DOT
 62
    9
 10
291.98359481922898
 20
265.24293223856972
 11
291.98359481922898
 21
255.24293223856972
  0
LINE
  8
_2-0_
  6
CONTINUOUS
 62
    2
 10
290.12019945267798
 20
255.24293223856859
 11
291.98359481923012
 21
257.10632760512067
  0
LINE
  8
_2-0_
  6
CONTINUOUS
 62
    2
 10
287.29177232793154
 20
255.24293223856881
 11
291.98359481922967
 21
259.934754729867
  0
LINE
  8
_2-0_
  6
CONTINUOUS
 62
    2
 10
284.46334520318521
 20
255.2429322385691
 11
291.98359481922944
 21
262.76318185461326
  0
LINE
  8
_2-0_
  6
CONTINUOUS
 62
    2
 10
281.63491807843877
 20
255.24293223856932
 11
291.63491807843911
 21
265.24293223856972
  0
LINE
  8
_2-0_
  6
CONTINUOUS
 62
    2
 10
278.80649095369222
 20
255.24293223856944
 11
288.80649095369267
 21
265.24293223856995
  0
LINE
  8
_2-0_
  6
CONTINUOUS
 62
    2
 10
275.97806382894578
 20
255.24293223856967
 11
285.97806382894521
 21
265.2429322385691
  0
LINE
  8
_2-0_
  6
CONTINUOUS
 62
    2
 10
273.1496367042032
 20
255.24293223857012
 11
283.14963670420275
 21
265.24293223856961
  0
LINE
  8
_2-0_
  6
CONTINUOUS
 62
    2
 10
270.32120957945597
 20
255.24293223856955
 11
280.3212095794554
 21
265.24293223856893
  0
LINE
  8
_2-0_
  6
CONTINUOUS
 62
    2
 10
267.4927824547085
 20
255.24293223856876
 11
277.49278245470896
 21
265.24293223856915
  0
LINE
  8
_2-0_
  6
CONTINUOUS
 62
    2
 10
264.66435532996206
 20
255.24293223856904
 11
274.66435532996252
 21
265.24293223856944
  0
LINE
  8
_2-0_
  6
CONTINUOUS
 62
    2
 10
261.83592820521562
 20
255.24293223856927
 11
271.83592820521608
 21
265.24293223856967
  0
LINE
  8
_2-0_
  6
CONTINUOUS
 62
    2
 10
259.00750108046884
 20
255.2429322385691
 11
269.00750108046941
 21
265.24293223856967
  0
LINE
  8
_2-0_
  6
CONTINUOUS
 62
    2
 10
256.1790739557224
 20
255.24293223856932
 11
266.17907395572297
 21
265.24293223856984
  0
LINE
  8
_2-0_
  6
CONTINUOUS
 62
    2
 10
253.35064683097596
 20
255.24293223856955
 11
263.35064683097539
 21
265.24293223856904
  0
LINE
  8
_2-0_
  6
CONTINUOUS
 62
    2
 10
250.52221970623339
 20
255.24293223857006
 11
260.52221970623293
 21
265.24293223856955
  0
LINE
  8
_2-0_
  6
CONTINUOUS
 62
    2
 10
244.86536545673903
 20
255.24293223856898
 11
254.86536545673937
 21
265.24293223856938
  0
LINE
  8
_2-0_
  6
CONTINUOUS
 62
    2
 10
242.03693833199259
 20
255.24293223856921
 11
252.03693833199304
 21
265.24293223856961
  0
LINE
  8
_2-0_
  6
CONTINUOUS
 62
    2
 10
239.20851120724615
 20
255.24293223856949
 11
249.2085112072466
 21
265.24293223856989
  0
LINE
  8
_2-0_
  6
CONTINUOUS
 62
    2
 10
236.38008408249902
 20
255.24293223856904
 11
246.38008408249959
 21
265.24293223856955
  0
LINE
  8
_2-0_
  6
CONTINUOUS
 62
    2
 10
233.55165695775258
 20
255.24293223856927
 11
243.55165695775315
 21
265.24293223856978
  0
LINE
  8
_2-0_
  6
CONTINUOUS
 62
    2
 10
230.72322983301012
 20
255.24293223856972
 11
240.72322983300955
 21
265.24293223856921
  0
LINE
  8
_2-0_
  6
CONTINUOUS
 62
    2
 10
227.89480270826334
 20
255.24293223856972
 11
237.89480270826266
 21
265.24293223856904
  0
LINE
  8
_2-0_
  6
CONTINUOUS
 62
    2
 10
225.06637558351588
 20
255.24293223856887
 11
235.06637558351633
 21
265.24293223856932
  0
LINE
  8
_2-0_
  6
CONTINUOUS
 62
    2
 10
222.23794845876944
 20
255.24293223856915
 11
232.23794845876989
 21
265.24293223856955
  0
LINE
  8
_2-0_
  6
CONTINUOUS
 62
    2
 10
219.40952133402311
 20
255.24293223856938
 11
229.40952133402345
 21
265.24293223856984
  0
LINE
  8
_2-0_
  6
CONTINUOUS
 62
    2
 10
216.58109420927576
 20
255.2429322385687
 11
226.58109420927622
 21
265.24293223856927
  0
LINE
  8
_2-0_
  6
CONTINUOUS
 62
    2
 10
213.75266708452932
 20
255.24293223856898
 11
223.75266708452978
 21
265.24293223856949
  0
LINE
  8
_2-0_
  6
CONTINUOUS
 62
    2
 10
210.92423995978277
 20
255.24293223856915
 11
220.92423995978231
 21
265.24293223856864
  0
LINE
  8
_2-0_
  6
CONTINUOUS
 62
    2
 10
208.09581283504031
 20
255.24293223856967
 11
218.09581283503974
 21
265.24293223856915
  0
LINE
  8
_2-0_
  6
CONTINUOUS
 62
    2
 10
206.06748098978824
 20
256.04302751806426
 11
215.26738571029318
 21
265.24293223856927
  0
LINE
  8
_2-0_
  6
CONTINUOUS
 62
    2
 10
206.06748098978881
 20
258.87145464281156
 11
212.43895858554674
 21
265.24293223856949
  0
LINE
  8
_2-0_
  6
CONTINUOUS
 62
    2
 10
206.06748098978846
 20
261.69988176755788
 11
209.61053146080042
 21
265.24293223856972
  0
LINE
  8
_2-0_
  6
CONTINUOUS
 62
    2
 10
206.06748098978812
 20
264.52830889230415
 11
206.78210433605398
 21
265.24293223857001
  0
LINE
  8
_2-0_
  6
CONTINUOUS
 62
    4
 10
242.70370511518934
 20
310.03280554244873
 11
260.90370511518938
 21
310.03280554244873
  0
LINE
  8
_2-0_
  6
CONTINUOUS
 62
    4
 10
242.70370511518934
 20
310.03280554244873
 11
248.49926007292368
 21
311.58571981306386
  0
LINE
  8
_2-0_
  6
CONTINUOUS
 62
    4
 10
242.70370511518934
 20
310.03280554244873
 11
248.49926007292368
 21
308.47989127183359
  0
LINE
  8
_2-0_
  6
CONTINUOUS
 62
    4
 10
260.90370511518938
 20
310.03280554244873
 11
255.10815015745493
 21
311.58571981306386
  0
LINE
  8
_2-0_
  6
CONTINUOUS
 62
    4
 10
260.90370511518938
 20
310.03280554244873
 11
255.10815015745493
 21
308.47989127183359
  0
LINE
  8
_2-0_
  6
CONTINUOUS
 62
    4
 10
242.70370511518934
 20
311.03280554244873
 11
242.70370511518934
 21
286.08362751518325
  0
LINE
  8
_2-0_
  6
CONTINUOUS
 62
    4
 10
260.90370511518938
 20
311.03280554244873
 11
260.90370511518938
 21
286.08362751518325
  0
LINE
  8
_2-0_
  6
CONTINUOUS
 62
    7
 10
247.69379258148649
 20
255.24293223856978
 11
257.69379258148581
 21
265.2429322385691
  0
LINE
  8
_2-0_
  6
CONTINUOUS
 62
    7
 10
254.80370511518936
 20
259.24293223856972
 11
248.80370511518936
 21
259.24293223856972
  0
LINE
  8
_2-0_
  6
CONTINUOUS
 62
    7
 10
248.80370511518936
 20
259.24293223856972
 11
248.80370511518936
 21
265.24293223856972
  0
LINE
  8
_2-0_
  6
CONTINUOUS
 62
    7
 10
254.80370511518936
 20
259.24293223856972
 11
254.80370511518936
 21
265.24293223856972
  0
LINE
  8
_2-0_
  6
CONTINUOUS
 62
    7
 10
248.80370511518936
 20
259.24293223856972
 11
251.80370511518936
 21
255.24293223856972
  0
LINE
  8
_2-0_
  6
CONTINUOUS
 62
    7
 10
251.80370511518936
 20
255.24293223856972
 11
254.80370511518936
 21
259.24293223856972
  0
ARC
  8
_2-0_
  6
CONTINUOUS
 62
    7
 10
251.80370511518936
 20
264.72170834123546
 40
6.1212238973342492
 50
11.42173188413294
 51
168.57826811586705
  0
TEXT
  8
_2-0_
 62
    7
 10
228.27598859554223
 20
272.27942244626018
 40
8
 41
1
 50
90
  1
15.8
  0
LINE
  8
_2-0_
  6
CONTINUOUS
 62
    2
 10
255.76531825723009
 20
291.85591265395107
 11
257.38828250433244
 21
293.47887690105335
  0
LINE
  8
_2-0_
  6
CONTINUOUS
 62
    2
 10
258.52531825723054
 20
294.61591265395145
 11
259.69778672418533
 21
295.78838112090631
  0
LINE
  8
_2-0_
  6
CONTINUOUS
 62
    2
 10
252.93689113248342
 20
291.85591265395101
 11
257.89689113248392
 21
296.81591265395144
  0
LINE
  8
_2-0_
  6
CONTINUOUS
 62
    2
 10
250.10846400773664
 20
291.8559126539509
 11
255.06846400773554
 21
296.81591265394985
  0
LINE
  8
_2-0_
  6
CONTINUOUS
 62
    2
 10
247.28003688298872
 20
291.8559126539497
 11
252.24003688298933
 21
296.81591265395031
  0
LINE
  8
_2-0_
  6
CONTINUOUS
 62
    2
 10
245.48334863869752
 20
292.88765153440505
 11
246.01160975824371
 21
293.41591265395135
  0
LINE
  8
_2-0_
  6
CONTINUOUS
 62
    2
 10
246.40370511518859
 20
293.80800801089617
 11
249.41160975824312
 21
296.81591265395076
  0
LINE
  8
_2-0_
  6
CONTINUOUS
 62
    2
 10
244.38318263349629
 20
294.61591265395055
 11
246.5831826334969
 21
296.81591265395116
  0
TEXT
  8
_2-0_
 62
    7
 10
244.97093500905066
 20
313.90343424666275
 40
8
 41
1
 50
0
  1
9.5(製品取り付時最大10.5)
  0
TEXT
  8
_2-0_
 62
    7
 10
276.77075947987692
 20
301.06018359379931
 40
8
 41
1
 50
0
  1
固定金具
  0
LINE
  8
_2-0_
  6
CONTINUOUS
 62
    4
 10
250.79190403532368
 20
261.6061746616316
 11
233.64102656172514
 21
246.01446786745112
  0
TEXT
  8
_2-0_
 62
    7
 10
214.37223212566045
 20
235.63234071246296
 40
8
 41
1
 50
0
  1
M3木ビス
  0
TEXT
  8
_2-0_
 62
    7
 10
318.49672951648716
 20
244.92270081907088
 40
6
 41
1
 50
0
  1
1000以下
  0
LINE
  8
_2-0_
  6
CONTINUOUS
 62
    7
 10
310.16504206097073
 20
260.46149170940561
 11
390.06070754784844
 21
260.46149170940561
  0
TEXT
  8
_2-0_
 62
    7
 10
318.49672951648716
 20
235.94479234450856
 40
6
 41
1
 50
0
  1
1001～1500以下
  0
TEXT
  8
_2-0_
 62
    7
 10
318.49672951648716
 20
227.01276120668223
 40
6
 41
1
 50
0
  1
1501以上
  0
TEXT
  8
_2-0_
 62
    7
 10
318.49672951648716
 20
218.27328861116925
 40
6
 41
1
 50
0
  1
2000以上
  0
LINE
  8
_2-0_
  6
CONTINUOUS
 62
    7
 10
310.16504206097073
 20
260.46149170940561
 11
310.16504206097073
 21
216.86149170940561
  0
LINE
  8
_2-0_
  6
CONTINUOUS
 62
    7
 10
310.16504206097073
 20
216.86149170940561
 11
390.06070754784844
 21
216.86149170940561
  0
LINE
  8
_2-0_
  6
CONTINUOUS
 62
    7
 10
390.06070754784844
 20
260.46149170940561
 11
390.06070754784844
 21
216.86149170940561
  0
LINE
  8
_2-0_
  6
CONTINUOUS
 62
    7
 10
310.16504206097073
 20
252.46149170940561
 11
390.06070754784844
 21
252.46149170940561
  0
LINE
  8
_2-0_
  6
CONTINUOUS
 62
    7
 10
310.16504206097073
 20
243.56149170940563
 11
390.06070754784844
 21
243.56149170940563
  0
LINE
  8
_2-0_
  6
CONTINUOUS
 62
    7
 10
310.16504206097073
 20
234.6614917094056
 11
390.06070754784844
 21
234.6614917094056
  0
LINE
  8
_2-0_
  6
CONTINUOUS
 62
    7
 10
310.16504206097073
 20
225.76149170940562
 11
390.06070754784844
 21
225.76149170940562
  0
LINE
  8
_2-0_
  6
CONTINUOUS
 62
    7
 10
371.54212690023223
 20
260.29822861244639
 11
371.54212690023223
 21
217.05517071062292
  0
TEXT
  8
_2-0_
 62
    7
 10
313.14928721173294
 20
253.74583226657987
 40
5
 41
1
 50
0
  1
アルミフレーム全長[mm]
  0
TEXT
  8
_2-0_
 62
    7
 10
314.1222825912489
 20
262.42562546763139
 40
5
 41
1
 50
0
  1
固定金具(CR)必要数
  0
TEXT
  8
_2-0_
 62
    7
 10
376.74021831358311
 20
245.13742161641355
 40
6
 41
1
 50
0
  1
2個
  0
TEXT
  8
_2-0_
 62
    7
 10
376.74021831358311
 20
236.02393267905586
 40
6
 41
1
 50
0
  1
3個
  0
TEXT
  8
_2-0_
 62
    7
 10
376.74021831358311
 20
226.48956623638827
 40
6
 41
1
 50
0
  1
4個
  0
TEXT
  8
_2-0_
 62
    7
 10
376.74021831358311
 20
218.1497461951796
 40
6
 41
1
 50
0
  1
5個
  0
TEXT
  8
_2-0_
 62
    7
 10
375.8144248849174
 20
253.74583226657987
 40
5
 41
1
 50
0
  1
個数
  0
TEXT
  8
_2-0_
 62
    7
 10
276.77075947987692
 20
282.62141807468834
 40
6
 41
1
 50
0
  1
　には付属しません。
  0
TEXT
  8
_1-0_
 62
    7
 10
630.2848730591902
 20
171.01534379108045
 40
7
 41
1
 50
0
  1
※定格表を参考にして最大連結長さを守って下さい。
  0
TEXT
  8
_0-0_1
 62
    7
 10
732.99305212032993
 20
61.945408162915385
 40
6
 41
1
 50
0
  1
2020年07月22日
  0
TEXT
  8
_2-0_
 62
    7
 10
276.77075947987692
 20
290.0568420433919
 40
6
 41
1
 50
0
  1
※マグネット仕様時(オプション)
  0
ENDSEC
  0
EOF
