  0
SECTION
  2
HEADER
  9
$ACADVER
  1
AC1009
  9
$INSBASE
 10
0
 20
0
 30
0
  9
$EXTMIN
 10
0
 20
0
  9
$EXTMAX
 10
840
 20
594
  9
$LIMMIN
 10
0
 20
0
  9
$LIMMAX
 10
840
 20
594
  9
$LTSCALE
 40
2
  0
ENDSEC
  0
SECTION
  2
TABLES
  0
TABLE
  2
LTYPE
 70
     9
  0
LTYPE
  2
CONTINUOUS
 70
    64
  3
実線
 72
    65
 73
     0
 40
0.0
  0
LTYPE
  2
DASHED1
 70
    64
  3
--  --  --  --  --  --  --  --  
 72
    65
 73
     2
 40
2.5
 49
1.25
 49
-1.25
  0
LTYPE
  2
DASHED2
 70
    64
  3
----    ----    ----    ----    
 72
    65
 73
     2
 40
5.0
 49
2.5
 49
-2.5
  0
LTYPE
  2
DASHED3
 70
    64
  3
------  ------  ------  ------  
 72
    65
 73
     2
 40
5.0
 49
3.75
 49
-1.25
  0
LTYPE
  2
CENTER1
 70
    64
  3
----- - ----- - ----- - ----- - 
 72
    65
 73
     4
 40
10.0
 49
6.25
 49
-1.25
 49
1.25
 49
-1.25
  0
LTYPE
  2
CENTER2
 70
    64
  3
----------  --  ----------  --  
 72
    65
 73
     4
 40
20.0
 49
12.5
 49
-2.5
 49
2.5
 49
-2.5
  0
LTYPE
  2
PHANTOM1
 70
    64
  3
--- - - --- - - --- - - --- - - 
 72
    65
 73
     6
 40
10.0
 49
3.25
 49
-1.25
 49
1.25
 49
-1.25
 49
1.25
 49
-1.25
  0
LTYPE
  2
PHANTOM2
 70
    64
  3
--------  -  -  --------  -  -  
 72
    65
 73
     6
 40
20.0
 49
10.0
 49
-2.5
 49
1.25
 49
-2.5
 49
1.25
 49
-2.5
  0
LTYPE
  2
DOT
 70
    64
  3
-   -   -   -   -   -   -   -   
 72
    65
 73
     2
 40
2.5
 49
0.625
 49
-1.875
  0
LTYPE
  2
DUMMY
 70
    64
  3
ダミー
 72
    65
 73
     0
 40
0.0
  0
LTYPE
  2
RAND1
 70
    64
  3
ランダム線1
 72
    65
 73
     4
 40
10.0
 49
1.0
 49
-2.0
 49
3.0
 49
-4.0
  0
LTYPE
  2
RAND2
 70
    64
  3
ランダム線2
 72
    65
 73
     4
 40
14.0
 49
2.0
 49
-3.0
 49
4.0
 49
-5.0
  0
LTYPE
  2
RAND3
 70
    64
  3
ランダム線3
 72
    65
 73
     4
 40
18.0
 49
3.0
 49
-4.0
 49
5.0
 49
-6.0
  0
LTYPE
  2
RAND4
 70
    64
  3
ランダム線4
 72
    65
 73
     4
 40
22.0
 49
4.0
 49
-5.0
 49
6.0
 49
-7.0
  0
LTYPE
  2
RAND5
 70
    64
  3
ランダム線5
 72
    65
 73
     4
 40
26.0
 49
5.0
 49
-6.0
 49
7.0
 49
-8.0
  0
LTYPE
  2
LONG1
 70
    64
  3
----------  --  ----------  --  
 72
    65
 73
     4
 40
40.0
 49
32.5
 49
-2.5
 49
2.5
 49
-2.5
  0
LTYPE
  2
LONG2
 70
    64
  3
--------  -  -  --------  -  -  
 72
    65
 73
     6
 40
40.0
 49
30.0
 49
-2.5
 49
1.25
 49
-2.5
 49
1.25
 49
-2.5
  0
LTYPE
  2
LONG3
 70
    64
  3
+++++++++++++++..+++++++++++++++
 72
    65
 73
     2
 40
40.0
 49
37.5
 49
-2.5
  0
LTYPE
  2
LONG4
 70
    64
  3
+++++++++++++++..+++++++++++++++
 72
    65
 73
     2
 40
80.0
 49
75.0
 49
-5.0
  0
LTYPE
  2
LONG5
 70
    64
  3
----------  --  ----------  --  
 72
    65
 73
     4
 40
60.0
 49
37.5
 49
-7.5
 49
7.5
 49
-7.5
  0
LTYPE
  2
dashed
 70
   64
  3
-------   -------------   ------
 72
   65
 73
    2
 40
7.5
 49
6
 49
-1.5
  0
LTYPE
  2
dashed_spaced
 70
   64
  3
----        --------        ----
 72
   65
 73
    2
 40
12
 49
6
 49
-6
  0
LTYPE
  2
long_dashed_dotted
 70
   64
  3
------------- --- --------------
 72
   65
 73
    4
 40
15.25
 49
12
 49
-1.5
 49
0.25
 49
-1.5
  0
LTYPE
  2
long_dashed_double-dotted
 70
   64
  3
----------- --- --- ------------
 72
   65
 73
    6
 40
17
 49
12
 49
-1.5
 49
0.25
 49
-1.5
 49
0.25
 49
-1.5
  0
LTYPE
  2
long_dashed_triplicate-dotted
 70
   64
  3
--------- --- --- --- ----------
 72
   65
 73
    8
 40
18.75
 49
12
 49
-1.5
 49
0.25
 49
-1.5
 49
0.25
 49
-1.5
 49
0.25
 49
-1.5
  0
LTYPE
  2
dotted
 70
   64
  3
   -       -       -       -    
 72
   65
 73
    2
 40
1.75
 49
0.25
 49
-1.5
  0
LTYPE
  2
chain
 70
   64
  3
-------------- -- --------------
 72
   65
 73
    4
 40
18.5
 49
12
 49
-1.5
 49
3.5
 49
-1.5
  0
LTYPE
  2
chain_double_dash
 70
   64
  3
------------ -- -- -------------
 72
   65
 73
    6
 40
23.5
 49
12
 49
-1.5
 49
3.5
 49
-1.5
 49
3.5
 49
-1.5
  0
LTYPE
  2
dashed_dotted
 70
   64
  3
-----------     -     ----------
 72
   65
 73
    4
 40
9.25
 49
6
 49
-1.5
 49
0.25
 49
-1.5
  0
LTYPE
  2
double-dashed_dotted
 70
   64
  3
------   -----------   -   -----
 72
   65
 73
    6
 40
16.75
 49
6
 49
-1.5
 49
6
 49
-1.5
 49
0.25
 49
-1.5
  0
LTYPE
  2
dashed_double-dotted
 70
   64
  3
---------    -    -    ---------
 72
   65
 73
    6
 40
11
 49
6
 49
-1.5
 49
0.25
 49
-1.5
 49
0.25
 49
-1.5
  0
LTYPE
  2
double-dashed_double-dotted
 70
   64
  3
-----   ---------   -   -   ----
 72
   65
 73
    8
 40
18.5
 49
6
 49
-1.5
 49
6
 49
-1.5
 49
0.25
 49
-1.5
 49
0.25
 49
-1.5
  0
LTYPE
  2
dashed_triplicate-dotted
 70
   64
  3
-------    -    -    -    ------
 72
   65
 73
    8
 40
12.75
 49
6
 49
-1.5
 49
0.25
 49
-1.5
 49
0.25
 49
-1.5
 49
0.25
 49
-1.5
  0
LTYPE
  2
double-dashed_triplicate-dotted
 70
   64
  3
-----  ---------  -  -  -  -----
 72
   65
 73
   10
 40
20.25
 49
6
 49
-1.5
 49
6
 49
-1.5
 49
0.25
 49
-1.5
 49
0.25
 49
-1.5
 49
0.25
 49
-1.5
  0
LTYPE
  2
undefined
 70
   64
  3
--------------------------------
 72
   65
 73
    0
 40
0
  0
LTYPE
  2
_
 70
   64
  3
                                
 72
   65
 73
    0
 40
0
  0
LTYPE
  2
__18
 70
   64
  3
                                
 72
   65
 73
    0
 40
0
  0
LTYPE
  2
__19
 70
   64
  3
                                
 72
   65
 73
    0
 40
0
  0
LTYPE
  2
__20
 70
   64
  3
                                
 72
   65
 73
    0
 40
0
  0
LTYPE
  2
__21
 70
   64
  3
                                
 72
   65
 73
    0
 40
0
  0
LTYPE
  2
__22
 70
   64
  3
                                
 72
   65
 73
    0
 40
0
  0
LTYPE
  2
__23
 70
   64
  3
                                
 72
   65
 73
    0
 40
0
  0
LTYPE
  2
__24
 70
   64
  3
                                
 72
   65
 73
    0
 40
0
  0
LTYPE
  2
__25
 70
   64
  3
                                
 72
   65
 73
    0
 40
0
  0
LTYPE
  2
__26
 70
   64
  3
                                
 72
   65
 73
    0
 40
0
  0
LTYPE
  2
__27
 70
   64
  3
                                
 72
   65
 73
    0
 40
0
  0
LTYPE
  2
__28
 70
   64
  3
                                
 72
   65
 73
    0
 40
0
  0
LTYPE
  2
__29
 70
   64
  3
                                
 72
   65
 73
    0
 40
0
  0
LTYPE
  2
__30
 70
   64
  3
                                
 72
   65
 73
    0
 40
0
  0
LTYPE
  2
__31
 70
   64
  3
                                
 72
   65
 73
    0
 40
0
  0
LTYPE
  2
__32
 70
   64
  3
                                
 72
   65
 73
    0
 40
0
  0
ENDTAB
  0
TABLE
  2
STYLE
  5
3
100
AcDbSymbolTable
 70
     1
  0
STYLE
  5
10
100
AcDbSymbolTableRecord
100
AcDbTextStyleTableRecord
  2
STANDARD
 70
     0
 40
0.0
 41
1.0
 50
0.0
 71
     0
 42
0.2
  3
txt
  4
bigfont.shx
  0
STYLE
  5
26
100
AcDbSymbolTableRecord
100
AcDbTextStyleTableRecord
  2
TATEGAKI
 70
    68
 40
0.0
 41
1.0
 50
0.0
 71
     0
 42
1.0
  3
txt
  4
bigfont.shx
  0
ENDTAB
  0
TABLE
  2
LAYER
 70
    6
  0
LAYER
  2
_0-0_1
 70
   64
 62
    7
  6
CONTINUOUS
  0
LAYER
  2
_1-0_
 70
   64
 62
    7
  6
CONTINUOUS
  0
LAYER
  2
_1-6_23
 70
   64
 62
    7
  6
CONTINUOUS
  0
LAYER
  2
_2-0_
 70
   64
 62
    7
  6
CONTINUOUS
  0
LAYER
  2
_3-0_
 70
   64
 62
    7
  6
CONTINUOUS
  0
LAYER
  2
ADD_LINE
 70
   64
 62
    7
  6
CONTINUOUS
  0
ENDTAB
  0
ENDSEC
  0
SECTION
  2
BLOCKS
  0
ENDSEC
  0
SECTION
  2
ENTITIES
  0
LINE
  8
_1-6_23
  6
CONTINUOUS
 62
    7
 10
818.24613889818374
 20
116.81302687887609
 11
628.2461548981837
 21
116.81302687887609
  0
TEXT
  8
_1-0_
 62
    7
 10
653.34078509162612
 20
118.00135445619003
 40
7.0000000000000284
 41
0.9999999999999954
 50
0
  1
接続コネクタ（出力側）
  0
TEXT
  8
_1-0_
 62
    7
 10
742.02472094891823
 20
116.9032110523251
 40
3.9999999999999432
 41
1.0000000000000142
 50
0
  1
リード線：AWG22
  0
TEXT
  8
_1-0_
 62
    7
 10
742.16641687199751
 20
122.14596020626118
 40
4.0000000000000284
 41
0.7999999999999938
 50
0
  1
日本圧着端子SMP-02V-NC相当（PA66）
  0
TEXT
  8
_1-0_
 62
    7
 10
805.87829233983643
 20
118.0898323244858
 40
8
 41
1
 50
0
  1
1
  0
TEXT
  8
_1-0_
 62
    7
 10
633.85386131502855
 20
117.97888158264055
 40
7
 41
1
 50
0
  1
④
  0
LINE
  8
_1-6_23
  6
CONTINUOUS
 62
    7
 10
818.24613889818374
 20
96.813026878876087
 11
628.2461548981837
 21
96.813026878876087
  0
LINE
  8
_1-6_23
  6
CONTINUOUS
 62
    7
 10
818.24613889818374
 20
106.81302687887609
 11
628.2461548981837
 21
106.81302687887609
  0
LINE
  8
_0-0_1
  6
CONTINUOUS
 62
    7
 10
103.07751563907476
 20
514.41951494752732
 11
63.510081428548517
 21
514.41951494752732
  0
TEXT
  8
_0-0_1
 62
    7
 10
63.953847392080775
 20
515.04673914601426
 40
9.9999999999999716
 41
1.0000000000000013
 50
0
  1
◆外形図
  0
TEXT
  8
_0-0_1
 62
    7
 10
64.00822186560606
 20
184.74056006602689
 40
10
 41
1.0000000000000013
 50
0
  1
◆型式内容
  0
LINE
  8
_0-0_1
  6
CONTINUOUS
 62
    7
 10
64.5684695864432
 20
183.92324281811977
 11
115.37110116539054
 21
183.92324281811977
  0
LINE
  8
_0-0_1
  6
CONTINUOUS
 62
    7
 10
58.250197536428061
 20
196.81301095214616
 11
818.24613889818363
 21
196.81301095214616
  0
LINE
  8
_0-0_1
  6
CONTINUOUS
 62
    7
 10
658.29444089818355
 20
510.01928487887608
 11
658.29444089818344
 21
351.13943188292455
  0
LINE
  8
_0-0_1
  6
CONTINUOUS
 62
    7
 10
58.248172549031608
 20
351.13943188292455
 11
818.24613889818363
 21
351.13943188292455
  0
LINE
  8
_0-0_1
  6
CONTINUOUS
 62
    7
 10
588.14017489818366
 20
519.70761887887602
 11
583.64019089818362
 21
510.70761487887603
  0
LINE
  8
_0-0_1
  6
CONTINUOUS
 62
    7
 10
588.14017489818366
 20
519.70761887887602
 11
592.64017489818366
 21
510.70761487887603
  0
LINE
  8
_0-0_1
  6
CONTINUOUS
 62
    7
 10
578.29442489818371
 20
520.01924487887607
 11
578.29442489818371
 21
510.01928487887614
  0
LINE
  8
_0-0_1
  6
CONTINUOUS
 62
    7
 10
598.29444089818367
 20
520.01924487887607
 11
598.29444089818367
 21
510.01928487887614
  0
LINE
  8
_0-0_1
  6
CONTINUOUS
 62
    7
 10
658.29444089818367
 20
520.01924487887607
 11
658.29444089818367
 21
510.01928487887614
  0
LINE
  8
_0-0_1
  6
CONTINUOUS
 62
    7
 10
578.29442489818371
 20
530.81302887887614
 11
578.29442489818371
 21
520.01924487887607
  0
LINE
  8
_0-0_1
  6
CONTINUOUS
 62
    7
 10
598.29444089818367
 20
530.81302887887614
 11
598.29444089818367
 21
520.01924487887607
  0
LINE
  8
_0-0_1
  6
CONTINUOUS
 62
    7
 10
658.29444089818367
 20
530.81302887887614
 11
658.29444089818367
 21
520.01924487887607
  0
LINE
  8
_0-0_1
  6
CONTINUOUS
 62
    7
 10
778.29444089818367
 20
530.81302887887614
 11
778.29444089818367
 21
510.01928487887614
  0
LINE
  8
_0-0_1
  6
CONTINUOUS
 62
    7
 10
798.29444089818355
 20
530.81302887887614
 11
798.29444089818355
 21
510.01928487887614
  0
LINE
  8
_0-0_1
  6
CONTINUOUS
 62
    7
 10
818.24613889818374
 20
520.01924487887607
 11
578.29445689818363
 21
520.01924487887607
  0
LINE
  8
_0-0_1
  6
CONTINUOUS
 62
    7
 10
578.29442489818371
 20
510.01928487887614
 11
818.24613889818374
 21
510.01928487887614
  0
TEXT
  8
_0-0_1
 62
    7
 10
581.92572491889473
 20
522.33613221977896
 40
6
 41
1
 50
0
  1
Ｎｏ
  0
TEXT
  8
_0-0_1
 62
    7
 10
612.62840636708427
 20
522.43485466816537
 40
6
 41
1.0000000000000007
 50
0
  1
年　月　日
  0
TEXT
  8
_0-0_1
 62
    7
 10
694.07442628591548
 20
522.2867709955857
 40
6
 41
1.0000000000000011
 50
0
  1
訂　正　記　事
  0
TEXT
  8
_0-0_1
 62
    7
 10
780.90081964180854
 20
521.01571947261004
 40
8.0000000000000284
 41
0.9999999999999973
 50
0
  1
担当
  0
TEXT
  8
_0-0_1
 62
    7
 10
800.250419525555
 20
521.11444192099657
 40
8
 41
1.0000000000000009
 50
0
  1
検印
  0
TEXT
  8
_0-0_1
 62
    7
 10
586.18730158730159
 20
510.7492063492063
 40
8
 41
1
 50
0
  1
1
  0
LINE
  8
_0-0_1
  6
CONTINUOUS
 62
    7
 10
583.64019089818362
 20
510.70761487887603
 11
592.64017489818366
 21
510.70761487887603
  0
LINE
  8
_0-0_1
  6
CONTINUOUS
 62
    7
 10
58.246204898183635
 20
530.81302887887614
 11
818.24613889818374
 21
530.81302887887614
  0
LINE
  8
_0-0_1
  6
CONTINUOUS
 62
    7
 10
58.252538898183673
 20
16.813014878876174
 11
58.246204898183635
 21
530.81302887887614
  0
LINE
  8
_0-0_1
  6
CONTINUOUS
 62
    7
 10
818.24613889818374
 20
16.813014878876174
 11
58.246204898183635
 21
16.813014878876174
  0
LINE
  8
_0-0_1
  6
CONTINUOUS
 62
    7
 10
818.24613889818374
 20
530.81302887887614
 11
818.24613889818374
 21
16.813014878876174
  0
LINE
  8
_0-0_1
  6
CONTINUOUS
 62
    7
 10
728.24613889818374
 20
56.813022878876097
 11
728.24613889818374
 21
16.813014878876174
  0
LINE
  8
_0-0_1
  6
CONTINUOUS
 62
    7
 10
728.24613889818374
 20
76.813026878876087
 11
728.24613889818374
 21
56.813022878876097
  0
LINE
  8
_0-0_1
  6
CONTINUOUS
 62
    7
 10
718.2461548981837
 20
56.813022878876097
 11
718.2461548981837
 21
16.813014878876174
  0
LINE
  8
_0-0_1
  6
CONTINUOUS
 62
    7
 10
648.29209689818367
 20
49.37143087887614
 11
648.29209689818367
 21
43.371436878876125
  0
LINE
  8
_0-0_1
  6
CONTINUOUS
 62
    7
 10
648.29209689818367
 20
49.37143087887614
 11
662.29209289818368
 21
52.371428878876088
  0
LINE
  8
_0-0_1
  6
CONTINUOUS
 62
    7
 10
662.29209289818368
 20
52.371428878876088
 11
662.29209289818368
 21
40.371426878876093
  0
LINE
  8
_0-0_1
  6
CONTINUOUS
 62
    7
 10
648.29209689818367
 20
43.371436878876125
 11
662.29209289818368
 21
40.371426878876093
  0
LINE
  8
_0-0_1
  6
CENTER1
 62
    7
 10
666.29205689818377
 20
46.371432878876135
 11
630.2920868981837
 21
46.371432878876135
  0
LINE
  8
_0-0_1
  6
CENTER1
 62
    7
 10
638.29206489818375
 20
54.37143487887613
 11
638.29206489818375
 21
38.371428878876088
  0
LINE
  8
_0-0_1
  6
CONTINUOUS
 62
    7
 10
718.2461548981837
 20
76.813026878876087
 11
718.2461548981837
 21
16.813014878876174
  0
LINE
  8
_0-0_1
  6
CONTINUOUS
 62
    7
 10
778.2461548981837
 20
76.813026878876087
 11
778.2461548981837
 21
56.813022878876097
  0
LINE
  8
_0-0_1
  6
CONTINUOUS
 62
    7
 10
788.24623889818372
 20
76.813026878876087
 11
788.24623889818372
 21
56.813022878876097
  0
LINE
  8
_0-0_1
  6
CONTINUOUS
 62
    7
 10
668.24618889818362
 20
56.813022878876097
 11
668.24618889818362
 21
36.813016878876169
  0
LINE
  8
_0-0_1
  6
CONTINUOUS
 62
    7
 10
678.24617289818366
 20
56.813022878876097
 11
678.24617289818366
 21
36.813016878876169
  0
LINE
  8
_0-0_1
  6
CONTINUOUS
 62
    7
 10
698.24623889818372
 20
76.813026878876087
 11
698.24623889818372
 21
56.813022878876097
  0
LINE
  8
_0-0_1
  6
CONTINUOUS
 62
    7
 10
688.2461548981837
 20
76.813026878876087
 11
688.2461548981837
 21
56.813022878876097
  0
LINE
  8
_0-0_1
  6
CONTINUOUS
 62
    7
 10
668.24618889818362
 20
76.813026878876087
 11
668.24618889818362
 21
56.813022878876097
  0
LINE
  8
_0-0_1
  6
CONTINUOUS
 62
    7
 10
658.2461548981837
 20
76.813026878876087
 11
658.2461548981837
 21
56.813022878876097
  0
LINE
  8
_0-0_1
  6
CONTINUOUS
 62
    7
 10
638.24613889818374
 20
76.813026878876087
 11
638.24613889818374
 21
56.813022878876097
  0
LINE
  8
_0-0_1
  6
CONTINUOUS
 62
    7
 10
818.24613889818374
 20
76.813026878876087
 11
628.2461548981837
 21
76.813026878876087
  0
LINE
  8
_0-0_1
  6
CONTINUOUS
 62
    7
 10
818.24613889818374
 20
56.813022878876097
 11
628.2461548981837
 21
56.813022878876097
  0
LINE
  8
_0-0_1
  6
CONTINUOUS
 62
    7
 10
818.24613889818374
 20
36.813016878876169
 11
628.2461548981837
 21
36.813016878876169
  0
CIRCLE
  8
_0-0_1
  6
CONTINUOUS
 62
    7
 10
638.29206489818375
 20
46.371432878876135
 40
6
  0
CIRCLE
  8
_0-0_1
  6
CONTINUOUS
 62
    7
 10
638.29206489818375
 20
46.371432878876135
 40
3
  0
LINE
  8
_0-0_1
  6
CONTINUOUS
 62
    7
 10
818.24613889818374
 20
86.813026878876087
 11
628.2461548981837
 21
86.813026878876087
  0
LINE
  8
_0-0_1
  6
CONTINUOUS
 62
    7
 10
668.24618889818362
 20
76.813026878876087
 11
668.24618889818362
 21
86.813026878876087
  0
TEXT
  8
_0-0_1
 62
    7
 10
639.72501689818364
 20
77.604776878876123
 40
8
 41
1.0000000000000009
 50
0
  1
出図
  0
LINE
  8
_0-0_1
  6
CONTINUOUS
 62
    7
 10
728.2461548981837
 20
76.813026878876087
 11
728.2461548981837
 21
86.813026878876087
  0
TEXT
  8
_0-0_1
 62
    7
 10
691.57108889818369
 20
78.605196878876143
 40
6
 41
2
 50
0
  1
.   .
  0
LINE
  8
_0-0_1
  6
CONTINUOUS
 62
    7
 10
798.24613889818363
 20
86.813026878876087
 11
798.24613889818363
 21
76.813026878876087
  0
TEXT
  8
_0-0_1
 62
    7
 10
632.96866889818375
 20
72.802968878876129
 40
6
 41
1
 50
0
  1
設計
  7
TATEGAKI
  0
TEXT
  8
_0-0_1
 62
    7
 10
662.87419089818377
 20
72.802968878876129
 40
6
 41
1
 50
0
  1
製図
  7
TATEGAKI
  0
TEXT
  8
_0-0_1
 62
    7
 10
692.60065489818362
 20
72.802968878876129
 40
6
 41
1
 50
0
  1
検図
  7
TATEGAKI
  0
TEXT
  8
_0-0_1
 62
    7
 10
723.30341689818374
 20
72.965028878876126
 40
5.9999999999999822
 41
1.0000000000000029
 50
0
  1
作図
  7
TATEGAKI
  0
TEXT
  8
_0-0_1
 62
    7
 10
783.29835889818378
 20
72.840602878876098
 40
6
 41
1
 50
0
  1
尺度
  7
TATEGAKI
  0
TEXT
  8
_0-0_1
 62
    7
 10
673.51938089818373
 20
53.368536878876171
 40
6
 41
1
 50
0
  1
材質
  7
TATEGAKI
  0
TEXT
  8
_0-0_1
 62
    7
 10
723.27120889818366
 20
53.368536878876171
 40
6
 41
1
 50
0
  1
品名
  7
TATEGAKI
  0
TEXT
  8
_0-0_1
 62
    7
 10
723.69572689818369
 20
33.065162878876151
 40
6
 41
1
 50
0
  1
図番
  7
TATEGAKI
  0
TEXT
  8
_0-0_1
 62
    7
 10
695.22081778077472
 20
42.37764287887606
 40
8.0000000000000568
 41
0.9999999999999964
 50
0
  1
-
  0
TEXT
  8
_0-0_1
 62
    7
 10
796.43533678380822
 20
63.037782337899785
 40
6
 41
1
 50
0
  1
1：2
  0
TEXT
  8
_0-0_1
 62
    7
 10
641.53094567047697
 20
21.576153643551322
 40
8
 41
0.9999999999999994
 50
0
  1
ＦＫＫ株式会社
  0
LINE
  8
_0-0_1
  6
CONTINUOUS
 62
    7
 10
628.2461548981837
 20
86.425776182987988
 11
628.2461548981837
 21
16.813014878876174
  0
TEXT
  8
_0-0_1
 62
    7
 10
617.42990388038447
 20
511.74724101103595
 40
6
 41
1
 50
0
  1
.　　.
  0
LINE
  8
_1-0_
  6
CONTINUOUS
 62
    7
 10
504.01174031704562
 20
120.74284121895695
 11
504.01174031704562
 21
40.742841218956983
  0
LINE
  8
_1-0_
  6
CONTINUOUS
 62
    7
 10
447.79615534399693
 20
120.74284121895695
 11
447.79615534399693
 21
40.742841218956983
  0
TEXT
  8
_1-0_
 62
    7
 10
453.15057401006936
 20
106.67824631890275
 40
11.199999999999989
 41
1.0000000000000004
 50
0
  1
入力電流
  0
LINE
  8
_1-0_
  6
CONTINUOUS
 62
    7
 10
392.31873320809285
 20
120.74284121895695
 11
392.31873320809285
 21
40.742841218956983
  0
TEXT
  8
_1-0_
 62
    7
 10
397.71153174739413
 20
106.67824631890275
 40
11.199999999999989
 41
1.0000000000000009
 50
0
  1
入力電力
  0
TEXT
  8
_1-0_
 62
    7
 10
369.16020923789614
 20
106.40058943281585
 40
11.200000000000017
 41
0.9999999999999976
 50
0
  1
Ra
  0
LINE
  8
_1-0_
  6
CONTINUOUS
 62
    7
 10
353.47160391403065
 20
120.74284121895695
 11
353.47160391403065
 21
40.742841218956983
  0
LINE
  8
_1-0_
  6
CONTINUOUS
 62
    7
 10
244.50583838848092
 20
120.74284121895695
 11
244.50583838848092
 21
40.742841218956983
  0
LINE
  8
_1-0_
  6
CONTINUOUS
 62
    7
 10
74.72867713211275
 20
88.742841218956983
 11
353.46282380971599
 21
88.742841218956983
  0
LINE
  8
_1-0_
  6
CONTINUOUS
 62
    7
 10
392.38697932278154
 20
88.742841218956983
 11
559.90037099802862
 21
88.742841218956983
  0
LINE
  8
_1-0_
  6
CONTINUOUS
 62
    7
 10
74.72867713211275
 20
72.742841218956983
 11
353.46282380971599
 21
72.742841218956983
  0
LINE
  8
_1-0_
  6
CONTINUOUS
 62
    7
 10
392.27480596395429
 20
72.742841218956983
 11
559.90037099802862
 21
72.742841218956983
  0
LINE
  8
_1-0_
  6
CONTINUOUS
 62
    7
 10
74.72867713211275
 20
56.742841218957039
 11
353.68717052737048
 21
56.742841218957039
  0
LINE
  8
_1-0_
  6
CONTINUOUS
 62
    7
 10
392.49915268160885
 20
56.742841218957039
 11
559.90037099802862
 21
56.742841218957039
  0
LINE
  8
_1-0_
  6
CONTINUOUS
 62
    7
 10
74.72867713211275
 20
120.74284121895695
 11
74.72867713211275
 21
40.742841218956983
  0
LINE
  8
_1-0_
  6
CONTINUOUS
 62
    7
 10
74.72867713211275
 20
40.742841218956983
 11
559.90037099802862
 21
40.742841218956983
  0
LINE
  8
_1-0_
  6
CONTINUOUS
 62
    7
 10
74.72867713211275
 20
120.74284121895695
 11
559.90037099802862
 21
120.74284121895695
  0
LINE
  8
_1-0_
  6
CONTINUOUS
 62
    7
 10
559.90037099802862
 20
120.74284121895695
 11
559.90037099802862
 21
40.742841218956983
  0
TEXT
  8
_1-0_
 62
    7
 10
75.401409424706173
 20
122.12406751117976
 40
12
 41
0.9999999999999994
 50
0
  1
◆ 代表特性　定格入力DC24V　LXSW使用
  0
TEXT
  8
_1-0_
 62
    7
 10
107.79151985306396
 20
106.55826265958285
 40
11.199999999999989
 41
0.9999999999999995
 50
0
  1
型式
  0
TEXT
  8
_1-0_
 62
    7
 10
515.29900074665636
 20
110.29331556963569
 40
9.9999999999999716
 41
1.0000000000000031
 50
0
  1
全光束
  0
TEXT
  8
_1-0_
 62
    7
 10
520.32757217522783
 20
104.42664890296905
 40
6
 41
1.0000000000000007
 50
0
  1
N:5000K
  0
LINE
  8
_1-0_
  6
CONTINUOUS
 62
    7
 10
559.90037099802862
 20
120.74284121895695
 11
614.1942388418945
 21
120.74284121895695
  0
LINE
  8
_1-0_
  6
CONTINUOUS
 62
    7
 10
614.1942388418945
 20
120.74284121895695
 11
614.1942388418945
 21
40.742841218956983
  0
LINE
  8
_1-0_
  6
CONTINUOUS
 62
    7
 10
559.90037099802862
 20
40.742841218956983
 11
614.1942388418945
 21
40.742841218956983
  0
TEXT
  8
_1-0_
 62
    7
 10
560.27677852443412
 20
108.61712509344522
 40
8
 41
1
 50
0
  1
最大連結長さ
  0
LINE
  8
_1-0_
  6
CONTINUOUS
 62
    7
 10
559.90037099802862
 20
104.74284121895693
 11
613.63550868316429
 21
104.74284121895693
  0
LINE
  8
_1-0_
  6
CONTINUOUS
 62
    7
 10
299.55931820697384
 20
120.97902985534995
 11
299.55931820697384
 21
40.742841218956983
  0
TEXT
  8
_1-0_
 62
    7
 10
301.23550868316431
 20
105.70707218339226
 40
11.200000000000017
 41
0.9999999999999965
 50
0
  1
LED PKG数
  0
TEXT
  8
_1-0_
 62
    7
 10
201.19081194543148
 20
106.52501931124348
 40
11.200000000000017
 41
0.9999999999999965
 50
0
  1
全長
  0
TEXT
  8
_1-0_
 62
    7
 10
262.17950234085856
 20
106.15650758679982
 40
11.200000000000017
 41
0.9999999999999965
 50
0
  1
重量
  0
TEXT
  8
_1-0_
 62
    7
 10
599.89540607346999
 20
68.388553664873797
 40
10
 41
1
 50
0
  1
㎜
  0
LINE
  8
_1-0_
  6
CONTINUOUS
 62
    7
 10
178.538048231913
 20
120.74284121895695
 11
178.538048231913
 21
40.742841218956983
  0
TEXT
  8
_1-0_
 62
    7
 10
653.34078509162612
 20
108.01179187909565
 40
6.9999999999998579
 41
1.0000000000000202
 50
0
  1
接続コネクタ（入力側）
  0
TEXT
  8
_1-0_
 62
    7
 10
660.75977382131794
 20
97.614700049353502
 40
8
 41
1
 50
0
  1
アルミフレーム
  0
TEXT
  8
_1-0_
 62
    7
 10
805.75413008234091
 20
87.88736318868331
 40
8
 41
1
 50
0
  1
1
  0
TEXT
  8
_1-0_
 62
    7
 10
742.30811279507691
 20
111.94385374454765
 40
3.9999999999999716
 41
0.8000000000000047
 50
0
  1
日本圧着端子SMR-02V-N相当（PA66)
  0
TEXT
  8
_1-0_
 62
    7
 10
742.13067329221735
 20
107.32069652201662
 40
3.9999999999999432
 41
1.0000000000000142
 50
0
  1
リード線：AWG22
  0
TEXT
  8
_1-0_
 62
    7
 10
806.06453572607984
 20
107.47395930861279
 40
8
 41
1
 50
0
  1
1
  0
TEXT
  8
_1-0_
 62
    7
 10
805.78517064671473
 20
97.69618153083502
 40
8
 41
1
 50
0
  1
1
  0
TEXT
  8
_1-0_
 62
    7
 10
742.6056585949807
 20
97.343095111081908
 40
4
 41
1
 50
0
  1
アルミ : A6063SS-T5
  0
TEXT
  8
_1-0_
 62
    7
 10
633.85386131502855
 20
107.90919184722145
 40
7
 41
1
 50
0
  1
③
  0
TEXT
  8
_1-0_
 62
    7
 10
633.85386131502855
 20
97.98758578438202
 40
7
 41
1
 50
0
  1
②
  0
TEXT
  8
_1-0_
 62
    7
 10
633.85386131502855
 20
87.917896048962916
 40
7
 41
1
 50
0
  1
①
  0
TEXT
  8
_1-0_
 62
    7
 10
294.25623178722026
 20
133.14240434094671
 40
10
 41
0.9999999999999996
 50
0
  1
④　LED発光色
  0
TEXT
  8
_1-0_
 62
    7
 10
412.70702543801389
 20
171.69478529332767
 40
10
 41
0.9999999999999996
 50
0
  1
⑤　電源コネクター仕様
  0
TEXT
  8
_1-0_
 62
    7
 10
294.12481910043596
 20
171.10387500935258
 40
10
 41
1.0000000000000004
 50
0
  1
①　LED基板
  0
TEXT
  8
_1-0_
 62
    7
 10
294.14611656961574
 20
158.7262297292009
 40
10
 41
0.9999999999999996
 50
0
  1
②　アルミフレーム
  0
TEXT
  8
_1-0_
 62
    7
 10
74.497021761917438
 20
28.309060472902274
 40
7
 41
1
 50
0
  1
発光色  D:6500K / DN:5700K / N:5000K / NW:4500K / W:4000K 
  0
TEXT
  8
_1-0_
 62
    7
 10
310.4706480766996
 20
28.872036057221408
 40
7
 41
1
 50
0
  1
全光束比率  D:6500K(97%) / DN:5700K(99%) / N:5000K(100%) / NW:4500K(99%) / W:4000K(97%)
  0
TEXT
  8
_1-0_
 62
    7
 10
310.82875115332115
 20
20.350970017636655
 40
7
 41
1
 50
0
  1
N色基準
  0
TEXT
  8
_1-0_
 62
    7
 10
352.51622910746579
 20
20.009523809523785
 40
7
 41
1
 50
0
  1
WW:3500K(93%) / L30:3000K(93%) / L27:2700K(90%) / L25:2500K(77%)
  0
LINE
  8
_1-0_
  6
CONTINUOUS
 62
    7
 10
74.72867713211275
 20
104.74284121895693
 11
559.90037099802862
 21
104.74284121895693
  0
TEXT
  8
_1-0_
 62
    7
 10
294.03506776605616
 20
145.79531439385673
 40
10
 41
0.9999999999999996
 50
0
  1
③　全長
  0
TEXT
  8
_3-0_
 62
    7
 10
713.61850223267709
 20
495.74857320881665
 40
8
 41
1
 50
0
  1
A-A 断面図
  0
TEXT
  8
_3-0_
 62
    7
 10
714.45209333690434
 20
484.48808571258246
 40
8
 41
1
 50
0
  1
S = 2 : 1
  0
TEXT
  8
_2-0_
 62
    7
 10
305.82445051955642
 20
490.17441807666728
 40
12
 41
1
 50
0
  1
①
  0
TEXT
  8
_2-0_
 62
    7
 10
87.382855914614083
 20
493.31746260335711
 40
12
 41
1
 50
0
  1
③
  0
TEXT
  8
_1-0_
 62
    7
 10
537.86636661370767
 20
90.306605431671557
 40
9.9999999999999716
 41
1.0000000000000029
 50
0
  1
[lm]
  0
TEXT
  8
_1-0_
 62
    7
 10
485.18375241914634
 20
90.889041367950682
 40
10
 41
1
 50
0
  1
[A]
  0
TEXT
  8
_1-0_
 62
    7
 10
429.20392727609288
 20
90.601939964998024
 40
9.9999999999999716
 41
1.0000000000000029
 50
0
  1
[W]
  0
TEXT
  8
_1-0_
 62
    7
 10
358.09039768200466
 20
66.883920863165457
 40
10.000000000000057
 41
0.9999999999999943
 50
0
  1
80以上
  0
TEXT
  8
_1-0_
 62
    7
 10
224.89101529400179
 20
91.543395511064915
 40
8
 41
0.9999999999999994
 50
0
  1
[mm]
  0
TEXT
  8
_1-0_
 62
    7
 10
336.79362656415481
 20
91.912190637458053
 40
9.9999999999999716
 41
1.0000000000000029
 50
0
  1
個
  0
TEXT
  8
_1-0_
 62
    7
 10
337.11955249008071
 20
76.267746193013551
 40
9.9999999999999716
 41
1.0000000000000029
 50
0
  1
個
  0
TEXT
  8
_1-0_
 62
    7
 10
337.11955249008071
 20
60.623301748569162
 40
9.9999999999999716
 41
1.0000000000000029
 50
0
  1
個
  0
TEXT
  8
_1-0_
 62
    7
 10
337.55412039131528
 20
44.078680937281689
 40
9.9999999999999716
 41
1.0000000000000029
 50
0
  1
個
  0
TEXT
  8
_1-0_
 62
    7
 10
429.35422616593058
 20
74.069062082845932
 40
10
 41
1.0000000000000002
 50
0
  1
[W]
  0
TEXT
  8
_1-0_
 62
    7
 10
429.26655181352527
 20
58.350303187315177
 40
10
 41
1
 50
0
  1
[W]
  0
TEXT
  8
_1-0_
 62
    7
 10
429.59219940817371
 20
42.568919754351924
 40
10
 41
1.0000000000000002
 50
0
  1
[W]
  0
TEXT
  8
_1-0_
 62
    7
 10
485.18375241914634
 20
75.626631008841997
 40
10
 41
1
 50
0
  1
[A]
  0
TEXT
  8
_1-0_
 62
    7
 10
485.18375241914634
 20
59.982186564397495
 40
10
 41
1
 50
0
  1
[A]
  0
TEXT
  8
_1-0_
 62
    7
 10
485.18375241914634
 20
44.337742119953106
 40
10
 41
1
 50
0
  1
[A]
  0
TEXT
  8
_1-0_
 62
    7
 10
284.94696139066633
 20
91.039774538722014
 40
11.200000000000017
 41
0.9999999999999965
 50
0
  1
ｇ
  0
TEXT
  8
_1-0_
 62
    7
 10
284.94696139066633
 20
74.836599935547412
 40
11.200000000000017
 41
0.9999999999999965
 50
0
  1
ｇ
  0
TEXT
  8
_1-0_
 62
    7
 10
284.94696139066633
 20
59.192155491102909
 40
11.200000000000017
 41
0.9999999999999965
 50
0
  1
ｇ
  0
TEXT
  8
_1-0_
 62
    7
 10
284.94696139066633
 20
43.268345967293413
 40
11.200000000000017
 41
0.9999999999999965
 50
0
  1
ｇ
  0
TEXT
  8
_1-0_
 62
    7
 10
537.86636661370767
 20
74.202506038629991
 40
10
 41
1.0000000000000007
 50
0
  1
[lm]
  0
TEXT
  8
_1-0_
 62
    7
 10
537.86636661370767
 20
57.765218382284075
 40
10
 41
1.0000000000000007
 50
0
  1
[lm]
  0
TEXT
  8
_1-0_
 62
    7
 10
537.86636661370767
 20
42.216432761416314
 40
10
 41
1
 50
0
  1
[lm]
  0
TEXT
  8
_1-0_
 62
    7
 10
202.86050819740629
 20
91.718650206184833
 40
10
 41
1
 50
0
  1
505
  0
TEXT
  8
_1-0_
 62
    7
 10
316.47880652421293
 20
91.638268598982819
 40
10
 41
1
 50
0
  1
108
  0
TEXT
  8
_1-0_
 62
    7
 10
316.47880652421293
 20
76.111268252535211
 40
10
 41
1
 50
0
  1
216
  0
TEXT
  8
_1-0_
 62
    7
 10
316.47880652421293
 20
60.516575148584167
 40
10
 41
1
 50
0
  1
324
  0
TEXT
  8
_1-0_
 62
    7
 10
316.47880652421293
 20
44.2721031653019
 40
10
 41
1
 50
0
  1
432
  0
TEXT
  8
_1-0_
 62
    7
 10
404.82992590094022
 20
76.111268252535154
 40
10
 41
1
 50
0
  1
15.5
  0
TEXT
  8
_1-0_
 62
    7
 10
404.82992590094022
 20
60.516575148584167
 40
10
 41
1
 50
0
  1
23.2
  0
TEXT
  8
_1-0_
 62
    7
 10
404.82992590094022
 20
44.272103165301843
 40
10
 41
1
 50
0
  1
31.0
  0
TEXT
  8
_1-0_
 62
    7
 10
409.70326749592493
 20
91.638268598982819
 40
10
 41
1
 50
0
  1
7.7
  0
TEXT
  8
_1-0_
 62
    7
 10
460.88023996518666
 20
91.638268598982819
 40
10
 41
1
 50
0
  1
0.32
  0
TEXT
  8
_1-0_
 62
    7
 10
460.88023996518666
 20
76.111268252535154
 40
10
 41
1
 50
0
  1
0.65
  0
TEXT
  8
_1-0_
 62
    7
 10
460.88023996518666
 20
60.516575148584167
 40
10
 41
1
 50
0
  1
0.97
  0
TEXT
  8
_1-0_
 62
    7
 10
460.88023996518666
 20
44.272103165301843
 40
10
 41
1
 50
0
  1
1.30
  0
TEXT
  8
_1-0_
 62
    7
 10
224.89101529400179
 20
75.343858977757947
 40
8
 41
0.9999999999999994
 50
0
  1
[mm]
  0
TEXT
  8
_1-0_
 62
    7
 10
224.89101529400179
 20
59.332446184384736
 40
8
 41
0.9999999999999994
 50
0
  1
[mm]
  0
TEXT
  8
_1-0_
 62
    7
 10
224.89101529400179
 20
42.899680422764874
 40
8
 41
0.9999999999999994
 50
0
  1
[mm]
  0
TEXT
  8
_1-0_
 62
    7
 10
198.69358567485239
 20
75.519113672877864
 40
10
 41
1
 50
0
  1
1000
  0
TEXT
  8
_1-0_
 62
    7
 10
198.69358567485239
 20
59.507700879504654
 40
10
 41
1
 50
0
  1
1495
  0
TEXT
  8
_1-0_
 62
    7
 10
198.69358567485239
 20
43.074935117884735
 40
10
 41
1
 50
0
  1
1990
  0
TEXT
  8
_1-0_
 62
    7
 10
94.886072443584681
 20
144.43146460423958
 40
8
 41
1
 50
0
  1
①
  0
LINE
  8
_1-0_
  6
CONTINUOUS
 62
    7
 10
79.055384612896773
 20
154.30236407513905
 11
120.587659745172
 21
154.30236407513905
  0
TEXT
  8
_0-0_1
 62
    7
 10
639.82213941029192
 20
62.445219503132336
 40
8
 41
1
 50
0
  1
森田
  0
TEXT
  8
_0-0_1
 62
    7
 10
669.7559236751548
 20
62.026565177749632
 40
8
 41
1
 50
0
  1
森田
  0
TEXT
  8
_0-0_1
 62
    7
 10
730.41595573053303
 20
38.324488349617809
 40
8
 41
1
 50
0
  1
仕様図
  0
LINE
  8
_2-0_
  6
CONTINUOUS
 62
    7
 10
340.08859755020165
 20
473.91605740040859
 11
347.02889743453437
 21
473.91605740040859
  0
LINE
  8
_2-0_
  6
CONTINUOUS
 62
    7
 10
346.48585618949994
 20
473.66615017390848
 11
340.44800713670026
 21
473.66615017390848
  0
LINE
  8
_2-0_
  6
CONTINUOUS
 62
    7
 10
342.92546773534889
 20
482.97876706437114
 11
342.96514373534876
 21
482.9143930643711
  0
LINE
  8
_2-0_
  6
CONTINUOUS
 62
    7
 10
342.96514373534876
 20
482.9143930643711
 11
343.08305373534893
 21
482.72303706437128
  0
LINE
  8
_2-0_
  6
CONTINUOUS
 62
    7
 10
343.08305373534893
 20
482.72303706437128
 11
343.27563173534884
 21
482.41002306437122
  0
LINE
  8
_2-0_
  6
CONTINUOUS
 62
    7
 10
343.27563173534884
 20
482.41002306437122
 11
343.53637773534876
 21
481.98426106437114
  0
LINE
  8
_2-0_
  6
CONTINUOUS
 62
    7
 10
343.53637773534876
 20
481.98426106437114
 11
343.85526973534877
 21
481.45822506437116
  0
LINE
  8
_2-0_
  6
CONTINUOUS
 62
    7
 10
343.85526973534877
 20
481.45822506437116
 11
344.21844373534884
 21
480.8478010643712
  0
LINE
  8
_2-0_
  6
CONTINUOUS
 62
    7
 10
344.21844373534884
 20
480.8478010643712
 11
344.60837373534889
 21
480.17190306437124
  0
LINE
  8
_2-0_
  6
CONTINUOUS
 62
    7
 10
344.60837373534889
 20
480.17190306437124
 11
345.00481373534888
 21
479.45182106437119
  0
LINE
  8
_2-0_
  6
CONTINUOUS
 62
    7
 10
345.00481373534888
 20
479.45182106437119
 11
345.38645973534892
 21
478.71031506437112
  0
LINE
  8
_2-0_
  6
CONTINUOUS
 62
    7
 10
345.38645973534892
 20
478.71031506437112
 11
345.73318373534892
 21
477.97049306437111
  0
LINE
  8
_2-0_
  6
CONTINUOUS
 62
    7
 10
345.73318373534892
 20
477.97049306437111
 11
346.02845973534875
 21
477.2546390643713
  0
LINE
  8
_2-0_
  6
CONTINUOUS
 62
    7
 10
346.02845973534875
 20
477.2546390643713
 11
346.26151973534877
 21
476.58308306437107
  0
LINE
  8
_2-0_
  6
CONTINUOUS
 62
    7
 10
346.26151973534877
 20
476.58308306437107
 11
346.42876573534875
 21
475.97332506437124
  0
LINE
  8
_2-0_
  6
CONTINUOUS
 62
    7
 10
346.42876573534875
 20
475.97332506437124
 11
346.53408173534888
 21
475.43949106437117
  0
LINE
  8
_2-0_
  6
CONTINUOUS
 62
    7
 10
346.53408173534888
 20
475.43949106437117
 11
346.58788573534878
 21
474.99219106437113
  0
LINE
  8
_2-0_
  6
CONTINUOUS
 62
    7
 10
346.58788573534878
 20
474.99219106437113
 11
346.6050377353489
 21
474.63877906437119
  0
LINE
  8
_2-0_
  6
CONTINUOUS
 62
    7
 10
346.6050377353489
 20
474.63877906437119
 11
346.60191573534883
 21
474.38389106437126
  0
LINE
  8
_2-0_
  6
CONTINUOUS
 62
    7
 10
346.60191573534883
 20
474.38389106437126
 11
346.59322373534894
 21
474.23013706437109
  0
LINE
  8
_2-0_
  6
CONTINUOUS
 62
    7
 10
346.59322373534894
 20
474.23013706437109
 11
346.58911973534885
 21
474.17876706437119
  0
LINE
  8
_2-0_
  6
CONTINUOUS
 62
    7
 10
346.58911973534885
 20
474.17876706437119
 11
346.5844157353489
 21
474.12757506437106
  0
LINE
  8
_2-0_
  6
CONTINUOUS
 62
    7
 10
346.5844157353489
 20
474.12757506437106
 11
346.56696173534885
 21
473.97642506437114
  0
LINE
  8
_2-0_
  6
CONTINUOUS
 62
    7
 10
346.56696173534885
 20
473.97642506437114
 11
346.52765173534874
 21
473.73229906437132
  0
LINE
  8
_2-0_
  6
CONTINUOUS
 62
    7
 10
346.52765173534874
 20
473.73229906437132
 11
346.45416173534875
 21
473.40587106437124
  0
LINE
  8
_2-0_
  6
CONTINUOUS
 62
    7
 10
346.45416173534875
 20
473.40587106437124
 11
346.33448973534894
 21
473.01029506437112
  0
LINE
  8
_2-0_
  6
CONTINUOUS
 62
    7
 10
346.33448973534894
 20
473.01029506437112
 11
346.16062573534884
 21
472.55986706437125
  0
LINE
  8
_2-0_
  6
CONTINUOUS
 62
    7
 10
346.16062573534884
 20
472.55986706437125
 11
345.93146173534876
 21
472.06884106437133
  0
LINE
  8
_2-0_
  6
CONTINUOUS
 62
    7
 10
345.93146173534876
 20
472.06884106437133
 11
345.6541997353487
 21
471.55062106437117
  0
LINE
  8
_2-0_
  6
CONTINUOUS
 62
    7
 10
345.6541997353487
 20
471.55062106437117
 11
345.34389573534884
 21
471.01743906437127
  0
LINE
  8
_2-0_
  6
CONTINUOUS
 62
    7
 10
345.34389573534884
 20
471.01743906437127
 11
345.02122373534883
 21
470.48050506437107
  0
LINE
  8
_2-0_
  6
CONTINUOUS
 62
    7
 10
345.02122373534883
 20
470.48050506437107
 11
344.70895973534869
 21
469.95052906437127
  0
LINE
  8
_2-0_
  6
CONTINUOUS
 62
    7
 10
344.70895973534869
 20
469.95052906437127
 11
344.42799373534888
 21
469.43837506437126
  0
LINE
  8
_2-0_
  6
CONTINUOUS
 62
    7
 10
344.42799373534888
 20
469.43837506437126
 11
344.1937837353488
 21
468.95561706437115
  0
LINE
  8
_2-0_
  6
CONTINUOUS
 62
    7
 10
344.1937837353488
 20
468.95561706437115
 11
344.01407373534892
 21
468.51476106437121
  0
LINE
  8
_2-0_
  6
CONTINUOUS
 62
    7
 10
344.01407373534892
 20
468.51476106437121
 11
343.88838973534882
 21
468.12902706437126
  0
LINE
  8
_2-0_
  6
CONTINUOUS
 62
    7
 10
343.88838973534882
 20
468.12902706437126
 11
343.8093777353489
 21
467.81164506437131
  0
LINE
  8
_2-0_
  6
CONTINUOUS
 62
    7
 10
343.8093777353489
 20
467.81164506437131
 11
343.76563173534885
 21
467.5747830643711
  0
LINE
  8
_2-0_
  6
CONTINUOUS
 62
    7
 10
343.76563173534885
 20
467.5747830643711
 11
343.74530773534877
 21
467.42833506437114
  0
LINE
  8
_2-0_
  6
CONTINUOUS
 62
    7
 10
343.74530773534877
 20
467.42833506437114
 11
343.73961173534883
 21
467.37876706437123
  0
LINE
  8
_2-0_
  6
CONTINUOUS
 62
    7
 10
343.73961173534883
 20
467.37876706437123
 11
343.73450173534877
 21
467.32904506437126
  0
LINE
  8
_2-0_
  6
CONTINUOUS
 62
    7
 10
343.73450173534877
 20
467.32904506437126
 11
343.72273973534891
 21
467.18031906437113
  0
LINE
  8
_2-0_
  6
CONTINUOUS
 62
    7
 10
343.72273973534891
 20
467.18031906437113
 11
343.71433973534874
 21
466.9340730643712
  0
LINE
  8
_2-0_
  6
CONTINUOUS
 62
    7
 10
343.71433973534874
 20
466.9340730643712
 11
343.7238237353489
 21
466.59322106437116
  0
LINE
  8
_2-0_
  6
CONTINUOUS
 62
    7
 10
343.7238237353489
 20
466.59322106437116
 11
343.76739173534895
 21
466.16268306437109
  0
LINE
  8
_2-0_
  6
CONTINUOUS
 62
    7
 10
343.76739173534895
 20
466.16268306437109
 11
343.85981573534889
 21
465.64996106437115
  0
LINE
  8
_2-0_
  6
CONTINUOUS
 62
    7
 10
343.85981573534889
 20
465.64996106437115
 11
344.01156373534889
 21
465.06558306437114
  0
LINE
  8
_2-0_
  6
CONTINUOUS
 62
    7
 10
344.01156373534889
 20
465.06558306437114
 11
344.22675173534878
 21
464.42329906437112
  0
LINE
  8
_2-0_
  6
CONTINUOUS
 62
    7
 10
344.22675173534878
 20
464.42329906437112
 11
344.50220573534887
 21
463.7399090643712
  0
LINE
  8
_2-0_
  6
CONTINUOUS
 62
    7
 10
344.50220573534887
 20
463.7399090643712
 11
344.82775773534888
 21
463.0347610643712
  0
LINE
  8
_2-0_
  6
CONTINUOUS
 62
    7
 10
344.82775773534888
 20
463.0347610643712
 11
345.1876217353489
 21
462.32892506437111
  0
LINE
  8
_2-0_
  6
CONTINUOUS
 62
    7
 10
345.1876217353489
 20
462.32892506437111
 11
345.56248373534879
 21
461.6441790643712
  0
LINE
  8
_2-0_
  6
CONTINUOUS
 62
    7
 10
345.56248373534879
 20
461.6441790643712
 11
345.93186973534887
 21
461.0019290643711
  0
LINE
  8
_2-0_
  6
CONTINUOUS
 62
    7
 10
345.93186973534887
 20
461.0019290643711
 11
346.27630573534896
 21
460.42219306437119
  0
LINE
  8
_2-0_
  6
CONTINUOUS
 62
    7
 10
346.27630573534896
 20
460.42219306437119
 11
346.57895373534882
 21
459.92276106437112
  0
LINE
  8
_2-0_
  6
CONTINUOUS
 62
    7
 10
346.57895373534882
 20
459.92276106437112
 11
346.82650773534886
 21
459.51860306437106
  0
LINE
  8
_2-0_
  6
CONTINUOUS
 62
    7
 10
346.82650773534886
 20
459.51860306437106
 11
347.00937373534896
 21
459.22149506437131
  0
LINE
  8
_2-0_
  6
CONTINUOUS
 62
    7
 10
347.00937373534896
 20
459.22149506437131
 11
347.12134173534889
 21
459.03986906437126
  0
LINE
  8
_2-0_
  6
CONTINUOUS
 62
    7
 10
347.12134173534889
 20
459.03986906437126
 11
347.15901973534881
 21
458.97876706437114
  0
LINE
  8
_2-0_
  6
CONTINUOUS
 62
    7
 10
319.5698052238929
 20
478.2753261981469
 11
265.66374159804661
 21
478.2753261981469
  0
LINE
  8
_2-0_
  6
CONTINUOUS
 62
    7
 10
264.64980522389294
 20
478.2753261981469
 11
210.74374159804663
 21
478.2753261981469
  0
LINE
  8
_2-0_
  6
CONTINUOUS
 62
    7
 10
219.5973097110676
 20
468.06406317986637
 11
212.65969700121352
 21
468.06406317986637
  0
LINE
  8
_2-0_
  6
CONTINUOUS
 62
    7
 10
212.65969700121352
 20
468.06406317986637
 11
212.65969700121352
 21
473.91605740040859
  0
LINE
  8
_2-0_
  6
CONTINUOUS
 62
    7
 10
212.65969700121352
 20
473.91605740040859
 11
219.5973097110676
 21
473.91605740040859
  0
LINE
  8
_2-0_
  6
CONTINUOUS
 62
    7
 10
219.5973097110676
 20
473.91605740040859
 11
219.5973097110676
 21
468.06406317986637
  0
LINE
  8
_2-0_
  6
CONTINUOUS
 62
    7
 10
228.39243177918135
 20
468.06406317986637
 11
221.4534754820879
 21
468.06406317986637
  0
LINE
  8
_2-0_
  6
CONTINUOUS
 62
    7
 10
221.4534754820879
 20
468.06406317986637
 11
221.4534754820879
 21
473.91605740040859
  0
LINE
  8
_2-0_
  6
CONTINUOUS
 62
    7
 10
221.4534754820879
 20
473.91605740040859
 11
228.39243177918135
 21
473.91605740040859
  0
LINE
  8
_2-0_
  6
CONTINUOUS
 62
    7
 10
228.39243177918135
 20
473.91605740040859
 11
228.39243177918135
 21
468.06406317986637
  0
LINE
  8
_2-0_
  6
CONTINUOUS
 62
    7
 10
237.18889743453437
 20
468.06406317986637
 11
230.24859755020165
 21
468.06406317986637
  0
LINE
  8
_2-0_
  6
CONTINUOUS
 62
    7
 10
230.24859755020165
 20
468.06406317986637
 11
230.24859755020165
 21
473.91605740040859
  0
LINE
  8
_2-0_
  6
CONTINUOUS
 62
    7
 10
230.24859755020165
 20
473.91605740040859
 11
237.18889743453437
 21
473.91605740040859
  0
LINE
  8
_2-0_
  6
CONTINUOUS
 62
    7
 10
237.18889743453437
 20
473.91605740040859
 11
237.18889743453437
 21
468.06406317986637
  0
LINE
  8
_2-0_
  6
CONTINUOUS
 62
    7
 10
246.11367567123531
 20
468.06406317986637
 11
239.17337578690282
 21
468.06406317986637
  0
LINE
  8
_2-0_
  6
CONTINUOUS
 62
    7
 10
239.17337578690282
 20
468.06406317986637
 11
239.17337578690282
 21
473.91605740040859
  0
LINE
  8
_2-0_
  6
CONTINUOUS
 62
    7
 10
239.17337578690282
 20
473.91605740040859
 11
246.11367567123531
 21
473.91605740040859
  0
LINE
  8
_2-0_
  6
CONTINUOUS
 62
    7
 10
246.11367567123531
 20
473.91605740040859
 11
246.11367567123531
 21
468.06406317986637
  0
LINE
  8
_2-0_
  6
CONTINUOUS
 62
    7
 10
254.95447970548352
 20
468.06406317986637
 11
248.01619520200981
 21
468.06406317986637
  0
LINE
  8
_2-0_
  6
CONTINUOUS
 62
    7
 10
248.01619520200981
 20
468.06406317986637
 11
248.01619520200981
 21
473.91605740040859
  0
LINE
  8
_2-0_
  6
CONTINUOUS
 62
    7
 10
248.01619520200981
 20
473.91605740040859
 11
254.95447970548352
 21
473.91605740040859
  0
LINE
  8
_2-0_
  6
CONTINUOUS
 62
    7
 10
254.95447970548352
 20
473.91605740040859
 11
254.95447970548352
 21
468.06406317986637
  0
LINE
  8
_2-0_
  6
CONTINUOUS
 62
    7
 10
263.75161715445608
 20
468.06406317986637
 11
256.81400444460201
 21
468.06406317986637
  0
LINE
  8
_2-0_
  6
CONTINUOUS
 62
    7
 10
256.81400444460201
 20
468.06406317986637
 11
256.81400444460201
 21
473.91605740040859
  0
LINE
  8
_2-0_
  6
CONTINUOUS
 62
    7
 10
256.81400444460201
 20
473.91605740040859
 11
263.75161715445608
 21
473.91605740040859
  0
LINE
  8
_2-0_
  6
CONTINUOUS
 62
    7
 10
263.75161715445608
 20
473.91605740040859
 11
263.75161715445608
 21
468.06406317986637
  0
LINE
  8
_2-0_
  6
CONTINUOUS
 62
    7
 10
246.40389051491294
 20
475.0984141709464
 11
247.05821750042637
 21
474.41385647254981
  0
LINE
  8
_2-0_
  6
CONTINUOUS
 62
    7
 10
246.40389051491294
 20
475.40676744235373
 11
247.35716566115897
 21
474.41385647254981
  0
LINE
  8
_2-0_
  6
CONTINUOUS
 62
    7
 10
246.63969007540069
 20
475.46991604259847
 11
247.65745740913061
 21
474.41385647254981
  0
LINE
  8
_2-0_
  6
CONTINUOUS
 62
    7
 10
246.93931002975293
 20
475.46991604259847
 11
247.77703667342368
 21
474.53746649856055
  0
LINE
  8
_2-0_
  6
CONTINUOUS
 62
    7
 10
247.1771249710998
 20
475.46991604259847
 11
247.77703667342368
 21
474.84850694444629
  0
LINE
  8
_2-0_
  6
CONTINUOUS
 62
    7
 10
247.47808851269107
 20
475.46991604259847
 11
247.77703667342368
 21
475.16021918395165
  0
LINE
  8
_2-0_
  6
CONTINUOUS
 62
    7
 10
247.77703667342368
 20
475.46991604259847
 11
247.77703667342368
 21
475.40676744235373
  0
LINE
  8
_2-0_
  6
CONTINUOUS
 62
    7
 10
246.40389051491294
 20
474.53746649856055
 11
246.521454398347
 21
474.41385647254981
  0
LINE
  8
_2-0_
  6
CONTINUOUS
 62
    7
 10
246.40389051491294
 20
474.84850694444629
 11
246.75926933969376
 21
474.40915391721262
  0
LINE
  8
_2-0_
  6
CONTINUOUS
 62
    7
 10
246.40389051491294
 20
475.0984141709464
 11
247.05821750042637
 21
474.41385647254981
  0
LINE
  8
_2-0_
  6
CONTINUOUS
 62
    7
 10
246.40389051491294
 20
475.40676744235373
 11
247.35716566115897
 21
474.41385647254981
  0
LINE
  8
_2-0_
  6
CONTINUOUS
 62
    7
 10
246.63969007540069
 20
475.46991604259847
 11
247.65745740913061
 21
474.41385647254981
  0
LINE
  8
_2-0_
  6
CONTINUOUS
 62
    7
 10
246.93931002975293
 20
475.46991604259847
 11
247.77703667342368
 21
474.53746649856055
  0
LINE
  8
_2-0_
  6
CONTINUOUS
 62
    7
 10
247.1771249710998
 20
475.46991604259847
 11
247.77703667342368
 21
474.84850694444629
  0
LINE
  8
_2-0_
  6
CONTINUOUS
 62
    7
 10
247.47808851269107
 20
475.46991604259847
 11
247.77703667342368
 21
475.16021918395165
  0
LINE
  8
_2-0_
  6
CONTINUOUS
 62
    7
 10
247.77703667342368
 20
475.46991604259847
 11
247.77703667342368
 21
475.40676744235373
  0
LINE
  8
_2-0_
  6
CONTINUOUS
 62
    7
 10
246.40389051491294
 20
474.84850694444629
 11
246.75926933969376
 21
474.40915391721262
  0
LINE
  8
_2-0_
  6
CONTINUOUS
 62
    7
 10
246.40389051491294
 20
475.40676744235373
 11
247.35716566115897
 21
474.41385647254981
  0
LINE
  8
_2-0_
  6
CONTINUOUS
 62
    7
 10
246.93931002975293
 20
475.46991604259847
 11
247.77703667342368
 21
474.53746649856055
  0
LINE
  8
_2-0_
  6
CONTINUOUS
 62
    7
 10
247.47808851269107
 20
475.46991604259847
 11
247.77703667342368
 21
475.16021918395165
  0
LINE
  8
_2-0_
  6
CONTINUOUS
 62
    7
 10
247.77703667342368
 20
474.41385647254981
 11
247.77703667342368
 21
475.46991604259847
  0
LINE
  8
_2-0_
  6
CONTINUOUS
 62
    7
 10
246.40389051491294
 20
474.41385647254981
 11
246.40389051491294
 21
475.46991604259847
  0
LINE
  8
_2-0_
  6
CONTINUOUS
 62
    7
 10
248.19556409844935
 20
475.46991604259847
 11
245.98334770902849
 21
475.46991604259847
  0
LINE
  8
_2-0_
  6
CONTINUOUS
 62
    7
 10
245.98334770902849
 20
474.41385647254981
 11
245.98334770902849
 21
475.46991604259847
  0
LINE
  8
_2-0_
  6
CONTINUOUS
 62
    7
 10
248.19556409844935
 20
474.41385647254981
 11
245.98334770902849
 21
474.41385647254981
  0
LINE
  8
_2-0_
  6
CONTINUOUS
 62
    7
 10
248.19556409844935
 20
474.41385647254981
 11
248.19556409844935
 21
475.46991604259847
  0
LINE
  8
_2-0_
  6
CONTINUOUS
 62
    7
 10
228.63024672052811
 20
474.53746649856055
 11
228.75587212739785
 21
474.41385647254981
  0
LINE
  8
_2-0_
  6
CONTINUOUS
 62
    7
 10
228.63024672052811
 20
474.84850694444629
 11
228.99099989426597
 21
474.40915391721262
  0
LINE
  8
_2-0_
  6
CONTINUOUS
 62
    7
 10
228.63024672052811
 20
475.0984141709464
 11
229.29061984861821
 21
474.41385647254981
  0
LINE
  8
_2-0_
  6
CONTINUOUS
 62
    7
 10
228.63024672052811
 20
475.40676744235373
 11
229.58956800935081
 21
474.41385647254981
  0
LINE
  8
_2-0_
  6
CONTINUOUS
 62
    7
 10
228.87209242359265
 20
475.46991604259847
 11
229.82805474431731
 21
474.41385647254981
  0
LINE
  8
_2-0_
  6
CONTINUOUS
 62
    7
 10
229.11125095217866
 20
475.46991604259847
 11
230.00742364075685
 21
474.53746649856055
  0
LINE
  8
_2-0_
  6
CONTINUOUS
 62
    7
 10
229.41019911291127
 20
475.46991604259847
 11
230.00943902161563
 21
474.84850694444629
  0
LINE
  8
_2-0_
  6
CONTINUOUS
 62
    7
 10
229.70914727364388
 20
475.46991604259847
 11
230.00943902161563
 21
475.16021918395165
  0
LINE
  8
_2-0_
  6
CONTINUOUS
 62
    7
 10
230.00943902161563
 20
475.46991604259847
 11
230.00943902161563
 21
475.40676744235373
  0
LINE
  8
_2-0_
  6
CONTINUOUS
 62
    7
 10
228.63024672052811
 20
474.53746649856055
 11
228.75587212739785
 21
474.41385647254981
  0
LINE
  8
_2-0_
  6
CONTINUOUS
 62
    7
 10
228.63024672052811
 20
474.84850694444629
 11
228.99099989426597
 21
474.40915391721262
  0
LINE
  8
_2-0_
  6
CONTINUOUS
 62
    7
 10
228.63024672052811
 20
475.0984141709464
 11
229.29061984861821
 21
474.41385647254981
  0
LINE
  8
_2-0_
  6
CONTINUOUS
 62
    7
 10
228.63024672052811
 20
475.40676744235373
 11
229.58956800935081
 21
474.41385647254981
  0
LINE
  8
_2-0_
  6
CONTINUOUS
 62
    7
 10
228.87209242359265
 20
475.46991604259847
 11
229.82805474431731
 21
474.41385647254981
  0
LINE
  8
_2-0_
  6
CONTINUOUS
 62
    7
 10
229.11125095217866
 20
475.46991604259847
 11
230.00742364075685
 21
474.53746649856055
  0
LINE
  8
_2-0_
  6
CONTINUOUS
 62
    7
 10
229.41019911291127
 20
475.46991604259847
 11
230.00943902161563
 21
474.84850694444629
  0
LINE
  8
_2-0_
  6
CONTINUOUS
 62
    7
 10
229.70914727364388
 20
475.46991604259847
 11
230.00943902161563
 21
475.16021918395165
  0
LINE
  8
_2-0_
  6
CONTINUOUS
 62
    7
 10
230.00943902161563
 20
475.46991604259847
 11
230.00943902161563
 21
475.40676744235373
  0
LINE
  8
_2-0_
  6
CONTINUOUS
 62
    7
 10
228.63024672052811
 20
474.84850694444629
 11
228.99099989426597
 21
474.40915391721262
  0
LINE
  8
_2-0_
  6
CONTINUOUS
 62
    7
 10
228.63024672052811
 20
475.40676744235373
 11
229.58956800935081
 21
474.41385647254981
  0
LINE
  8
_2-0_
  6
CONTINUOUS
 62
    7
 10
229.11125095217866
 20
475.46991604259847
 11
230.00742364075685
 21
474.53746649856055
  0
LINE
  8
_2-0_
  6
CONTINUOUS
 62
    7
 10
229.70914727364388
 20
475.46991604259847
 11
230.00943902161563
 21
475.16021918395165
  0
LINE
  8
_2-0_
  6
CONTINUOUS
 62
    7
 10
230.00943902161563
 20
474.41385647254981
 11
230.00943902161563
 21
475.46991604259847
  0
LINE
  8
_2-0_
  6
CONTINUOUS
 62
    7
 10
228.63024672052811
 20
474.41385647254981
 11
228.63024672052811
 21
475.46991604259847
  0
LINE
  8
_2-0_
  6
CONTINUOUS
 62
    7
 10
230.42729465302156
 20
475.46991604259847
 11
228.21306288274181
 21
475.46991604259847
  0
LINE
  8
_2-0_
  6
CONTINUOUS
 62
    7
 10
228.21306288274181
 20
474.41385647254981
 11
228.21306288274181
 21
475.46991604259847
  0
LINE
  8
_2-0_
  6
CONTINUOUS
 62
    7
 10
230.42729465302156
 20
474.41385647254981
 11
228.21306288274181
 21
474.41385647254981
  0
LINE
  8
_2-0_
  6
CONTINUOUS
 62
    7
 10
230.42729465302156
 20
474.41385647254981
 11
230.42729465302156
 21
475.46991604259847
  0
LINE
  8
_2-0_
  6
CONTINUOUS
 62
    7
 10
237.48515842078845
 20
467.43727973275736
 11
237.60608127232078
 21
467.56559231410563
  0
LINE
  8
_2-0_
  6
CONTINUOUS
 62
    7
 10
237.48515842078845
 20
467.12691108049148
 11
237.90167046495512
 21
467.56559231410563
  0
LINE
  8
_2-0_
  6
CONTINUOUS
 62
    7
 10
237.48515842078845
 20
466.87834744123052
 11
238.20263400654639
 21
467.56156155238796
  0
LINE
  8
_2-0_
  6
CONTINUOUS
 62
    7
 10
237.48515842078845
 20
466.56596340810563
 11
238.44649509046982
 21
467.56156155238796
  0
LINE
  8
_2-0_
  6
CONTINUOUS
 62
    7
 10
237.72566053661362
 20
466.50684556957879
 11
238.74342787034354
 21
467.56156155238796
  0
LINE
  8
_2-0_
  6
CONTINUOUS
 62
    7
 10
238.02595228458549
 20
466.50684556957879
 11
238.92078138592407
 21
467.43727973275736
  0
LINE
  8
_2-0_
  6
CONTINUOUS
 62
    7
 10
238.32355685807883
 20
466.50684556957879
 11
238.92414035402234
 21
467.12959825496989
  0
LINE
  8
_2-0_
  6
CONTINUOUS
 62
    7
 10
238.564058973904
 20
466.50684556957879
 11
238.92414035402234
 21
466.8158706346054
  0
LINE
  8
_2-0_
  6
CONTINUOUS
 62
    7
 10
238.8630071346366
 20
466.50684556957879
 11
238.92078138592407
 21
466.56596340810563
  0
LINE
  8
_2-0_
  6
CONTINUOUS
 62
    7
 10
237.48515842078845
 20
467.43727973275736
 11
237.60608127232078
 21
467.56559231410563
  0
LINE
  8
_2-0_
  6
CONTINUOUS
 62
    7
 10
237.48515842078845
 20
467.12691108049148
 11
237.90167046495512
 21
467.56559231410563
  0
LINE
  8
_2-0_
  6
CONTINUOUS
 62
    7
 10
237.48515842078845
 20
466.87834744123052
 11
238.20263400654639
 21
467.56156155238796
  0
LINE
  8
_2-0_
  6
CONTINUOUS
 62
    7
 10
237.48515842078845
 20
466.56596340810563
 11
238.44649509046982
 21
467.56156155238796
  0
LINE
  8
_2-0_
  6
CONTINUOUS
 62
    7
 10
237.72566053661362
 20
466.50684556957879
 11
238.74342787034354
 21
467.56156155238796
  0
LINE
  8
_2-0_
  6
CONTINUOUS
 62
    7
 10
238.02595228458549
 20
466.50684556957879
 11
238.92078138592407
 21
467.43727973275736
  0
LINE
  8
_2-0_
  6
CONTINUOUS
 62
    7
 10
238.32355685807883
 20
466.50684556957879
 11
238.92414035402234
 21
467.12959825496989
  0
LINE
  8
_2-0_
  6
CONTINUOUS
 62
    7
 10
238.564058973904
 20
466.50684556957879
 11
238.92414035402234
 21
466.8158706346054
  0
LINE
  8
_2-0_
  6
CONTINUOUS
 62
    7
 10
238.8630071346366
 20
466.50684556957879
 11
238.92078138592407
 21
466.56596340810563
  0
LINE
  8
_2-0_
  6
CONTINUOUS
 62
    7
 10
237.48515842078845
 20
467.12691108049148
 11
237.90167046495512
 21
467.56559231410563
  0
LINE
  8
_2-0_
  6
CONTINUOUS
 62
    7
 10
237.48515842078845
 20
466.56596340810563
 11
238.44649509046982
 21
467.56156155238796
  0
LINE
  8
_2-0_
  6
CONTINUOUS
 62
    7
 10
238.02595228458549
 20
466.50684556957879
 11
238.92078138592407
 21
467.43727973275736
  0
LINE
  8
_2-0_
  6
CONTINUOUS
 62
    7
 10
238.564058973904
 20
466.50684556957879
 11
238.92414035402234
 21
466.8158706346054
  0
LINE
  8
_2-0_
  6
CONTINUOUS
 62
    7
 10
238.92078138592407
 20
466.50684556957879
 11
238.92078138592407
 21
467.56156155238796
  0
LINE
  8
_2-0_
  6
CONTINUOUS
 62
    7
 10
237.48515842078845
 20
466.50684556957879
 11
237.48515842078845
 21
467.56156155238796
  0
LINE
  8
_2-0_
  6
CONTINUOUS
 62
    7
 10
239.28153455966216
 20
466.50684556957879
 11
237.12910780238789
 21
466.50684556957879
  0
LINE
  8
_2-0_
  6
CONTINUOUS
 62
    7
 10
237.12776421514863
 20
466.50684556957879
 11
237.12776421514863
 21
467.56156155238796
  0
LINE
  8
_2-0_
  6
CONTINUOUS
 62
    7
 10
239.28153455966216
 20
467.56559231410563
 11
237.12910780238789
 21
467.56559231410563
  0
LINE
  8
_2-0_
  6
CONTINUOUS
 62
    7
 10
239.28153455966216
 20
466.50684556957879
 11
239.28153455966216
 21
467.56156155238796
  0
LINE
  8
_2-0_
  6
CONTINUOUS
 62
    7
 10
219.83781182689299
 20
467.43727973275736
 11
219.95873467842509
 21
467.56559231410563
  0
LINE
  8
_2-0_
  6
CONTINUOUS
 62
    7
 10
219.83781182689299
 20
467.12691108049148
 11
220.19789320701122
 21
467.56559231410563
  0
LINE
  8
_2-0_
  6
CONTINUOUS
 62
    7
 10
219.83781182689299
 20
466.87834744123052
 11
220.49549778050445
 21
467.56156155238796
  0
LINE
  8
_2-0_
  6
CONTINUOUS
 62
    7
 10
219.83781182689299
 20
466.56596340810563
 11
220.79175876675853
 21
467.56156155238796
  0
LINE
  8
_2-0_
  6
CONTINUOUS
 62
    7
 10
220.07562676823974
 20
466.50684556957879
 11
221.03360446982319
 21
467.56156155238796
  0
LINE
  8
_2-0_
  6
CONTINUOUS
 62
    7
 10
220.37390313535272
 20
466.50684556957879
 11
221.21431695350188
 21
467.43727973275736
  0
LINE
  8
_2-0_
  6
CONTINUOUS
 62
    7
 10
220.61574883841715
 20
466.50684556957879
 11
221.21431695350188
 21
467.12959825496989
  0
LINE
  8
_2-0_
  6
CONTINUOUS
 62
    7
 10
220.9160405863889
 20
466.50684556957879
 11
221.21431695350188
 21
466.8158706346054
  0
LINE
  8
_2-0_
  6
CONTINUOUS
 62
    7
 10
221.21431695350188
 20
466.50684556957879
 11
221.21431695350188
 21
466.56596340810563
  0
LINE
  8
_2-0_
  6
CONTINUOUS
 62
    7
 10
219.83781182689299
 20
467.43727973275736
 11
219.95873467842509
 21
467.56559231410563
  0
LINE
  8
_2-0_
  6
CONTINUOUS
 62
    7
 10
219.83781182689299
 20
467.12691108049148
 11
220.19789320701122
 21
467.56559231410563
  0
LINE
  8
_2-0_
  6
CONTINUOUS
 62
    7
 10
219.83781182689299
 20
466.87834744123052
 11
220.49549778050445
 21
467.56156155238796
  0
LINE
  8
_2-0_
  6
CONTINUOUS
 62
    7
 10
219.83781182689299
 20
466.56596340810563
 11
220.79175876675853
 21
467.56156155238796
  0
LINE
  8
_2-0_
  6
CONTINUOUS
 62
    7
 10
220.07562676823974
 20
466.50684556957879
 11
221.03360446982319
 21
467.56156155238796
  0
LINE
  8
_2-0_
  6
CONTINUOUS
 62
    7
 10
220.37390313535272
 20
466.50684556957879
 11
221.21431695350188
 21
467.43727973275736
  0
LINE
  8
_2-0_
  6
CONTINUOUS
 62
    7
 10
220.61574883841715
 20
466.50684556957879
 11
221.21431695350188
 21
467.12959825496989
  0
LINE
  8
_2-0_
  6
CONTINUOUS
 62
    7
 10
220.9160405863889
 20
466.50684556957879
 11
221.21431695350188
 21
466.8158706346054
  0
LINE
  8
_2-0_
  6
CONTINUOUS
 62
    7
 10
221.21431695350188
 20
466.50684556957879
 11
221.21431695350188
 21
466.56596340810563
  0
LINE
  8
_2-0_
  6
CONTINUOUS
 62
    7
 10
219.83781182689299
 20
467.12691108049148
 11
220.19789320701122
 21
467.56559231410563
  0
LINE
  8
_2-0_
  6
CONTINUOUS
 62
    7
 10
219.83781182689299
 20
466.56596340810563
 11
220.79175876675853
 21
467.56156155238796
  0
LINE
  8
_2-0_
  6
CONTINUOUS
 62
    7
 10
220.37390313535272
 20
466.50684556957879
 11
221.21431695350188
 21
467.43727973275736
  0
LINE
  8
_2-0_
  6
CONTINUOUS
 62
    7
 10
220.9160405863889
 20
466.50684556957879
 11
221.21431695350188
 21
466.8158706346054
  0
LINE
  8
_2-0_
  6
CONTINUOUS
 62
    7
 10
221.21431695350188
 20
466.50684556957879
 11
221.21431695350188
 21
467.56156155238796
  0
LINE
  8
_2-0_
  6
CONTINUOUS
 62
    7
 10
219.83781182689299
 20
466.50684556957879
 11
219.83781182689299
 21
467.56156155238796
  0
LINE
  8
_2-0_
  6
CONTINUOUS
 62
    7
 10
221.63284437852744
 20
466.50684556957879
 11
219.41726902100842
 21
466.50684556957879
  0
LINE
  8
_2-0_
  6
CONTINUOUS
 62
    7
 10
219.41726902100842
 20
466.50684556957879
 11
219.41726902100842
 21
467.56156155238796
  0
LINE
  8
_2-0_
  6
CONTINUOUS
 62
    7
 10
221.63284437852744
 20
467.56559231410563
 11
219.41726902100842
 21
467.56559231410563
  0
LINE
  8
_2-0_
  6
CONTINUOUS
 62
    7
 10
221.63284437852744
 20
466.50684556957879
 11
221.63284437852744
 21
467.56156155238796
  0
LINE
  8
_2-0_
  6
CONTINUOUS
 62
    7
 10
263.39019218709859
 20
473.66615017390848
 11
257.16938326938305
 21
473.66615017390848
  0
LINE
  8
_2-0_
  6
CONTINUOUS
 62
    7
 10
263.57224825801677
 20
468.49602647728443
 11
263.57224825801677
 21
473.47871975403348
  0
LINE
  8
_2-0_
  6
CONTINUOUS
 62
    7
 10
263.39019218709859
 20
468.31262681912733
 11
257.16938326938305
 21
468.31262681912733
  0
LINE
  8
_2-0_
  6
CONTINUOUS
 62
    7
 10
256.99001437294351
 20
468.49602647728443
 11
256.99001437294351
 21
473.47871975403348
  0
LINE
  8
_2-0_
  6
CONTINUOUS
 62
    7
 10
254.59842908708308
 20
473.66615017390848
 11
248.37426120126926
 21
473.66615017390848
  0
LINE
  8
_2-0_
  6
CONTINUOUS
 62
    7
 10
254.77779798352262
 20
468.49602647728443
 11
254.77779798352262
 21
473.47871975403348
  0
LINE
  8
_2-0_
  6
CONTINUOUS
 62
    7
 10
254.59842908708308
 20
468.31262681912733
 11
248.37426120126926
 21
468.31262681912733
  0
LINE
  8
_2-0_
  6
CONTINUOUS
 62
    7
 10
248.19556409844935
 20
468.49602647728443
 11
248.19556409844935
 21
473.47871975403348
  0
LINE
  8
_2-0_
  6
CONTINUOUS
 62
    7
 10
245.80330701896932
 20
473.66615017390848
 11
239.58316989487318
 21
473.66615017390848
  0
LINE
  8
_2-0_
  6
CONTINUOUS
 62
    7
 10
245.98334770902849
 20
468.49602647728443
 11
245.98334770902849
 21
473.47871975403348
  0
LINE
  8
_2-0_
  6
CONTINUOUS
 62
    7
 10
245.80330701896932
 20
468.31262681912733
 11
239.58316989487318
 21
468.31262681912733
  0
LINE
  8
_2-0_
  6
CONTINUOUS
 62
    7
 10
239.40111382395523
 20
468.49602647728443
 11
239.40111382395523
 21
473.47871975403348
  0
LINE
  8
_2-0_
  6
CONTINUOUS
 62
    7
 10
237.00952853809483
 20
468.49602647728443
 11
237.00952853809483
 21
473.47871975403348
  0
LINE
  8
_2-0_
  6
CONTINUOUS
 62
    7
 10
236.83083143527492
 20
468.31262681912733
 11
230.60800713670025
 21
468.31262681912733
  0
LINE
  8
_2-0_
  6
CONTINUOUS
 62
    7
 10
236.83083143527492
 20
473.66615017390848
 11
230.60800713670025
 21
473.66615017390848
  0
LINE
  8
_2-0_
  6
CONTINUOUS
 62
    7
 10
230.42729465302156
 20
468.49602647728443
 11
230.42729465302156
 21
473.47871975403348
  0
LINE
  8
_2-0_
  6
CONTINUOUS
 62
    7
 10
228.03302219268252
 20
468.31262681912733
 11
221.81019789410809
 21
468.31262681912733
  0
LINE
  8
_2-0_
  6
CONTINUOUS
 62
    7
 10
228.21306288274181
 20
468.49602647728443
 11
228.21306288274181
 21
473.47871975403348
  0
LINE
  8
_2-0_
  6
CONTINUOUS
 62
    7
 10
228.03302219268252
 20
473.66615017390848
 11
221.81019789410809
 21
473.66615017390848
  0
LINE
  8
_2-0_
  6
CONTINUOUS
 62
    7
 10
221.63284437852744
 20
468.49602647728443
 11
221.63284437852744
 21
473.47871975403348
  0
LINE
  8
_2-0_
  6
CONTINUOUS
 62
    7
 10
212.83772231041368
 20
468.49602647728443
 11
212.83772231041368
 21
473.47871975403348
  0
LINE
  8
_2-0_
  6
CONTINUOUS
 62
    7
 10
219.23991550542777
 20
468.31262681912733
 11
213.0184347940926
 21
468.31262681912733
  0
LINE
  8
_2-0_
  6
CONTINUOUS
 62
    7
 10
219.41726902100842
 20
468.49602647728443
 11
219.41726902100842
 21
473.47871975403348
  0
LINE
  8
_2-0_
  6
CONTINUOUS
 62
    7
 10
219.23991550542777
 20
473.66615017390848
 11
213.0184347940926
 21
473.66615017390848
  0
LINE
  8
_2-0_
  6
CONTINUOUS
 62
    7
 10
265.66690076400334
 20
464.76286933303538
 11
265.66690076400334
 21
477.21389227914153
  0
LINE
  8
_2-0_
  6
CONTINUOUS
 62
    7
 10
246.2225062376144
 20
473.91202663869069
 11
239.21972954665668
 21
473.91202663869069
  0
LINE
  8
_2-0_
  6
CONTINUOUS
 62
    7
 10
239.22174492751569
 20
468.06003241814881
 11
239.22174492751569
 21
473.91202663869069
  0
LINE
  8
_2-0_
  6
CONTINUOUS
 62
    7
 10
246.2225062376144
 20
468.06003241814881
 11
239.21972954665668
 21
468.06003241814881
  0
LINE
  8
_2-0_
  6
CONTINUOUS
 62
    7
 10
246.2225062376144
 20
468.06003241814881
 11
246.2225062376144
 21
473.91202663869069
  0
LINE
  8
_2-0_
  6
CONTINUOUS
 62
    7
 10
254.95649508634253
 20
473.91202663869069
 11
248.01619520200981
 21
473.91202663869069
  0
LINE
  8
_2-0_
  6
CONTINUOUS
 62
    7
 10
248.01619520200981
 20
468.06003241814881
 11
248.01619520200981
 21
473.91202663869069
  0
LINE
  8
_2-0_
  6
CONTINUOUS
 62
    7
 10
254.95649508634253
 20
468.06003241814881
 11
248.01619520200981
 21
468.06003241814881
  0
LINE
  8
_2-0_
  6
CONTINUOUS
 62
    7
 10
254.95649508634253
 20
468.06003241814881
 11
254.95649508634253
 21
473.91202663869069
  0
LINE
  8
_2-0_
  6
CONTINUOUS
 62
    7
 10
256.80997368288422
 20
468.06003241814881
 11
256.80997368288422
 21
473.91202663869069
  0
LINE
  8
_2-0_
  6
CONTINUOUS
 62
    7
 10
263.75161715445608
 20
468.06003241814881
 11
256.80997368288422
 21
468.06003241814881
  0
LINE
  8
_2-0_
  6
CONTINUOUS
 62
    7
 10
263.75161715445608
 20
468.06003241814881
 11
263.75161715445608
 21
473.91202663869069
  0
LINE
  8
_2-0_
  6
CONTINUOUS
 62
    7
 10
237.18889743453437
 20
473.91202663869069
 11
230.1874643308158
 21
473.91202663869069
  0
LINE
  8
_2-0_
  6
CONTINUOUS
 62
    7
 10
230.1874643308158
 20
468.06003241814881
 11
230.1874643308158
 21
473.91202663869069
  0
LINE
  8
_2-0_
  6
CONTINUOUS
 62
    7
 10
237.18889743453437
 20
468.06003241814881
 11
230.1874643308158
 21
468.06003241814881
  0
LINE
  8
_2-0_
  6
CONTINUOUS
 62
    7
 10
237.18889743453437
 20
468.06003241814881
 11
237.18889743453437
 21
473.91202663869069
  0
LINE
  8
_2-0_
  6
CONTINUOUS
 62
    7
 10
228.39444716004036
 20
473.91202663869069
 11
221.39234226270204
 21
473.91202663869069
  0
LINE
  8
_2-0_
  6
CONTINUOUS
 62
    7
 10
221.39234226270204
 20
468.06003241814881
 11
221.39234226270204
 21
473.91202663869069
  0
LINE
  8
_2-0_
  6
CONTINUOUS
 62
    7
 10
228.39444716004036
 20
468.06003241814881
 11
221.39234226270204
 21
468.06003241814881
  0
LINE
  8
_2-0_
  6
CONTINUOUS
 62
    7
 10
228.39444716004036
 20
468.06003241814881
 11
228.39444716004036
 21
473.91202663869069
  0
LINE
  8
_2-0_
  6
CONTINUOUS
 62
    7
 10
219.59999688554623
 20
473.91202663869069
 11
212.65969700121352
 21
473.91202663869069
  0
LINE
  8
_2-0_
  6
CONTINUOUS
 62
    7
 10
212.65969700121352
 20
468.06003241814881
 11
212.65969700121352
 21
473.91202663869069
  0
LINE
  8
_2-0_
  6
CONTINUOUS
 62
    7
 10
219.59999688554623
 20
468.06003241814881
 11
212.65969700121352
 21
468.06003241814881
  0
LINE
  8
_2-0_
  6
CONTINUOUS
 62
    7
 10
219.59999688554623
 20
468.06003241814881
 11
219.59999688554623
 21
473.91202663869069
  0
LINE
  8
_2-0_
  6
CONTINUOUS
 62
    7
 10
265.66690076400334
 20
464.76286933303538
 11
260.10109062542085
 21
464.76286933303538
  0
LINE
  8
_2-0_
  6
CONTINUOUS
 62
    7
 10
265.66690076400334
 20
464.76286933303538
 11
265.66690076400334
 21
467.87058661741469
  0
LINE
  8
_2-0_
  6
CONTINUOUS
 62
    7
 10
265.66690076400334
 20
467.87058661741469
 11
260.10109062542085
 21
467.87058661741469
  0
LINE
  8
_2-0_
  6
CONTINUOUS
 62
    7
 10
260.10109062542085
 20
464.76286933303538
 11
260.10109062542085
 21
467.87058661741469
  0
LINE
  8
_2-0_
  6
CONTINUOUS
 62
    7
 10
265.66690076400334
 20
474.0987852649464
 11
260.10109062542085
 21
474.0987852649464
  0
LINE
  8
_2-0_
  6
CONTINUOUS
 62
    7
 10
265.66690076400334
 20
474.0987852649464
 11
265.66690076400334
 21
477.21389227914153
  0
LINE
  8
_2-0_
  6
CONTINUOUS
 62
    7
 10
265.66690076400334
 20
477.21389227914153
 11
260.10109062542085
 21
477.21389227914153
  0
LINE
  8
_2-0_
  6
CONTINUOUS
 62
    7
 10
260.10109062542085
 20
474.0987852649464
 11
260.10109062542085
 21
477.21389227914153
  0
LINE
  8
_2-0_
  6
CONTINUOUS
 62
    7
 10
216.30820814938997
 20
464.76286933303538
 11
210.74374159804663
 21
464.76286933303538
  0
LINE
  8
_2-0_
  6
CONTINUOUS
 62
    7
 10
210.74374159804663
 20
464.76286933303538
 11
210.74374159804663
 21
467.87058661741469
  0
LINE
  8
_2-0_
  6
CONTINUOUS
 62
    7
 10
216.30820814938997
 20
467.87058661741469
 11
210.74374159804663
 21
467.87058661741469
  0
LINE
  8
_2-0_
  6
CONTINUOUS
 62
    7
 10
216.30820814938997
 20
464.76286933303538
 11
216.30820814938997
 21
467.87058661741469
  0
LINE
  8
_2-0_
  6
CONTINUOUS
 62
    7
 10
216.30820814938997
 20
474.0987852649464
 11
210.74374159804663
 21
474.0987852649464
  0
LINE
  8
_2-0_
  6
CONTINUOUS
 62
    7
 10
216.30820814938997
 20
477.21389227914153
 11
210.74374159804663
 21
477.21389227914153
  0
LINE
  8
_2-0_
  6
CONTINUOUS
 62
    7
 10
216.30820814938997
 20
474.0987852649464
 11
216.30820814938997
 21
477.21389227914153
  0
LINE
  8
_2-0_
  6
CONTINUOUS
 62
    7
 10
263.75161715445608
 20
473.91202663869069
 11
256.80997368288422
 21
473.91202663869069
  0
LINE
  8
_2-0_
  6
CONTINUOUS
 62
    7
 10
265.6655571767642
 20
464.75951036493711
 11
265.6655571767642
 21
467.87528917275233
  0
LINE
  8
_2-0_
  6
CONTINUOUS
 62
    7
 10
252.20415662674404
 20
467.43996690723623
 11
252.3237358910371
 21
467.56424872686637
  0
LINE
  8
_2-0_
  6
CONTINUOUS
 62
    7
 10
252.20415662674404
 20
467.12959825496989
 11
252.56625338772116
 21
467.56424872686637
  0
LINE
  8
_2-0_
  6
CONTINUOUS
 62
    7
 10
252.20415662674404
 20
466.87834744123052
 11
252.86385796121451
 21
467.56424872686637
  0
LINE
  8
_2-0_
  6
CONTINUOUS
 62
    7
 10
252.20415662674404
 20
466.56596340810563
 11
253.16280612194711
 21
467.56424872686637
  0
LINE
  8
_2-0_
  6
CONTINUOUS
 62
    7
 10
252.4439869489498
 20
466.50684556957879
 11
253.39860568243498
 21
467.56424872686637
  0
LINE
  8
_2-0_
  6
CONTINUOUS
 62
    7
 10
252.6851608583946
 20
466.50684556957879
 11
253.58066175335293
 21
467.43996690723623
  0
LINE
  8
_2-0_
  6
CONTINUOUS
 62
    7
 10
252.98075005102916
 20
466.50684556957879
 11
253.58066175335293
 21
467.12959825496989
  0
LINE
  8
_2-0_
  6
CONTINUOUS
 62
    7
 10
253.28171359262055
 20
466.50684556957879
 11
253.58066175335293
 21
466.8158706346054
  0
LINE
  8
_2-0_
  6
CONTINUOUS
 62
    7
 10
253.58066175335293
 20
466.50684556957879
 11
253.58066175335293
 21
466.56596340810563
  0
LINE
  8
_2-0_
  6
CONTINUOUS
 62
    7
 10
252.20415662674404
 20
467.43996690723623
 11
252.3237358910371
 21
467.56424872686637
  0
LINE
  8
_2-0_
  6
CONTINUOUS
 62
    7
 10
252.20415662674404
 20
467.12959825496989
 11
252.56625338772116
 21
467.56424872686637
  0
LINE
  8
_2-0_
  6
CONTINUOUS
 62
    7
 10
252.20415662674404
 20
466.87834744123052
 11
252.86385796121451
 21
467.56424872686637
  0
LINE
  8
_2-0_
  6
CONTINUOUS
 62
    7
 10
252.20415662674404
 20
466.56596340810563
 11
253.16280612194711
 21
467.56424872686637
  0
LINE
  8
_2-0_
  6
CONTINUOUS
 62
    7
 10
252.4439869489498
 20
466.50684556957879
 11
253.39860568243498
 21
467.56424872686637
  0
LINE
  8
_2-0_
  6
CONTINUOUS
 62
    7
 10
252.6851608583946
 20
466.50684556957879
 11
253.58066175335293
 21
467.43996690723623
  0
LINE
  8
_2-0_
  6
CONTINUOUS
 62
    7
 10
252.98075005102916
 20
466.50684556957879
 11
253.58066175335293
 21
467.12959825496989
  0
LINE
  8
_2-0_
  6
CONTINUOUS
 62
    7
 10
253.28171359262055
 20
466.50684556957879
 11
253.58066175335293
 21
466.8158706346054
  0
LINE
  8
_2-0_
  6
CONTINUOUS
 62
    7
 10
253.58066175335293
 20
466.50684556957879
 11
253.58066175335293
 21
466.56596340810563
  0
LINE
  8
_2-0_
  6
CONTINUOUS
 62
    7
 10
252.20415662674404
 20
467.12959825496989
 11
252.56625338772116
 21
467.56424872686637
  0
LINE
  8
_2-0_
  6
CONTINUOUS
 62
    7
 10
252.20415662674404
 20
466.56596340810563
 11
253.16280612194711
 21
467.56424872686637
  0
LINE
  8
_2-0_
  6
CONTINUOUS
 62
    7
 10
252.6851608583946
 20
466.50684556957879
 11
253.58066175335293
 21
467.43996690723623
  0
LINE
  8
_2-0_
  6
CONTINUOUS
 62
    7
 10
253.28171359262055
 20
466.50684556957879
 11
253.58066175335293
 21
466.8158706346054
  0
LINE
  8
_2-0_
  6
CONTINUOUS
 62
    7
 10
253.58066175335293
 20
466.50684556957879
 11
253.58066175335293
 21
467.56424872686637
  0
LINE
  8
_2-0_
  6
CONTINUOUS
 62
    7
 10
252.20415662674404
 20
466.50684556957879
 11
252.20415662674404
 21
467.56424872686637
  0
LINE
  8
_2-0_
  6
CONTINUOUS
 62
    7
 10
253.99918917837849
 20
466.50684556957879
 11
251.78697278895763
 21
466.50684556957879
  0
LINE
  8
_2-0_
  6
CONTINUOUS
 62
    7
 10
251.7842856144791
 20
466.50684556957879
 11
251.7842856144791
 21
467.56424872686637
  0
LINE
  8
_2-0_
  6
CONTINUOUS
 62
    7
 10
253.99918917837849
 20
467.56424872686637
 11
251.78697278895763
 21
467.56424872686637
  0
LINE
  8
_2-0_
  6
CONTINUOUS
 62
    7
 10
253.99918917837849
 20
466.50684556957879
 11
253.99918917837849
 21
467.56424872686637
  0
LINE
  8
_2-0_
  6
CONTINUOUS
 62
    7
 10
246.40120334043431
 20
474.53746649856055
 11
246.521454398347
 21
474.40915391721262
  0
LINE
  8
_2-0_
  6
CONTINUOUS
 62
    7
 10
246.40120334043431
 20
474.85119411892492
 11
246.75926933969376
 21
474.40915391721262
  0
LINE
  8
_2-0_
  6
CONTINUOUS
 62
    7
 10
265.6655571767642
 20
464.75951036493711
 11
265.6655571767642
 21
477.21523586638079
  0
LINE
  8
_2-0_
  6
CONTINUOUS
 62
    7
 10
265.6655571767642
 20
474.0987852649464
 11
265.6655571767642
 21
477.21523586638079
  0
LINE
  8
_2-0_
  6
CONTINUOUS
 62
    7
 10
210.74374159804663
 20
463.70345079488891
 11
210.74374159804663
 21
477.21523586638079
  0
LINE
  8
_2-0_
  6
CONTINUOUS
 62
    7
 10
264.64980522389294
 20
463.70345079488891
 11
210.74374159804663
 21
463.70345079488891
  0
LINE
  8
_2-0_
  6
CONTINUOUS
 62
    7
 10
210.74374159804663
 20
474.0987852649464
 11
210.74374159804663
 21
478.2753261981469
  0
LINE
  8
_2-0_
  6
CONTINUOUS
 62
    7
 10
274.5173097110677
 20
468.06406317986637
 11
267.5796970012135
 21
468.06406317986637
  0
LINE
  8
_2-0_
  6
CONTINUOUS
 62
    7
 10
267.5796970012135
 20
468.06406317986637
 11
267.5796970012135
 21
473.91605740040859
  0
LINE
  8
_2-0_
  6
CONTINUOUS
 62
    7
 10
267.5796970012135
 20
473.91605740040859
 11
274.5173097110677
 21
473.91605740040859
  0
LINE
  8
_2-0_
  6
CONTINUOUS
 62
    7
 10
274.5173097110677
 20
473.91605740040859
 11
274.5173097110677
 21
468.06406317986637
  0
LINE
  8
_2-0_
  6
CONTINUOUS
 62
    7
 10
283.31243177918134
 20
468.06406317986637
 11
276.37347548208788
 21
468.06406317986637
  0
LINE
  8
_2-0_
  6
CONTINUOUS
 62
    7
 10
276.37347548208788
 20
468.06406317986637
 11
276.37347548208788
 21
473.91605740040859
  0
LINE
  8
_2-0_
  6
CONTINUOUS
 62
    7
 10
276.37347548208788
 20
473.91605740040859
 11
283.31243177918134
 21
473.91605740040859
  0
LINE
  8
_2-0_
  6
CONTINUOUS
 62
    7
 10
283.31243177918134
 20
473.91605740040859
 11
283.31243177918134
 21
468.06406317986637
  0
LINE
  8
_2-0_
  6
CONTINUOUS
 62
    7
 10
292.10889743453436
 20
468.06406317986637
 11
285.16859755020164
 21
468.06406317986637
  0
LINE
  8
_2-0_
  6
CONTINUOUS
 62
    7
 10
285.16859755020164
 20
468.06406317986637
 11
285.16859755020164
 21
473.91605740040859
  0
LINE
  8
_2-0_
  6
CONTINUOUS
 62
    7
 10
285.16859755020164
 20
473.91605740040859
 11
292.10889743453436
 21
473.91605740040859
  0
LINE
  8
_2-0_
  6
CONTINUOUS
 62
    7
 10
292.10889743453436
 20
473.91605740040859
 11
292.10889743453436
 21
468.06406317986637
  0
LINE
  8
_2-0_
  6
CONTINUOUS
 62
    7
 10
301.0336756712353
 20
468.06406317986637
 11
294.09337578690281
 21
468.06406317986637
  0
LINE
  8
_2-0_
  6
CONTINUOUS
 62
    7
 10
294.09337578690281
 20
468.06406317986637
 11
294.09337578690281
 21
473.91605740040859
  0
LINE
  8
_2-0_
  6
CONTINUOUS
 62
    7
 10
294.09337578690281
 20
473.91605740040859
 11
301.0336756712353
 21
473.91605740040859
  0
LINE
  8
_2-0_
  6
CONTINUOUS
 62
    7
 10
301.0336756712353
 20
473.91605740040859
 11
301.0336756712353
 21
468.06406317986637
  0
LINE
  8
_2-0_
  6
CONTINUOUS
 62
    7
 10
309.87447970548351
 20
468.06406317986637
 11
302.9361952020098
 21
468.06406317986637
  0
LINE
  8
_2-0_
  6
CONTINUOUS
 62
    7
 10
302.9361952020098
 20
468.06406317986637
 11
302.9361952020098
 21
473.91605740040859
  0
LINE
  8
_2-0_
  6
CONTINUOUS
 62
    7
 10
302.9361952020098
 20
473.91605740040859
 11
309.87447970548351
 21
473.91605740040859
  0
LINE
  8
_2-0_
  6
CONTINUOUS
 62
    7
 10
309.87447970548351
 20
473.91605740040859
 11
309.87447970548351
 21
468.06406317986637
  0
LINE
  8
_2-0_
  6
CONTINUOUS
 62
    7
 10
318.67161715445604
 20
468.06406317986637
 11
311.73400444460196
 21
468.06406317986637
  0
LINE
  8
_2-0_
  6
CONTINUOUS
 62
    7
 10
311.73400444460196
 20
468.06406317986637
 11
311.73400444460196
 21
473.91605740040859
  0
LINE
  8
_2-0_
  6
CONTINUOUS
 62
    7
 10
311.73400444460196
 20
473.91605740040859
 11
318.67161715445604
 21
473.91605740040859
  0
LINE
  8
_2-0_
  6
CONTINUOUS
 62
    7
 10
318.67161715445604
 20
473.91605740040859
 11
318.67161715445604
 21
468.06406317986637
  0
LINE
  8
_2-0_
  6
CONTINUOUS
 62
    7
 10
301.32389051491293
 20
475.0984141709464
 11
301.97821750042635
 21
474.41385647254981
  0
LINE
  8
_2-0_
  6
CONTINUOUS
 62
    7
 10
301.32389051491293
 20
475.40676744235373
 11
302.27716566115896
 21
474.41385647254981
  0
LINE
  8
_2-0_
  6
CONTINUOUS
 62
    7
 10
301.55969007540068
 20
475.46991604259847
 11
302.5774574091306
 21
474.41385647254981
  0
LINE
  8
_2-0_
  6
CONTINUOUS
 62
    7
 10
301.85931002975292
 20
475.46991604259847
 11
302.69703667342367
 21
474.53746649856055
  0
LINE
  8
_2-0_
  6
CONTINUOUS
 62
    7
 10
302.09712497109979
 20
475.46991604259847
 11
302.69703667342367
 21
474.84850694444629
  0
LINE
  8
_2-0_
  6
CONTINUOUS
 62
    7
 10
302.39808851269106
 20
475.46991604259847
 11
302.69703667342367
 21
475.16021918395165
  0
LINE
  8
_2-0_
  6
CONTINUOUS
 62
    7
 10
302.69703667342367
 20
475.46991604259847
 11
302.69703667342367
 21
475.40676744235373
  0
LINE
  8
_2-0_
  6
CONTINUOUS
 62
    7
 10
301.32389051491293
 20
474.53746649856055
 11
301.44145439834699
 21
474.41385647254981
  0
LINE
  8
_2-0_
  6
CONTINUOUS
 62
    7
 10
301.32389051491293
 20
474.84850694444629
 11
301.67926933969375
 21
474.40915391721262
  0
LINE
  8
_2-0_
  6
CONTINUOUS
 62
    7
 10
301.32389051491293
 20
475.0984141709464
 11
301.97821750042635
 21
474.41385647254981
  0
LINE
  8
_2-0_
  6
CONTINUOUS
 62
    7
 10
301.32389051491293
 20
475.40676744235373
 11
302.27716566115896
 21
474.41385647254981
  0
LINE
  8
_2-0_
  6
CONTINUOUS
 62
    7
 10
301.55969007540068
 20
475.46991604259847
 11
302.5774574091306
 21
474.41385647254981
  0
LINE
  8
_2-0_
  6
CONTINUOUS
 62
    7
 10
301.85931002975292
 20
475.46991604259847
 11
302.69703667342367
 21
474.53746649856055
  0
LINE
  8
_2-0_
  6
CONTINUOUS
 62
    7
 10
302.09712497109979
 20
475.46991604259847
 11
302.69703667342367
 21
474.84850694444629
  0
LINE
  8
_2-0_
  6
CONTINUOUS
 62
    7
 10
302.39808851269106
 20
475.46991604259847
 11
302.69703667342367
 21
475.16021918395165
  0
LINE
  8
_2-0_
  6
CONTINUOUS
 62
    7
 10
302.69703667342367
 20
475.46991604259847
 11
302.69703667342367
 21
475.40676744235373
  0
LINE
  8
_2-0_
  6
CONTINUOUS
 62
    7
 10
301.32389051491293
 20
474.84850694444629
 11
301.67926933969375
 21
474.40915391721262
  0
LINE
  8
_2-0_
  6
CONTINUOUS
 62
    7
 10
301.32389051491293
 20
475.40676744235373
 11
302.27716566115896
 21
474.41385647254981
  0
LINE
  8
_2-0_
  6
CONTINUOUS
 62
    7
 10
301.85931002975292
 20
475.46991604259847
 11
302.69703667342367
 21
474.53746649856055
  0
LINE
  8
_2-0_
  6
CONTINUOUS
 62
    7
 10
302.39808851269106
 20
475.46991604259847
 11
302.69703667342367
 21
475.16021918395165
  0
LINE
  8
_2-0_
  6
CONTINUOUS
 62
    7
 10
302.69703667342367
 20
474.41385647254981
 11
302.69703667342367
 21
475.46991604259847
  0
LINE
  8
_2-0_
  6
CONTINUOUS
 62
    7
 10
301.32389051491293
 20
474.41385647254981
 11
301.32389051491293
 21
475.46991604259847
  0
LINE
  8
_2-0_
  6
CONTINUOUS
 62
    7
 10
303.11556409844934
 20
475.46991604259847
 11
300.90334770902848
 21
475.46991604259847
  0
LINE
  8
_2-0_
  6
CONTINUOUS
 62
    7
 10
300.90334770902848
 20
474.41385647254981
 11
300.90334770902848
 21
475.46991604259847
  0
LINE
  8
_2-0_
  6
CONTINUOUS
 62
    7
 10
303.11556409844934
 20
474.41385647254981
 11
300.90334770902848
 21
474.41385647254981
  0
LINE
  8
_2-0_
  6
CONTINUOUS
 62
    7
 10
303.11556409844934
 20
474.41385647254981
 11
303.11556409844934
 21
475.46991604259847
  0
LINE
  8
_2-0_
  6
CONTINUOUS
 62
    7
 10
283.55024672052809
 20
474.53746649856055
 11
283.67587212739784
 21
474.41385647254981
  0
LINE
  8
_2-0_
  6
CONTINUOUS
 62
    7
 10
283.55024672052809
 20
474.84850694444629
 11
283.91099989426596
 21
474.40915391721262
  0
LINE
  8
_2-0_
  6
CONTINUOUS
 62
    7
 10
283.55024672052809
 20
475.0984141709464
 11
284.21061984861819
 21
474.41385647254981
  0
LINE
  8
_2-0_
  6
CONTINUOUS
 62
    7
 10
283.55024672052809
 20
475.40676744235373
 11
284.5095680093508
 21
474.41385647254981
  0
LINE
  8
_2-0_
  6
CONTINUOUS
 62
    7
 10
283.79209242359263
 20
475.46991604259847
 11
284.7480547443173
 21
474.41385647254981
  0
LINE
  8
_2-0_
  6
CONTINUOUS
 62
    7
 10
284.03125095217865
 20
475.46991604259847
 11
284.92742364075684
 21
474.53746649856055
  0
LINE
  8
_2-0_
  6
CONTINUOUS
 62
    7
 10
284.33019911291126
 20
475.46991604259847
 11
284.92943902161562
 21
474.84850694444629
  0
LINE
  8
_2-0_
  6
CONTINUOUS
 62
    7
 10
284.62914727364387
 20
475.46991604259847
 11
284.92943902161562
 21
475.16021918395165
  0
LINE
  8
_2-0_
  6
CONTINUOUS
 62
    7
 10
284.92943902161562
 20
475.46991604259847
 11
284.92943902161562
 21
475.40676744235373
  0
LINE
  8
_2-0_
  6
CONTINUOUS
 62
    7
 10
283.55024672052809
 20
474.53746649856055
 11
283.67587212739784
 21
474.41385647254981
  0
LINE
  8
_2-0_
  6
CONTINUOUS
 62
    7
 10
283.55024672052809
 20
474.84850694444629
 11
283.91099989426596
 21
474.40915391721262
  0
LINE
  8
_2-0_
  6
CONTINUOUS
 62
    7
 10
283.55024672052809
 20
475.0984141709464
 11
284.21061984861819
 21
474.41385647254981
  0
LINE
  8
_2-0_
  6
CONTINUOUS
 62
    7
 10
283.55024672052809
 20
475.40676744235373
 11
284.5095680093508
 21
474.41385647254981
  0
LINE
  8
_2-0_
  6
CONTINUOUS
 62
    7
 10
283.79209242359263
 20
475.46991604259847
 11
284.7480547443173
 21
474.41385647254981
  0
LINE
  8
_2-0_
  6
CONTINUOUS
 62
    7
 10
284.03125095217865
 20
475.46991604259847
 11
284.92742364075684
 21
474.53746649856055
  0
LINE
  8
_2-0_
  6
CONTINUOUS
 62
    7
 10
284.33019911291126
 20
475.46991604259847
 11
284.92943902161562
 21
474.84850694444629
  0
LINE
  8
_2-0_
  6
CONTINUOUS
 62
    7
 10
284.62914727364387
 20
475.46991604259847
 11
284.92943902161562
 21
475.16021918395165
  0
LINE
  8
_2-0_
  6
CONTINUOUS
 62
    7
 10
284.92943902161562
 20
475.46991604259847
 11
284.92943902161562
 21
475.40676744235373
  0
LINE
  8
_2-0_
  6
CONTINUOUS
 62
    7
 10
283.55024672052809
 20
474.84850694444629
 11
283.91099989426596
 21
474.40915391721262
  0
LINE
  8
_2-0_
  6
CONTINUOUS
 62
    7
 10
283.55024672052809
 20
475.40676744235373
 11
284.5095680093508
 21
474.41385647254981
  0
LINE
  8
_2-0_
  6
CONTINUOUS
 62
    7
 10
284.03125095217865
 20
475.46991604259847
 11
284.92742364075684
 21
474.53746649856055
  0
LINE
  8
_2-0_
  6
CONTINUOUS
 62
    7
 10
284.62914727364387
 20
475.46991604259847
 11
284.92943902161562
 21
475.16021918395165
  0
LINE
  8
_2-0_
  6
CONTINUOUS
 62
    7
 10
284.92943902161562
 20
474.41385647254981
 11
284.92943902161562
 21
475.46991604259847
  0
LINE
  8
_2-0_
  6
CONTINUOUS
 62
    7
 10
283.55024672052809
 20
474.41385647254981
 11
283.55024672052809
 21
475.46991604259847
  0
LINE
  8
_2-0_
  6
CONTINUOUS
 62
    7
 10
285.34729465302155
 20
475.46991604259847
 11
283.1330628827418
 21
475.46991604259847
  0
LINE
  8
_2-0_
  6
CONTINUOUS
 62
    7
 10
283.1330628827418
 20
474.41385647254981
 11
283.1330628827418
 21
475.46991604259847
  0
LINE
  8
_2-0_
  6
CONTINUOUS
 62
    7
 10
285.34729465302155
 20
474.41385647254981
 11
283.1330628827418
 21
474.41385647254981
  0
LINE
  8
_2-0_
  6
CONTINUOUS
 62
    7
 10
285.34729465302155
 20
474.41385647254981
 11
285.34729465302155
 21
475.46991604259847
  0
LINE
  8
_2-0_
  6
CONTINUOUS
 62
    7
 10
292.40515842078844
 20
467.43727973275736
 11
292.52608127232077
 21
467.56559231410563
  0
LINE
  8
_2-0_
  6
CONTINUOUS
 62
    7
 10
292.40515842078844
 20
467.12691108049148
 11
292.8216704649551
 21
467.56559231410563
  0
LINE
  8
_2-0_
  6
CONTINUOUS
 62
    7
 10
292.40515842078844
 20
466.87834744123052
 11
293.12263400654638
 21
467.56156155238796
  0
LINE
  8
_2-0_
  6
CONTINUOUS
 62
    7
 10
292.40515842078844
 20
466.56596340810563
 11
293.36649509046981
 21
467.56156155238796
  0
LINE
  8
_2-0_
  6
CONTINUOUS
 62
    7
 10
292.6456605366136
 20
466.50684556957879
 11
293.66342787034353
 21
467.56156155238796
  0
LINE
  8
_2-0_
  6
CONTINUOUS
 62
    7
 10
292.94595228458547
 20
466.50684556957879
 11
293.84078138592406
 21
467.43727973275736
  0
LINE
  8
_2-0_
  6
CONTINUOUS
 62
    7
 10
293.24355685807882
 20
466.50684556957879
 11
293.84414035402233
 21
467.12959825496989
  0
LINE
  8
_2-0_
  6
CONTINUOUS
 62
    7
 10
293.48405897390398
 20
466.50684556957879
 11
293.84414035402233
 21
466.8158706346054
  0
LINE
  8
_2-0_
  6
CONTINUOUS
 62
    7
 10
293.78300713463659
 20
466.50684556957879
 11
293.84078138592406
 21
466.56596340810563
  0
LINE
  8
_2-0_
  6
CONTINUOUS
 62
    7
 10
292.40515842078844
 20
467.43727973275736
 11
292.52608127232077
 21
467.56559231410563
  0
LINE
  8
_2-0_
  6
CONTINUOUS
 62
    7
 10
292.40515842078844
 20
467.12691108049148
 11
292.8216704649551
 21
467.56559231410563
  0
LINE
  8
_2-0_
  6
CONTINUOUS
 62
    7
 10
292.40515842078844
 20
466.87834744123052
 11
293.12263400654638
 21
467.56156155238796
  0
LINE
  8
_2-0_
  6
CONTINUOUS
 62
    7
 10
292.40515842078844
 20
466.56596340810563
 11
293.36649509046981
 21
467.56156155238796
  0
LINE
  8
_2-0_
  6
CONTINUOUS
 62
    7
 10
292.6456605366136
 20
466.50684556957879
 11
293.66342787034353
 21
467.56156155238796
  0
LINE
  8
_2-0_
  6
CONTINUOUS
 62
    7
 10
292.94595228458547
 20
466.50684556957879
 11
293.84078138592406
 21
467.43727973275736
  0
LINE
  8
_2-0_
  6
CONTINUOUS
 62
    7
 10
293.24355685807882
 20
466.50684556957879
 11
293.84414035402233
 21
467.12959825496989
  0
LINE
  8
_2-0_
  6
CONTINUOUS
 62
    7
 10
293.48405897390398
 20
466.50684556957879
 11
293.84414035402233
 21
466.8158706346054
  0
LINE
  8
_2-0_
  6
CONTINUOUS
 62
    7
 10
293.78300713463659
 20
466.50684556957879
 11
293.84078138592406
 21
466.56596340810563
  0
LINE
  8
_2-0_
  6
CONTINUOUS
 62
    7
 10
292.40515842078844
 20
467.12691108049148
 11
292.8216704649551
 21
467.56559231410563
  0
LINE
  8
_2-0_
  6
CONTINUOUS
 62
    7
 10
292.40515842078844
 20
466.56596340810563
 11
293.36649509046981
 21
467.56156155238796
  0
LINE
  8
_2-0_
  6
CONTINUOUS
 62
    7
 10
292.94595228458547
 20
466.50684556957879
 11
293.84078138592406
 21
467.43727973275736
  0
LINE
  8
_2-0_
  6
CONTINUOUS
 62
    7
 10
293.48405897390398
 20
466.50684556957879
 11
293.84414035402233
 21
466.8158706346054
  0
LINE
  8
_2-0_
  6
CONTINUOUS
 62
    7
 10
293.84078138592406
 20
466.50684556957879
 11
293.84078138592406
 21
467.56156155238796
  0
LINE
  8
_2-0_
  6
CONTINUOUS
 62
    7
 10
292.40515842078844
 20
466.50684556957879
 11
292.40515842078844
 21
467.56156155238796
  0
LINE
  8
_2-0_
  6
CONTINUOUS
 62
    7
 10
294.20153455966215
 20
466.50684556957879
 11
292.04910780238788
 21
466.50684556957879
  0
LINE
  8
_2-0_
  6
CONTINUOUS
 62
    7
 10
292.04776421514862
 20
466.50684556957879
 11
292.04776421514862
 21
467.56156155238796
  0
LINE
  8
_2-0_
  6
CONTINUOUS
 62
    7
 10
294.20153455966215
 20
467.56559231410563
 11
292.04910780238788
 21
467.56559231410563
  0
LINE
  8
_2-0_
  6
CONTINUOUS
 62
    7
 10
294.20153455966215
 20
466.50684556957879
 11
294.20153455966215
 21
467.56156155238796
  0
LINE
  8
_2-0_
  6
CONTINUOUS
 62
    7
 10
274.75781182689309
 20
467.43727973275736
 11
274.87873467842508
 21
467.56559231410563
  0
LINE
  8
_2-0_
  6
CONTINUOUS
 62
    7
 10
274.75781182689309
 20
467.12691108049148
 11
275.11789320701121
 21
467.56559231410563
  0
LINE
  8
_2-0_
  6
CONTINUOUS
 62
    7
 10
274.75781182689309
 20
466.87834744123052
 11
275.41549778050444
 21
467.56156155238796
  0
LINE
  8
_2-0_
  6
CONTINUOUS
 62
    7
 10
274.75781182689309
 20
466.56596340810563
 11
275.71175876675852
 21
467.56156155238796
  0
LINE
  8
_2-0_
  6
CONTINUOUS
 62
    7
 10
274.99562676823973
 20
466.50684556957879
 11
275.95360446982318
 21
467.56156155238796
  0
LINE
  8
_2-0_
  6
CONTINUOUS
 62
    7
 10
275.29390313535271
 20
466.50684556957879
 11
276.13431695350187
 21
467.43727973275736
  0
LINE
  8
_2-0_
  6
CONTINUOUS
 62
    7
 10
275.53574883841713
 20
466.50684556957879
 11
276.13431695350187
 21
467.12959825496989
  0
LINE
  8
_2-0_
  6
CONTINUOUS
 62
    7
 10
275.83604058638889
 20
466.50684556957879
 11
276.13431695350187
 21
466.8158706346054
  0
LINE
  8
_2-0_
  6
CONTINUOUS
 62
    7
 10
276.13431695350187
 20
466.50684556957879
 11
276.13431695350187
 21
466.56596340810563
  0
LINE
  8
_2-0_
  6
CONTINUOUS
 62
    7
 10
274.75781182689309
 20
467.43727973275736
 11
274.87873467842508
 21
467.56559231410563
  0
LINE
  8
_2-0_
  6
CONTINUOUS
 62
    7
 10
274.75781182689309
 20
467.12691108049148
 11
275.11789320701121
 21
467.56559231410563
  0
LINE
  8
_2-0_
  6
CONTINUOUS
 62
    7
 10
274.75781182689309
 20
466.87834744123052
 11
275.41549778050444
 21
467.56156155238796
  0
LINE
  8
_2-0_
  6
CONTINUOUS
 62
    7
 10
274.75781182689309
 20
466.56596340810563
 11
275.71175876675852
 21
467.56156155238796
  0
LINE
  8
_2-0_
  6
CONTINUOUS
 62
    7
 10
274.99562676823973
 20
466.50684556957879
 11
275.95360446982318
 21
467.56156155238796
  0
LINE
  8
_2-0_
  6
CONTINUOUS
 62
    7
 10
275.29390313535271
 20
466.50684556957879
 11
276.13431695350187
 21
467.43727973275736
  0
LINE
  8
_2-0_
  6
CONTINUOUS
 62
    7
 10
275.53574883841713
 20
466.50684556957879
 11
276.13431695350187
 21
467.12959825496989
  0
LINE
  8
_2-0_
  6
CONTINUOUS
 62
    7
 10
275.83604058638889
 20
466.50684556957879
 11
276.13431695350187
 21
466.8158706346054
  0
LINE
  8
_2-0_
  6
CONTINUOUS
 62
    7
 10
276.13431695350187
 20
466.50684556957879
 11
276.13431695350187
 21
466.56596340810563
  0
LINE
  8
_2-0_
  6
CONTINUOUS
 62
    7
 10
274.75781182689309
 20
467.12691108049148
 11
275.11789320701121
 21
467.56559231410563
  0
LINE
  8
_2-0_
  6
CONTINUOUS
 62
    7
 10
274.75781182689309
 20
466.56596340810563
 11
275.71175876675852
 21
467.56156155238796
  0
LINE
  8
_2-0_
  6
CONTINUOUS
 62
    7
 10
275.29390313535271
 20
466.50684556957879
 11
276.13431695350187
 21
467.43727973275736
  0
LINE
  8
_2-0_
  6
CONTINUOUS
 62
    7
 10
275.83604058638889
 20
466.50684556957879
 11
276.13431695350187
 21
466.8158706346054
  0
LINE
  8
_2-0_
  6
CONTINUOUS
 62
    7
 10
276.13431695350187
 20
466.50684556957879
 11
276.13431695350187
 21
467.56156155238796
  0
LINE
  8
_2-0_
  6
CONTINUOUS
 62
    7
 10
274.75781182689309
 20
466.50684556957879
 11
274.75781182689309
 21
467.56156155238796
  0
LINE
  8
_2-0_
  6
CONTINUOUS
 62
    7
 10
276.55284437852742
 20
466.50684556957879
 11
274.33726902100841
 21
466.50684556957879
  0
LINE
  8
_2-0_
  6
CONTINUOUS
 62
    7
 10
274.33726902100841
 20
466.50684556957879
 11
274.33726902100841
 21
467.56156155238796
  0
LINE
  8
_2-0_
  6
CONTINUOUS
 62
    7
 10
276.55284437852742
 20
467.56559231410563
 11
274.33726902100841
 21
467.56559231410563
  0
LINE
  8
_2-0_
  6
CONTINUOUS
 62
    7
 10
276.55284437852742
 20
466.50684556957879
 11
276.55284437852742
 21
467.56156155238796
  0
LINE
  8
_2-0_
  6
CONTINUOUS
 62
    7
 10
318.31019218709855
 20
473.66615017390848
 11
312.08938326938301
 21
473.66615017390848
  0
LINE
  8
_2-0_
  6
CONTINUOUS
 62
    7
 10
318.49224825801673
 20
468.49602647728443
 11
318.49224825801673
 21
473.47871975403348
  0
LINE
  8
_2-0_
  6
CONTINUOUS
 62
    7
 10
318.31019218709855
 20
468.31262681912733
 11
312.08938326938301
 21
468.31262681912733
  0
LINE
  8
_2-0_
  6
CONTINUOUS
 62
    7
 10
311.91001437294346
 20
468.49602647728443
 11
311.91001437294346
 21
473.47871975403348
  0
LINE
  8
_2-0_
  6
CONTINUOUS
 62
    7
 10
309.51842908708306
 20
473.66615017390848
 11
303.29426120126925
 21
473.66615017390848
  0
LINE
  8
_2-0_
  6
CONTINUOUS
 62
    7
 10
309.69779798352261
 20
468.49602647728443
 11
309.69779798352261
 21
473.47871975403348
  0
LINE
  8
_2-0_
  6
CONTINUOUS
 62
    7
 10
309.51842908708306
 20
468.31262681912733
 11
303.29426120126925
 21
468.31262681912733
  0
LINE
  8
_2-0_
  6
CONTINUOUS
 62
    7
 10
303.11556409844934
 20
468.49602647728443
 11
303.11556409844934
 21
473.47871975403348
  0
LINE
  8
_2-0_
  6
CONTINUOUS
 62
    7
 10
300.72330701896931
 20
473.66615017390848
 11
294.50316989487317
 21
473.66615017390848
  0
LINE
  8
_2-0_
  6
CONTINUOUS
 62
    7
 10
300.90334770902848
 20
468.49602647728443
 11
300.90334770902848
 21
473.47871975403348
  0
LINE
  8
_2-0_
  6
CONTINUOUS
 62
    7
 10
300.72330701896931
 20
468.31262681912733
 11
294.50316989487317
 21
468.31262681912733
  0
LINE
  8
_2-0_
  6
CONTINUOUS
 62
    7
 10
294.32111382395522
 20
468.49602647728443
 11
294.32111382395522
 21
473.47871975403348
  0
LINE
  8
_2-0_
  6
CONTINUOUS
 62
    7
 10
291.92952853809481
 20
468.49602647728443
 11
291.92952853809481
 21
473.47871975403348
  0
LINE
  8
_2-0_
  6
CONTINUOUS
 62
    7
 10
291.7508314352749
 20
468.31262681912733
 11
285.52800713670024
 21
468.31262681912733
  0
LINE
  8
_2-0_
  6
CONTINUOUS
 62
    7
 10
291.7508314352749
 20
473.66615017390848
 11
285.52800713670024
 21
473.66615017390848
  0
LINE
  8
_2-0_
  6
CONTINUOUS
 62
    7
 10
285.34729465302155
 20
468.49602647728443
 11
285.34729465302155
 21
473.47871975403348
  0
LINE
  8
_2-0_
  6
CONTINUOUS
 62
    7
 10
282.95302219268251
 20
468.31262681912733
 11
276.73019789410807
 21
468.31262681912733
  0
LINE
  8
_2-0_
  6
CONTINUOUS
 62
    7
 10
283.1330628827418
 20
468.49602647728443
 11
283.1330628827418
 21
473.47871975403348
  0
LINE
  8
_2-0_
  6
CONTINUOUS
 62
    7
 10
282.95302219268251
 20
473.66615017390848
 11
276.73019789410807
 21
473.66615017390848
  0
LINE
  8
_2-0_
  6
CONTINUOUS
 62
    7
 10
276.55284437852742
 20
468.49602647728443
 11
276.55284437852742
 21
473.47871975403348
  0
LINE
  8
_2-0_
  6
CONTINUOUS
 62
    7
 10
267.75772231041367
 20
468.49602647728443
 11
267.75772231041367
 21
473.47871975403348
  0
LINE
  8
_2-0_
  6
CONTINUOUS
 62
    7
 10
274.15991550542788
 20
468.31262681912733
 11
267.93843479409259
 21
468.31262681912733
  0
LINE
  8
_2-0_
  6
CONTINUOUS
 62
    7
 10
274.33726902100841
 20
468.49602647728443
 11
274.33726902100841
 21
473.47871975403348
  0
LINE
  8
_2-0_
  6
CONTINUOUS
 62
    7
 10
274.15991550542788
 20
473.66615017390848
 11
267.93843479409259
 21
473.66615017390848
  0
LINE
  8
_2-0_
  6
CONTINUOUS
 62
    7
 10
320.5869007640033
 20
464.76286933303538
 11
320.5869007640033
 21
477.21389227914153
  0
LINE
  8
_2-0_
  6
CONTINUOUS
 62
    7
 10
301.14250623761438
 20
473.91202663869069
 11
294.13972954665667
 21
473.91202663869069
  0
LINE
  8
_2-0_
  6
CONTINUOUS
 62
    7
 10
294.14174492751567
 20
468.06003241814881
 11
294.14174492751567
 21
473.91202663869069
  0
LINE
  8
_2-0_
  6
CONTINUOUS
 62
    7
 10
301.14250623761438
 20
468.06003241814881
 11
294.13972954665667
 21
468.06003241814881
  0
LINE
  8
_2-0_
  6
CONTINUOUS
 62
    7
 10
301.14250623761438
 20
468.06003241814881
 11
301.14250623761438
 21
473.91202663869069
  0
LINE
  8
_2-0_
  6
CONTINUOUS
 62
    7
 10
309.87649508634252
 20
473.91202663869069
 11
302.9361952020098
 21
473.91202663869069
  0
LINE
  8
_2-0_
  6
CONTINUOUS
 62
    7
 10
302.9361952020098
 20
468.06003241814881
 11
302.9361952020098
 21
473.91202663869069
  0
LINE
  8
_2-0_
  6
CONTINUOUS
 62
    7
 10
309.87649508634252
 20
468.06003241814881
 11
302.9361952020098
 21
468.06003241814881
  0
LINE
  8
_2-0_
  6
CONTINUOUS
 62
    7
 10
309.87649508634252
 20
468.06003241814881
 11
309.87649508634252
 21
473.91202663869069
  0
LINE
  8
_2-0_
  6
CONTINUOUS
 62
    7
 10
311.72997368288418
 20
468.06003241814881
 11
311.72997368288418
 21
473.91202663869069
  0
LINE
  8
_2-0_
  6
CONTINUOUS
 62
    7
 10
318.67161715445604
 20
468.06003241814881
 11
311.72997368288418
 21
468.06003241814881
  0
LINE
  8
_2-0_
  6
CONTINUOUS
 62
    7
 10
318.67161715445604
 20
468.06003241814881
 11
318.67161715445604
 21
473.91202663869069
  0
LINE
  8
_2-0_
  6
CONTINUOUS
 62
    7
 10
292.10889743453436
 20
473.91202663869069
 11
285.10746433081579
 21
473.91202663869069
  0
LINE
  8
_2-0_
  6
CONTINUOUS
 62
    7
 10
285.10746433081579
 20
468.06003241814881
 11
285.10746433081579
 21
473.91202663869069
  0
LINE
  8
_2-0_
  6
CONTINUOUS
 62
    7
 10
292.10889743453436
 20
468.06003241814881
 11
285.10746433081579
 21
468.06003241814881
  0
LINE
  8
_2-0_
  6
CONTINUOUS
 62
    7
 10
292.10889743453436
 20
468.06003241814881
 11
292.10889743453436
 21
473.91202663869069
  0
LINE
  8
_2-0_
  6
CONTINUOUS
 62
    7
 10
283.31444716004034
 20
473.91202663869069
 11
276.31234226270203
 21
473.91202663869069
  0
LINE
  8
_2-0_
  6
CONTINUOUS
 62
    7
 10
276.31234226270203
 20
468.06003241814881
 11
276.31234226270203
 21
473.91202663869069
  0
LINE
  8
_2-0_
  6
CONTINUOUS
 62
    7
 10
283.31444716004034
 20
468.06003241814881
 11
276.31234226270203
 21
468.06003241814881
  0
LINE
  8
_2-0_
  6
CONTINUOUS
 62
    7
 10
283.31444716004034
 20
468.06003241814881
 11
283.31444716004034
 21
473.91202663869069
  0
LINE
  8
_2-0_
  6
CONTINUOUS
 62
    7
 10
274.51999688554622
 20
473.91202663869069
 11
267.5796970012135
 21
473.91202663869069
  0
LINE
  8
_2-0_
  6
CONTINUOUS
 62
    7
 10
267.5796970012135
 20
468.06003241814881
 11
267.5796970012135
 21
473.91202663869069
  0
LINE
  8
_2-0_
  6
CONTINUOUS
 62
    7
 10
274.51999688554622
 20
468.06003241814881
 11
267.5796970012135
 21
468.06003241814881
  0
LINE
  8
_2-0_
  6
CONTINUOUS
 62
    7
 10
274.51999688554622
 20
468.06003241814881
 11
274.51999688554622
 21
473.91202663869069
  0
LINE
  8
_2-0_
  6
CONTINUOUS
 62
    7
 10
320.5869007640033
 20
464.76286933303538
 11
315.02109062542081
 21
464.76286933303538
  0
LINE
  8
_2-0_
  6
CONTINUOUS
 62
    7
 10
320.5869007640033
 20
464.76286933303538
 11
320.5869007640033
 21
467.87058661741469
  0
LINE
  8
_2-0_
  6
CONTINUOUS
 62
    7
 10
320.5869007640033
 20
467.87058661741469
 11
315.02109062542081
 21
467.87058661741469
  0
LINE
  8
_2-0_
  6
CONTINUOUS
 62
    7
 10
315.02109062542081
 20
464.76286933303538
 11
315.02109062542081
 21
467.87058661741469
  0
LINE
  8
_2-0_
  6
CONTINUOUS
 62
    7
 10
320.5869007640033
 20
474.0987852649464
 11
315.02109062542081
 21
474.0987852649464
  0
LINE
  8
_2-0_
  6
CONTINUOUS
 62
    7
 10
320.5869007640033
 20
474.0987852649464
 11
320.5869007640033
 21
477.21389227914153
  0
LINE
  8
_2-0_
  6
CONTINUOUS
 62
    7
 10
320.5869007640033
 20
477.21389227914153
 11
315.02109062542081
 21
477.21389227914153
  0
LINE
  8
_2-0_
  6
CONTINUOUS
 62
    7
 10
315.02109062542081
 20
474.0987852649464
 11
315.02109062542081
 21
477.21389227914153
  0
LINE
  8
_2-0_
  6
CONTINUOUS
 62
    7
 10
271.22820814939007
 20
464.76286933303538
 11
265.66374159804661
 21
464.76286933303538
  0
LINE
  8
_2-0_
  6
CONTINUOUS
 62
    7
 10
265.66374159804661
 20
464.76286933303538
 11
265.66374159804661
 21
467.87058661741469
  0
LINE
  8
_2-0_
  6
CONTINUOUS
 62
    7
 10
271.22820814939007
 20
467.87058661741469
 11
265.66374159804661
 21
467.87058661741469
  0
LINE
  8
_2-0_
  6
CONTINUOUS
 62
    7
 10
271.22820814939007
 20
464.76286933303538
 11
271.22820814939007
 21
467.87058661741469
  0
LINE
  8
_2-0_
  6
CONTINUOUS
 62
    7
 10
271.22820814939007
 20
474.0987852649464
 11
265.66374159804661
 21
474.0987852649464
  0
LINE
  8
_2-0_
  6
CONTINUOUS
 62
    7
 10
271.22820814939007
 20
477.21389227914153
 11
265.66374159804661
 21
477.21389227914153
  0
LINE
  8
_2-0_
  6
CONTINUOUS
 62
    7
 10
271.22820814939007
 20
474.0987852649464
 11
271.22820814939007
 21
477.21389227914153
  0
LINE
  8
_2-0_
  6
CONTINUOUS
 62
    7
 10
318.67161715445604
 20
473.91202663869069
 11
311.72997368288418
 21
473.91202663869069
  0
LINE
  8
_2-0_
  6
CONTINUOUS
 62
    7
 10
320.58555717676415
 20
464.75951036493711
 11
320.58555717676415
 21
467.87528917275233
  0
LINE
  8
_2-0_
  6
CONTINUOUS
 62
    7
 10
307.12415662674402
 20
467.43996690723623
 11
307.24373589103709
 21
467.56424872686637
  0
LINE
  8
_2-0_
  6
CONTINUOUS
 62
    7
 10
307.12415662674402
 20
467.12959825496989
 11
307.48625338772115
 21
467.56424872686637
  0
LINE
  8
_2-0_
  6
CONTINUOUS
 62
    7
 10
307.12415662674402
 20
466.87834744123052
 11
307.78385796121449
 21
467.56424872686637
  0
LINE
  8
_2-0_
  6
CONTINUOUS
 62
    7
 10
307.12415662674402
 20
466.56596340810563
 11
308.0828061219471
 21
467.56424872686637
  0
LINE
  8
_2-0_
  6
CONTINUOUS
 62
    7
 10
307.36398694894979
 20
466.50684556957879
 11
308.31860568243496
 21
467.56424872686637
  0
LINE
  8
_2-0_
  6
CONTINUOUS
 62
    7
 10
307.60516085839458
 20
466.50684556957879
 11
308.50066175335292
 21
467.43996690723623
  0
LINE
  8
_2-0_
  6
CONTINUOUS
 62
    7
 10
307.90075005102915
 20
466.50684556957879
 11
308.50066175335292
 21
467.12959825496989
  0
LINE
  8
_2-0_
  6
CONTINUOUS
 62
    7
 10
308.20171359262054
 20
466.50684556957879
 11
308.50066175335292
 21
466.8158706346054
  0
LINE
  8
_2-0_
  6
CONTINUOUS
 62
    7
 10
308.50066175335292
 20
466.50684556957879
 11
308.50066175335292
 21
466.56596340810563
  0
LINE
  8
_2-0_
  6
CONTINUOUS
 62
    7
 10
307.12415662674402
 20
467.43996690723623
 11
307.24373589103709
 21
467.56424872686637
  0
LINE
  8
_2-0_
  6
CONTINUOUS
 62
    7
 10
307.12415662674402
 20
467.12959825496989
 11
307.48625338772115
 21
467.56424872686637
  0
LINE
  8
_2-0_
  6
CONTINUOUS
 62
    7
 10
307.12415662674402
 20
466.87834744123052
 11
307.78385796121449
 21
467.56424872686637
  0
LINE
  8
_2-0_
  6
CONTINUOUS
 62
    7
 10
307.12415662674402
 20
466.56596340810563
 11
308.0828061219471
 21
467.56424872686637
  0
LINE
  8
_2-0_
  6
CONTINUOUS
 62
    7
 10
307.36398694894979
 20
466.50684556957879
 11
308.31860568243496
 21
467.56424872686637
  0
LINE
  8
_2-0_
  6
CONTINUOUS
 62
    7
 10
307.60516085839458
 20
466.50684556957879
 11
308.50066175335292
 21
467.43996690723623
  0
LINE
  8
_2-0_
  6
CONTINUOUS
 62
    7
 10
307.90075005102915
 20
466.50684556957879
 11
308.50066175335292
 21
467.12959825496989
  0
LINE
  8
_2-0_
  6
CONTINUOUS
 62
    7
 10
308.20171359262054
 20
466.50684556957879
 11
308.50066175335292
 21
466.8158706346054
  0
LINE
  8
_2-0_
  6
CONTINUOUS
 62
    7
 10
308.50066175335292
 20
466.50684556957879
 11
308.50066175335292
 21
466.56596340810563
  0
LINE
  8
_2-0_
  6
CONTINUOUS
 62
    7
 10
307.12415662674402
 20
467.12959825496989
 11
307.48625338772115
 21
467.56424872686637
  0
LINE
  8
_2-0_
  6
CONTINUOUS
 62
    7
 10
307.12415662674402
 20
466.56596340810563
 11
308.0828061219471
 21
467.56424872686637
  0
LINE
  8
_2-0_
  6
CONTINUOUS
 62
    7
 10
307.60516085839458
 20
466.50684556957879
 11
308.50066175335292
 21
467.43996690723623
  0
LINE
  8
_2-0_
  6
CONTINUOUS
 62
    7
 10
308.20171359262054
 20
466.50684556957879
 11
308.50066175335292
 21
466.8158706346054
  0
LINE
  8
_2-0_
  6
CONTINUOUS
 62
    7
 10
308.50066175335292
 20
466.50684556957879
 11
308.50066175335292
 21
467.56424872686637
  0
LINE
  8
_2-0_
  6
CONTINUOUS
 62
    7
 10
307.12415662674402
 20
466.50684556957879
 11
307.12415662674402
 21
467.56424872686637
  0
LINE
  8
_2-0_
  6
CONTINUOUS
 62
    7
 10
308.91918917837847
 20
466.50684556957879
 11
306.70697278895761
 21
466.50684556957879
  0
LINE
  8
_2-0_
  6
CONTINUOUS
 62
    7
 10
306.70428561447909
 20
466.50684556957879
 11
306.70428561447909
 21
467.56424872686637
  0
LINE
  8
_2-0_
  6
CONTINUOUS
 62
    7
 10
308.91918917837847
 20
467.56424872686637
 11
306.70697278895761
 21
467.56424872686637
  0
LINE
  8
_2-0_
  6
CONTINUOUS
 62
    7
 10
308.91918917837847
 20
466.50684556957879
 11
308.91918917837847
 21
467.56424872686637
  0
LINE
  8
_2-0_
  6
CONTINUOUS
 62
    7
 10
301.32120334043429
 20
474.53746649856055
 11
301.44145439834699
 21
474.40915391721262
  0
LINE
  8
_2-0_
  6
CONTINUOUS
 62
    7
 10
301.32120334043429
 20
474.85119411892492
 11
301.67926933969375
 21
474.40915391721262
  0
LINE
  8
_2-0_
  6
CONTINUOUS
 62
    7
 10
320.58555717676415
 20
464.75951036493711
 11
320.58555717676415
 21
477.21523586638079
  0
LINE
  8
_2-0_
  6
CONTINUOUS
 62
    7
 10
320.58555717676415
 20
474.0987852649464
 11
320.58555717676415
 21
477.21523586638079
  0
LINE
  8
_2-0_
  6
CONTINUOUS
 62
    7
 10
265.66374159804661
 20
463.70345079488891
 11
265.66374159804661
 21
477.21523586638079
  0
LINE
  8
_2-0_
  6
CONTINUOUS
 62
    7
 10
319.5698052238929
 20
463.70345079488891
 11
265.66374159804661
 21
463.70345079488891
  0
LINE
  8
_2-0_
  6
CONTINUOUS
 62
    7
 10
265.66374159804661
 20
474.0987852649464
 11
265.66374159804661
 21
478.2753261981469
  0
LINE
  8
_2-0_
  6
CONTINUOUS
 62
    7
 10
318.67161715445604
 20
473.91605740040859
 11
318.67161715445604
 21
468.06406317986637
  0
LINE
  8
_2-0_
  6
CONTINUOUS
 62
    7
 10
320.5869007640033
 20
464.76286933303538
 11
320.5869007640033
 21
477.21389227914153
  0
LINE
  8
_2-0_
  6
CONTINUOUS
 62
    7
 10
318.67161715445604
 20
468.06003241814881
 11
318.67161715445604
 21
473.91202663869069
  0
LINE
  8
_2-0_
  6
CONTINUOUS
 62
    7
 10
320.5869007640033
 20
464.76286933303538
 11
320.5869007640033
 21
467.87058661741469
  0
LINE
  8
_2-0_
  6
CONTINUOUS
 62
    7
 10
320.5869007640033
 20
474.0987852649464
 11
320.5869007640033
 21
477.21389227914153
  0
LINE
  8
_2-0_
  6
CONTINUOUS
 62
    7
 10
320.58555717676415
 20
464.75951036493711
 11
320.58555717676415
 21
467.87528917275233
  0
LINE
  8
_2-0_
  6
CONTINUOUS
 62
    7
 10
320.58555717676415
 20
464.75951036493711
 11
320.58555717676415
 21
477.21523586638079
  0
LINE
  8
_2-0_
  6
CONTINUOUS
 62
    7
 10
320.58555717676415
 20
474.0987852649464
 11
320.58555717676415
 21
477.21523586638079
  0
LINE
  8
_2-0_
  6
CONTINUOUS
 62
    7
 10
329.43730971106766
 20
468.06406317986637
 11
322.49969700121346
 21
468.06406317986637
  0
LINE
  8
_2-0_
  6
CONTINUOUS
 62
    7
 10
322.49969700121346
 20
468.06406317986637
 11
322.49969700121346
 21
473.91605740040859
  0
LINE
  8
_2-0_
  6
CONTINUOUS
 62
    7
 10
322.49969700121346
 20
473.91605740040859
 11
329.43730971106766
 21
473.91605740040859
  0
LINE
  8
_2-0_
  6
CONTINUOUS
 62
    7
 10
329.43730971106766
 20
473.91605740040859
 11
329.43730971106766
 21
468.06406317986637
  0
LINE
  8
_2-0_
  6
CONTINUOUS
 62
    7
 10
338.23243177918135
 20
468.06406317986637
 11
331.2934754820879
 21
468.06406317986637
  0
LINE
  8
_2-0_
  6
CONTINUOUS
 62
    7
 10
331.2934754820879
 20
468.06406317986637
 11
331.2934754820879
 21
473.91605740040859
  0
LINE
  8
_2-0_
  6
CONTINUOUS
 62
    7
 10
331.2934754820879
 20
473.91605740040859
 11
338.23243177918135
 21
473.91605740040859
  0
LINE
  8
_2-0_
  6
CONTINUOUS
 62
    7
 10
338.23243177918135
 20
473.91605740040859
 11
338.23243177918135
 21
468.06406317986637
  0
LINE
  8
_2-0_
  6
CONTINUOUS
 62
    7
 10
340.08859755020165
 20
468.06406317986637
 11
340.08859755020165
 21
473.91605740040859
  0
LINE
  8
_2-0_
  6
CONTINUOUS
 62
    7
 10
338.47024672052811
 20
474.53746649856055
 11
338.59587212739785
 21
474.41385647254981
  0
LINE
  8
_2-0_
  6
CONTINUOUS
 62
    7
 10
338.47024672052811
 20
474.84850694444629
 11
338.83099989426597
 21
474.40915391721262
  0
LINE
  8
_2-0_
  6
CONTINUOUS
 62
    7
 10
338.47024672052811
 20
475.0984141709464
 11
339.13061984861821
 21
474.41385647254981
  0
LINE
  8
_2-0_
  6
CONTINUOUS
 62
    7
 10
338.47024672052811
 20
475.40676744235373
 11
339.42956800935082
 21
474.41385647254981
  0
LINE
  8
_2-0_
  6
CONTINUOUS
 62
    7
 10
338.71209242359265
 20
475.46991604259847
 11
339.66805474431732
 21
474.41385647254981
  0
LINE
  8
_2-0_
  6
CONTINUOUS
 62
    7
 10
338.95125095217867
 20
475.46991604259847
 11
339.84742364075686
 21
474.53746649856055
  0
LINE
  8
_2-0_
  6
CONTINUOUS
 62
    7
 10
339.25019911291128
 20
475.46991604259847
 11
339.84943902161564
 21
474.84850694444629
  0
LINE
  8
_2-0_
  6
CONTINUOUS
 62
    7
 10
339.54914727364388
 20
475.46991604259847
 11
339.84943902161564
 21
475.16021918395165
  0
LINE
  8
_2-0_
  6
CONTINUOUS
 62
    7
 10
339.84943902161564
 20
475.46991604259847
 11
339.84943902161564
 21
475.40676744235373
  0
LINE
  8
_2-0_
  6
CONTINUOUS
 62
    7
 10
338.47024672052811
 20
474.53746649856055
 11
338.59587212739785
 21
474.41385647254981
  0
LINE
  8
_2-0_
  6
CONTINUOUS
 62
    7
 10
338.47024672052811
 20
474.84850694444629
 11
338.83099989426597
 21
474.40915391721262
  0
LINE
  8
_2-0_
  6
CONTINUOUS
 62
    7
 10
338.47024672052811
 20
475.0984141709464
 11
339.13061984861821
 21
474.41385647254981
  0
LINE
  8
_2-0_
  6
CONTINUOUS
 62
    7
 10
338.47024672052811
 20
475.40676744235373
 11
339.42956800935082
 21
474.41385647254981
  0
LINE
  8
_2-0_
  6
CONTINUOUS
 62
    7
 10
338.71209242359265
 20
475.46991604259847
 11
339.66805474431732
 21
474.41385647254981
  0
LINE
  8
_2-0_
  6
CONTINUOUS
 62
    7
 10
338.95125095217867
 20
475.46991604259847
 11
339.84742364075686
 21
474.53746649856055
  0
LINE
  8
_2-0_
  6
CONTINUOUS
 62
    7
 10
339.25019911291128
 20
475.46991604259847
 11
339.84943902161564
 21
474.84850694444629
  0
LINE
  8
_2-0_
  6
CONTINUOUS
 62
    7
 10
339.54914727364388
 20
475.46991604259847
 11
339.84943902161564
 21
475.16021918395165
  0
LINE
  8
_2-0_
  6
CONTINUOUS
 62
    7
 10
339.84943902161564
 20
475.46991604259847
 11
339.84943902161564
 21
475.40676744235373
  0
LINE
  8
_2-0_
  6
CONTINUOUS
 62
    7
 10
338.47024672052811
 20
474.84850694444629
 11
338.83099989426597
 21
474.40915391721262
  0
LINE
  8
_2-0_
  6
CONTINUOUS
 62
    7
 10
338.47024672052811
 20
475.40676744235373
 11
339.42956800935082
 21
474.41385647254981
  0
LINE
  8
_2-0_
  6
CONTINUOUS
 62
    7
 10
338.95125095217867
 20
475.46991604259847
 11
339.84742364075686
 21
474.53746649856055
  0
LINE
  8
_2-0_
  6
CONTINUOUS
 62
    7
 10
339.54914727364388
 20
475.46991604259847
 11
339.84943902161564
 21
475.16021918395165
  0
LINE
  8
_2-0_
  6
CONTINUOUS
 62
    7
 10
339.84943902161564
 20
474.41385647254981
 11
339.84943902161564
 21
475.46991604259847
  0
LINE
  8
_2-0_
  6
CONTINUOUS
 62
    7
 10
338.47024672052811
 20
474.41385647254981
 11
338.47024672052811
 21
475.46991604259847
  0
LINE
  8
_2-0_
  6
CONTINUOUS
 62
    7
 10
340.26729465302157
 20
475.46991604259847
 11
338.05306288274181
 21
475.46991604259847
  0
LINE
  8
_2-0_
  6
CONTINUOUS
 62
    7
 10
338.05306288274181
 20
474.41385647254981
 11
338.05306288274181
 21
475.46991604259847
  0
LINE
  8
_2-0_
  6
CONTINUOUS
 62
    7
 10
340.26729465302157
 20
474.41385647254981
 11
338.05306288274181
 21
474.41385647254981
  0
LINE
  8
_2-0_
  6
CONTINUOUS
 62
    7
 10
340.26729465302157
 20
474.41385647254981
 11
340.26729465302157
 21
475.46991604259847
  0
LINE
  8
_2-0_
  6
CONTINUOUS
 62
    7
 10
329.67781182689305
 20
467.43727973275736
 11
329.79873467842509
 21
467.56559231410563
  0
LINE
  8
_2-0_
  6
CONTINUOUS
 62
    7
 10
329.67781182689305
 20
467.12691108049148
 11
330.03789320701122
 21
467.56559231410563
  0
LINE
  8
_2-0_
  6
CONTINUOUS
 62
    7
 10
329.67781182689305
 20
466.87834744123052
 11
330.33549778050445
 21
467.56156155238796
  0
LINE
  8
_2-0_
  6
CONTINUOUS
 62
    7
 10
329.67781182689305
 20
466.56596340810563
 11
330.63175876675854
 21
467.56156155238796
  0
LINE
  8
_2-0_
  6
CONTINUOUS
 62
    7
 10
329.91562676823975
 20
466.50684556957879
 11
330.87360446982319
 21
467.56156155238796
  0
LINE
  8
_2-0_
  6
CONTINUOUS
 62
    7
 10
330.21390313535272
 20
466.50684556957879
 11
331.05431695350188
 21
467.43727973275736
  0
LINE
  8
_2-0_
  6
CONTINUOUS
 62
    7
 10
330.45574883841715
 20
466.50684556957879
 11
331.05431695350188
 21
467.12959825496989
  0
LINE
  8
_2-0_
  6
CONTINUOUS
 62
    7
 10
330.75604058638891
 20
466.50684556957879
 11
331.05431695350188
 21
466.8158706346054
  0
LINE
  8
_2-0_
  6
CONTINUOUS
 62
    7
 10
331.05431695350188
 20
466.50684556957879
 11
331.05431695350188
 21
466.56596340810563
  0
LINE
  8
_2-0_
  6
CONTINUOUS
 62
    7
 10
329.67781182689305
 20
467.43727973275736
 11
329.79873467842509
 21
467.56559231410563
  0
LINE
  8
_2-0_
  6
CONTINUOUS
 62
    7
 10
329.67781182689305
 20
467.12691108049148
 11
330.03789320701122
 21
467.56559231410563
  0
LINE
  8
_2-0_
  6
CONTINUOUS
 62
    7
 10
329.67781182689305
 20
466.87834744123052
 11
330.33549778050445
 21
467.56156155238796
  0
LINE
  8
_2-0_
  6
CONTINUOUS
 62
    7
 10
329.67781182689305
 20
466.56596340810563
 11
330.63175876675854
 21
467.56156155238796
  0
LINE
  8
_2-0_
  6
CONTINUOUS
 62
    7
 10
329.91562676823975
 20
466.50684556957879
 11
330.87360446982319
 21
467.56156155238796
  0
LINE
  8
_2-0_
  6
CONTINUOUS
 62
    7
 10
330.21390313535272
 20
466.50684556957879
 11
331.05431695350188
 21
467.43727973275736
  0
LINE
  8
_2-0_
  6
CONTINUOUS
 62
    7
 10
330.45574883841715
 20
466.50684556957879
 11
331.05431695350188
 21
467.12959825496989
  0
LINE
  8
_2-0_
  6
CONTINUOUS
 62
    7
 10
330.75604058638891
 20
466.50684556957879
 11
331.05431695350188
 21
466.8158706346054
  0
LINE
  8
_2-0_
  6
CONTINUOUS
 62
    7
 10
331.05431695350188
 20
466.50684556957879
 11
331.05431695350188
 21
466.56596340810563
  0
LINE
  8
_2-0_
  6
CONTINUOUS
 62
    7
 10
329.67781182689305
 20
467.12691108049148
 11
330.03789320701122
 21
467.56559231410563
  0
LINE
  8
_2-0_
  6
CONTINUOUS
 62
    7
 10
329.67781182689305
 20
466.56596340810563
 11
330.63175876675854
 21
467.56156155238796
  0
LINE
  8
_2-0_
  6
CONTINUOUS
 62
    7
 10
330.21390313535272
 20
466.50684556957879
 11
331.05431695350188
 21
467.43727973275736
  0
LINE
  8
_2-0_
  6
CONTINUOUS
 62
    7
 10
330.75604058638891
 20
466.50684556957879
 11
331.05431695350188
 21
466.8158706346054
  0
LINE
  8
_2-0_
  6
CONTINUOUS
 62
    7
 10
331.05431695350188
 20
466.50684556957879
 11
331.05431695350188
 21
467.56156155238796
  0
LINE
  8
_2-0_
  6
CONTINUOUS
 62
    7
 10
329.67781182689305
 20
466.50684556957879
 11
329.67781182689305
 21
467.56156155238796
  0
LINE
  8
_2-0_
  6
CONTINUOUS
 62
    7
 10
331.47284437852744
 20
466.50684556957879
 11
329.25726902100837
 21
466.50684556957879
  0
LINE
  8
_2-0_
  6
CONTINUOUS
 62
    7
 10
329.25726902100837
 20
466.50684556957879
 11
329.25726902100837
 21
467.56156155238796
  0
LINE
  8
_2-0_
  6
CONTINUOUS
 62
    7
 10
331.47284437852744
 20
467.56559231410563
 11
329.25726902100837
 21
467.56559231410563
  0
LINE
  8
_2-0_
  6
CONTINUOUS
 62
    7
 10
331.47284437852744
 20
466.50684556957879
 11
331.47284437852744
 21
467.56156155238796
  0
LINE
  8
_2-0_
  6
CONTINUOUS
 62
    7
 10
340.26729465302157
 20
468.49602647728443
 11
340.26729465302157
 21
473.47871975403348
  0
LINE
  8
_2-0_
  6
CONTINUOUS
 62
    7
 10
337.87302219268253
 20
468.31262681912733
 11
331.65019789410809
 21
468.31262681912733
  0
LINE
  8
_2-0_
  6
CONTINUOUS
 62
    7
 10
338.05306288274181
 20
468.49602647728443
 11
338.05306288274181
 21
473.47871975403348
  0
LINE
  8
_2-0_
  6
CONTINUOUS
 62
    7
 10
337.87302219268253
 20
473.66615017390848
 11
331.65019789410809
 21
473.66615017390848
  0
LINE
  8
_2-0_
  6
CONTINUOUS
 62
    7
 10
331.47284437852744
 20
468.49602647728443
 11
331.47284437852744
 21
473.47871975403348
  0
LINE
  8
_2-0_
  6
CONTINUOUS
 62
    7
 10
322.67772231041363
 20
468.49602647728443
 11
322.67772231041363
 21
473.47871975403348
  0
LINE
  8
_2-0_
  6
CONTINUOUS
 62
    7
 10
329.07991550542783
 20
468.31262681912733
 11
322.85843479409255
 21
468.31262681912733
  0
LINE
  8
_2-0_
  6
CONTINUOUS
 62
    7
 10
329.25726902100837
 20
468.49602647728443
 11
329.25726902100837
 21
473.47871975403348
  0
LINE
  8
_2-0_
  6
CONTINUOUS
 62
    7
 10
329.07991550542783
 20
473.66615017390848
 11
322.85843479409255
 21
473.66615017390848
  0
LINE
  8
_2-0_
  6
CONTINUOUS
 62
    7
 10
340.0274643308158
 20
468.06003241814881
 11
340.0274643308158
 21
473.91202663869069
  0
LINE
  8
_2-0_
  6
CONTINUOUS
 62
    7
 10
338.23444716004036
 20
473.91202663869069
 11
331.23234226270205
 21
473.91202663869069
  0
LINE
  8
_2-0_
  6
CONTINUOUS
 62
    7
 10
331.23234226270205
 20
468.06003241814881
 11
331.23234226270205
 21
473.91202663869069
  0
LINE
  8
_2-0_
  6
CONTINUOUS
 62
    7
 10
338.23444716004036
 20
468.06003241814881
 11
331.23234226270205
 21
468.06003241814881
  0
LINE
  8
_2-0_
  6
CONTINUOUS
 62
    7
 10
338.23444716004036
 20
468.06003241814881
 11
338.23444716004036
 21
473.91202663869069
  0
LINE
  8
_2-0_
  6
CONTINUOUS
 62
    7
 10
329.43999688554618
 20
473.91202663869069
 11
322.49969700121346
 21
473.91202663869069
  0
LINE
  8
_2-0_
  6
CONTINUOUS
 62
    7
 10
322.49969700121346
 20
468.06003241814881
 11
322.49969700121346
 21
473.91202663869069
  0
LINE
  8
_2-0_
  6
CONTINUOUS
 62
    7
 10
329.43999688554618
 20
468.06003241814881
 11
322.49969700121346
 21
468.06003241814881
  0
LINE
  8
_2-0_
  6
CONTINUOUS
 62
    7
 10
329.43999688554618
 20
468.06003241814881
 11
329.43999688554618
 21
473.91202663869069
  0
LINE
  8
_2-0_
  6
CONTINUOUS
 62
    7
 10
326.14820814939003
 20
464.76286933303538
 11
320.58374159804657
 21
464.76286933303538
  0
LINE
  8
_2-0_
  6
CONTINUOUS
 62
    7
 10
320.58374159804657
 20
464.76286933303538
 11
320.58374159804657
 21
467.87058661741469
  0
LINE
  8
_2-0_
  6
CONTINUOUS
 62
    7
 10
326.14820814939003
 20
467.87058661741469
 11
320.58374159804657
 21
467.87058661741469
  0
LINE
  8
_2-0_
  6
CONTINUOUS
 62
    7
 10
326.14820814939003
 20
464.76286933303538
 11
326.14820814939003
 21
467.87058661741469
  0
LINE
  8
_2-0_
  6
CONTINUOUS
 62
    7
 10
326.14820814939003
 20
474.0987852649464
 11
320.58374159804657
 21
474.0987852649464
  0
LINE
  8
_2-0_
  6
CONTINUOUS
 62
    7
 10
326.14820814939003
 20
477.21389227914153
 11
320.58374159804657
 21
477.21389227914153
  0
LINE
  8
_2-0_
  6
CONTINUOUS
 62
    7
 10
326.14820814939003
 20
474.0987852649464
 11
326.14820814939003
 21
477.21389227914153
  0
LINE
  8
_2-0_
  6
CONTINUOUS
 62
    7
 10
320.58374159804657
 20
463.70345079488891
 11
320.58374159804657
 21
477.21523586638079
  0
LINE
  8
_2-0_
  6
CONTINUOUS
 62
    7
 10
320.58374159804657
 20
474.0987852649464
 11
320.58374159804657
 21
478.2753261981469
  0
LINE
  8
_2-0_
  6
CONTINUOUS
 62
    7
 10
209.72159453542795
 20
478.2753261981469
 11
155.81553090958164
 21
478.2753261981469
  0
LINE
  8
_2-0_
  6
CONTINUOUS
 62
    7
 10
164.66909902260264
 20
468.06406317986637
 11
157.73148631274853
 21
468.06406317986637
  0
LINE
  8
_2-0_
  6
CONTINUOUS
 62
    7
 10
157.73148631274853
 20
468.06406317986637
 11
157.73148631274853
 21
473.91605740040859
  0
LINE
  8
_2-0_
  6
CONTINUOUS
 62
    7
 10
157.73148631274853
 20
473.91605740040859
 11
164.66909902260264
 21
473.91605740040859
  0
LINE
  8
_2-0_
  6
CONTINUOUS
 62
    7
 10
164.66909902260264
 20
473.91605740040859
 11
164.66909902260264
 21
468.06406317986637
  0
LINE
  8
_2-0_
  6
CONTINUOUS
 62
    7
 10
173.46422109071639
 20
468.06406317986637
 11
166.52526479362294
 21
468.06406317986637
  0
LINE
  8
_2-0_
  6
CONTINUOUS
 62
    7
 10
166.52526479362294
 20
468.06406317986637
 11
166.52526479362294
 21
473.91605740040859
  0
LINE
  8
_2-0_
  6
CONTINUOUS
 62
    7
 10
166.52526479362294
 20
473.91605740040859
 11
173.46422109071639
 21
473.91605740040859
  0
LINE
  8
_2-0_
  6
CONTINUOUS
 62
    7
 10
173.46422109071639
 20
473.91605740040859
 11
173.46422109071639
 21
468.06406317986637
  0
LINE
  8
_2-0_
  6
CONTINUOUS
 62
    7
 10
182.26068674606941
 20
468.06406317986637
 11
175.32038686173669
 21
468.06406317986637
  0
LINE
  8
_2-0_
  6
CONTINUOUS
 62
    7
 10
175.32038686173669
 20
468.06406317986637
 11
175.32038686173669
 21
473.91605740040859
  0
LINE
  8
_2-0_
  6
CONTINUOUS
 62
    7
 10
175.32038686173669
 20
473.91605740040859
 11
182.26068674606941
 21
473.91605740040859
  0
LINE
  8
_2-0_
  6
CONTINUOUS
 62
    7
 10
182.26068674606941
 20
473.91605740040859
 11
182.26068674606941
 21
468.06406317986637
  0
LINE
  8
_2-0_
  6
CONTINUOUS
 62
    7
 10
191.18546498277036
 20
468.06406317986637
 11
184.24516509843787
 21
468.06406317986637
  0
LINE
  8
_2-0_
  6
CONTINUOUS
 62
    7
 10
184.24516509843787
 20
468.06406317986637
 11
184.24516509843787
 21
473.91605740040859
  0
LINE
  8
_2-0_
  6
CONTINUOUS
 62
    7
 10
184.24516509843787
 20
473.91605740040859
 11
191.18546498277036
 21
473.91605740040859
  0
LINE
  8
_2-0_
  6
CONTINUOUS
 62
    7
 10
191.18546498277036
 20
473.91605740040859
 11
191.18546498277036
 21
468.06406317986637
  0
LINE
  8
_2-0_
  6
CONTINUOUS
 62
    7
 10
200.02626901701856
 20
468.06406317986637
 11
193.08798451354485
 21
468.06406317986637
  0
LINE
  8
_2-0_
  6
CONTINUOUS
 62
    7
 10
193.08798451354485
 20
468.06406317986637
 11
193.08798451354485
 21
473.91605740040859
  0
LINE
  8
_2-0_
  6
CONTINUOUS
 62
    7
 10
193.08798451354485
 20
473.91605740040859
 11
200.02626901701856
 21
473.91605740040859
  0
LINE
  8
_2-0_
  6
CONTINUOUS
 62
    7
 10
200.02626901701856
 20
473.91605740040859
 11
200.02626901701856
 21
468.06406317986637
  0
LINE
  8
_2-0_
  6
CONTINUOUS
 62
    7
 10
208.8234064659911
 20
468.06406317986637
 11
201.88579375613702
 21
468.06406317986637
  0
LINE
  8
_2-0_
  6
CONTINUOUS
 62
    7
 10
201.88579375613702
 20
468.06406317986637
 11
201.88579375613702
 21
473.91605740040859
  0
LINE
  8
_2-0_
  6
CONTINUOUS
 62
    7
 10
201.88579375613702
 20
473.91605740040859
 11
208.8234064659911
 21
473.91605740040859
  0
LINE
  8
_2-0_
  6
CONTINUOUS
 62
    7
 10
208.8234064659911
 20
473.91605740040859
 11
208.8234064659911
 21
468.06406317986637
  0
LINE
  8
_2-0_
  6
CONTINUOUS
 62
    7
 10
191.47567982644799
 20
475.0984141709464
 11
192.13000681196141
 21
474.41385647254981
  0
LINE
  8
_2-0_
  6
CONTINUOUS
 62
    7
 10
191.47567982644799
 20
475.40676744235373
 11
192.42895497269402
 21
474.41385647254981
  0
LINE
  8
_2-0_
  6
CONTINUOUS
 62
    7
 10
191.71147938693574
 20
475.46991604259847
 11
192.72924672066566
 21
474.41385647254981
  0
LINE
  8
_2-0_
  6
CONTINUOUS
 62
    7
 10
192.01109934128797
 20
475.46991604259847
 11
192.84882598495872
 21
474.53746649856055
  0
LINE
  8
_2-0_
  6
CONTINUOUS
 62
    7
 10
192.24891428263484
 20
475.46991604259847
 11
192.84882598495872
 21
474.84850694444629
  0
LINE
  8
_2-0_
  6
CONTINUOUS
 62
    7
 10
192.54987782422612
 20
475.46991604259847
 11
192.84882598495872
 21
475.16021918395165
  0
LINE
  8
_2-0_
  6
CONTINUOUS
 62
    7
 10
192.84882598495872
 20
475.46991604259847
 11
192.84882598495872
 21
475.40676744235373
  0
LINE
  8
_2-0_
  6
CONTINUOUS
 62
    7
 10
191.47567982644799
 20
474.53746649856055
 11
191.59324370988205
 21
474.41385647254981
  0
LINE
  8
_2-0_
  6
CONTINUOUS
 62
    7
 10
191.47567982644799
 20
474.84850694444629
 11
191.8310586512288
 21
474.40915391721262
  0
LINE
  8
_2-0_
  6
CONTINUOUS
 62
    7
 10
191.47567982644799
 20
475.0984141709464
 11
192.13000681196141
 21
474.41385647254981
  0
LINE
  8
_2-0_
  6
CONTINUOUS
 62
    7
 10
191.47567982644799
 20
475.40676744235373
 11
192.42895497269402
 21
474.41385647254981
  0
LINE
  8
_2-0_
  6
CONTINUOUS
 62
    7
 10
191.71147938693574
 20
475.46991604259847
 11
192.72924672066566
 21
474.41385647254981
  0
LINE
  8
_2-0_
  6
CONTINUOUS
 62
    7
 10
192.01109934128797
 20
475.46991604259847
 11
192.84882598495872
 21
474.53746649856055
  0
LINE
  8
_2-0_
  6
CONTINUOUS
 62
    7
 10
192.24891428263484
 20
475.46991604259847
 11
192.84882598495872
 21
474.84850694444629
  0
LINE
  8
_2-0_
  6
CONTINUOUS
 62
    7
 10
192.54987782422612
 20
475.46991604259847
 11
192.84882598495872
 21
475.16021918395165
  0
LINE
  8
_2-0_
  6
CONTINUOUS
 62
    7
 10
192.84882598495872
 20
475.46991604259847
 11
192.84882598495872
 21
475.40676744235373
  0
LINE
  8
_2-0_
  6
CONTINUOUS
 62
    7
 10
191.47567982644799
 20
474.84850694444629
 11
191.8310586512288
 21
474.40915391721262
  0
LINE
  8
_2-0_
  6
CONTINUOUS
 62
    7
 10
191.47567982644799
 20
475.40676744235373
 11
192.42895497269402
 21
474.41385647254981
  0
LINE
  8
_2-0_
  6
CONTINUOUS
 62
    7
 10
192.01109934128797
 20
475.46991604259847
 11
192.84882598495872
 21
474.53746649856055
  0
LINE
  8
_2-0_
  6
CONTINUOUS
 62
    7
 10
192.54987782422612
 20
475.46991604259847
 11
192.84882598495872
 21
475.16021918395165
  0
LINE
  8
_2-0_
  6
CONTINUOUS
 62
    7
 10
192.84882598495872
 20
474.41385647254981
 11
192.84882598495872
 21
475.46991604259847
  0
LINE
  8
_2-0_
  6
CONTINUOUS
 62
    7
 10
191.47567982644799
 20
474.41385647254981
 11
191.47567982644799
 21
475.46991604259847
  0
LINE
  8
_2-0_
  6
CONTINUOUS
 62
    7
 10
193.26735340998439
 20
475.46991604259847
 11
191.05513702056354
 21
475.46991604259847
  0
LINE
  8
_2-0_
  6
CONTINUOUS
 62
    7
 10
191.05513702056354
 20
474.41385647254981
 11
191.05513702056354
 21
475.46991604259847
  0
LINE
  8
_2-0_
  6
CONTINUOUS
 62
    7
 10
193.26735340998439
 20
474.41385647254981
 11
191.05513702056354
 21
474.41385647254981
  0
LINE
  8
_2-0_
  6
CONTINUOUS
 62
    7
 10
193.26735340998439
 20
474.41385647254981
 11
193.26735340998439
 21
475.46991604259847
  0
LINE
  8
_2-0_
  6
CONTINUOUS
 62
    7
 10
173.70203603206315
 20
474.53746649856055
 11
173.82766143893289
 21
474.41385647254981
  0
LINE
  8
_2-0_
  6
CONTINUOUS
 62
    7
 10
173.70203603206315
 20
474.84850694444629
 11
174.06278920580101
 21
474.40915391721262
  0
LINE
  8
_2-0_
  6
CONTINUOUS
 62
    7
 10
173.70203603206315
 20
475.0984141709464
 11
174.36240916015325
 21
474.41385647254981
  0
LINE
  8
_2-0_
  6
CONTINUOUS
 62
    7
 10
173.70203603206315
 20
475.40676744235373
 11
174.66135732088586
 21
474.41385647254981
  0
LINE
  8
_2-0_
  6
CONTINUOUS
 62
    7
 10
173.94388173512769
 20
475.46991604259847
 11
174.89984405585236
 21
474.41385647254981
  0
LINE
  8
_2-0_
  6
CONTINUOUS
 62
    7
 10
174.18304026371371
 20
475.46991604259847
 11
175.0792129522919
 21
474.53746649856055
  0
LINE
  8
_2-0_
  6
CONTINUOUS
 62
    7
 10
174.48198842444631
 20
475.46991604259847
 11
175.08122833315068
 21
474.84850694444629
  0
LINE
  8
_2-0_
  6
CONTINUOUS
 62
    7
 10
174.78093658517892
 20
475.46991604259847
 11
175.08122833315068
 21
475.16021918395165
  0
LINE
  8
_2-0_
  6
CONTINUOUS
 62
    7
 10
175.08122833315068
 20
475.46991604259847
 11
175.08122833315068
 21
475.40676744235373
  0
LINE
  8
_2-0_
  6
CONTINUOUS
 62
    7
 10
173.70203603206315
 20
474.53746649856055
 11
173.82766143893289
 21
474.41385647254981
  0
LINE
  8
_2-0_
  6
CONTINUOUS
 62
    7
 10
173.70203603206315
 20
474.84850694444629
 11
174.06278920580101
 21
474.40915391721262
  0
LINE
  8
_2-0_
  6
CONTINUOUS
 62
    7
 10
173.70203603206315
 20
475.0984141709464
 11
174.36240916015325
 21
474.41385647254981
  0
LINE
  8
_2-0_
  6
CONTINUOUS
 62
    7
 10
173.70203603206315
 20
475.40676744235373
 11
174.66135732088586
 21
474.41385647254981
  0
LINE
  8
_2-0_
  6
CONTINUOUS
 62
    7
 10
173.94388173512769
 20
475.46991604259847
 11
174.89984405585236
 21
474.41385647254981
  0
LINE
  8
_2-0_
  6
CONTINUOUS
 62
    7
 10
174.18304026371371
 20
475.46991604259847
 11
175.0792129522919
 21
474.53746649856055
  0
LINE
  8
_2-0_
  6
CONTINUOUS
 62
    7
 10
174.48198842444631
 20
475.46991604259847
 11
175.08122833315068
 21
474.84850694444629
  0
LINE
  8
_2-0_
  6
CONTINUOUS
 62
    7
 10
174.78093658517892
 20
475.46991604259847
 11
175.08122833315068
 21
475.16021918395165
  0
LINE
  8
_2-0_
  6
CONTINUOUS
 62
    7
 10
175.08122833315068
 20
475.46991604259847
 11
175.08122833315068
 21
475.40676744235373
  0
LINE
  8
_2-0_
  6
CONTINUOUS
 62
    7
 10
173.70203603206315
 20
474.84850694444629
 11
174.06278920580101
 21
474.40915391721262
  0
LINE
  8
_2-0_
  6
CONTINUOUS
 62
    7
 10
173.70203603206315
 20
475.40676744235373
 11
174.66135732088586
 21
474.41385647254981
  0
LINE
  8
_2-0_
  6
CONTINUOUS
 62
    7
 10
174.18304026371371
 20
475.46991604259847
 11
175.0792129522919
 21
474.53746649856055
  0
LINE
  8
_2-0_
  6
CONTINUOUS
 62
    7
 10
174.78093658517892
 20
475.46991604259847
 11
175.08122833315068
 21
475.16021918395165
  0
LINE
  8
_2-0_
  6
CONTINUOUS
 62
    7
 10
175.08122833315068
 20
474.41385647254981
 11
175.08122833315068
 21
475.46991604259847
  0
LINE
  8
_2-0_
  6
CONTINUOUS
 62
    7
 10
173.70203603206315
 20
474.41385647254981
 11
173.70203603206315
 21
475.46991604259847
  0
LINE
  8
_2-0_
  6
CONTINUOUS
 62
    7
 10
175.4990839645566
 20
475.46991604259847
 11
173.28485219427685
 21
475.46991604259847
  0
LINE
  8
_2-0_
  6
CONTINUOUS
 62
    7
 10
173.28485219427685
 20
474.41385647254981
 11
173.28485219427685
 21
475.46991604259847
  0
LINE
  8
_2-0_
  6
CONTINUOUS
 62
    7
 10
175.4990839645566
 20
474.41385647254981
 11
173.28485219427685
 21
474.41385647254981
  0
LINE
  8
_2-0_
  6
CONTINUOUS
 62
    7
 10
175.4990839645566
 20
474.41385647254981
 11
175.4990839645566
 21
475.46991604259847
  0
LINE
  8
_2-0_
  6
CONTINUOUS
 62
    7
 10
182.55694773232349
 20
467.43727973275736
 11
182.67787058385582
 21
467.56559231410563
  0
LINE
  8
_2-0_
  6
CONTINUOUS
 62
    7
 10
182.55694773232349
 20
467.12691108049148
 11
182.97345977649016
 21
467.56559231410563
  0
LINE
  8
_2-0_
  6
CONTINUOUS
 62
    7
 10
182.55694773232349
 20
466.87834744123052
 11
183.27442331808143
 21
467.56156155238796
  0
LINE
  8
_2-0_
  6
CONTINUOUS
 62
    7
 10
182.55694773232349
 20
466.56596340810563
 11
183.51828440200487
 21
467.56156155238796
  0
LINE
  8
_2-0_
  6
CONTINUOUS
 62
    7
 10
182.79744984814866
 20
466.50684556957879
 11
183.81521718187858
 21
467.56156155238796
  0
LINE
  8
_2-0_
  6
CONTINUOUS
 62
    7
 10
183.09774159612053
 20
466.50684556957879
 11
183.99257069745912
 21
467.43727973275736
  0
LINE
  8
_2-0_
  6
CONTINUOUS
 62
    7
 10
183.39534616961387
 20
466.50684556957879
 11
183.99592966555738
 21
467.12959825496989
  0
LINE
  8
_2-0_
  6
CONTINUOUS
 62
    7
 10
183.63584828543904
 20
466.50684556957879
 11
183.99592966555738
 21
466.8158706346054
  0
LINE
  8
_2-0_
  6
CONTINUOUS
 62
    7
 10
183.93479644617165
 20
466.50684556957879
 11
183.99257069745912
 21
466.56596340810563
  0
LINE
  8
_2-0_
  6
CONTINUOUS
 62
    7
 10
182.55694773232349
 20
467.43727973275736
 11
182.67787058385582
 21
467.56559231410563
  0
LINE
  8
_2-0_
  6
CONTINUOUS
 62
    7
 10
182.55694773232349
 20
467.12691108049148
 11
182.97345977649016
 21
467.56559231410563
  0
LINE
  8
_2-0_
  6
CONTINUOUS
 62
    7
 10
182.55694773232349
 20
466.87834744123052
 11
183.27442331808143
 21
467.56156155238796
  0
LINE
  8
_2-0_
  6
CONTINUOUS
 62
    7
 10
182.55694773232349
 20
466.56596340810563
 11
183.51828440200487
 21
467.56156155238796
  0
LINE
  8
_2-0_
  6
CONTINUOUS
 62
    7
 10
182.79744984814866
 20
466.50684556957879
 11
183.81521718187858
 21
467.56156155238796
  0
LINE
  8
_2-0_
  6
CONTINUOUS
 62
    7
 10
183.09774159612053
 20
466.50684556957879
 11
183.99257069745912
 21
467.43727973275736
  0
LINE
  8
_2-0_
  6
CONTINUOUS
 62
    7
 10
183.39534616961387
 20
466.50684556957879
 11
183.99592966555738
 21
467.12959825496989
  0
LINE
  8
_2-0_
  6
CONTINUOUS
 62
    7
 10
183.63584828543904
 20
466.50684556957879
 11
183.99592966555738
 21
466.8158706346054
  0
LINE
  8
_2-0_
  6
CONTINUOUS
 62
    7
 10
183.93479644617165
 20
466.50684556957879
 11
183.99257069745912
 21
466.56596340810563
  0
LINE
  8
_2-0_
  6
CONTINUOUS
 62
    7
 10
182.55694773232349
 20
467.12691108049148
 11
182.97345977649016
 21
467.56559231410563
  0
LINE
  8
_2-0_
  6
CONTINUOUS
 62
    7
 10
182.55694773232349
 20
466.56596340810563
 11
183.51828440200487
 21
467.56156155238796
  0
LINE
  8
_2-0_
  6
CONTINUOUS
 62
    7
 10
183.09774159612053
 20
466.50684556957879
 11
183.99257069745912
 21
467.43727973275736
  0
LINE
  8
_2-0_
  6
CONTINUOUS
 62
    7
 10
183.63584828543904
 20
466.50684556957879
 11
183.99592966555738
 21
466.8158706346054
  0
LINE
  8
_2-0_
  6
CONTINUOUS
 62
    7
 10
183.99257069745912
 20
466.50684556957879
 11
183.99257069745912
 21
467.56156155238796
  0
LINE
  8
_2-0_
  6
CONTINUOUS
 62
    7
 10
182.55694773232349
 20
466.50684556957879
 11
182.55694773232349
 21
467.56156155238796
  0
LINE
  8
_2-0_
  6
CONTINUOUS
 62
    7
 10
184.3533238711972
 20
466.50684556957879
 11
182.20089711392293
 21
466.50684556957879
  0
LINE
  8
_2-0_
  6
CONTINUOUS
 62
    7
 10
182.19955352668367
 20
466.50684556957879
 11
182.19955352668367
 21
467.56156155238796
  0
LINE
  8
_2-0_
  6
CONTINUOUS
 62
    7
 10
184.3533238711972
 20
467.56559231410563
 11
182.20089711392293
 21
467.56559231410563
  0
LINE
  8
_2-0_
  6
CONTINUOUS
 62
    7
 10
184.3533238711972
 20
466.50684556957879
 11
184.3533238711972
 21
467.56156155238796
  0
LINE
  8
_2-0_
  6
CONTINUOUS
 62
    7
 10
164.90960113842803
 20
467.43727973275736
 11
165.03052398996013
 21
467.56559231410563
  0
LINE
  8
_2-0_
  6
CONTINUOUS
 62
    7
 10
164.90960113842803
 20
467.12691108049148
 11
165.26968251854626
 21
467.56559231410563
  0
LINE
  8
_2-0_
  6
CONTINUOUS
 62
    7
 10
164.90960113842803
 20
466.87834744123052
 11
165.56728709203949
 21
467.56156155238796
  0
LINE
  8
_2-0_
  6
CONTINUOUS
 62
    7
 10
164.90960113842803
 20
466.56596340810563
 11
165.86354807829358
 21
467.56156155238796
  0
LINE
  8
_2-0_
  6
CONTINUOUS
 62
    7
 10
165.14741607977479
 20
466.50684556957879
 11
166.10539378135823
 21
467.56156155238796
  0
LINE
  8
_2-0_
  6
CONTINUOUS
 62
    7
 10
165.44569244688776
 20
466.50684556957879
 11
166.28610626503692
 21
467.43727973275736
  0
LINE
  8
_2-0_
  6
CONTINUOUS
 62
    7
 10
165.68753814995219
 20
466.50684556957879
 11
166.28610626503692
 21
467.12959825496989
  0
LINE
  8
_2-0_
  6
CONTINUOUS
 62
    7
 10
165.98782989792394
 20
466.50684556957879
 11
166.28610626503692
 21
466.8158706346054
  0
LINE
  8
_2-0_
  6
CONTINUOUS
 62
    7
 10
166.28610626503692
 20
466.50684556957879
 11
166.28610626503692
 21
466.56596340810563
  0
LINE
  8
_2-0_
  6
CONTINUOUS
 62
    7
 10
164.90960113842803
 20
467.43727973275736
 11
165.03052398996013
 21
467.56559231410563
  0
LINE
  8
_2-0_
  6
CONTINUOUS
 62
    7
 10
164.90960113842803
 20
467.12691108049148
 11
165.26968251854626
 21
467.56559231410563
  0
LINE
  8
_2-0_
  6
CONTINUOUS
 62
    7
 10
164.90960113842803
 20
466.87834744123052
 11
165.56728709203949
 21
467.56156155238796
  0
LINE
  8
_2-0_
  6
CONTINUOUS
 62
    7
 10
164.90960113842803
 20
466.56596340810563
 11
165.86354807829358
 21
467.56156155238796
  0
LINE
  8
_2-0_
  6
CONTINUOUS
 62
    7
 10
165.14741607977479
 20
466.50684556957879
 11
166.10539378135823
 21
467.56156155238796
  0
LINE
  8
_2-0_
  6
CONTINUOUS
 62
    7
 10
165.44569244688776
 20
466.50684556957879
 11
166.28610626503692
 21
467.43727973275736
  0
LINE
  8
_2-0_
  6
CONTINUOUS
 62
    7
 10
165.68753814995219
 20
466.50684556957879
 11
166.28610626503692
 21
467.12959825496989
  0
LINE
  8
_2-0_
  6
CONTINUOUS
 62
    7
 10
165.98782989792394
 20
466.50684556957879
 11
166.28610626503692
 21
466.8158706346054
  0
LINE
  8
_2-0_
  6
CONTINUOUS
 62
    7
 10
166.28610626503692
 20
466.50684556957879
 11
166.28610626503692
 21
466.56596340810563
  0
LINE
  8
_2-0_
  6
CONTINUOUS
 62
    7
 10
164.90960113842803
 20
467.12691108049148
 11
165.26968251854626
 21
467.56559231410563
  0
LINE
  8
_2-0_
  6
CONTINUOUS
 62
    7
 10
164.90960113842803
 20
466.56596340810563
 11
165.86354807829358
 21
467.56156155238796
  0
LINE
  8
_2-0_
  6
CONTINUOUS
 62
    7
 10
165.44569244688776
 20
466.50684556957879
 11
166.28610626503692
 21
467.43727973275736
  0
LINE
  8
_2-0_
  6
CONTINUOUS
 62
    7
 10
165.98782989792394
 20
466.50684556957879
 11
166.28610626503692
 21
466.8158706346054
  0
LINE
  8
_2-0_
  6
CONTINUOUS
 62
    7
 10
166.28610626503692
 20
466.50684556957879
 11
166.28610626503692
 21
467.56156155238796
  0
LINE
  8
_2-0_
  6
CONTINUOUS
 62
    7
 10
164.90960113842803
 20
466.50684556957879
 11
164.90960113842803
 21
467.56156155238796
  0
LINE
  8
_2-0_
  6
CONTINUOUS
 62
    7
 10
166.70463369006248
 20
466.50684556957879
 11
164.48905833254346
 21
466.50684556957879
  0
LINE
  8
_2-0_
  6
CONTINUOUS
 62
    7
 10
164.48905833254346
 20
466.50684556957879
 11
164.48905833254346
 21
467.56156155238796
  0
LINE
  8
_2-0_
  6
CONTINUOUS
 62
    7
 10
166.70463369006248
 20
467.56559231410563
 11
164.48905833254346
 21
467.56559231410563
  0
LINE
  8
_2-0_
  6
CONTINUOUS
 62
    7
 10
166.70463369006248
 20
466.50684556957879
 11
166.70463369006248
 21
467.56156155238796
  0
LINE
  8
_2-0_
  6
CONTINUOUS
 62
    7
 10
208.46198149863361
 20
473.66615017390848
 11
202.24117258091806
 21
473.66615017390848
  0
LINE
  8
_2-0_
  6
CONTINUOUS
 62
    7
 10
208.64403756955178
 20
468.49602647728443
 11
208.64403756955178
 21
473.47871975403348
  0
LINE
  8
_2-0_
  6
CONTINUOUS
 62
    7
 10
208.46198149863361
 20
468.31262681912733
 11
202.24117258091806
 21
468.31262681912733
  0
LINE
  8
_2-0_
  6
CONTINUOUS
 62
    7
 10
202.06180368447852
 20
468.49602647728443
 11
202.06180368447852
 21
473.47871975403348
  0
LINE
  8
_2-0_
  6
CONTINUOUS
 62
    7
 10
199.67021839861812
 20
473.66615017390848
 11
193.44605051280431
 21
473.66615017390848
  0
LINE
  8
_2-0_
  6
CONTINUOUS
 62
    7
 10
199.84958729505766
 20
468.49602647728443
 11
199.84958729505766
 21
473.47871975403348
  0
LINE
  8
_2-0_
  6
CONTINUOUS
 62
    7
 10
199.67021839861812
 20
468.31262681912733
 11
193.44605051280431
 21
468.31262681912733
  0
LINE
  8
_2-0_
  6
CONTINUOUS
 62
    7
 10
193.26735340998439
 20
468.49602647728443
 11
193.26735340998439
 21
473.47871975403348
  0
LINE
  8
_2-0_
  6
CONTINUOUS
 62
    7
 10
190.87509633050436
 20
473.66615017390848
 11
184.65495920640822
 21
473.66615017390848
  0
LINE
  8
_2-0_
  6
CONTINUOUS
 62
    7
 10
191.05513702056354
 20
468.49602647728443
 11
191.05513702056354
 21
473.47871975403348
  0
LINE
  8
_2-0_
  6
CONTINUOUS
 62
    7
 10
190.87509633050436
 20
468.31262681912733
 11
184.65495920640822
 21
468.31262681912733
  0
LINE
  8
_2-0_
  6
CONTINUOUS
 62
    7
 10
184.47290313549027
 20
468.49602647728443
 11
184.47290313549027
 21
473.47871975403348
  0
LINE
  8
_2-0_
  6
CONTINUOUS
 62
    7
 10
182.08131784962987
 20
468.49602647728443
 11
182.08131784962987
 21
473.47871975403348
  0
LINE
  8
_2-0_
  6
CONTINUOUS
 62
    7
 10
181.90262074680996
 20
468.31262681912733
 11
175.67979644823529
 21
468.31262681912733
  0
LINE
  8
_2-0_
  6
CONTINUOUS
 62
    7
 10
181.90262074680996
 20
473.66615017390848
 11
175.67979644823529
 21
473.66615017390848
  0
LINE
  8
_2-0_
  6
CONTINUOUS
 62
    7
 10
175.4990839645566
 20
468.49602647728443
 11
175.4990839645566
 21
473.47871975403348
  0
LINE
  8
_2-0_
  6
CONTINUOUS
 62
    7
 10
173.10481150421757
 20
468.31262681912733
 11
166.88198720564313
 21
468.31262681912733
  0
LINE
  8
_2-0_
  6
CONTINUOUS
 62
    7
 10
173.28485219427685
 20
468.49602647728443
 11
173.28485219427685
 21
473.47871975403348
  0
LINE
  8
_2-0_
  6
CONTINUOUS
 62
    7
 10
173.10481150421757
 20
473.66615017390848
 11
166.88198720564313
 21
473.66615017390848
  0
LINE
  8
_2-0_
  6
CONTINUOUS
 62
    7
 10
166.70463369006248
 20
468.49602647728443
 11
166.70463369006248
 21
473.47871975403348
  0
LINE
  8
_2-0_
  6
CONTINUOUS
 62
    7
 10
157.9095116219487
 20
468.49602647728443
 11
157.9095116219487
 21
473.47871975403348
  0
LINE
  8
_2-0_
  6
CONTINUOUS
 62
    7
 10
164.31170481696282
 20
468.31262681912733
 11
158.09022410562761
 21
468.31262681912733
  0
LINE
  8
_2-0_
  6
CONTINUOUS
 62
    7
 10
164.48905833254346
 20
468.49602647728443
 11
164.48905833254346
 21
473.47871975403348
  0
LINE
  8
_2-0_
  6
CONTINUOUS
 62
    7
 10
164.31170481696282
 20
473.66615017390848
 11
158.09022410562761
 21
473.66615017390848
  0
LINE
  8
_2-0_
  6
CONTINUOUS
 62
    7
 10
210.73869007553836
 20
464.76286933303538
 11
210.73869007553836
 21
477.21389227914153
  0
LINE
  8
_2-0_
  6
CONTINUOUS
 62
    7
 10
191.29429554914944
 20
473.91202663869069
 11
184.29151885819172
 21
473.91202663869069
  0
LINE
  8
_2-0_
  6
CONTINUOUS
 62
    7
 10
184.29353423905073
 20
468.06003241814881
 11
184.29353423905073
 21
473.91202663869069
  0
LINE
  8
_2-0_
  6
CONTINUOUS
 62
    7
 10
191.29429554914944
 20
468.06003241814881
 11
184.29151885819172
 21
468.06003241814881
  0
LINE
  8
_2-0_
  6
CONTINUOUS
 62
    7
 10
191.29429554914944
 20
468.06003241814881
 11
191.29429554914944
 21
473.91202663869069
  0
LINE
  8
_2-0_
  6
CONTINUOUS
 62
    7
 10
200.02828439787757
 20
473.91202663869069
 11
193.08798451354485
 21
473.91202663869069
  0
LINE
  8
_2-0_
  6
CONTINUOUS
 62
    7
 10
193.08798451354485
 20
468.06003241814881
 11
193.08798451354485
 21
473.91202663869069
  0
LINE
  8
_2-0_
  6
CONTINUOUS
 62
    7
 10
200.02828439787757
 20
468.06003241814881
 11
193.08798451354485
 21
468.06003241814881
  0
LINE
  8
_2-0_
  6
CONTINUOUS
 62
    7
 10
200.02828439787757
 20
468.06003241814881
 11
200.02828439787757
 21
473.91202663869069
  0
LINE
  8
_2-0_
  6
CONTINUOUS
 62
    7
 10
201.88176299441923
 20
468.06003241814881
 11
201.88176299441923
 21
473.91202663869069
  0
LINE
  8
_2-0_
  6
CONTINUOUS
 62
    7
 10
208.8234064659911
 20
468.06003241814881
 11
201.88176299441923
 21
468.06003241814881
  0
LINE
  8
_2-0_
  6
CONTINUOUS
 62
    7
 10
208.8234064659911
 20
468.06003241814881
 11
208.8234064659911
 21
473.91202663869069
  0
LINE
  8
_2-0_
  6
CONTINUOUS
 62
    7
 10
182.26068674606941
 20
473.91202663869069
 11
175.25925364235084
 21
473.91202663869069
  0
LINE
  8
_2-0_
  6
CONTINUOUS
 62
    7
 10
175.25925364235084
 20
468.06003241814881
 11
175.25925364235084
 21
473.91202663869069
  0
LINE
  8
_2-0_
  6
CONTINUOUS
 62
    7
 10
182.26068674606941
 20
468.06003241814881
 11
175.25925364235084
 21
468.06003241814881
  0
LINE
  8
_2-0_
  6
CONTINUOUS
 62
    7
 10
182.26068674606941
 20
468.06003241814881
 11
182.26068674606941
 21
473.91202663869069
  0
LINE
  8
_2-0_
  6
CONTINUOUS
 62
    7
 10
173.4662364715754
 20
473.91202663869069
 11
166.46413157423709
 21
473.91202663869069
  0
LINE
  8
_2-0_
  6
CONTINUOUS
 62
    7
 10
166.46413157423709
 20
468.06003241814881
 11
166.46413157423709
 21
473.91202663869069
  0
LINE
  8
_2-0_
  6
CONTINUOUS
 62
    7
 10
173.4662364715754
 20
468.06003241814881
 11
166.46413157423709
 21
468.06003241814881
  0
LINE
  8
_2-0_
  6
CONTINUOUS
 62
    7
 10
173.4662364715754
 20
468.06003241814881
 11
173.4662364715754
 21
473.91202663869069
  0
LINE
  8
_2-0_
  6
CONTINUOUS
 62
    7
 10
164.67178619708127
 20
473.91202663869069
 11
157.73148631274853
 21
473.91202663869069
  0
LINE
  8
_2-0_
  6
CONTINUOUS
 62
    7
 10
157.73148631274853
 20
468.06003241814881
 11
157.73148631274853
 21
473.91202663869069
  0
LINE
  8
_2-0_
  6
CONTINUOUS
 62
    7
 10
164.67178619708127
 20
468.06003241814881
 11
157.73148631274853
 21
468.06003241814881
  0
LINE
  8
_2-0_
  6
CONTINUOUS
 62
    7
 10
164.67178619708127
 20
468.06003241814881
 11
164.67178619708127
 21
473.91202663869069
  0
LINE
  8
_2-0_
  6
CONTINUOUS
 62
    7
 10
210.73869007553836
 20
464.76286933303538
 11
205.17287993695587
 21
464.76286933303538
  0
LINE
  8
_2-0_
  6
CONTINUOUS
 62
    7
 10
210.73869007553836
 20
464.76286933303538
 11
210.73869007553836
 21
467.87058661741469
  0
LINE
  8
_2-0_
  6
CONTINUOUS
 62
    7
 10
210.73869007553836
 20
467.87058661741469
 11
205.17287993695587
 21
467.87058661741469
  0
LINE
  8
_2-0_
  6
CONTINUOUS
 62
    7
 10
205.17287993695587
 20
464.76286933303538
 11
205.17287993695587
 21
467.87058661741469
  0
LINE
  8
_2-0_
  6
CONTINUOUS
 62
    7
 10
210.73869007553836
 20
474.0987852649464
 11
205.17287993695587
 21
474.0987852649464
  0
LINE
  8
_2-0_
  6
CONTINUOUS
 62
    7
 10
210.73869007553836
 20
474.0987852649464
 11
210.73869007553836
 21
477.21389227914153
  0
LINE
  8
_2-0_
  6
CONTINUOUS
 62
    7
 10
210.73869007553836
 20
477.21389227914153
 11
205.17287993695587
 21
477.21389227914153
  0
LINE
  8
_2-0_
  6
CONTINUOUS
 62
    7
 10
205.17287993695587
 20
474.0987852649464
 11
205.17287993695587
 21
477.21389227914153
  0
LINE
  8
_2-0_
  6
CONTINUOUS
 62
    7
 10
161.37999746092498
 20
464.76286933303538
 11
155.81553090958164
 21
464.76286933303538
  0
LINE
  8
_2-0_
  6
CONTINUOUS
 62
    7
 10
155.81553090958164
 20
464.76286933303538
 11
155.81553090958164
 21
467.87058661741469
  0
LINE
  8
_2-0_
  6
CONTINUOUS
 62
    7
 10
161.37999746092498
 20
467.87058661741469
 11
155.81553090958164
 21
467.87058661741469
  0
LINE
  8
_2-0_
  6
CONTINUOUS
 62
    7
 10
161.37999746092498
 20
464.76286933303538
 11
161.37999746092498
 21
467.87058661741469
  0
LINE
  8
_2-0_
  6
CONTINUOUS
 62
    7
 10
161.37999746092498
 20
474.0987852649464
 11
155.81553090958164
 21
474.0987852649464
  0
LINE
  8
_2-0_
  6
CONTINUOUS
 62
    7
 10
161.37999746092498
 20
477.21389227914153
 11
155.81553090958164
 21
477.21389227914153
  0
LINE
  8
_2-0_
  6
CONTINUOUS
 62
    7
 10
161.37999746092498
 20
474.0987852649464
 11
161.37999746092498
 21
477.21389227914153
  0
LINE
  8
_2-0_
  6
CONTINUOUS
 62
    7
 10
208.8234064659911
 20
473.91202663869069
 11
201.88176299441923
 21
473.91202663869069
  0
LINE
  8
_2-0_
  6
CONTINUOUS
 62
    7
 10
210.73734648829921
 20
464.75951036493711
 11
210.73734648829921
 21
467.87528917275233
  0
LINE
  8
_2-0_
  6
CONTINUOUS
 62
    7
 10
197.27594593827908
 20
467.43996690723623
 11
197.39552520257214
 21
467.56424872686637
  0
LINE
  8
_2-0_
  6
CONTINUOUS
 62
    7
 10
197.27594593827908
 20
467.12959825496989
 11
197.6380426992562
 21
467.56424872686637
  0
LINE
  8
_2-0_
  6
CONTINUOUS
 62
    7
 10
197.27594593827908
 20
466.87834744123052
 11
197.93564727274955
 21
467.56424872686637
  0
LINE
  8
_2-0_
  6
CONTINUOUS
 62
    7
 10
197.27594593827908
 20
466.56596340810563
 11
198.23459543348216
 21
467.56424872686637
  0
LINE
  8
_2-0_
  6
CONTINUOUS
 62
    7
 10
197.51577626048484
 20
466.50684556957879
 11
198.47039499397002
 21
467.56424872686637
  0
LINE
  8
_2-0_
  6
CONTINUOUS
 62
    7
 10
197.75695016992964
 20
466.50684556957879
 11
198.65245106488797
 21
467.43996690723623
  0
LINE
  8
_2-0_
  6
CONTINUOUS
 62
    7
 10
198.0525393625642
 20
466.50684556957879
 11
198.65245106488797
 21
467.12959825496989
  0
LINE
  8
_2-0_
  6
CONTINUOUS
 62
    7
 10
198.35350290415559
 20
466.50684556957879
 11
198.65245106488797
 21
466.8158706346054
  0
LINE
  8
_2-0_
  6
CONTINUOUS
 62
    7
 10
198.65245106488797
 20
466.50684556957879
 11
198.65245106488797
 21
466.56596340810563
  0
LINE
  8
_2-0_
  6
CONTINUOUS
 62
    7
 10
197.27594593827908
 20
467.43996690723623
 11
197.39552520257214
 21
467.56424872686637
  0
LINE
  8
_2-0_
  6
CONTINUOUS
 62
    7
 10
197.27594593827908
 20
467.12959825496989
 11
197.6380426992562
 21
467.56424872686637
  0
LINE
  8
_2-0_
  6
CONTINUOUS
 62
    7
 10
197.27594593827908
 20
466.87834744123052
 11
197.93564727274955
 21
467.56424872686637
  0
LINE
  8
_2-0_
  6
CONTINUOUS
 62
    7
 10
197.27594593827908
 20
466.56596340810563
 11
198.23459543348216
 21
467.56424872686637
  0
LINE
  8
_2-0_
  6
CONTINUOUS
 62
    7
 10
197.51577626048484
 20
466.50684556957879
 11
198.47039499397002
 21
467.56424872686637
  0
LINE
  8
_2-0_
  6
CONTINUOUS
 62
    7
 10
197.75695016992964
 20
466.50684556957879
 11
198.65245106488797
 21
467.43996690723623
  0
LINE
  8
_2-0_
  6
CONTINUOUS
 62
    7
 10
198.0525393625642
 20
466.50684556957879
 11
198.65245106488797
 21
467.12959825496989
  0
LINE
  8
_2-0_
  6
CONTINUOUS
 62
    7
 10
198.35350290415559
 20
466.50684556957879
 11
198.65245106488797
 21
466.8158706346054
  0
LINE
  8
_2-0_
  6
CONTINUOUS
 62
    7
 10
198.65245106488797
 20
466.50684556957879
 11
198.65245106488797
 21
466.56596340810563
  0
LINE
  8
_2-0_
  6
CONTINUOUS
 62
    7
 10
197.27594593827908
 20
467.12959825496989
 11
197.6380426992562
 21
467.56424872686637
  0
LINE
  8
_2-0_
  6
CONTINUOUS
 62
    7
 10
197.27594593827908
 20
466.56596340810563
 11
198.23459543348216
 21
467.56424872686637
  0
LINE
  8
_2-0_
  6
CONTINUOUS
 62
    7
 10
197.75695016992964
 20
466.50684556957879
 11
198.65245106488797
 21
467.43996690723623
  0
LINE
  8
_2-0_
  6
CONTINUOUS
 62
    7
 10
198.35350290415559
 20
466.50684556957879
 11
198.65245106488797
 21
466.8158706346054
  0
LINE
  8
_2-0_
  6
CONTINUOUS
 62
    7
 10
198.65245106488797
 20
466.50684556957879
 11
198.65245106488797
 21
467.56424872686637
  0
LINE
  8
_2-0_
  6
CONTINUOUS
 62
    7
 10
197.27594593827908
 20
466.50684556957879
 11
197.27594593827908
 21
467.56424872686637
  0
LINE
  8
_2-0_
  6
CONTINUOUS
 62
    7
 10
199.07097848991353
 20
466.50684556957879
 11
196.85876210049267
 21
466.50684556957879
  0
LINE
  8
_2-0_
  6
CONTINUOUS
 62
    7
 10
196.85607492601414
 20
466.50684556957879
 11
196.85607492601414
 21
467.56424872686637
  0
LINE
  8
_2-0_
  6
CONTINUOUS
 62
    7
 10
199.07097848991353
 20
467.56424872686637
 11
196.85876210049267
 21
467.56424872686637
  0
LINE
  8
_2-0_
  6
CONTINUOUS
 62
    7
 10
199.07097848991353
 20
466.50684556957879
 11
199.07097848991353
 21
467.56424872686637
  0
LINE
  8
_2-0_
  6
CONTINUOUS
 62
    7
 10
191.47299265196935
 20
474.53746649856055
 11
191.59324370988205
 21
474.40915391721262
  0
LINE
  8
_2-0_
  6
CONTINUOUS
 62
    7
 10
191.47299265196935
 20
474.85119411892492
 11
191.8310586512288
 21
474.40915391721262
  0
LINE
  8
_2-0_
  6
CONTINUOUS
 62
    7
 10
210.73734648829921
 20
464.75951036493711
 11
210.73734648829921
 21
477.21523586638079
  0
LINE
  8
_2-0_
  6
CONTINUOUS
 62
    7
 10
210.73734648829921
 20
474.0987852649464
 11
210.73734648829921
 21
477.21523586638079
  0
LINE
  8
_2-0_
  6
CONTINUOUS
 62
    7
 10
155.81553090958164
 20
463.70345079488891
 11
155.81553090958164
 21
477.21523586638079
  0
LINE
  8
_2-0_
  6
CONTINUOUS
 62
    7
 10
209.72159453542795
 20
463.70345079488891
 11
155.81553090958164
 21
463.70345079488891
  0
LINE
  8
_2-0_
  6
CONTINUOUS
 62
    7
 10
155.81553090958164
 20
474.0987852649464
 11
155.81553090958164
 21
478.2753261981469
  0
LINE
  8
_2-0_
  6
CONTINUOUS
 62
    7
 10
212.65148631274852
 20
468.06406317986637
 11
212.65148631274852
 21
473.91605740040859
  0
LINE
  8
_2-0_
  6
CONTINUOUS
 62
    7
 10
212.82951162194868
 20
468.49602647728443
 11
212.82951162194868
 21
473.47871975403348
  0
LINE
  8
_2-0_
  6
CONTINUOUS
 62
    7
 10
212.65148631274852
 20
468.06003241814881
 11
212.65148631274852
 21
473.91202663869069
  0
LINE
  8
_2-0_
  6
CONTINUOUS
 62
    7
 10
210.73553090958163
 20
464.76286933303538
 11
210.73553090958163
 21
467.87058661741469
  0
LINE
  8
_2-0_
  6
CONTINUOUS
 62
    7
 10
210.73553090958163
 20
463.70345079488891
 11
210.73553090958163
 21
477.21523586638079
  0
LINE
  8
_2-0_
  6
CONTINUOUS
 62
    7
 10
210.73553090958163
 20
474.0987852649464
 11
210.73553090958163
 21
478.2753261981469
  0
LINE
  8
_2-0_
  6
CONTINUOUS
 62
    7
 10
155.62268640173522
 20
468.32757906437132
 11
145.9572604017352
 21
470.97876706437114
  0
LINE
  8
_2-0_
  6
CONTINUOUS
 62
    7
 10
145.55327840173516
 20
473.97876706437114
 11
155.62268640173522
 21
476.74076706437131
  0
LINE
  8
_2-0_
  6
CONTINUOUS
 62
    7
 10
155.62268640173522
 20
473.62995506437119
 11
145.9572604017352
 21
470.97876706437114
  0
LINE
  8
_2-0_
  6
CONTINUOUS
 62
    7
 10
145.55327840173516
 20
467.97876706437114
 11
155.62268640173522
 21
465.2167670643712
  0
ARC
  8
_2-0_
  6
CONTINUOUS
 62
    7
 10
81.03351575440081
 20
464.82330981531629
 40
1.7000000000000002
 50
270
 51
0
  0
LINE
  8
_2-0_
  6
CONTINUOUS
 62
    7
 10
82.733515754400742
 20
464.82330981531629
 11
82.733515754400742
 21
467.68010669031628
  0
ARC
  8
_2-0_
  6
CONTINUOUS
 62
    7
 10
81.03351575440081
 20
477.33690356531633
 40
1.7000000000000002
 50
0
 51
90.000000000000014
  0
LINE
  8
_2-0_
  6
CONTINUOUS
 62
    7
 10
82.733515754400742
 20
477.33690356531633
 11
82.733515754400742
 21
474.48010669031635
  0
LINE
  8
_2-0_
  6
CONTINUOUS
 62
    7
 10
94.633515754400719
 20
467.68010669031628
 11
94.633515754400719
 21
474.48010669031635
  0
LINE
  8
_2-0_
  6
CONTINUOUS
 62
    7
 10
75.593515754400642
 20
467.68010669031628
 11
75.593515754400642
 21
474.48010669031635
  0
LINE
  8
_2-0_
  6
CONTINUOUS
 62
    7
 10
75.593515754400642
 20
469.38010669031632
 11
94.633515754400719
 21
469.38010669031632
  0
LINE
  8
_2-0_
  6
CONTINUOUS
 62
    7
 10
78.993515754400732
 20
466.52330981531622
 11
78.993515754400732
 21
467.68010669031628
  0
LINE
  8
_2-0_
  6
CONTINUOUS
 62
    7
 10
75.593515754400642
 20
467.68010669031628
 11
94.633515754400719
 21
467.68010669031628
  0
LINE
  8
_2-0_
  6
CONTINUOUS
 62
    7
 10
75.593515754400642
 20
472.78010669031642
 11
94.633515754400719
 21
472.78010669031642
  0
LINE
  8
_2-0_
  6
CONTINUOUS
 62
    7
 10
78.993515754400732
 20
474.48010669031635
 11
78.993515754400732
 21
475.63690356531629
  0
LINE
  8
_2-0_
  6
CONTINUOUS
 62
    7
 10
75.593515754400642
 20
474.48010669031635
 11
94.633515754400719
 21
474.48010669031635
  0
LINE
  8
_2-0_
  6
CONTINUOUS
 62
    7
 10
101.19799051883524
 20
465.16330981531632
 11
101.19799051883524
 21
476.99690356531619
  0
LINE
  8
_2-0_
  6
CONTINUOUS
 62
    7
 10
102.04799051883526
 20
476.99690356531619
 11
82.733515754400742
 21
476.99690356531619
  0
LINE
  8
_2-0_
  6
CONTINUOUS
 62
    7
 10
82.733515754400742
 20
465.16330981531632
 11
102.04799051883526
 21
465.16330981531632
  0
LINE
  8
_2-0_
  6
CONTINUOUS
 62
    7
 10
102.04799051883526
 20
465.16330981531632
 11
102.04799051883526
 21
476.99690356531619
  0
LINE
  8
_2-0_
  6
CONTINUOUS
 62
    7
 10
81.03351575440081
 20
463.12330981531625
 11
70.493515754400732
 21
463.12330981531625
  0
LINE
  8
_2-0_
  6
CONTINUOUS
 62
    7
 10
81.03351575440081
 20
479.03690356531615
 11
70.493515754400732
 21
479.03690356531615
  0
LINE
  8
_2-0_
  6
CONTINUOUS
 62
    7
 10
70.493515754400732
 20
466.52330981531622
 11
78.993515754400732
 21
466.52330981531622
  0
LINE
  8
_2-0_
  6
CONTINUOUS
 62
    7
 10
78.993515754400732
 20
475.63690356531629
 11
70.493515754400732
 21
475.63690356531629
  0
LINE
  8
ADD_LINE
  6
DOT
 62
    9
 10
70.493515754400732
 20
471.08010669031626
 11
102.04799051883526
 21
471.08010669031626
  0
LINE
  8
_2-0_
  6
CONTINUOUS
 62
    7
 10
70.493515754400732
 20
463.12330981531625
 11
70.493515754400732
 21
479.03690356531615
  0
ARC
  8
_2-0_
  6
CONTINUOUS
 62
    2
 10
123.20382945287827
 20
474.61568658483395
 40
5.7064015740103065
 50
320.661199489333
 51
54.386441387944416
  0
ARC
  8
_2-0_
  6
CONTINUOUS
 62
    2
 10
135.18044143787188
 20
464.79939177000767
 40
9.7790392828292987
 50
140.66119948933292
 51
214.56691244988951
  0
ARC
  8
_2-0_
  6
CONTINUOUS
 62
    2
 10
135.18044143787188
 20
464.79939177000767
 40
8.0790392828292976
 50
140.66119948933292
 51
214.56691244988951
  0
ARC
  8
_2-0_
  6
CONTINUOUS
 62
    2
 10
123.20382945287827
 20
474.61568658483395
 40
7.4064015740103066
 50
320.661199489333
 51
54.386441387944416
  0
LINE
  8
_2-0_
  6
CONTINUOUS
 62
    7
 10
102.38567899911857
 20
470.97876706437114
 11
127.72378721993505
 21
470.97876706437114
  0
LINE
  8
_2-0_
  6
CONTINUOUS
 62
    7
 10
102.3020548795779
 20
473.97876706437114
 11
128.64365253488222
 21
473.97876706437114
  0
LINE
  8
_2-0_
  6
CONTINUOUS
 62
    7
 10
130.56700728431713
 20
473.97876706437114
 11
145.55327840173516
 21
473.97876706437114
  0
LINE
  8
_2-0_
  6
CONTINUOUS
 62
    7
 10
129.56351784982928
 20
470.97876706437114
 11
145.9572604017352
 21
470.97876706437114
  0
LINE
  8
_2-0_
  6
CONTINUOUS
 62
    7
 10
102.46930311865913
 20
467.97876706437114
 11
125.88405659004081
 21
467.97876706437114
  0
LINE
  8
_2-0_
  6
CONTINUOUS
 62
    7
 10
127.80741133947572
 20
467.97876706437114
 11
145.55327840173516
 21
467.97876706437114
  0
LINE
  8
_2-0_
  6
CONTINUOUS
 62
    4
 10
152.08994173534882
 20
430.97876706437114
 11
540.92546773534878
 21
430.97876706437114
  0
LINE
  8
_2-0_
  6
CONTINUOUS
 62
    4
 10
152.08994173534882
 20
430.97876706437114
 11
102.08994173534893
 21
430.97876706437114
  0
LINE
  8
_2-0_
  6
CONTINUOUS
 62
    4
 10
102.08994173534893
 20
426.97876706437114
 11
102.08994173534893
 21
460.01783106437119
  0
LINE
  8
_2-0_
  6
CONTINUOUS
 62
    4
 10
145.81553090958164
 20
426.72545671462763
 11
145.81553090958164
 21
455.80883053244509
  0
LINE
  8
_2-0_
  6
CONTINUOUS
 62
    7
 10
345.67478520349152
 20
478.2753261981469
 11
320.58374159804657
 21
478.2753261981469
  0
LINE
  8
_2-0_
  6
CONTINUOUS
 62
    7
 10
344.68492083928714
 20
463.70345079488891
 11
320.58374159804657
 21
463.70345079488891
  0
LINE
  8
_2-0_
  6
CONTINUOUS
 62
    7
 10
346.50452958283034
 20
473.91202663869069
 11
340.0274643308158
 21
473.91202663869069
  0
LINE
  8
_2-0_
  6
CONTINUOUS
 62
    7
 10
343.93012847951604
 20
468.31262681912733
 11
340.44800713670026
 21
468.31262681912733
  0
LINE
  8
_2-0_
  6
CONTINUOUS
 62
    7
 10
343.81540121452974
 20
468.06406317986637
 11
340.08859755020165
 21
468.06406317986637
  0
LINE
  8
_2-0_
  6
CONTINUOUS
 62
    7
 10
343.87391373782884
 20
468.06003241814881
 11
340.0274643308158
 21
468.06003241814881
  0
LINE
  8
_2-0_
  6
CONTINUOUS
 62
    7
 10
520.47599173534877
 20
468.32757906437132
 11
530.14141973534879
 21
470.97876706437114
  0
LINE
  8
_2-0_
  6
CONTINUOUS
 62
    7
 10
530.54540173534883
 20
473.97876706437114
 11
520.47599173534877
 21
476.74076706437131
  0
LINE
  8
_2-0_
  6
CONTINUOUS
 62
    7
 10
520.47599173534877
 20
473.62995506437119
 11
530.14141973534879
 21
470.97876706437114
  0
LINE
  8
_2-0_
  6
CONTINUOUS
 62
    7
 10
530.54540173534883
 20
467.97876706437114
 11
520.47599173534877
 21
465.2167670643712
  0
LINE
  8
_2-0_
  6
CONTINUOUS
 62
    7
 10
353.59161715445606
 20
473.91605740040859
 11
353.59161715445606
 21
468.06406317986637
  0
LINE
  8
_2-0_
  6
CONTINUOUS
 62
    7
 10
353.41224825801675
 20
468.49602647728443
 11
353.41224825801675
 21
473.47871975403348
  0
LINE
  8
_2-0_
  6
CONTINUOUS
 62
    7
 10
355.50690076400332
 20
464.76286933303538
 11
355.50690076400332
 21
477.21389227914153
  0
LINE
  8
_2-0_
  6
CONTINUOUS
 62
    7
 10
353.59161715445606
 20
468.06003241814881
 11
353.59161715445606
 21
473.91202663869069
  0
LINE
  8
_2-0_
  6
CONTINUOUS
 62
    7
 10
355.50690076400332
 20
464.76286933303538
 11
349.94109062542083
 21
464.76286933303538
  0
LINE
  8
_2-0_
  6
CONTINUOUS
 62
    7
 10
355.50690076400332
 20
464.76286933303538
 11
355.50690076400332
 21
467.87058661741469
  0
LINE
  8
_2-0_
  6
CONTINUOUS
 62
    7
 10
355.50690076400332
 20
467.87058661741469
 11
349.94109062542083
 21
467.87058661741469
  0
LINE
  8
_2-0_
  6
CONTINUOUS
 62
    7
 10
349.94109062542083
 20
464.76286933303538
 11
349.94109062542083
 21
467.87058661741469
  0
LINE
  8
_2-0_
  6
CONTINUOUS
 62
    7
 10
355.50690076400332
 20
474.0987852649464
 11
349.94109062542083
 21
474.0987852649464
  0
LINE
  8
_2-0_
  6
CONTINUOUS
 62
    7
 10
355.50690076400332
 20
474.0987852649464
 11
355.50690076400332
 21
477.21389227914153
  0
LINE
  8
_2-0_
  6
CONTINUOUS
 62
    7
 10
355.50690076400332
 20
477.21389227914153
 11
349.94109062542083
 21
477.21389227914153
  0
LINE
  8
_2-0_
  6
CONTINUOUS
 62
    7
 10
349.94109062542083
 20
474.0987852649464
 11
349.94109062542083
 21
477.21389227914153
  0
LINE
  8
_2-0_
  6
CONTINUOUS
 62
    7
 10
355.50555717676417
 20
464.75951036493711
 11
355.50555717676417
 21
467.87528917275233
  0
LINE
  8
_2-0_
  6
CONTINUOUS
 62
    7
 10
355.50555717676417
 20
464.75951036493711
 11
355.50555717676417
 21
477.21523586638079
  0
LINE
  8
_2-0_
  6
CONTINUOUS
 62
    7
 10
355.50555717676417
 20
474.0987852649464
 11
355.50555717676417
 21
477.21523586638079
  0
LINE
  8
_2-0_
  6
CONTINUOUS
 62
    7
 10
464.32980522389289
 20
478.2753261981469
 11
410.42374159804655
 21
478.2753261981469
  0
LINE
  8
_2-0_
  6
CONTINUOUS
 62
    7
 10
409.40980522389287
 20
478.2753261981469
 11
355.50374159804659
 21
478.2753261981469
  0
LINE
  8
_2-0_
  6
CONTINUOUS
 62
    7
 10
364.35730971106756
 20
468.06406317986637
 11
357.41969700121348
 21
468.06406317986637
  0
LINE
  8
_2-0_
  6
CONTINUOUS
 62
    7
 10
357.41969700121348
 20
468.06406317986637
 11
357.41969700121348
 21
473.91605740040859
  0
LINE
  8
_2-0_
  6
CONTINUOUS
 62
    7
 10
357.41969700121348
 20
473.91605740040859
 11
364.35730971106756
 21
473.91605740040859
  0
LINE
  8
_2-0_
  6
CONTINUOUS
 62
    7
 10
364.35730971106756
 20
473.91605740040859
 11
364.35730971106756
 21
468.06406317986637
  0
LINE
  8
_2-0_
  6
CONTINUOUS
 62
    7
 10
373.15243177918131
 20
468.06406317986637
 11
366.21347548208786
 21
468.06406317986637
  0
LINE
  8
_2-0_
  6
CONTINUOUS
 62
    7
 10
366.21347548208786
 20
468.06406317986637
 11
366.21347548208786
 21
473.91605740040859
  0
LINE
  8
_2-0_
  6
CONTINUOUS
 62
    7
 10
366.21347548208786
 20
473.91605740040859
 11
373.15243177918131
 21
473.91605740040859
  0
LINE
  8
_2-0_
  6
CONTINUOUS
 62
    7
 10
373.15243177918131
 20
473.91605740040859
 11
373.15243177918131
 21
468.06406317986637
  0
LINE
  8
_2-0_
  6
CONTINUOUS
 62
    7
 10
381.94889743453433
 20
468.06406317986637
 11
375.00859755020161
 21
468.06406317986637
  0
LINE
  8
_2-0_
  6
CONTINUOUS
 62
    7
 10
375.00859755020161
 20
468.06406317986637
 11
375.00859755020161
 21
473.91605740040859
  0
LINE
  8
_2-0_
  6
CONTINUOUS
 62
    7
 10
375.00859755020161
 20
473.91605740040859
 11
381.94889743453433
 21
473.91605740040859
  0
LINE
  8
_2-0_
  6
CONTINUOUS
 62
    7
 10
381.94889743453433
 20
473.91605740040859
 11
381.94889743453433
 21
468.06406317986637
  0
LINE
  8
_2-0_
  6
CONTINUOUS
 62
    7
 10
390.87367567123528
 20
468.06406317986637
 11
383.93337578690279
 21
468.06406317986637
  0
LINE
  8
_2-0_
  6
CONTINUOUS
 62
    7
 10
383.93337578690279
 20
468.06406317986637
 11
383.93337578690279
 21
473.91605740040859
  0
LINE
  8
_2-0_
  6
CONTINUOUS
 62
    7
 10
383.93337578690279
 20
473.91605740040859
 11
390.87367567123528
 21
473.91605740040859
  0
LINE
  8
_2-0_
  6
CONTINUOUS
 62
    7
 10
390.87367567123528
 20
473.91605740040859
 11
390.87367567123528
 21
468.06406317986637
  0
LINE
  8
_2-0_
  6
CONTINUOUS
 62
    7
 10
399.71447970548348
 20
468.06406317986637
 11
392.77619520200977
 21
468.06406317986637
  0
LINE
  8
_2-0_
  6
CONTINUOUS
 62
    7
 10
392.77619520200977
 20
468.06406317986637
 11
392.77619520200977
 21
473.91605740040859
  0
LINE
  8
_2-0_
  6
CONTINUOUS
 62
    7
 10
392.77619520200977
 20
473.91605740040859
 11
399.71447970548348
 21
473.91605740040859
  0
LINE
  8
_2-0_
  6
CONTINUOUS
 62
    7
 10
399.71447970548348
 20
473.91605740040859
 11
399.71447970548348
 21
468.06406317986637
  0
LINE
  8
_2-0_
  6
CONTINUOUS
 62
    7
 10
408.51161715445602
 20
468.06406317986637
 11
401.57400444460194
 21
468.06406317986637
  0
LINE
  8
_2-0_
  6
CONTINUOUS
 62
    7
 10
401.57400444460194
 20
468.06406317986637
 11
401.57400444460194
 21
473.91605740040859
  0
LINE
  8
_2-0_
  6
CONTINUOUS
 62
    7
 10
401.57400444460194
 20
473.91605740040859
 11
408.51161715445602
 21
473.91605740040859
  0
LINE
  8
_2-0_
  6
CONTINUOUS
 62
    7
 10
408.51161715445602
 20
473.91605740040859
 11
408.51161715445602
 21
468.06406317986637
  0
LINE
  8
_2-0_
  6
CONTINUOUS
 62
    7
 10
391.16389051491291
 20
475.0984141709464
 11
391.81821750042633
 21
474.41385647254981
  0
LINE
  8
_2-0_
  6
CONTINUOUS
 62
    7
 10
391.16389051491291
 20
475.40676744235373
 11
392.11716566115894
 21
474.41385647254981
  0
LINE
  8
_2-0_
  6
CONTINUOUS
 62
    7
 10
391.39969007540066
 20
475.46991604259847
 11
392.41745740913058
 21
474.41385647254981
  0
LINE
  8
_2-0_
  6
CONTINUOUS
 62
    7
 10
391.69931002975289
 20
475.46991604259847
 11
392.53703667342364
 21
474.53746649856055
  0
LINE
  8
_2-0_
  6
CONTINUOUS
 62
    7
 10
391.93712497109976
 20
475.46991604259847
 11
392.53703667342364
 21
474.84850694444629
  0
LINE
  8
_2-0_
  6
CONTINUOUS
 62
    7
 10
392.23808851269104
 20
475.46991604259847
 11
392.53703667342364
 21
475.16021918395165
  0
LINE
  8
_2-0_
  6
CONTINUOUS
 62
    7
 10
392.53703667342364
 20
475.46991604259847
 11
392.53703667342364
 21
475.40676744235373
  0
LINE
  8
_2-0_
  6
CONTINUOUS
 62
    7
 10
391.16389051491291
 20
474.53746649856055
 11
391.28145439834697
 21
474.41385647254981
  0
LINE
  8
_2-0_
  6
CONTINUOUS
 62
    7
 10
391.16389051491291
 20
474.84850694444629
 11
391.51926933969372
 21
474.40915391721262
  0
LINE
  8
_2-0_
  6
CONTINUOUS
 62
    7
 10
391.16389051491291
 20
475.0984141709464
 11
391.81821750042633
 21
474.41385647254981
  0
LINE
  8
_2-0_
  6
CONTINUOUS
 62
    7
 10
391.16389051491291
 20
475.40676744235373
 11
392.11716566115894
 21
474.41385647254981
  0
LINE
  8
_2-0_
  6
CONTINUOUS
 62
    7
 10
391.39969007540066
 20
475.46991604259847
 11
392.41745740913058
 21
474.41385647254981
  0
LINE
  8
_2-0_
  6
CONTINUOUS
 62
    7
 10
391.69931002975289
 20
475.46991604259847
 11
392.53703667342364
 21
474.53746649856055
  0
LINE
  8
_2-0_
  6
CONTINUOUS
 62
    7
 10
391.93712497109976
 20
475.46991604259847
 11
392.53703667342364
 21
474.84850694444629
  0
LINE
  8
_2-0_
  6
CONTINUOUS
 62
    7
 10
392.23808851269104
 20
475.46991604259847
 11
392.53703667342364
 21
475.16021918395165
  0
LINE
  8
_2-0_
  6
CONTINUOUS
 62
    7
 10
392.53703667342364
 20
475.46991604259847
 11
392.53703667342364
 21
475.40676744235373
  0
LINE
  8
_2-0_
  6
CONTINUOUS
 62
    7
 10
391.16389051491291
 20
474.84850694444629
 11
391.51926933969372
 21
474.40915391721262
  0
LINE
  8
_2-0_
  6
CONTINUOUS
 62
    7
 10
391.16389051491291
 20
475.40676744235373
 11
392.11716566115894
 21
474.41385647254981
  0
LINE
  8
_2-0_
  6
CONTINUOUS
 62
    7
 10
391.69931002975289
 20
475.46991604259847
 11
392.53703667342364
 21
474.53746649856055
  0
LINE
  8
_2-0_
  6
CONTINUOUS
 62
    7
 10
392.23808851269104
 20
475.46991604259847
 11
392.53703667342364
 21
475.16021918395165
  0
LINE
  8
_2-0_
  6
CONTINUOUS
 62
    7
 10
392.53703667342364
 20
474.41385647254981
 11
392.53703667342364
 21
475.46991604259847
  0
LINE
  8
_2-0_
  6
CONTINUOUS
 62
    7
 10
391.16389051491291
 20
474.41385647254981
 11
391.16389051491291
 21
475.46991604259847
  0
LINE
  8
_2-0_
  6
CONTINUOUS
 62
    7
 10
392.95556409844932
 20
475.46991604259847
 11
390.74334770902846
 21
475.46991604259847
  0
LINE
  8
_2-0_
  6
CONTINUOUS
 62
    7
 10
390.74334770902846
 20
474.41385647254981
 11
390.74334770902846
 21
475.46991604259847
  0
LINE
  8
_2-0_
  6
CONTINUOUS
 62
    7
 10
392.95556409844932
 20
474.41385647254981
 11
390.74334770902846
 21
474.41385647254981
  0
LINE
  8
_2-0_
  6
CONTINUOUS
 62
    7
 10
392.95556409844932
 20
474.41385647254981
 11
392.95556409844932
 21
475.46991604259847
  0
LINE
  8
_2-0_
  6
CONTINUOUS
 62
    7
 10
373.39024672052807
 20
474.53746649856055
 11
373.51587212739781
 21
474.41385647254981
  0
LINE
  8
_2-0_
  6
CONTINUOUS
 62
    7
 10
373.39024672052807
 20
474.84850694444629
 11
373.75099989426593
 21
474.40915391721262
  0
LINE
  8
_2-0_
  6
CONTINUOUS
 62
    7
 10
373.39024672052807
 20
475.0984141709464
 11
374.05061984861817
 21
474.41385647254981
  0
LINE
  8
_2-0_
  6
CONTINUOUS
 62
    7
 10
373.39024672052807
 20
475.40676744235373
 11
374.34956800935078
 21
474.41385647254981
  0
LINE
  8
_2-0_
  6
CONTINUOUS
 62
    7
 10
373.63209242359261
 20
475.46991604259847
 11
374.58805474431728
 21
474.41385647254981
  0
LINE
  8
_2-0_
  6
CONTINUOUS
 62
    7
 10
373.87125095217863
 20
475.46991604259847
 11
374.76742364075682
 21
474.53746649856055
  0
LINE
  8
_2-0_
  6
CONTINUOUS
 62
    7
 10
374.17019911291123
 20
475.46991604259847
 11
374.7694390216156
 21
474.84850694444629
  0
LINE
  8
_2-0_
  6
CONTINUOUS
 62
    7
 10
374.46914727364384
 20
475.46991604259847
 11
374.7694390216156
 21
475.16021918395165
  0
LINE
  8
_2-0_
  6
CONTINUOUS
 62
    7
 10
374.7694390216156
 20
475.46991604259847
 11
374.7694390216156
 21
475.40676744235373
  0
LINE
  8
_2-0_
  6
CONTINUOUS
 62
    7
 10
373.39024672052807
 20
474.53746649856055
 11
373.51587212739781
 21
474.41385647254981
  0
LINE
  8
_2-0_
  6
CONTINUOUS
 62
    7
 10
373.39024672052807
 20
474.84850694444629
 11
373.75099989426593
 21
474.40915391721262
  0
LINE
  8
_2-0_
  6
CONTINUOUS
 62
    7
 10
373.39024672052807
 20
475.0984141709464
 11
374.05061984861817
 21
474.41385647254981
  0
LINE
  8
_2-0_
  6
CONTINUOUS
 62
    7
 10
373.39024672052807
 20
475.40676744235373
 11
374.34956800935078
 21
474.41385647254981
  0
LINE
  8
_2-0_
  6
CONTINUOUS
 62
    7
 10
373.63209242359261
 20
475.46991604259847
 11
374.58805474431728
 21
474.41385647254981
  0
LINE
  8
_2-0_
  6
CONTINUOUS
 62
    7
 10
373.87125095217863
 20
475.46991604259847
 11
374.76742364075682
 21
474.53746649856055
  0
LINE
  8
_2-0_
  6
CONTINUOUS
 62
    7
 10
374.17019911291123
 20
475.46991604259847
 11
374.7694390216156
 21
474.84850694444629
  0
LINE
  8
_2-0_
  6
CONTINUOUS
 62
    7
 10
374.46914727364384
 20
475.46991604259847
 11
374.7694390216156
 21
475.16021918395165
  0
LINE
  8
_2-0_
  6
CONTINUOUS
 62
    7
 10
374.7694390216156
 20
475.46991604259847
 11
374.7694390216156
 21
475.40676744235373
  0
LINE
  8
_2-0_
  6
CONTINUOUS
 62
    7
 10
373.39024672052807
 20
474.84850694444629
 11
373.75099989426593
 21
474.40915391721262
  0
LINE
  8
_2-0_
  6
CONTINUOUS
 62
    7
 10
373.39024672052807
 20
475.40676744235373
 11
374.34956800935078
 21
474.41385647254981
  0
LINE
  8
_2-0_
  6
CONTINUOUS
 62
    7
 10
373.87125095217863
 20
475.46991604259847
 11
374.76742364075682
 21
474.53746649856055
  0
LINE
  8
_2-0_
  6
CONTINUOUS
 62
    7
 10
374.46914727364384
 20
475.46991604259847
 11
374.7694390216156
 21
475.16021918395165
  0
LINE
  8
_2-0_
  6
CONTINUOUS
 62
    7
 10
374.7694390216156
 20
474.41385647254981
 11
374.7694390216156
 21
475.46991604259847
  0
LINE
  8
_2-0_
  6
CONTINUOUS
 62
    7
 10
373.39024672052807
 20
474.41385647254981
 11
373.39024672052807
 21
475.46991604259847
  0
LINE
  8
_2-0_
  6
CONTINUOUS
 62
    7
 10
375.18729465302152
 20
475.46991604259847
 11
372.97306288274177
 21
475.46991604259847
  0
LINE
  8
_2-0_
  6
CONTINUOUS
 62
    7
 10
372.97306288274177
 20
474.41385647254981
 11
372.97306288274177
 21
475.46991604259847
  0
LINE
  8
_2-0_
  6
CONTINUOUS
 62
    7
 10
375.18729465302152
 20
474.41385647254981
 11
372.97306288274177
 21
474.41385647254981
  0
LINE
  8
_2-0_
  6
CONTINUOUS
 62
    7
 10
375.18729465302152
 20
474.41385647254981
 11
375.18729465302152
 21
475.46991604259847
  0
LINE
  8
_2-0_
  6
CONTINUOUS
 62
    7
 10
382.24515842078841
 20
467.43727973275736
 11
382.36608127232074
 21
467.56559231410563
  0
LINE
  8
_2-0_
  6
CONTINUOUS
 62
    7
 10
382.24515842078841
 20
467.12691108049148
 11
382.66167046495508
 21
467.56559231410563
  0
LINE
  8
_2-0_
  6
CONTINUOUS
 62
    7
 10
382.24515842078841
 20
466.87834744123052
 11
382.96263400654635
 21
467.56156155238796
  0
LINE
  8
_2-0_
  6
CONTINUOUS
 62
    7
 10
382.24515842078841
 20
466.56596340810563
 11
383.20649509046979
 21
467.56156155238796
  0
LINE
  8
_2-0_
  6
CONTINUOUS
 62
    7
 10
382.48566053661358
 20
466.50684556957879
 11
383.5034278703435
 21
467.56156155238796
  0
LINE
  8
_2-0_
  6
CONTINUOUS
 62
    7
 10
382.78595228458545
 20
466.50684556957879
 11
383.68078138592404
 21
467.43727973275736
  0
LINE
  8
_2-0_
  6
CONTINUOUS
 62
    7
 10
383.08355685807879
 20
466.50684556957879
 11
383.6841403540223
 21
467.12959825496989
  0
LINE
  8
_2-0_
  6
CONTINUOUS
 62
    7
 10
383.32405897390396
 20
466.50684556957879
 11
383.6841403540223
 21
466.8158706346054
  0
LINE
  8
_2-0_
  6
CONTINUOUS
 62
    7
 10
383.62300713463657
 20
466.50684556957879
 11
383.68078138592404
 21
466.56596340810563
  0
LINE
  8
_2-0_
  6
CONTINUOUS
 62
    7
 10
382.24515842078841
 20
467.43727973275736
 11
382.36608127232074
 21
467.56559231410563
  0
LINE
  8
_2-0_
  6
CONTINUOUS
 62
    7
 10
382.24515842078841
 20
467.12691108049148
 11
382.66167046495508
 21
467.56559231410563
  0
LINE
  8
_2-0_
  6
CONTINUOUS
 62
    7
 10
382.24515842078841
 20
466.87834744123052
 11
382.96263400654635
 21
467.56156155238796
  0
LINE
  8
_2-0_
  6
CONTINUOUS
 62
    7
 10
382.24515842078841
 20
466.56596340810563
 11
383.20649509046979
 21
467.56156155238796
  0
LINE
  8
_2-0_
  6
CONTINUOUS
 62
    7
 10
382.48566053661358
 20
466.50684556957879
 11
383.5034278703435
 21
467.56156155238796
  0
LINE
  8
_2-0_
  6
CONTINUOUS
 62
    7
 10
382.78595228458545
 20
466.50684556957879
 11
383.68078138592404
 21
467.43727973275736
  0
LINE
  8
_2-0_
  6
CONTINUOUS
 62
    7
 10
383.08355685807879
 20
466.50684556957879
 11
383.6841403540223
 21
467.12959825496989
  0
LINE
  8
_2-0_
  6
CONTINUOUS
 62
    7
 10
383.32405897390396
 20
466.50684556957879
 11
383.6841403540223
 21
466.8158706346054
  0
LINE
  8
_2-0_
  6
CONTINUOUS
 62
    7
 10
383.62300713463657
 20
466.50684556957879
 11
383.68078138592404
 21
466.56596340810563
  0
LINE
  8
_2-0_
  6
CONTINUOUS
 62
    7
 10
382.24515842078841
 20
467.12691108049148
 11
382.66167046495508
 21
467.56559231410563
  0
LINE
  8
_2-0_
  6
CONTINUOUS
 62
    7
 10
382.24515842078841
 20
466.56596340810563
 11
383.20649509046979
 21
467.56156155238796
  0
LINE
  8
_2-0_
  6
CONTINUOUS
 62
    7
 10
382.78595228458545
 20
466.50684556957879
 11
383.68078138592404
 21
467.43727973275736
  0
LINE
  8
_2-0_
  6
CONTINUOUS
 62
    7
 10
383.32405897390396
 20
466.50684556957879
 11
383.6841403540223
 21
466.8158706346054
  0
LINE
  8
_2-0_
  6
CONTINUOUS
 62
    7
 10
383.68078138592404
 20
466.50684556957879
 11
383.68078138592404
 21
467.56156155238796
  0
LINE
  8
_2-0_
  6
CONTINUOUS
 62
    7
 10
382.24515842078841
 20
466.50684556957879
 11
382.24515842078841
 21
467.56156155238796
  0
LINE
  8
_2-0_
  6
CONTINUOUS
 62
    7
 10
384.04153455966213
 20
466.50684556957879
 11
381.88910780238785
 21
466.50684556957879
  0
LINE
  8
_2-0_
  6
CONTINUOUS
 62
    7
 10
381.88776421514859
 20
466.50684556957879
 11
381.88776421514859
 21
467.56156155238796
  0
LINE
  8
_2-0_
  6
CONTINUOUS
 62
    7
 10
384.04153455966213
 20
467.56559231410563
 11
381.88910780238785
 21
467.56559231410563
  0
LINE
  8
_2-0_
  6
CONTINUOUS
 62
    7
 10
384.04153455966213
 20
466.50684556957879
 11
384.04153455966213
 21
467.56156155238796
  0
LINE
  8
_2-0_
  6
CONTINUOUS
 62
    7
 10
364.59781182689295
 20
467.43727973275736
 11
364.71873467842505
 21
467.56559231410563
  0
LINE
  8
_2-0_
  6
CONTINUOUS
 62
    7
 10
364.59781182689295
 20
467.12691108049148
 11
364.95789320701118
 21
467.56559231410563
  0
LINE
  8
_2-0_
  6
CONTINUOUS
 62
    7
 10
364.59781182689295
 20
466.87834744123052
 11
365.25549778050441
 21
467.56156155238796
  0
LINE
  8
_2-0_
  6
CONTINUOUS
 62
    7
 10
364.59781182689295
 20
466.56596340810563
 11
365.5517587667585
 21
467.56156155238796
  0
LINE
  8
_2-0_
  6
CONTINUOUS
 62
    7
 10
364.83562676823971
 20
466.50684556957879
 11
365.79360446982315
 21
467.56156155238796
  0
LINE
  8
_2-0_
  6
CONTINUOUS
 62
    7
 10
365.13390313535268
 20
466.50684556957879
 11
365.97431695350184
 21
467.43727973275736
  0
LINE
  8
_2-0_
  6
CONTINUOUS
 62
    7
 10
365.37574883841711
 20
466.50684556957879
 11
365.97431695350184
 21
467.12959825496989
  0
LINE
  8
_2-0_
  6
CONTINUOUS
 62
    7
 10
365.67604058638886
 20
466.50684556957879
 11
365.97431695350184
 21
466.8158706346054
  0
LINE
  8
_2-0_
  6
CONTINUOUS
 62
    7
 10
365.97431695350184
 20
466.50684556957879
 11
365.97431695350184
 21
466.56596340810563
  0
LINE
  8
_2-0_
  6
CONTINUOUS
 62
    7
 10
364.59781182689295
 20
467.43727973275736
 11
364.71873467842505
 21
467.56559231410563
  0
LINE
  8
_2-0_
  6
CONTINUOUS
 62
    7
 10
364.59781182689295
 20
467.12691108049148
 11
364.95789320701118
 21
467.56559231410563
  0
LINE
  8
_2-0_
  6
CONTINUOUS
 62
    7
 10
364.59781182689295
 20
466.87834744123052
 11
365.25549778050441
 21
467.56156155238796
  0
LINE
  8
_2-0_
  6
CONTINUOUS
 62
    7
 10
364.59781182689295
 20
466.56596340810563
 11
365.5517587667585
 21
467.56156155238796
  0
LINE
  8
_2-0_
  6
CONTINUOUS
 62
    7
 10
364.83562676823971
 20
466.50684556957879
 11
365.79360446982315
 21
467.56156155238796
  0
LINE
  8
_2-0_
  6
CONTINUOUS
 62
    7
 10
365.13390313535268
 20
466.50684556957879
 11
365.97431695350184
 21
467.43727973275736
  0
LINE
  8
_2-0_
  6
CONTINUOUS
 62
    7
 10
365.37574883841711
 20
466.50684556957879
 11
365.97431695350184
 21
467.12959825496989
  0
LINE
  8
_2-0_
  6
CONTINUOUS
 62
    7
 10
365.67604058638886
 20
466.50684556957879
 11
365.97431695350184
 21
466.8158706346054
  0
LINE
  8
_2-0_
  6
CONTINUOUS
 62
    7
 10
365.97431695350184
 20
466.50684556957879
 11
365.97431695350184
 21
466.56596340810563
  0
LINE
  8
_2-0_
  6
CONTINUOUS
 62
    7
 10
364.59781182689295
 20
467.12691108049148
 11
364.95789320701118
 21
467.56559231410563
  0
LINE
  8
_2-0_
  6
CONTINUOUS
 62
    7
 10
364.59781182689295
 20
466.56596340810563
 11
365.5517587667585
 21
467.56156155238796
  0
LINE
  8
_2-0_
  6
CONTINUOUS
 62
    7
 10
365.13390313535268
 20
466.50684556957879
 11
365.97431695350184
 21
467.43727973275736
  0
LINE
  8
_2-0_
  6
CONTINUOUS
 62
    7
 10
365.67604058638886
 20
466.50684556957879
 11
365.97431695350184
 21
466.8158706346054
  0
LINE
  8
_2-0_
  6
CONTINUOUS
 62
    7
 10
365.97431695350184
 20
466.50684556957879
 11
365.97431695350184
 21
467.56156155238796
  0
LINE
  8
_2-0_
  6
CONTINUOUS
 62
    7
 10
364.59781182689295
 20
466.50684556957879
 11
364.59781182689295
 21
467.56156155238796
  0
LINE
  8
_2-0_
  6
CONTINUOUS
 62
    7
 10
366.3928443785274
 20
466.50684556957879
 11
364.17726902100839
 21
466.50684556957879
  0
LINE
  8
_2-0_
  6
CONTINUOUS
 62
    7
 10
364.17726902100839
 20
466.50684556957879
 11
364.17726902100839
 21
467.56156155238796
  0
LINE
  8
_2-0_
  6
CONTINUOUS
 62
    7
 10
366.3928443785274
 20
467.56559231410563
 11
364.17726902100839
 21
467.56559231410563
  0
LINE
  8
_2-0_
  6
CONTINUOUS
 62
    7
 10
366.3928443785274
 20
466.50684556957879
 11
366.3928443785274
 21
467.56156155238796
  0
LINE
  8
_2-0_
  6
CONTINUOUS
 62
    7
 10
408.15019218709853
 20
473.66615017390848
 11
401.92938326938298
 21
473.66615017390848
  0
LINE
  8
_2-0_
  6
CONTINUOUS
 62
    7
 10
408.3322482580167
 20
468.49602647728443
 11
408.3322482580167
 21
473.47871975403348
  0
LINE
  8
_2-0_
  6
CONTINUOUS
 62
    7
 10
408.15019218709853
 20
468.31262681912733
 11
401.92938326938298
 21
468.31262681912733
  0
LINE
  8
_2-0_
  6
CONTINUOUS
 62
    7
 10
401.75001437294344
 20
468.49602647728443
 11
401.75001437294344
 21
473.47871975403348
  0
LINE
  8
_2-0_
  6
CONTINUOUS
 62
    7
 10
399.35842908708304
 20
473.66615017390848
 11
393.13426120126923
 21
473.66615017390848
  0
LINE
  8
_2-0_
  6
CONTINUOUS
 62
    7
 10
399.53779798352258
 20
468.49602647728443
 11
399.53779798352258
 21
473.47871975403348
  0
LINE
  8
_2-0_
  6
CONTINUOUS
 62
    7
 10
399.35842908708304
 20
468.31262681912733
 11
393.13426120126923
 21
468.31262681912733
  0
LINE
  8
_2-0_
  6
CONTINUOUS
 62
    7
 10
392.95556409844932
 20
468.49602647728443
 11
392.95556409844932
 21
473.47871975403348
  0
LINE
  8
_2-0_
  6
CONTINUOUS
 62
    7
 10
390.56330701896928
 20
473.66615017390848
 11
384.34316989487314
 21
473.66615017390848
  0
LINE
  8
_2-0_
  6
CONTINUOUS
 62
    7
 10
390.74334770902846
 20
468.49602647728443
 11
390.74334770902846
 21
473.47871975403348
  0
LINE
  8
_2-0_
  6
CONTINUOUS
 62
    7
 10
390.56330701896928
 20
468.31262681912733
 11
384.34316989487314
 21
468.31262681912733
  0
LINE
  8
_2-0_
  6
CONTINUOUS
 62
    7
 10
384.16111382395519
 20
468.49602647728443
 11
384.16111382395519
 21
473.47871975403348
  0
LINE
  8
_2-0_
  6
CONTINUOUS
 62
    7
 10
381.76952853809479
 20
468.49602647728443
 11
381.76952853809479
 21
473.47871975403348
  0
LINE
  8
_2-0_
  6
CONTINUOUS
 62
    7
 10
381.59083143527488
 20
468.31262681912733
 11
375.36800713670021
 21
468.31262681912733
  0
LINE
  8
_2-0_
  6
CONTINUOUS
 62
    7
 10
381.59083143527488
 20
473.66615017390848
 11
375.36800713670021
 21
473.66615017390848
  0
LINE
  8
_2-0_
  6
CONTINUOUS
 62
    7
 10
375.18729465302152
 20
468.49602647728443
 11
375.18729465302152
 21
473.47871975403348
  0
LINE
  8
_2-0_
  6
CONTINUOUS
 62
    7
 10
372.79302219268249
 20
468.31262681912733
 11
366.57019789410805
 21
468.31262681912733
  0
LINE
  8
_2-0_
  6
CONTINUOUS
 62
    7
 10
372.97306288274177
 20
468.49602647728443
 11
372.97306288274177
 21
473.47871975403348
  0
LINE
  8
_2-0_
  6
CONTINUOUS
 62
    7
 10
372.79302219268249
 20
473.66615017390848
 11
366.57019789410805
 21
473.66615017390848
  0
LINE
  8
_2-0_
  6
CONTINUOUS
 62
    7
 10
366.3928443785274
 20
468.49602647728443
 11
366.3928443785274
 21
473.47871975403348
  0
LINE
  8
_2-0_
  6
CONTINUOUS
 62
    7
 10
357.59772231041364
 20
468.49602647728443
 11
357.59772231041364
 21
473.47871975403348
  0
LINE
  8
_2-0_
  6
CONTINUOUS
 62
    7
 10
363.99991550542774
 20
468.31262681912733
 11
357.77843479409256
 21
468.31262681912733
  0
LINE
  8
_2-0_
  6
CONTINUOUS
 62
    7
 10
364.17726902100839
 20
468.49602647728443
 11
364.17726902100839
 21
473.47871975403348
  0
LINE
  8
_2-0_
  6
CONTINUOUS
 62
    7
 10
363.99991550542774
 20
473.66615017390848
 11
357.77843479409256
 21
473.66615017390848
  0
LINE
  8
_2-0_
  6
CONTINUOUS
 62
    7
 10
410.42690076400328
 20
464.76286933303538
 11
410.42690076400328
 21
477.21389227914153
  0
LINE
  8
_2-0_
  6
CONTINUOUS
 62
    7
 10
390.98250623761436
 20
473.91202663869069
 11
383.97972954665664
 21
473.91202663869069
  0
LINE
  8
_2-0_
  6
CONTINUOUS
 62
    7
 10
383.98174492751565
 20
468.06003241814881
 11
383.98174492751565
 21
473.91202663869069
  0
LINE
  8
_2-0_
  6
CONTINUOUS
 62
    7
 10
390.98250623761436
 20
468.06003241814881
 11
383.97972954665664
 21
468.06003241814881
  0
LINE
  8
_2-0_
  6
CONTINUOUS
 62
    7
 10
390.98250623761436
 20
468.06003241814881
 11
390.98250623761436
 21
473.91202663869069
  0
LINE
  8
_2-0_
  6
CONTINUOUS
 62
    7
 10
399.71649508634249
 20
473.91202663869069
 11
392.77619520200977
 21
473.91202663869069
  0
LINE
  8
_2-0_
  6
CONTINUOUS
 62
    7
 10
392.77619520200977
 20
468.06003241814881
 11
392.77619520200977
 21
473.91202663869069
  0
LINE
  8
_2-0_
  6
CONTINUOUS
 62
    7
 10
399.71649508634249
 20
468.06003241814881
 11
392.77619520200977
 21
468.06003241814881
  0
LINE
  8
_2-0_
  6
CONTINUOUS
 62
    7
 10
399.71649508634249
 20
468.06003241814881
 11
399.71649508634249
 21
473.91202663869069
  0
LINE
  8
_2-0_
  6
CONTINUOUS
 62
    7
 10
401.56997368288415
 20
468.06003241814881
 11
401.56997368288415
 21
473.91202663869069
  0
LINE
  8
_2-0_
  6
CONTINUOUS
 62
    7
 10
408.51161715445602
 20
468.06003241814881
 11
401.56997368288415
 21
468.06003241814881
  0
LINE
  8
_2-0_
  6
CONTINUOUS
 62
    7
 10
408.51161715445602
 20
468.06003241814881
 11
408.51161715445602
 21
473.91202663869069
  0
LINE
  8
_2-0_
  6
CONTINUOUS
 62
    7
 10
381.94889743453433
 20
473.91202663869069
 11
374.94746433081576
 21
473.91202663869069
  0
LINE
  8
_2-0_
  6
CONTINUOUS
 62
    7
 10
374.94746433081576
 20
468.06003241814881
 11
374.94746433081576
 21
473.91202663869069
  0
LINE
  8
_2-0_
  6
CONTINUOUS
 62
    7
 10
381.94889743453433
 20
468.06003241814881
 11
374.94746433081576
 21
468.06003241814881
  0
LINE
  8
_2-0_
  6
CONTINUOUS
 62
    7
 10
381.94889743453433
 20
468.06003241814881
 11
381.94889743453433
 21
473.91202663869069
  0
LINE
  8
_2-0_
  6
CONTINUOUS
 62
    7
 10
373.15444716004032
 20
473.91202663869069
 11
366.15234226270201
 21
473.91202663869069
  0
LINE
  8
_2-0_
  6
CONTINUOUS
 62
    7
 10
366.15234226270201
 20
468.06003241814881
 11
366.15234226270201
 21
473.91202663869069
  0
LINE
  8
_2-0_
  6
CONTINUOUS
 62
    7
 10
373.15444716004032
 20
468.06003241814881
 11
366.15234226270201
 21
468.06003241814881
  0
LINE
  8
_2-0_
  6
CONTINUOUS
 62
    7
 10
373.15444716004032
 20
468.06003241814881
 11
373.15444716004032
 21
473.91202663869069
  0
LINE
  8
_2-0_
  6
CONTINUOUS
 62
    7
 10
364.3599968855462
 20
473.91202663869069
 11
357.41969700121348
 21
473.91202663869069
  0
LINE
  8
_2-0_
  6
CONTINUOUS
 62
    7
 10
357.41969700121348
 20
468.06003241814881
 11
357.41969700121348
 21
473.91202663869069
  0
LINE
  8
_2-0_
  6
CONTINUOUS
 62
    7
 10
364.3599968855462
 20
468.06003241814881
 11
357.41969700121348
 21
468.06003241814881
  0
LINE
  8
_2-0_
  6
CONTINUOUS
 62
    7
 10
364.3599968855462
 20
468.06003241814881
 11
364.3599968855462
 21
473.91202663869069
  0
LINE
  8
_2-0_
  6
CONTINUOUS
 62
    7
 10
410.42690076400328
 20
464.76286933303538
 11
404.86109062542079
 21
464.76286933303538
  0
LINE
  8
_2-0_
  6
CONTINUOUS
 62
    7
 10
410.42690076400328
 20
464.76286933303538
 11
410.42690076400328
 21
467.87058661741469
  0
LINE
  8
_2-0_
  6
CONTINUOUS
 62
    7
 10
410.42690076400328
 20
467.87058661741469
 11
404.86109062542079
 21
467.87058661741469
  0
LINE
  8
_2-0_
  6
CONTINUOUS
 62
    7
 10
404.86109062542079
 20
464.76286933303538
 11
404.86109062542079
 21
467.87058661741469
  0
LINE
  8
_2-0_
  6
CONTINUOUS
 62
    7
 10
410.42690076400328
 20
474.0987852649464
 11
404.86109062542079
 21
474.0987852649464
  0
LINE
  8
_2-0_
  6
CONTINUOUS
 62
    7
 10
410.42690076400328
 20
474.0987852649464
 11
410.42690076400328
 21
477.21389227914153
  0
LINE
  8
_2-0_
  6
CONTINUOUS
 62
    7
 10
410.42690076400328
 20
477.21389227914153
 11
404.86109062542079
 21
477.21389227914153
  0
LINE
  8
_2-0_
  6
CONTINUOUS
 62
    7
 10
404.86109062542079
 20
474.0987852649464
 11
404.86109062542079
 21
477.21389227914153
  0
LINE
  8
_2-0_
  6
CONTINUOUS
 62
    7
 10
361.06820814938993
 20
464.76286933303538
 11
355.50374159804659
 21
464.76286933303538
  0
LINE
  8
_2-0_
  6
CONTINUOUS
 62
    7
 10
355.50374159804659
 20
464.76286933303538
 11
355.50374159804659
 21
467.87058661741469
  0
LINE
  8
_2-0_
  6
CONTINUOUS
 62
    7
 10
361.06820814938993
 20
467.87058661741469
 11
355.50374159804659
 21
467.87058661741469
  0
LINE
  8
_2-0_
  6
CONTINUOUS
 62
    7
 10
361.06820814938993
 20
464.76286933303538
 11
361.06820814938993
 21
467.87058661741469
  0
LINE
  8
_2-0_
  6
CONTINUOUS
 62
    7
 10
361.06820814938993
 20
474.0987852649464
 11
355.50374159804659
 21
474.0987852649464
  0
LINE
  8
_2-0_
  6
CONTINUOUS
 62
    7
 10
361.06820814938993
 20
477.21389227914153
 11
355.50374159804659
 21
477.21389227914153
  0
LINE
  8
_2-0_
  6
CONTINUOUS
 62
    7
 10
361.06820814938993
 20
474.0987852649464
 11
361.06820814938993
 21
477.21389227914153
  0
LINE
  8
_2-0_
  6
CONTINUOUS
 62
    7
 10
408.51161715445602
 20
473.91202663869069
 11
401.56997368288415
 21
473.91202663869069
  0
LINE
  8
_2-0_
  6
CONTINUOUS
 62
    7
 10
410.42555717676413
 20
464.75951036493711
 11
410.42555717676413
 21
467.87528917275233
  0
LINE
  8
_2-0_
  6
CONTINUOUS
 62
    7
 10
396.964156626744
 20
467.43996690723623
 11
397.08373589103707
 21
467.56424872686637
  0
LINE
  8
_2-0_
  6
CONTINUOUS
 62
    7
 10
396.964156626744
 20
467.12959825496989
 11
397.32625338772112
 21
467.56424872686637
  0
LINE
  8
_2-0_
  6
CONTINUOUS
 62
    7
 10
396.964156626744
 20
466.87834744123052
 11
397.62385796121447
 21
467.56424872686637
  0
LINE
  8
_2-0_
  6
CONTINUOUS
 62
    7
 10
396.964156626744
 20
466.56596340810563
 11
397.92280612194708
 21
467.56424872686637
  0
LINE
  8
_2-0_
  6
CONTINUOUS
 62
    7
 10
397.20398694894976
 20
466.50684556957879
 11
398.15860568243494
 21
467.56424872686637
  0
LINE
  8
_2-0_
  6
CONTINUOUS
 62
    7
 10
397.44516085839456
 20
466.50684556957879
 11
398.34066175335289
 21
467.43996690723623
  0
LINE
  8
_2-0_
  6
CONTINUOUS
 62
    7
 10
397.74075005102912
 20
466.50684556957879
 11
398.34066175335289
 21
467.12959825496989
  0
LINE
  8
_2-0_
  6
CONTINUOUS
 62
    7
 10
398.04171359262051
 20
466.50684556957879
 11
398.34066175335289
 21
466.8158706346054
  0
LINE
  8
_2-0_
  6
CONTINUOUS
 62
    7
 10
398.34066175335289
 20
466.50684556957879
 11
398.34066175335289
 21
466.56596340810563
  0
LINE
  8
_2-0_
  6
CONTINUOUS
 62
    7
 10
396.964156626744
 20
467.43996690723623
 11
397.08373589103707
 21
467.56424872686637
  0
LINE
  8
_2-0_
  6
CONTINUOUS
 62
    7
 10
396.964156626744
 20
467.12959825496989
 11
397.32625338772112
 21
467.56424872686637
  0
LINE
  8
_2-0_
  6
CONTINUOUS
 62
    7
 10
396.964156626744
 20
466.87834744123052
 11
397.62385796121447
 21
467.56424872686637
  0
LINE
  8
_2-0_
  6
CONTINUOUS
 62
    7
 10
396.964156626744
 20
466.56596340810563
 11
397.92280612194708
 21
467.56424872686637
  0
LINE
  8
_2-0_
  6
CONTINUOUS
 62
    7
 10
397.20398694894976
 20
466.50684556957879
 11
398.15860568243494
 21
467.56424872686637
  0
LINE
  8
_2-0_
  6
CONTINUOUS
 62
    7
 10
397.44516085839456
 20
466.50684556957879
 11
398.34066175335289
 21
467.43996690723623
  0
LINE
  8
_2-0_
  6
CONTINUOUS
 62
    7
 10
397.74075005102912
 20
466.50684556957879
 11
398.34066175335289
 21
467.12959825496989
  0
LINE
  8
_2-0_
  6
CONTINUOUS
 62
    7
 10
398.04171359262051
 20
466.50684556957879
 11
398.34066175335289
 21
466.8158706346054
  0
LINE
  8
_2-0_
  6
CONTINUOUS
 62
    7
 10
398.34066175335289
 20
466.50684556957879
 11
398.34066175335289
 21
466.56596340810563
  0
LINE
  8
_2-0_
  6
CONTINUOUS
 62
    7
 10
396.964156626744
 20
467.12959825496989
 11
397.32625338772112
 21
467.56424872686637
  0
LINE
  8
_2-0_
  6
CONTINUOUS
 62
    7
 10
396.964156626744
 20
466.56596340810563
 11
397.92280612194708
 21
467.56424872686637
  0
LINE
  8
_2-0_
  6
CONTINUOUS
 62
    7
 10
397.44516085839456
 20
466.50684556957879
 11
398.34066175335289
 21
467.43996690723623
  0
LINE
  8
_2-0_
  6
CONTINUOUS
 62
    7
 10
398.04171359262051
 20
466.50684556957879
 11
398.34066175335289
 21
466.8158706346054
  0
LINE
  8
_2-0_
  6
CONTINUOUS
 62
    7
 10
398.34066175335289
 20
466.50684556957879
 11
398.34066175335289
 21
467.56424872686637
  0
LINE
  8
_2-0_
  6
CONTINUOUS
 62
    7
 10
396.964156626744
 20
466.50684556957879
 11
396.964156626744
 21
467.56424872686637
  0
LINE
  8
_2-0_
  6
CONTINUOUS
 62
    7
 10
398.75918917837845
 20
466.50684556957879
 11
396.54697278895759
 21
466.50684556957879
  0
LINE
  8
_2-0_
  6
CONTINUOUS
 62
    7
 10
396.54428561447907
 20
466.50684556957879
 11
396.54428561447907
 21
467.56424872686637
  0
LINE
  8
_2-0_
  6
CONTINUOUS
 62
    7
 10
398.75918917837845
 20
467.56424872686637
 11
396.54697278895759
 21
467.56424872686637
  0
LINE
  8
_2-0_
  6
CONTINUOUS
 62
    7
 10
398.75918917837845
 20
466.50684556957879
 11
398.75918917837845
 21
467.56424872686637
  0
LINE
  8
_2-0_
  6
CONTINUOUS
 62
    7
 10
391.16120334043427
 20
474.53746649856055
 11
391.28145439834697
 21
474.40915391721262
  0
LINE
  8
_2-0_
  6
CONTINUOUS
 62
    7
 10
391.16120334043427
 20
474.85119411892492
 11
391.51926933969372
 21
474.40915391721262
  0
LINE
  8
_2-0_
  6
CONTINUOUS
 62
    7
 10
410.42555717676413
 20
464.75951036493711
 11
410.42555717676413
 21
477.21523586638079
  0
LINE
  8
_2-0_
  6
CONTINUOUS
 62
    7
 10
410.42555717676413
 20
474.0987852649464
 11
410.42555717676413
 21
477.21523586638079
  0
LINE
  8
_2-0_
  6
CONTINUOUS
 62
    7
 10
355.50374159804659
 20
463.70345079488891
 11
355.50374159804659
 21
477.21523586638079
  0
LINE
  8
_2-0_
  6
CONTINUOUS
 62
    7
 10
409.40980522389287
 20
463.70345079488891
 11
355.50374159804659
 21
463.70345079488891
  0
LINE
  8
_2-0_
  6
CONTINUOUS
 62
    7
 10
355.50374159804659
 20
474.0987852649464
 11
355.50374159804659
 21
478.2753261981469
  0
LINE
  8
_2-0_
  6
CONTINUOUS
 62
    7
 10
419.27730971106763
 20
468.06406317986637
 11
412.33969700121344
 21
468.06406317986637
  0
LINE
  8
_2-0_
  6
CONTINUOUS
 62
    7
 10
412.33969700121344
 20
468.06406317986637
 11
412.33969700121344
 21
473.91605740040859
  0
LINE
  8
_2-0_
  6
CONTINUOUS
 62
    7
 10
412.33969700121344
 20
473.91605740040859
 11
419.27730971106763
 21
473.91605740040859
  0
LINE
  8
_2-0_
  6
CONTINUOUS
 62
    7
 10
419.27730971106763
 20
473.91605740040859
 11
419.27730971106763
 21
468.06406317986637
  0
LINE
  8
_2-0_
  6
CONTINUOUS
 62
    7
 10
428.07243177918133
 20
468.06406317986637
 11
421.13347548208787
 21
468.06406317986637
  0
LINE
  8
_2-0_
  6
CONTINUOUS
 62
    7
 10
421.13347548208787
 20
468.06406317986637
 11
421.13347548208787
 21
473.91605740040859
  0
LINE
  8
_2-0_
  6
CONTINUOUS
 62
    7
 10
421.13347548208787
 20
473.91605740040859
 11
428.07243177918133
 21
473.91605740040859
  0
LINE
  8
_2-0_
  6
CONTINUOUS
 62
    7
 10
428.07243177918133
 20
473.91605740040859
 11
428.07243177918133
 21
468.06406317986637
  0
LINE
  8
_2-0_
  6
CONTINUOUS
 62
    7
 10
436.86889743453435
 20
468.06406317986637
 11
429.92859755020163
 21
468.06406317986637
  0
LINE
  8
_2-0_
  6
CONTINUOUS
 62
    7
 10
429.92859755020163
 20
468.06406317986637
 11
429.92859755020163
 21
473.91605740040859
  0
LINE
  8
_2-0_
  6
CONTINUOUS
 62
    7
 10
429.92859755020163
 20
473.91605740040859
 11
436.86889743453435
 21
473.91605740040859
  0
LINE
  8
_2-0_
  6
CONTINUOUS
 62
    7
 10
436.86889743453435
 20
473.91605740040859
 11
436.86889743453435
 21
468.06406317986637
  0
LINE
  8
_2-0_
  6
CONTINUOUS
 62
    7
 10
445.79367567123529
 20
468.06406317986637
 11
438.8533757869028
 21
468.06406317986637
  0
LINE
  8
_2-0_
  6
CONTINUOUS
 62
    7
 10
438.8533757869028
 20
468.06406317986637
 11
438.8533757869028
 21
473.91605740040859
  0
LINE
  8
_2-0_
  6
CONTINUOUS
 62
    7
 10
438.8533757869028
 20
473.91605740040859
 11
445.79367567123529
 21
473.91605740040859
  0
LINE
  8
_2-0_
  6
CONTINUOUS
 62
    7
 10
445.79367567123529
 20
473.91605740040859
 11
445.79367567123529
 21
468.06406317986637
  0
LINE
  8
_2-0_
  6
CONTINUOUS
 62
    7
 10
454.6344797054835
 20
468.06406317986637
 11
447.69619520200979
 21
468.06406317986637
  0
LINE
  8
_2-0_
  6
CONTINUOUS
 62
    7
 10
447.69619520200979
 20
468.06406317986637
 11
447.69619520200979
 21
473.91605740040859
  0
LINE
  8
_2-0_
  6
CONTINUOUS
 62
    7
 10
447.69619520200979
 20
473.91605740040859
 11
454.6344797054835
 21
473.91605740040859
  0
LINE
  8
_2-0_
  6
CONTINUOUS
 62
    7
 10
454.6344797054835
 20
473.91605740040859
 11
454.6344797054835
 21
468.06406317986637
  0
LINE
  8
_2-0_
  6
CONTINUOUS
 62
    7
 10
463.43161715445603
 20
468.06406317986637
 11
456.49400444460196
 21
468.06406317986637
  0
LINE
  8
_2-0_
  6
CONTINUOUS
 62
    7
 10
456.49400444460196
 20
468.06406317986637
 11
456.49400444460196
 21
473.91605740040859
  0
LINE
  8
_2-0_
  6
CONTINUOUS
 62
    7
 10
456.49400444460196
 20
473.91605740040859
 11
463.43161715445603
 21
473.91605740040859
  0
LINE
  8
_2-0_
  6
CONTINUOUS
 62
    7
 10
463.43161715445603
 20
473.91605740040859
 11
463.43161715445603
 21
468.06406317986637
  0
LINE
  8
_2-0_
  6
CONTINUOUS
 62
    7
 10
446.08389051491292
 20
475.0984141709464
 11
446.73821750042634
 21
474.41385647254981
  0
LINE
  8
_2-0_
  6
CONTINUOUS
 62
    7
 10
446.08389051491292
 20
475.40676744235373
 11
447.03716566115895
 21
474.41385647254981
  0
LINE
  8
_2-0_
  6
CONTINUOUS
 62
    7
 10
446.31969007540067
 20
475.46991604259847
 11
447.33745740913059
 21
474.41385647254981
  0
LINE
  8
_2-0_
  6
CONTINUOUS
 62
    7
 10
446.61931002975291
 20
475.46991604259847
 11
447.45703667342366
 21
474.53746649856055
  0
LINE
  8
_2-0_
  6
CONTINUOUS
 62
    7
 10
446.85712497109978
 20
475.46991604259847
 11
447.45703667342366
 21
474.84850694444629
  0
LINE
  8
_2-0_
  6
CONTINUOUS
 62
    7
 10
447.15808851269105
 20
475.46991604259847
 11
447.45703667342366
 21
475.16021918395165
  0
LINE
  8
_2-0_
  6
CONTINUOUS
 62
    7
 10
447.45703667342366
 20
475.46991604259847
 11
447.45703667342366
 21
475.40676744235373
  0
LINE
  8
_2-0_
  6
CONTINUOUS
 62
    7
 10
446.08389051491292
 20
474.53746649856055
 11
446.20145439834698
 21
474.41385647254981
  0
LINE
  8
_2-0_
  6
CONTINUOUS
 62
    7
 10
446.08389051491292
 20
474.84850694444629
 11
446.43926933969374
 21
474.40915391721262
  0
LINE
  8
_2-0_
  6
CONTINUOUS
 62
    7
 10
446.08389051491292
 20
475.0984141709464
 11
446.73821750042634
 21
474.41385647254981
  0
LINE
  8
_2-0_
  6
CONTINUOUS
 62
    7
 10
446.08389051491292
 20
475.40676744235373
 11
447.03716566115895
 21
474.41385647254981
  0
LINE
  8
_2-0_
  6
CONTINUOUS
 62
    7
 10
446.31969007540067
 20
475.46991604259847
 11
447.33745740913059
 21
474.41385647254981
  0
LINE
  8
_2-0_
  6
CONTINUOUS
 62
    7
 10
446.61931002975291
 20
475.46991604259847
 11
447.45703667342366
 21
474.53746649856055
  0
LINE
  8
_2-0_
  6
CONTINUOUS
 62
    7
 10
446.85712497109978
 20
475.46991604259847
 11
447.45703667342366
 21
474.84850694444629
  0
LINE
  8
_2-0_
  6
CONTINUOUS
 62
    7
 10
447.15808851269105
 20
475.46991604259847
 11
447.45703667342366
 21
475.16021918395165
  0
LINE
  8
_2-0_
  6
CONTINUOUS
 62
    7
 10
447.45703667342366
 20
475.46991604259847
 11
447.45703667342366
 21
475.40676744235373
  0
LINE
  8
_2-0_
  6
CONTINUOUS
 62
    7
 10
446.08389051491292
 20
474.84850694444629
 11
446.43926933969374
 21
474.40915391721262
  0
LINE
  8
_2-0_
  6
CONTINUOUS
 62
    7
 10
446.08389051491292
 20
475.40676744235373
 11
447.03716566115895
 21
474.41385647254981
  0
LINE
  8
_2-0_
  6
CONTINUOUS
 62
    7
 10
446.61931002975291
 20
475.46991604259847
 11
447.45703667342366
 21
474.53746649856055
  0
LINE
  8
_2-0_
  6
CONTINUOUS
 62
    7
 10
447.15808851269105
 20
475.46991604259847
 11
447.45703667342366
 21
475.16021918395165
  0
LINE
  8
_2-0_
  6
CONTINUOUS
 62
    7
 10
447.45703667342366
 20
474.41385647254981
 11
447.45703667342366
 21
475.46991604259847
  0
LINE
  8
_2-0_
  6
CONTINUOUS
 62
    7
 10
446.08389051491292
 20
474.41385647254981
 11
446.08389051491292
 21
475.46991604259847
  0
LINE
  8
_2-0_
  6
CONTINUOUS
 62
    7
 10
447.87556409844933
 20
475.46991604259847
 11
445.66334770902847
 21
475.46991604259847
  0
LINE
  8
_2-0_
  6
CONTINUOUS
 62
    7
 10
445.66334770902847
 20
474.41385647254981
 11
445.66334770902847
 21
475.46991604259847
  0
LINE
  8
_2-0_
  6
CONTINUOUS
 62
    7
 10
447.87556409844933
 20
474.41385647254981
 11
445.66334770902847
 21
474.41385647254981
  0
LINE
  8
_2-0_
  6
CONTINUOUS
 62
    7
 10
447.87556409844933
 20
474.41385647254981
 11
447.87556409844933
 21
475.46991604259847
  0
LINE
  8
_2-0_
  6
CONTINUOUS
 62
    7
 10
428.31024672052808
 20
474.53746649856055
 11
428.43587212739783
 21
474.41385647254981
  0
LINE
  8
_2-0_
  6
CONTINUOUS
 62
    7
 10
428.31024672052808
 20
474.84850694444629
 11
428.67099989426595
 21
474.40915391721262
  0
LINE
  8
_2-0_
  6
CONTINUOUS
 62
    7
 10
428.31024672052808
 20
475.0984141709464
 11
428.97061984861818
 21
474.41385647254981
  0
LINE
  8
_2-0_
  6
CONTINUOUS
 62
    7
 10
428.31024672052808
 20
475.40676744235373
 11
429.26956800935079
 21
474.41385647254981
  0
LINE
  8
_2-0_
  6
CONTINUOUS
 62
    7
 10
428.55209242359263
 20
475.46991604259847
 11
429.50805474431729
 21
474.41385647254981
  0
LINE
  8
_2-0_
  6
CONTINUOUS
 62
    7
 10
428.79125095217864
 20
475.46991604259847
 11
429.68742364075683
 21
474.53746649856055
  0
LINE
  8
_2-0_
  6
CONTINUOUS
 62
    7
 10
429.09019911291125
 20
475.46991604259847
 11
429.68943902161561
 21
474.84850694444629
  0
LINE
  8
_2-0_
  6
CONTINUOUS
 62
    7
 10
429.38914727364386
 20
475.46991604259847
 11
429.68943902161561
 21
475.16021918395165
  0
LINE
  8
_2-0_
  6
CONTINUOUS
 62
    7
 10
429.68943902161561
 20
475.46991604259847
 11
429.68943902161561
 21
475.40676744235373
  0
LINE
  8
_2-0_
  6
CONTINUOUS
 62
    7
 10
428.31024672052808
 20
474.53746649856055
 11
428.43587212739783
 21
474.41385647254981
  0
LINE
  8
_2-0_
  6
CONTINUOUS
 62
    7
 10
428.31024672052808
 20
474.84850694444629
 11
428.67099989426595
 21
474.40915391721262
  0
LINE
  8
_2-0_
  6
CONTINUOUS
 62
    7
 10
428.31024672052808
 20
475.0984141709464
 11
428.97061984861818
 21
474.41385647254981
  0
LINE
  8
_2-0_
  6
CONTINUOUS
 62
    7
 10
428.31024672052808
 20
475.40676744235373
 11
429.26956800935079
 21
474.41385647254981
  0
LINE
  8
_2-0_
  6
CONTINUOUS
 62
    7
 10
428.55209242359263
 20
475.46991604259847
 11
429.50805474431729
 21
474.41385647254981
  0
LINE
  8
_2-0_
  6
CONTINUOUS
 62
    7
 10
428.79125095217864
 20
475.46991604259847
 11
429.68742364075683
 21
474.53746649856055
  0
LINE
  8
_2-0_
  6
CONTINUOUS
 62
    7
 10
429.09019911291125
 20
475.46991604259847
 11
429.68943902161561
 21
474.84850694444629
  0
LINE
  8
_2-0_
  6
CONTINUOUS
 62
    7
 10
429.38914727364386
 20
475.46991604259847
 11
429.68943902161561
 21
475.16021918395165
  0
LINE
  8
_2-0_
  6
CONTINUOUS
 62
    7
 10
429.68943902161561
 20
475.46991604259847
 11
429.68943902161561
 21
475.40676744235373
  0
LINE
  8
_2-0_
  6
CONTINUOUS
 62
    7
 10
428.31024672052808
 20
474.84850694444629
 11
428.67099989426595
 21
474.40915391721262
  0
LINE
  8
_2-0_
  6
CONTINUOUS
 62
    7
 10
428.31024672052808
 20
475.40676744235373
 11
429.26956800935079
 21
474.41385647254981
  0
LINE
  8
_2-0_
  6
CONTINUOUS
 62
    7
 10
428.79125095217864
 20
475.46991604259847
 11
429.68742364075683
 21
474.53746649856055
  0
LINE
  8
_2-0_
  6
CONTINUOUS
 62
    7
 10
429.38914727364386
 20
475.46991604259847
 11
429.68943902161561
 21
475.16021918395165
  0
LINE
  8
_2-0_
  6
CONTINUOUS
 62
    7
 10
429.68943902161561
 20
474.41385647254981
 11
429.68943902161561
 21
475.46991604259847
  0
LINE
  8
_2-0_
  6
CONTINUOUS
 62
    7
 10
428.31024672052808
 20
474.41385647254981
 11
428.31024672052808
 21
475.46991604259847
  0
LINE
  8
_2-0_
  6
CONTINUOUS
 62
    7
 10
430.10729465302154
 20
475.46991604259847
 11
427.89306288274179
 21
475.46991604259847
  0
LINE
  8
_2-0_
  6
CONTINUOUS
 62
    7
 10
427.89306288274179
 20
474.41385647254981
 11
427.89306288274179
 21
475.46991604259847
  0
LINE
  8
_2-0_
  6
CONTINUOUS
 62
    7
 10
430.10729465302154
 20
474.41385647254981
 11
427.89306288274179
 21
474.41385647254981
  0
LINE
  8
_2-0_
  6
CONTINUOUS
 62
    7
 10
430.10729465302154
 20
474.41385647254981
 11
430.10729465302154
 21
475.46991604259847
  0
LINE
  8
_2-0_
  6
CONTINUOUS
 62
    7
 10
437.16515842078843
 20
467.43727973275736
 11
437.28608127232076
 21
467.56559231410563
  0
LINE
  8
_2-0_
  6
CONTINUOUS
 62
    7
 10
437.16515842078843
 20
467.12691108049148
 11
437.5816704649551
 21
467.56559231410563
  0
LINE
  8
_2-0_
  6
CONTINUOUS
 62
    7
 10
437.16515842078843
 20
466.87834744123052
 11
437.88263400654637
 21
467.56156155238796
  0
LINE
  8
_2-0_
  6
CONTINUOUS
 62
    7
 10
437.16515842078843
 20
466.56596340810563
 11
438.1264950904698
 21
467.56156155238796
  0
LINE
  8
_2-0_
  6
CONTINUOUS
 62
    7
 10
437.4056605366136
 20
466.50684556957879
 11
438.42342787034352
 21
467.56156155238796
  0
LINE
  8
_2-0_
  6
CONTINUOUS
 62
    7
 10
437.70595228458546
 20
466.50684556957879
 11
438.60078138592405
 21
467.43727973275736
  0
LINE
  8
_2-0_
  6
CONTINUOUS
 62
    7
 10
438.00355685807881
 20
466.50684556957879
 11
438.60414035402232
 21
467.12959825496989
  0
LINE
  8
_2-0_
  6
CONTINUOUS
 62
    7
 10
438.24405897390398
 20
466.50684556957879
 11
438.60414035402232
 21
466.8158706346054
  0
LINE
  8
_2-0_
  6
CONTINUOUS
 62
    7
 10
438.54300713463658
 20
466.50684556957879
 11
438.60078138592405
 21
466.56596340810563
  0
LINE
  8
_2-0_
  6
CONTINUOUS
 62
    7
 10
437.16515842078843
 20
467.43727973275736
 11
437.28608127232076
 21
467.56559231410563
  0
LINE
  8
_2-0_
  6
CONTINUOUS
 62
    7
 10
437.16515842078843
 20
467.12691108049148
 11
437.5816704649551
 21
467.56559231410563
  0
LINE
  8
_2-0_
  6
CONTINUOUS
 62
    7
 10
437.16515842078843
 20
466.87834744123052
 11
437.88263400654637
 21
467.56156155238796
  0
LINE
  8
_2-0_
  6
CONTINUOUS
 62
    7
 10
437.16515842078843
 20
466.56596340810563
 11
438.1264950904698
 21
467.56156155238796
  0
LINE
  8
_2-0_
  6
CONTINUOUS
 62
    7
 10
437.4056605366136
 20
466.50684556957879
 11
438.42342787034352
 21
467.56156155238796
  0
LINE
  8
_2-0_
  6
CONTINUOUS
 62
    7
 10
437.70595228458546
 20
466.50684556957879
 11
438.60078138592405
 21
467.43727973275736
  0
LINE
  8
_2-0_
  6
CONTINUOUS
 62
    7
 10
438.00355685807881
 20
466.50684556957879
 11
438.60414035402232
 21
467.12959825496989
  0
LINE
  8
_2-0_
  6
CONTINUOUS
 62
    7
 10
438.24405897390398
 20
466.50684556957879
 11
438.60414035402232
 21
466.8158706346054
  0
LINE
  8
_2-0_
  6
CONTINUOUS
 62
    7
 10
438.54300713463658
 20
466.50684556957879
 11
438.60078138592405
 21
466.56596340810563
  0
LINE
  8
_2-0_
  6
CONTINUOUS
 62
    7
 10
437.16515842078843
 20
467.12691108049148
 11
437.5816704649551
 21
467.56559231410563
  0
LINE
  8
_2-0_
  6
CONTINUOUS
 62
    7
 10
437.16515842078843
 20
466.56596340810563
 11
438.1264950904698
 21
467.56156155238796
  0
LINE
  8
_2-0_
  6
CONTINUOUS
 62
    7
 10
437.70595228458546
 20
466.50684556957879
 11
438.60078138592405
 21
467.43727973275736
  0
LINE
  8
_2-0_
  6
CONTINUOUS
 62
    7
 10
438.24405897390398
 20
466.50684556957879
 11
438.60414035402232
 21
466.8158706346054
  0
LINE
  8
_2-0_
  6
CONTINUOUS
 62
    7
 10
438.60078138592405
 20
466.50684556957879
 11
438.60078138592405
 21
467.56156155238796
  0
LINE
  8
_2-0_
  6
CONTINUOUS
 62
    7
 10
437.16515842078843
 20
466.50684556957879
 11
437.16515842078843
 21
467.56156155238796
  0
LINE
  8
_2-0_
  6
CONTINUOUS
 62
    7
 10
438.96153455966214
 20
466.50684556957879
 11
436.80910780238787
 21
466.50684556957879
  0
LINE
  8
_2-0_
  6
CONTINUOUS
 62
    7
 10
436.80776421514861
 20
466.50684556957879
 11
436.80776421514861
 21
467.56156155238796
  0
LINE
  8
_2-0_
  6
CONTINUOUS
 62
    7
 10
438.96153455966214
 20
467.56559231410563
 11
436.80910780238787
 21
467.56559231410563
  0
LINE
  8
_2-0_
  6
CONTINUOUS
 62
    7
 10
438.96153455966214
 20
466.50684556957879
 11
438.96153455966214
 21
467.56156155238796
  0
LINE
  8
_2-0_
  6
CONTINUOUS
 62
    7
 10
419.51781182689302
 20
467.43727973275736
 11
419.63873467842507
 21
467.56559231410563
  0
LINE
  8
_2-0_
  6
CONTINUOUS
 62
    7
 10
419.51781182689302
 20
467.12691108049148
 11
419.8778932070112
 21
467.56559231410563
  0
LINE
  8
_2-0_
  6
CONTINUOUS
 62
    7
 10
419.51781182689302
 20
466.87834744123052
 11
420.17549778050443
 21
467.56156155238796
  0
LINE
  8
_2-0_
  6
CONTINUOUS
 62
    7
 10
419.51781182689302
 20
466.56596340810563
 11
420.47175876675851
 21
467.56156155238796
  0
LINE
  8
_2-0_
  6
CONTINUOUS
 62
    7
 10
419.75562676823972
 20
466.50684556957879
 11
420.71360446982317
 21
467.56156155238796
  0
LINE
  8
_2-0_
  6
CONTINUOUS
 62
    7
 10
420.0539031353527
 20
466.50684556957879
 11
420.89431695350186
 21
467.43727973275736
  0
LINE
  8
_2-0_
  6
CONTINUOUS
 62
    7
 10
420.29574883841713
 20
466.50684556957879
 11
420.89431695350186
 21
467.12959825496989
  0
LINE
  8
_2-0_
  6
CONTINUOUS
 62
    7
 10
420.59604058638888
 20
466.50684556957879
 11
420.89431695350186
 21
466.8158706346054
  0
LINE
  8
_2-0_
  6
CONTINUOUS
 62
    7
 10
420.89431695350186
 20
466.50684556957879
 11
420.89431695350186
 21
466.56596340810563
  0
LINE
  8
_2-0_
  6
CONTINUOUS
 62
    7
 10
419.51781182689302
 20
467.43727973275736
 11
419.63873467842507
 21
467.56559231410563
  0
LINE
  8
_2-0_
  6
CONTINUOUS
 62
    7
 10
419.51781182689302
 20
467.12691108049148
 11
419.8778932070112
 21
467.56559231410563
  0
LINE
  8
_2-0_
  6
CONTINUOUS
 62
    7
 10
419.51781182689302
 20
466.87834744123052
 11
420.17549778050443
 21
467.56156155238796
  0
LINE
  8
_2-0_
  6
CONTINUOUS
 62
    7
 10
419.51781182689302
 20
466.56596340810563
 11
420.47175876675851
 21
467.56156155238796
  0
LINE
  8
_2-0_
  6
CONTINUOUS
 62
    7
 10
419.75562676823972
 20
466.50684556957879
 11
420.71360446982317
 21
467.56156155238796
  0
LINE
  8
_2-0_
  6
CONTINUOUS
 62
    7
 10
420.0539031353527
 20
466.50684556957879
 11
420.89431695350186
 21
467.43727973275736
  0
LINE
  8
_2-0_
  6
CONTINUOUS
 62
    7
 10
420.29574883841713
 20
466.50684556957879
 11
420.89431695350186
 21
467.12959825496989
  0
LINE
  8
_2-0_
  6
CONTINUOUS
 62
    7
 10
420.59604058638888
 20
466.50684556957879
 11
420.89431695350186
 21
466.8158706346054
  0
LINE
  8
_2-0_
  6
CONTINUOUS
 62
    7
 10
420.89431695350186
 20
466.50684556957879
 11
420.89431695350186
 21
466.56596340810563
  0
LINE
  8
_2-0_
  6
CONTINUOUS
 62
    7
 10
419.51781182689302
 20
467.12691108049148
 11
419.8778932070112
 21
467.56559231410563
  0
LINE
  8
_2-0_
  6
CONTINUOUS
 62
    7
 10
419.51781182689302
 20
466.56596340810563
 11
420.47175876675851
 21
467.56156155238796
  0
LINE
  8
_2-0_
  6
CONTINUOUS
 62
    7
 10
420.0539031353527
 20
466.50684556957879
 11
420.89431695350186
 21
467.43727973275736
  0
LINE
  8
_2-0_
  6
CONTINUOUS
 62
    7
 10
420.59604058638888
 20
466.50684556957879
 11
420.89431695350186
 21
466.8158706346054
  0
LINE
  8
_2-0_
  6
CONTINUOUS
 62
    7
 10
420.89431695350186
 20
466.50684556957879
 11
420.89431695350186
 21
467.56156155238796
  0
LINE
  8
_2-0_
  6
CONTINUOUS
 62
    7
 10
419.51781182689302
 20
466.50684556957879
 11
419.51781182689302
 21
467.56156155238796
  0
LINE
  8
_2-0_
  6
CONTINUOUS
 62
    7
 10
421.31284437852742
 20
466.50684556957879
 11
419.09726902100834
 21
466.50684556957879
  0
LINE
  8
_2-0_
  6
CONTINUOUS
 62
    7
 10
419.09726902100834
 20
466.50684556957879
 11
419.09726902100834
 21
467.56156155238796
  0
LINE
  8
_2-0_
  6
CONTINUOUS
 62
    7
 10
421.31284437852742
 20
467.56559231410563
 11
419.09726902100834
 21
467.56559231410563
  0
LINE
  8
_2-0_
  6
CONTINUOUS
 62
    7
 10
421.31284437852742
 20
466.50684556957879
 11
421.31284437852742
 21
467.56156155238796
  0
LINE
  8
_2-0_
  6
CONTINUOUS
 62
    7
 10
463.07019218709854
 20
473.66615017390848
 11
456.849383269383
 21
473.66615017390848
  0
LINE
  8
_2-0_
  6
CONTINUOUS
 62
    7
 10
463.25224825801672
 20
468.49602647728443
 11
463.25224825801672
 21
473.47871975403348
  0
LINE
  8
_2-0_
  6
CONTINUOUS
 62
    7
 10
463.07019218709854
 20
468.31262681912733
 11
456.849383269383
 21
468.31262681912733
  0
LINE
  8
_2-0_
  6
CONTINUOUS
 62
    7
 10
456.67001437294346
 20
468.49602647728443
 11
456.67001437294346
 21
473.47871975403348
  0
LINE
  8
_2-0_
  6
CONTINUOUS
 62
    7
 10
454.27842908708305
 20
473.66615017390848
 11
448.05426120126924
 21
473.66615017390848
  0
LINE
  8
_2-0_
  6
CONTINUOUS
 62
    7
 10
454.4577979835226
 20
468.49602647728443
 11
454.4577979835226
 21
473.47871975403348
  0
LINE
  8
_2-0_
  6
CONTINUOUS
 62
    7
 10
454.27842908708305
 20
468.31262681912733
 11
448.05426120126924
 21
468.31262681912733
  0
LINE
  8
_2-0_
  6
CONTINUOUS
 62
    7
 10
447.87556409844933
 20
468.49602647728443
 11
447.87556409844933
 21
473.47871975403348
  0
LINE
  8
_2-0_
  6
CONTINUOUS
 62
    7
 10
445.4833070189693
 20
473.66615017390848
 11
439.26316989487316
 21
473.66615017390848
  0
LINE
  8
_2-0_
  6
CONTINUOUS
 62
    7
 10
445.66334770902847
 20
468.49602647728443
 11
445.66334770902847
 21
473.47871975403348
  0
LINE
  8
_2-0_
  6
CONTINUOUS
 62
    7
 10
445.4833070189693
 20
468.31262681912733
 11
439.26316989487316
 21
468.31262681912733
  0
LINE
  8
_2-0_
  6
CONTINUOUS
 62
    7
 10
439.08111382395521
 20
468.49602647728443
 11
439.08111382395521
 21
473.47871975403348
  0
LINE
  8
_2-0_
  6
CONTINUOUS
 62
    7
 10
436.68952853809481
 20
468.49602647728443
 11
436.68952853809481
 21
473.47871975403348
  0
LINE
  8
_2-0_
  6
CONTINUOUS
 62
    7
 10
436.51083143527489
 20
468.31262681912733
 11
430.28800713670023
 21
468.31262681912733
  0
LINE
  8
_2-0_
  6
CONTINUOUS
 62
    7
 10
436.51083143527489
 20
473.66615017390848
 11
430.28800713670023
 21
473.66615017390848
  0
LINE
  8
_2-0_
  6
CONTINUOUS
 62
    7
 10
430.10729465302154
 20
468.49602647728443
 11
430.10729465302154
 21
473.47871975403348
  0
LINE
  8
_2-0_
  6
CONTINUOUS
 62
    7
 10
427.7130221926825
 20
468.31262681912733
 11
421.49019789410806
 21
468.31262681912733
  0
LINE
  8
_2-0_
  6
CONTINUOUS
 62
    7
 10
427.89306288274179
 20
468.49602647728443
 11
427.89306288274179
 21
473.47871975403348
  0
LINE
  8
_2-0_
  6
CONTINUOUS
 62
    7
 10
427.7130221926825
 20
473.66615017390848
 11
421.49019789410806
 21
473.66615017390848
  0
LINE
  8
_2-0_
  6
CONTINUOUS
 62
    7
 10
421.31284437852742
 20
468.49602647728443
 11
421.31284437852742
 21
473.47871975403348
  0
LINE
  8
_2-0_
  6
CONTINUOUS
 62
    7
 10
412.5177223104136
 20
468.49602647728443
 11
412.5177223104136
 21
473.47871975403348
  0
LINE
  8
_2-0_
  6
CONTINUOUS
 62
    7
 10
418.91991550542781
 20
468.31262681912733
 11
412.69843479409252
 21
468.31262681912733
  0
LINE
  8
_2-0_
  6
CONTINUOUS
 62
    7
 10
419.09726902100834
 20
468.49602647728443
 11
419.09726902100834
 21
473.47871975403348
  0
LINE
  8
_2-0_
  6
CONTINUOUS
 62
    7
 10
418.91991550542781
 20
473.66615017390848
 11
412.69843479409252
 21
473.66615017390848
  0
LINE
  8
_2-0_
  6
CONTINUOUS
 62
    7
 10
465.34690076400329
 20
464.76286933303538
 11
465.34690076400329
 21
477.21389227914153
  0
LINE
  8
_2-0_
  6
CONTINUOUS
 62
    7
 10
445.90250623761438
 20
473.91202663869069
 11
438.89972954665666
 21
473.91202663869069
  0
LINE
  8
_2-0_
  6
CONTINUOUS
 62
    7
 10
438.90174492751567
 20
468.06003241814881
 11
438.90174492751567
 21
473.91202663869069
  0
LINE
  8
_2-0_
  6
CONTINUOUS
 62
    7
 10
445.90250623761438
 20
468.06003241814881
 11
438.89972954665666
 21
468.06003241814881
  0
LINE
  8
_2-0_
  6
CONTINUOUS
 62
    7
 10
445.90250623761438
 20
468.06003241814881
 11
445.90250623761438
 21
473.91202663869069
  0
LINE
  8
_2-0_
  6
CONTINUOUS
 62
    7
 10
454.63649508634251
 20
473.91202663869069
 11
447.69619520200979
 21
473.91202663869069
  0
LINE
  8
_2-0_
  6
CONTINUOUS
 62
    7
 10
447.69619520200979
 20
468.06003241814881
 11
447.69619520200979
 21
473.91202663869069
  0
LINE
  8
_2-0_
  6
CONTINUOUS
 62
    7
 10
454.63649508634251
 20
468.06003241814881
 11
447.69619520200979
 21
468.06003241814881
  0
LINE
  8
_2-0_
  6
CONTINUOUS
 62
    7
 10
454.63649508634251
 20
468.06003241814881
 11
454.63649508634251
 21
473.91202663869069
  0
LINE
  8
_2-0_
  6
CONTINUOUS
 62
    7
 10
456.48997368288417
 20
468.06003241814881
 11
456.48997368288417
 21
473.91202663869069
  0
LINE
  8
_2-0_
  6
CONTINUOUS
 62
    7
 10
463.43161715445603
 20
468.06003241814881
 11
456.48997368288417
 21
468.06003241814881
  0
LINE
  8
_2-0_
  6
CONTINUOUS
 62
    7
 10
463.43161715445603
 20
468.06003241814881
 11
463.43161715445603
 21
473.91202663869069
  0
LINE
  8
_2-0_
  6
CONTINUOUS
 62
    7
 10
436.86889743453435
 20
473.91202663869069
 11
429.86746433081578
 21
473.91202663869069
  0
LINE
  8
_2-0_
  6
CONTINUOUS
 62
    7
 10
429.86746433081578
 20
468.06003241814881
 11
429.86746433081578
 21
473.91202663869069
  0
LINE
  8
_2-0_
  6
CONTINUOUS
 62
    7
 10
436.86889743453435
 20
468.06003241814881
 11
429.86746433081578
 21
468.06003241814881
  0
LINE
  8
_2-0_
  6
CONTINUOUS
 62
    7
 10
436.86889743453435
 20
468.06003241814881
 11
436.86889743453435
 21
473.91202663869069
  0
LINE
  8
_2-0_
  6
CONTINUOUS
 62
    7
 10
428.07444716004034
 20
473.91202663869069
 11
421.07234226270202
 21
473.91202663869069
  0
LINE
  8
_2-0_
  6
CONTINUOUS
 62
    7
 10
421.07234226270202
 20
468.06003241814881
 11
421.07234226270202
 21
473.91202663869069
  0
LINE
  8
_2-0_
  6
CONTINUOUS
 62
    7
 10
428.07444716004034
 20
468.06003241814881
 11
421.07234226270202
 21
468.06003241814881
  0
LINE
  8
_2-0_
  6
CONTINUOUS
 62
    7
 10
428.07444716004034
 20
468.06003241814881
 11
428.07444716004034
 21
473.91202663869069
  0
LINE
  8
_2-0_
  6
CONTINUOUS
 62
    7
 10
419.27999688554615
 20
473.91202663869069
 11
412.33969700121344
 21
473.91202663869069
  0
LINE
  8
_2-0_
  6
CONTINUOUS
 62
    7
 10
412.33969700121344
 20
468.06003241814881
 11
412.33969700121344
 21
473.91202663869069
  0
LINE
  8
_2-0_
  6
CONTINUOUS
 62
    7
 10
419.27999688554615
 20
468.06003241814881
 11
412.33969700121344
 21
468.06003241814881
  0
LINE
  8
_2-0_
  6
CONTINUOUS
 62
    7
 10
419.27999688554615
 20
468.06003241814881
 11
419.27999688554615
 21
473.91202663869069
  0
LINE
  8
_2-0_
  6
CONTINUOUS
 62
    7
 10
465.34690076400329
 20
464.76286933303538
 11
459.7810906254208
 21
464.76286933303538
  0
LINE
  8
_2-0_
  6
CONTINUOUS
 62
    7
 10
465.34690076400329
 20
464.76286933303538
 11
465.34690076400329
 21
467.87058661741469
  0
LINE
  8
_2-0_
  6
CONTINUOUS
 62
    7
 10
465.34690076400329
 20
467.87058661741469
 11
459.7810906254208
 21
467.87058661741469
  0
LINE
  8
_2-0_
  6
CONTINUOUS
 62
    7
 10
459.7810906254208
 20
464.76286933303538
 11
459.7810906254208
 21
467.87058661741469
  0
LINE
  8
_2-0_
  6
CONTINUOUS
 62
    7
 10
465.34690076400329
 20
474.0987852649464
 11
459.7810906254208
 21
474.0987852649464
  0
LINE
  8
_2-0_
  6
CONTINUOUS
 62
    7
 10
465.34690076400329
 20
474.0987852649464
 11
465.34690076400329
 21
477.21389227914153
  0
LINE
  8
_2-0_
  6
CONTINUOUS
 62
    7
 10
465.34690076400329
 20
477.21389227914153
 11
459.7810906254208
 21
477.21389227914153
  0
LINE
  8
_2-0_
  6
CONTINUOUS
 62
    7
 10
459.7810906254208
 20
474.0987852649464
 11
459.7810906254208
 21
477.21389227914153
  0
LINE
  8
_2-0_
  6
CONTINUOUS
 62
    7
 10
415.98820814939
 20
464.76286933303538
 11
410.42374159804655
 21
464.76286933303538
  0
LINE
  8
_2-0_
  6
CONTINUOUS
 62
    7
 10
410.42374159804655
 20
464.76286933303538
 11
410.42374159804655
 21
467.87058661741469
  0
LINE
  8
_2-0_
  6
CONTINUOUS
 62
    7
 10
415.98820814939
 20
467.87058661741469
 11
410.42374159804655
 21
467.87058661741469
  0
LINE
  8
_2-0_
  6
CONTINUOUS
 62
    7
 10
415.98820814939
 20
464.76286933303538
 11
415.98820814939
 21
467.87058661741469
  0
LINE
  8
_2-0_
  6
CONTINUOUS
 62
    7
 10
415.98820814939
 20
474.0987852649464
 11
410.42374159804655
 21
474.0987852649464
  0
LINE
  8
_2-0_
  6
CONTINUOUS
 62
    7
 10
415.98820814939
 20
477.21389227914153
 11
410.42374159804655
 21
477.21389227914153
  0
LINE
  8
_2-0_
  6
CONTINUOUS
 62
    7
 10
415.98820814939
 20
474.0987852649464
 11
415.98820814939
 21
477.21389227914153
  0
LINE
  8
_2-0_
  6
CONTINUOUS
 62
    7
 10
463.43161715445603
 20
473.91202663869069
 11
456.48997368288417
 21
473.91202663869069
  0
LINE
  8
_2-0_
  6
CONTINUOUS
 62
    7
 10
465.34555717676415
 20
464.75951036493711
 11
465.34555717676415
 21
467.87528917275233
  0
LINE
  8
_2-0_
  6
CONTINUOUS
 62
    7
 10
451.88415662674402
 20
467.43996690723623
 11
452.00373589103708
 21
467.56424872686637
  0
LINE
  8
_2-0_
  6
CONTINUOUS
 62
    7
 10
451.88415662674402
 20
467.12959825496989
 11
452.24625338772114
 21
467.56424872686637
  0
LINE
  8
_2-0_
  6
CONTINUOUS
 62
    7
 10
451.88415662674402
 20
466.87834744123052
 11
452.54385796121448
 21
467.56424872686637
  0
LINE
  8
_2-0_
  6
CONTINUOUS
 62
    7
 10
451.88415662674402
 20
466.56596340810563
 11
452.84280612194709
 21
467.56424872686637
  0
LINE
  8
_2-0_
  6
CONTINUOUS
 62
    7
 10
452.12398694894978
 20
466.50684556957879
 11
453.07860568243495
 21
467.56424872686637
  0
LINE
  8
_2-0_
  6
CONTINUOUS
 62
    7
 10
452.36516085839457
 20
466.50684556957879
 11
453.26066175335291
 21
467.43996690723623
  0
LINE
  8
_2-0_
  6
CONTINUOUS
 62
    7
 10
452.66075005102914
 20
466.50684556957879
 11
453.26066175335291
 21
467.12959825496989
  0
LINE
  8
_2-0_
  6
CONTINUOUS
 62
    7
 10
452.96171359262053
 20
466.50684556957879
 11
453.26066175335291
 21
466.8158706346054
  0
LINE
  8
_2-0_
  6
CONTINUOUS
 62
    7
 10
453.26066175335291
 20
466.50684556957879
 11
453.26066175335291
 21
466.56596340810563
  0
LINE
  8
_2-0_
  6
CONTINUOUS
 62
    7
 10
451.88415662674402
 20
467.43996690723623
 11
452.00373589103708
 21
467.56424872686637
  0
LINE
  8
_2-0_
  6
CONTINUOUS
 62
    7
 10
451.88415662674402
 20
467.12959825496989
 11
452.24625338772114
 21
467.56424872686637
  0
LINE
  8
_2-0_
  6
CONTINUOUS
 62
    7
 10
451.88415662674402
 20
466.87834744123052
 11
452.54385796121448
 21
467.56424872686637
  0
LINE
  8
_2-0_
  6
CONTINUOUS
 62
    7
 10
451.88415662674402
 20
466.56596340810563
 11
452.84280612194709
 21
467.56424872686637
  0
LINE
  8
_2-0_
  6
CONTINUOUS
 62
    7
 10
452.12398694894978
 20
466.50684556957879
 11
453.07860568243495
 21
467.56424872686637
  0
LINE
  8
_2-0_
  6
CONTINUOUS
 62
    7
 10
452.36516085839457
 20
466.50684556957879
 11
453.26066175335291
 21
467.43996690723623
  0
LINE
  8
_2-0_
  6
CONTINUOUS
 62
    7
 10
452.66075005102914
 20
466.50684556957879
 11
453.26066175335291
 21
467.12959825496989
  0
LINE
  8
_2-0_
  6
CONTINUOUS
 62
    7
 10
452.96171359262053
 20
466.50684556957879
 11
453.26066175335291
 21
466.8158706346054
  0
LINE
  8
_2-0_
  6
CONTINUOUS
 62
    7
 10
453.26066175335291
 20
466.50684556957879
 11
453.26066175335291
 21
466.56596340810563
  0
LINE
  8
_2-0_
  6
CONTINUOUS
 62
    7
 10
451.88415662674402
 20
467.12959825496989
 11
452.24625338772114
 21
467.56424872686637
  0
LINE
  8
_2-0_
  6
CONTINUOUS
 62
    7
 10
451.88415662674402
 20
466.56596340810563
 11
452.84280612194709
 21
467.56424872686637
  0
LINE
  8
_2-0_
  6
CONTINUOUS
 62
    7
 10
452.36516085839457
 20
466.50684556957879
 11
453.26066175335291
 21
467.43996690723623
  0
LINE
  8
_2-0_
  6
CONTINUOUS
 62
    7
 10
452.96171359262053
 20
466.50684556957879
 11
453.26066175335291
 21
466.8158706346054
  0
LINE
  8
_2-0_
  6
CONTINUOUS
 62
    7
 10
453.26066175335291
 20
466.50684556957879
 11
453.26066175335291
 21
467.56424872686637
  0
LINE
  8
_2-0_
  6
CONTINUOUS
 62
    7
 10
451.88415662674402
 20
466.50684556957879
 11
451.88415662674402
 21
467.56424872686637
  0
LINE
  8
_2-0_
  6
CONTINUOUS
 62
    7
 10
453.67918917837846
 20
466.50684556957879
 11
451.46697278895761
 21
466.50684556957879
  0
LINE
  8
_2-0_
  6
CONTINUOUS
 62
    7
 10
451.46428561447908
 20
466.50684556957879
 11
451.46428561447908
 21
467.56424872686637
  0
LINE
  8
_2-0_
  6
CONTINUOUS
 62
    7
 10
453.67918917837846
 20
467.56424872686637
 11
451.46697278895761
 21
467.56424872686637
  0
LINE
  8
_2-0_
  6
CONTINUOUS
 62
    7
 10
453.67918917837846
 20
466.50684556957879
 11
453.67918917837846
 21
467.56424872686637
  0
LINE
  8
_2-0_
  6
CONTINUOUS
 62
    7
 10
446.08120334043429
 20
474.53746649856055
 11
446.20145439834698
 21
474.40915391721262
  0
LINE
  8
_2-0_
  6
CONTINUOUS
 62
    7
 10
446.08120334043429
 20
474.85119411892492
 11
446.43926933969374
 21
474.40915391721262
  0
LINE
  8
_2-0_
  6
CONTINUOUS
 62
    7
 10
465.34555717676415
 20
464.75951036493711
 11
465.34555717676415
 21
477.21523586638079
  0
LINE
  8
_2-0_
  6
CONTINUOUS
 62
    7
 10
465.34555717676415
 20
474.0987852649464
 11
465.34555717676415
 21
477.21523586638079
  0
LINE
  8
_2-0_
  6
CONTINUOUS
 62
    7
 10
410.42374159804655
 20
463.70345079488891
 11
410.42374159804655
 21
477.21523586638079
  0
LINE
  8
_2-0_
  6
CONTINUOUS
 62
    7
 10
464.32980522389289
 20
463.70345079488891
 11
410.42374159804655
 21
463.70345079488891
  0
LINE
  8
_2-0_
  6
CONTINUOUS
 62
    7
 10
410.42374159804655
 20
474.0987852649464
 11
410.42374159804655
 21
478.2753261981469
  0
LINE
  8
_2-0_
  6
CONTINUOUS
 62
    7
 10
463.43161715445603
 20
473.91605740040859
 11
463.43161715445603
 21
468.06406317986637
  0
LINE
  8
_2-0_
  6
CONTINUOUS
 62
    7
 10
465.34690076400329
 20
464.76286933303538
 11
465.34690076400329
 21
477.21389227914153
  0
LINE
  8
_2-0_
  6
CONTINUOUS
 62
    7
 10
463.43161715445603
 20
468.06003241814881
 11
463.43161715445603
 21
473.91202663869069
  0
LINE
  8
_2-0_
  6
CONTINUOUS
 62
    7
 10
465.34690076400329
 20
464.76286933303538
 11
465.34690076400329
 21
467.87058661741469
  0
LINE
  8
_2-0_
  6
CONTINUOUS
 62
    7
 10
465.34690076400329
 20
474.0987852649464
 11
465.34690076400329
 21
477.21389227914153
  0
LINE
  8
_2-0_
  6
CONTINUOUS
 62
    7
 10
465.34555717676415
 20
464.75951036493711
 11
465.34555717676415
 21
467.87528917275233
  0
LINE
  8
_2-0_
  6
CONTINUOUS
 62
    7
 10
465.34555717676415
 20
464.75951036493711
 11
465.34555717676415
 21
477.21523586638079
  0
LINE
  8
_2-0_
  6
CONTINUOUS
 62
    7
 10
465.34555717676415
 20
474.0987852649464
 11
465.34555717676415
 21
477.21523586638079
  0
LINE
  8
_2-0_
  6
CONTINUOUS
 62
    7
 10
474.19730971106765
 20
468.06406317986637
 11
467.25969700121345
 21
468.06406317986637
  0
LINE
  8
_2-0_
  6
CONTINUOUS
 62
    7
 10
467.25969700121345
 20
468.06406317986637
 11
467.25969700121345
 21
473.91605740040859
  0
LINE
  8
_2-0_
  6
CONTINUOUS
 62
    7
 10
467.25969700121345
 20
473.91605740040859
 11
474.19730971106765
 21
473.91605740040859
  0
LINE
  8
_2-0_
  6
CONTINUOUS
 62
    7
 10
474.19730971106765
 20
473.91605740040859
 11
474.19730971106765
 21
468.06406317986637
  0
LINE
  8
_2-0_
  6
CONTINUOUS
 62
    7
 10
482.99243177918135
 20
468.06406317986637
 11
476.05347548208789
 21
468.06406317986637
  0
LINE
  8
_2-0_
  6
CONTINUOUS
 62
    7
 10
476.05347548208789
 20
468.06406317986637
 11
476.05347548208789
 21
473.91605740040859
  0
LINE
  8
_2-0_
  6
CONTINUOUS
 62
    7
 10
476.05347548208789
 20
473.91605740040859
 11
482.99243177918135
 21
473.91605740040859
  0
LINE
  8
_2-0_
  6
CONTINUOUS
 62
    7
 10
482.99243177918135
 20
473.91605740040859
 11
482.99243177918135
 21
468.06406317986637
  0
LINE
  8
_2-0_
  6
CONTINUOUS
 62
    7
 10
491.78889743453436
 20
468.06406317986637
 11
484.84859755020165
 21
468.06406317986637
  0
LINE
  8
_2-0_
  6
CONTINUOUS
 62
    7
 10
484.84859755020165
 20
468.06406317986637
 11
484.84859755020165
 21
473.91605740040859
  0
LINE
  8
_2-0_
  6
CONTINUOUS
 62
    7
 10
484.84859755020165
 20
473.91605740040859
 11
491.78889743453436
 21
473.91605740040859
  0
LINE
  8
_2-0_
  6
CONTINUOUS
 62
    7
 10
491.78889743453436
 20
473.91605740040859
 11
491.78889743453436
 21
468.06406317986637
  0
LINE
  8
_2-0_
  6
CONTINUOUS
 62
    7
 10
500.71367567123531
 20
468.06406317986637
 11
493.77337578690282
 21
468.06406317986637
  0
LINE
  8
_2-0_
  6
CONTINUOUS
 62
    7
 10
493.77337578690282
 20
468.06406317986637
 11
493.77337578690282
 21
473.91605740040859
  0
LINE
  8
_2-0_
  6
CONTINUOUS
 62
    7
 10
493.77337578690282
 20
473.91605740040859
 11
500.71367567123531
 21
473.91605740040859
  0
LINE
  8
_2-0_
  6
CONTINUOUS
 62
    7
 10
500.71367567123531
 20
473.91605740040859
 11
500.71367567123531
 21
468.06406317986637
  0
LINE
  8
_2-0_
  6
CONTINUOUS
 62
    7
 10
509.55447970548352
 20
468.06406317986637
 11
502.61619520200981
 21
468.06406317986637
  0
LINE
  8
_2-0_
  6
CONTINUOUS
 62
    7
 10
502.61619520200981
 20
468.06406317986637
 11
502.61619520200981
 21
473.91605740040859
  0
LINE
  8
_2-0_
  6
CONTINUOUS
 62
    7
 10
502.61619520200981
 20
473.91605740040859
 11
509.55447970548352
 21
473.91605740040859
  0
LINE
  8
_2-0_
  6
CONTINUOUS
 62
    7
 10
509.55447970548352
 20
473.91605740040859
 11
509.55447970548352
 21
468.06406317986637
  0
LINE
  8
_2-0_
  6
CONTINUOUS
 62
    7
 10
518.35161715445611
 20
468.06406317986637
 11
511.41400444460197
 21
468.06406317986637
  0
LINE
  8
_2-0_
  6
CONTINUOUS
 62
    7
 10
511.41400444460197
 20
468.06406317986637
 11
511.41400444460197
 21
473.91605740040859
  0
LINE
  8
_2-0_
  6
CONTINUOUS
 62
    7
 10
511.41400444460197
 20
473.91605740040859
 11
518.35161715445611
 21
473.91605740040859
  0
LINE
  8
_2-0_
  6
CONTINUOUS
 62
    7
 10
518.35161715445611
 20
473.91605740040859
 11
518.35161715445611
 21
468.06406317986637
  0
LINE
  8
_2-0_
  6
CONTINUOUS
 62
    7
 10
501.00389051491294
 20
475.0984141709464
 11
501.65821750042636
 21
474.41385647254981
  0
LINE
  8
_2-0_
  6
CONTINUOUS
 62
    7
 10
501.00389051491294
 20
475.40676744235373
 11
501.95716566115897
 21
474.41385647254981
  0
LINE
  8
_2-0_
  6
CONTINUOUS
 62
    7
 10
501.23969007540069
 20
475.46991604259847
 11
502.25745740913061
 21
474.41385647254981
  0
LINE
  8
_2-0_
  6
CONTINUOUS
 62
    7
 10
501.53931002975293
 20
475.46991604259847
 11
502.37703667342367
 21
474.53746649856055
  0
LINE
  8
_2-0_
  6
CONTINUOUS
 62
    7
 10
501.77712497109979
 20
475.46991604259847
 11
502.37703667342367
 21
474.84850694444629
  0
LINE
  8
_2-0_
  6
CONTINUOUS
 62
    7
 10
502.07808851269107
 20
475.46991604259847
 11
502.37703667342367
 21
475.16021918395165
  0
LINE
  8
_2-0_
  6
CONTINUOUS
 62
    7
 10
502.37703667342367
 20
475.46991604259847
 11
502.37703667342367
 21
475.40676744235373
  0
LINE
  8
_2-0_
  6
CONTINUOUS
 62
    7
 10
501.00389051491294
 20
474.53746649856055
 11
501.121454398347
 21
474.41385647254981
  0
LINE
  8
_2-0_
  6
CONTINUOUS
 62
    7
 10
501.00389051491294
 20
474.84850694444629
 11
501.35926933969375
 21
474.40915391721262
  0
LINE
  8
_2-0_
  6
CONTINUOUS
 62
    7
 10
501.00389051491294
 20
475.0984141709464
 11
501.65821750042636
 21
474.41385647254981
  0
LINE
  8
_2-0_
  6
CONTINUOUS
 62
    7
 10
501.00389051491294
 20
475.40676744235373
 11
501.95716566115897
 21
474.41385647254981
  0
LINE
  8
_2-0_
  6
CONTINUOUS
 62
    7
 10
501.23969007540069
 20
475.46991604259847
 11
502.25745740913061
 21
474.41385647254981
  0
LINE
  8
_2-0_
  6
CONTINUOUS
 62
    7
 10
501.53931002975293
 20
475.46991604259847
 11
502.37703667342367
 21
474.53746649856055
  0
LINE
  8
_2-0_
  6
CONTINUOUS
 62
    7
 10
501.77712497109979
 20
475.46991604259847
 11
502.37703667342367
 21
474.84850694444629
  0
LINE
  8
_2-0_
  6
CONTINUOUS
 62
    7
 10
502.07808851269107
 20
475.46991604259847
 11
502.37703667342367
 21
475.16021918395165
  0
LINE
  8
_2-0_
  6
CONTINUOUS
 62
    7
 10
502.37703667342367
 20
475.46991604259847
 11
502.37703667342367
 21
475.40676744235373
  0
LINE
  8
_2-0_
  6
CONTINUOUS
 62
    7
 10
501.00389051491294
 20
474.84850694444629
 11
501.35926933969375
 21
474.40915391721262
  0
LINE
  8
_2-0_
  6
CONTINUOUS
 62
    7
 10
501.00389051491294
 20
475.40676744235373
 11
501.95716566115897
 21
474.41385647254981
  0
LINE
  8
_2-0_
  6
CONTINUOUS
 62
    7
 10
501.53931002975293
 20
475.46991604259847
 11
502.37703667342367
 21
474.53746649856055
  0
LINE
  8
_2-0_
  6
CONTINUOUS
 62
    7
 10
502.07808851269107
 20
475.46991604259847
 11
502.37703667342367
 21
475.16021918395165
  0
LINE
  8
_2-0_
  6
CONTINUOUS
 62
    7
 10
502.37703667342367
 20
474.41385647254981
 11
502.37703667342367
 21
475.46991604259847
  0
LINE
  8
_2-0_
  6
CONTINUOUS
 62
    7
 10
501.00389051491294
 20
474.41385647254981
 11
501.00389051491294
 21
475.46991604259847
  0
LINE
  8
_2-0_
  6
CONTINUOUS
 62
    7
 10
502.79556409844935
 20
475.46991604259847
 11
500.58334770902849
 21
475.46991604259847
  0
LINE
  8
_2-0_
  6
CONTINUOUS
 62
    7
 10
500.58334770902849
 20
474.41385647254981
 11
500.58334770902849
 21
475.46991604259847
  0
LINE
  8
_2-0_
  6
CONTINUOUS
 62
    7
 10
502.79556409844935
 20
474.41385647254981
 11
500.58334770902849
 21
474.41385647254981
  0
LINE
  8
_2-0_
  6
CONTINUOUS
 62
    7
 10
502.79556409844935
 20
474.41385647254981
 11
502.79556409844935
 21
475.46991604259847
  0
LINE
  8
_2-0_
  6
CONTINUOUS
 62
    7
 10
483.2302467205281
 20
474.53746649856055
 11
483.35587212739784
 21
474.41385647254981
  0
LINE
  8
_2-0_
  6
CONTINUOUS
 62
    7
 10
483.2302467205281
 20
474.84850694444629
 11
483.59099989426596
 21
474.40915391721262
  0
LINE
  8
_2-0_
  6
CONTINUOUS
 62
    7
 10
483.2302467205281
 20
475.0984141709464
 11
483.8906198486182
 21
474.41385647254981
  0
LINE
  8
_2-0_
  6
CONTINUOUS
 62
    7
 10
483.2302467205281
 20
475.40676744235373
 11
484.18956800935081
 21
474.41385647254981
  0
LINE
  8
_2-0_
  6
CONTINUOUS
 62
    7
 10
483.47209242359264
 20
475.46991604259847
 11
484.42805474431731
 21
474.41385647254981
  0
LINE
  8
_2-0_
  6
CONTINUOUS
 62
    7
 10
483.71125095217866
 20
475.46991604259847
 11
484.60742364075685
 21
474.53746649856055
  0
LINE
  8
_2-0_
  6
CONTINUOUS
 62
    7
 10
484.01019911291127
 20
475.46991604259847
 11
484.60943902161563
 21
474.84850694444629
  0
LINE
  8
_2-0_
  6
CONTINUOUS
 62
    7
 10
484.30914727364387
 20
475.46991604259847
 11
484.60943902161563
 21
475.16021918395165
  0
LINE
  8
_2-0_
  6
CONTINUOUS
 62
    7
 10
484.60943902161563
 20
475.46991604259847
 11
484.60943902161563
 21
475.40676744235373
  0
LINE
  8
_2-0_
  6
CONTINUOUS
 62
    7
 10
483.2302467205281
 20
474.53746649856055
 11
483.35587212739784
 21
474.41385647254981
  0
LINE
  8
_2-0_
  6
CONTINUOUS
 62
    7
 10
483.2302467205281
 20
474.84850694444629
 11
483.59099989426596
 21
474.40915391721262
  0
LINE
  8
_2-0_
  6
CONTINUOUS
 62
    7
 10
483.2302467205281
 20
475.0984141709464
 11
483.8906198486182
 21
474.41385647254981
  0
LINE
  8
_2-0_
  6
CONTINUOUS
 62
    7
 10
483.2302467205281
 20
475.40676744235373
 11
484.18956800935081
 21
474.41385647254981
  0
LINE
  8
_2-0_
  6
CONTINUOUS
 62
    7
 10
483.47209242359264
 20
475.46991604259847
 11
484.42805474431731
 21
474.41385647254981
  0
LINE
  8
_2-0_
  6
CONTINUOUS
 62
    7
 10
483.71125095217866
 20
475.46991604259847
 11
484.60742364075685
 21
474.53746649856055
  0
LINE
  8
_2-0_
  6
CONTINUOUS
 62
    7
 10
484.01019911291127
 20
475.46991604259847
 11
484.60943902161563
 21
474.84850694444629
  0
LINE
  8
_2-0_
  6
CONTINUOUS
 62
    7
 10
484.30914727364387
 20
475.46991604259847
 11
484.60943902161563
 21
475.16021918395165
  0
LINE
  8
_2-0_
  6
CONTINUOUS
 62
    7
 10
484.60943902161563
 20
475.46991604259847
 11
484.60943902161563
 21
475.40676744235373
  0
LINE
  8
_2-0_
  6
CONTINUOUS
 62
    7
 10
483.2302467205281
 20
474.84850694444629
 11
483.59099989426596
 21
474.40915391721262
  0
LINE
  8
_2-0_
  6
CONTINUOUS
 62
    7
 10
483.2302467205281
 20
475.40676744235373
 11
484.18956800935081
 21
474.41385647254981
  0
LINE
  8
_2-0_
  6
CONTINUOUS
 62
    7
 10
483.71125095217866
 20
475.46991604259847
 11
484.60742364075685
 21
474.53746649856055
  0
LINE
  8
_2-0_
  6
CONTINUOUS
 62
    7
 10
484.30914727364387
 20
475.46991604259847
 11
484.60943902161563
 21
475.16021918395165
  0
LINE
  8
_2-0_
  6
CONTINUOUS
 62
    7
 10
484.60943902161563
 20
474.41385647254981
 11
484.60943902161563
 21
475.46991604259847
  0
LINE
  8
_2-0_
  6
CONTINUOUS
 62
    7
 10
483.2302467205281
 20
474.41385647254981
 11
483.2302467205281
 21
475.46991604259847
  0
LINE
  8
_2-0_
  6
CONTINUOUS
 62
    7
 10
485.02729465302156
 20
475.46991604259847
 11
482.8130628827418
 21
475.46991604259847
  0
LINE
  8
_2-0_
  6
CONTINUOUS
 62
    7
 10
482.8130628827418
 20
474.41385647254981
 11
482.8130628827418
 21
475.46991604259847
  0
LINE
  8
_2-0_
  6
CONTINUOUS
 62
    7
 10
485.02729465302156
 20
474.41385647254981
 11
482.8130628827418
 21
474.41385647254981
  0
LINE
  8
_2-0_
  6
CONTINUOUS
 62
    7
 10
485.02729465302156
 20
474.41385647254981
 11
485.02729465302156
 21
475.46991604259847
  0
LINE
  8
_2-0_
  6
CONTINUOUS
 62
    7
 10
492.08515842078845
 20
467.43727973275736
 11
492.20608127232077
 21
467.56559231410563
  0
LINE
  8
_2-0_
  6
CONTINUOUS
 62
    7
 10
492.08515842078845
 20
467.12691108049148
 11
492.50167046495511
 21
467.56559231410563
  0
LINE
  8
_2-0_
  6
CONTINUOUS
 62
    7
 10
492.08515842078845
 20
466.87834744123052
 11
492.80263400654638
 21
467.56156155238796
  0
LINE
  8
_2-0_
  6
CONTINUOUS
 62
    7
 10
492.08515842078845
 20
466.56596340810563
 11
493.04649509046982
 21
467.56156155238796
  0
LINE
  8
_2-0_
  6
CONTINUOUS
 62
    7
 10
492.32566053661361
 20
466.50684556957879
 11
493.34342787034353
 21
467.56156155238796
  0
LINE
  8
_2-0_
  6
CONTINUOUS
 62
    7
 10
492.62595228458548
 20
466.50684556957879
 11
493.52078138592407
 21
467.43727973275736
  0
LINE
  8
_2-0_
  6
CONTINUOUS
 62
    7
 10
492.92355685807883
 20
466.50684556957879
 11
493.52414035402234
 21
467.12959825496989
  0
LINE
  8
_2-0_
  6
CONTINUOUS
 62
    7
 10
493.16405897390399
 20
466.50684556957879
 11
493.52414035402234
 21
466.8158706346054
  0
LINE
  8
_2-0_
  6
CONTINUOUS
 62
    7
 10
493.4630071346366
 20
466.50684556957879
 11
493.52078138592407
 21
466.56596340810563
  0
LINE
  8
_2-0_
  6
CONTINUOUS
 62
    7
 10
492.08515842078845
 20
467.43727973275736
 11
492.20608127232077
 21
467.56559231410563
  0
LINE
  8
_2-0_
  6
CONTINUOUS
 62
    7
 10
492.08515842078845
 20
467.12691108049148
 11
492.50167046495511
 21
467.56559231410563
  0
LINE
  8
_2-0_
  6
CONTINUOUS
 62
    7
 10
492.08515842078845
 20
466.87834744123052
 11
492.80263400654638
 21
467.56156155238796
  0
LINE
  8
_2-0_
  6
CONTINUOUS
 62
    7
 10
492.08515842078845
 20
466.56596340810563
 11
493.04649509046982
 21
467.56156155238796
  0
LINE
  8
_2-0_
  6
CONTINUOUS
 62
    7
 10
492.32566053661361
 20
466.50684556957879
 11
493.34342787034353
 21
467.56156155238796
  0
LINE
  8
_2-0_
  6
CONTINUOUS
 62
    7
 10
492.62595228458548
 20
466.50684556957879
 11
493.52078138592407
 21
467.43727973275736
  0
LINE
  8
_2-0_
  6
CONTINUOUS
 62
    7
 10
492.92355685807883
 20
466.50684556957879
 11
493.52414035402234
 21
467.12959825496989
  0
LINE
  8
_2-0_
  6
CONTINUOUS
 62
    7
 10
493.16405897390399
 20
466.50684556957879
 11
493.52414035402234
 21
466.8158706346054
  0
LINE
  8
_2-0_
  6
CONTINUOUS
 62
    7
 10
493.4630071346366
 20
466.50684556957879
 11
493.52078138592407
 21
466.56596340810563
  0
LINE
  8
_2-0_
  6
CONTINUOUS
 62
    7
 10
492.08515842078845
 20
467.12691108049148
 11
492.50167046495511
 21
467.56559231410563
  0
LINE
  8
_2-0_
  6
CONTINUOUS
 62
    7
 10
492.08515842078845
 20
466.56596340810563
 11
493.04649509046982
 21
467.56156155238796
  0
LINE
  8
_2-0_
  6
CONTINUOUS
 62
    7
 10
492.62595228458548
 20
466.50684556957879
 11
493.52078138592407
 21
467.43727973275736
  0
LINE
  8
_2-0_
  6
CONTINUOUS
 62
    7
 10
493.16405897390399
 20
466.50684556957879
 11
493.52414035402234
 21
466.8158706346054
  0
LINE
  8
_2-0_
  6
CONTINUOUS
 62
    7
 10
493.52078138592407
 20
466.50684556957879
 11
493.52078138592407
 21
467.56156155238796
  0
LINE
  8
_2-0_
  6
CONTINUOUS
 62
    7
 10
492.08515842078845
 20
466.50684556957879
 11
492.08515842078845
 21
467.56156155238796
  0
LINE
  8
_2-0_
  6
CONTINUOUS
 62
    7
 10
493.88153455966216
 20
466.50684556957879
 11
491.72910780238789
 21
466.50684556957879
  0
LINE
  8
_2-0_
  6
CONTINUOUS
 62
    7
 10
491.72776421514862
 20
466.50684556957879
 11
491.72776421514862
 21
467.56156155238796
  0
LINE
  8
_2-0_
  6
CONTINUOUS
 62
    7
 10
493.88153455966216
 20
467.56559231410563
 11
491.72910780238789
 21
467.56559231410563
  0
LINE
  8
_2-0_
  6
CONTINUOUS
 62
    7
 10
493.88153455966216
 20
466.50684556957879
 11
493.88153455966216
 21
467.56156155238796
  0
LINE
  8
_2-0_
  6
CONTINUOUS
 62
    7
 10
474.43781182689304
 20
467.43727973275736
 11
474.55873467842508
 21
467.56559231410563
  0
LINE
  8
_2-0_
  6
CONTINUOUS
 62
    7
 10
474.43781182689304
 20
467.12691108049148
 11
474.79789320701121
 21
467.56559231410563
  0
LINE
  8
_2-0_
  6
CONTINUOUS
 62
    7
 10
474.43781182689304
 20
466.87834744123052
 11
475.09549778050445
 21
467.56156155238796
  0
LINE
  8
_2-0_
  6
CONTINUOUS
 62
    7
 10
474.43781182689304
 20
466.56596340810563
 11
475.39175876675853
 21
467.56156155238796
  0
LINE
  8
_2-0_
  6
CONTINUOUS
 62
    7
 10
474.67562676823974
 20
466.50684556957879
 11
475.63360446982318
 21
467.56156155238796
  0
LINE
  8
_2-0_
  6
CONTINUOUS
 62
    7
 10
474.97390313535271
 20
466.50684556957879
 11
475.81431695350187
 21
467.43727973275736
  0
LINE
  8
_2-0_
  6
CONTINUOUS
 62
    7
 10
475.21574883841714
 20
466.50684556957879
 11
475.81431695350187
 21
467.12959825496989
  0
LINE
  8
_2-0_
  6
CONTINUOUS
 62
    7
 10
475.5160405863889
 20
466.50684556957879
 11
475.81431695350187
 21
466.8158706346054
  0
LINE
  8
_2-0_
  6
CONTINUOUS
 62
    7
 10
475.81431695350187
 20
466.50684556957879
 11
475.81431695350187
 21
466.56596340810563
  0
LINE
  8
_2-0_
  6
CONTINUOUS
 62
    7
 10
474.43781182689304
 20
467.43727973275736
 11
474.55873467842508
 21
467.56559231410563
  0
LINE
  8
_2-0_
  6
CONTINUOUS
 62
    7
 10
474.43781182689304
 20
467.12691108049148
 11
474.79789320701121
 21
467.56559231410563
  0
LINE
  8
_2-0_
  6
CONTINUOUS
 62
    7
 10
474.43781182689304
 20
466.87834744123052
 11
475.09549778050445
 21
467.56156155238796
  0
LINE
  8
_2-0_
  6
CONTINUOUS
 62
    7
 10
474.43781182689304
 20
466.56596340810563
 11
475.39175876675853
 21
467.56156155238796
  0
LINE
  8
_2-0_
  6
CONTINUOUS
 62
    7
 10
474.67562676823974
 20
466.50684556957879
 11
475.63360446982318
 21
467.56156155238796
  0
LINE
  8
_2-0_
  6
CONTINUOUS
 62
    7
 10
474.97390313535271
 20
466.50684556957879
 11
475.81431695350187
 21
467.43727973275736
  0
LINE
  8
_2-0_
  6
CONTINUOUS
 62
    7
 10
475.21574883841714
 20
466.50684556957879
 11
475.81431695350187
 21
467.12959825496989
  0
LINE
  8
_2-0_
  6
CONTINUOUS
 62
    7
 10
475.5160405863889
 20
466.50684556957879
 11
475.81431695350187
 21
466.8158706346054
  0
LINE
  8
_2-0_
  6
CONTINUOUS
 62
    7
 10
475.81431695350187
 20
466.50684556957879
 11
475.81431695350187
 21
466.56596340810563
  0
LINE
  8
_2-0_
  6
CONTINUOUS
 62
    7
 10
474.43781182689304
 20
467.12691108049148
 11
474.79789320701121
 21
467.56559231410563
  0
LINE
  8
_2-0_
  6
CONTINUOUS
 62
    7
 10
474.43781182689304
 20
466.56596340810563
 11
475.39175876675853
 21
467.56156155238796
  0
LINE
  8
_2-0_
  6
CONTINUOUS
 62
    7
 10
474.97390313535271
 20
466.50684556957879
 11
475.81431695350187
 21
467.43727973275736
  0
LINE
  8
_2-0_
  6
CONTINUOUS
 62
    7
 10
475.5160405863889
 20
466.50684556957879
 11
475.81431695350187
 21
466.8158706346054
  0
LINE
  8
_2-0_
  6
CONTINUOUS
 62
    7
 10
475.81431695350187
 20
466.50684556957879
 11
475.81431695350187
 21
467.56156155238796
  0
LINE
  8
_2-0_
  6
CONTINUOUS
 62
    7
 10
474.43781182689304
 20
466.50684556957879
 11
474.43781182689304
 21
467.56156155238796
  0
LINE
  8
_2-0_
  6
CONTINUOUS
 62
    7
 10
476.23284437852743
 20
466.50684556957879
 11
474.01726902100836
 21
466.50684556957879
  0
LINE
  8
_2-0_
  6
CONTINUOUS
 62
    7
 10
474.01726902100836
 20
466.50684556957879
 11
474.01726902100836
 21
467.56156155238796
  0
LINE
  8
_2-0_
  6
CONTINUOUS
 62
    7
 10
476.23284437852743
 20
467.56559231410563
 11
474.01726902100836
 21
467.56559231410563
  0
LINE
  8
_2-0_
  6
CONTINUOUS
 62
    7
 10
476.23284437852743
 20
466.50684556957879
 11
476.23284437852743
 21
467.56156155238796
  0
LINE
  8
_2-0_
  6
CONTINUOUS
 62
    7
 10
517.9901921870985
 20
473.66615017390848
 11
511.76938326938301
 21
473.66615017390848
  0
LINE
  8
_2-0_
  6
CONTINUOUS
 62
    7
 10
518.17224825801668
 20
468.49602647728443
 11
518.17224825801668
 21
473.47871975403348
  0
LINE
  8
_2-0_
  6
CONTINUOUS
 62
    7
 10
517.9901921870985
 20
468.31262681912733
 11
511.76938326938301
 21
468.31262681912733
  0
LINE
  8
_2-0_
  6
CONTINUOUS
 62
    7
 10
511.59001437294347
 20
468.49602647728443
 11
511.59001437294347
 21
473.47871975403348
  0
LINE
  8
_2-0_
  6
CONTINUOUS
 62
    7
 10
509.19842908708307
 20
473.66615017390848
 11
502.97426120126926
 21
473.66615017390848
  0
LINE
  8
_2-0_
  6
CONTINUOUS
 62
    7
 10
509.37779798352261
 20
468.49602647728443
 11
509.37779798352261
 21
473.47871975403348
  0
LINE
  8
_2-0_
  6
CONTINUOUS
 62
    7
 10
509.19842908708307
 20
468.31262681912733
 11
502.97426120126926
 21
468.31262681912733
  0
LINE
  8
_2-0_
  6
CONTINUOUS
 62
    7
 10
502.79556409844935
 20
468.49602647728443
 11
502.79556409844935
 21
473.47871975403348
  0
LINE
  8
_2-0_
  6
CONTINUOUS
 62
    7
 10
500.40330701896931
 20
473.66615017390848
 11
494.18316989487317
 21
473.66615017390848
  0
LINE
  8
_2-0_
  6
CONTINUOUS
 62
    7
 10
500.58334770902849
 20
468.49602647728443
 11
500.58334770902849
 21
473.47871975403348
  0
LINE
  8
_2-0_
  6
CONTINUOUS
 62
    7
 10
500.40330701896931
 20
468.31262681912733
 11
494.18316989487317
 21
468.31262681912733
  0
LINE
  8
_2-0_
  6
CONTINUOUS
 62
    7
 10
494.00111382395522
 20
468.49602647728443
 11
494.00111382395522
 21
473.47871975403348
  0
LINE
  8
_2-0_
  6
CONTINUOUS
 62
    7
 10
491.60952853809482
 20
468.49602647728443
 11
491.60952853809482
 21
473.47871975403348
  0
LINE
  8
_2-0_
  6
CONTINUOUS
 62
    7
 10
491.43083143527491
 20
468.31262681912733
 11
485.20800713670025
 21
468.31262681912733
  0
LINE
  8
_2-0_
  6
CONTINUOUS
 62
    7
 10
491.43083143527491
 20
473.66615017390848
 11
485.20800713670025
 21
473.66615017390848
  0
LINE
  8
_2-0_
  6
CONTINUOUS
 62
    7
 10
485.02729465302156
 20
468.49602647728443
 11
485.02729465302156
 21
473.47871975403348
  0
LINE
  8
_2-0_
  6
CONTINUOUS
 62
    7
 10
482.63302219268252
 20
468.31262681912733
 11
476.41019789410808
 21
468.31262681912733
  0
LINE
  8
_2-0_
  6
CONTINUOUS
 62
    7
 10
482.8130628827418
 20
468.49602647728443
 11
482.8130628827418
 21
473.47871975403348
  0
LINE
  8
_2-0_
  6
CONTINUOUS
 62
    7
 10
482.63302219268252
 20
473.66615017390848
 11
476.41019789410808
 21
473.66615017390848
  0
LINE
  8
_2-0_
  6
CONTINUOUS
 62
    7
 10
476.23284437852743
 20
468.49602647728443
 11
476.23284437852743
 21
473.47871975403348
  0
LINE
  8
_2-0_
  6
CONTINUOUS
 62
    7
 10
467.43772231041362
 20
468.49602647728443
 11
467.43772231041362
 21
473.47871975403348
  0
LINE
  8
_2-0_
  6
CONTINUOUS
 62
    7
 10
473.83991550542783
 20
468.31262681912733
 11
467.61843479409254
 21
468.31262681912733
  0
LINE
  8
_2-0_
  6
CONTINUOUS
 62
    7
 10
474.01726902100836
 20
468.49602647728443
 11
474.01726902100836
 21
473.47871975403348
  0
LINE
  8
_2-0_
  6
CONTINUOUS
 62
    7
 10
473.83991550542783
 20
473.66615017390848
 11
467.61843479409254
 21
473.66615017390848
  0
LINE
  8
_2-0_
  6
CONTINUOUS
 62
    7
 10
520.26690076400337
 20
464.76286933303538
 11
520.26690076400337
 21
477.21389227914153
  0
LINE
  8
_2-0_
  6
CONTINUOUS
 62
    7
 10
500.82250623761439
 20
473.91202663869069
 11
493.81972954665667
 21
473.91202663869069
  0
LINE
  8
_2-0_
  6
CONTINUOUS
 62
    7
 10
493.82174492751568
 20
468.06003241814881
 11
493.82174492751568
 21
473.91202663869069
  0
LINE
  8
_2-0_
  6
CONTINUOUS
 62
    7
 10
500.82250623761439
 20
468.06003241814881
 11
493.81972954665667
 21
468.06003241814881
  0
LINE
  8
_2-0_
  6
CONTINUOUS
 62
    7
 10
500.82250623761439
 20
468.06003241814881
 11
500.82250623761439
 21
473.91202663869069
  0
LINE
  8
_2-0_
  6
CONTINUOUS
 62
    7
 10
509.55649508634252
 20
473.91202663869069
 11
502.61619520200981
 21
473.91202663869069
  0
LINE
  8
_2-0_
  6
CONTINUOUS
 62
    7
 10
502.61619520200981
 20
468.06003241814881
 11
502.61619520200981
 21
473.91202663869069
  0
LINE
  8
_2-0_
  6
CONTINUOUS
 62
    7
 10
509.55649508634252
 20
468.06003241814881
 11
502.61619520200981
 21
468.06003241814881
  0
LINE
  8
_2-0_
  6
CONTINUOUS
 62
    7
 10
509.55649508634252
 20
468.06003241814881
 11
509.55649508634252
 21
473.91202663869069
  0
LINE
  8
_2-0_
  6
CONTINUOUS
 62
    7
 10
511.40997368288419
 20
468.06003241814881
 11
511.40997368288419
 21
473.91202663869069
  0
LINE
  8
_2-0_
  6
CONTINUOUS
 62
    7
 10
518.35161715445611
 20
468.06003241814881
 11
511.40997368288419
 21
468.06003241814881
  0
LINE
  8
_2-0_
  6
CONTINUOUS
 62
    7
 10
518.35161715445611
 20
468.06003241814881
 11
518.35161715445611
 21
473.91202663869069
  0
LINE
  8
_2-0_
  6
CONTINUOUS
 62
    7
 10
491.78889743453436
 20
473.91202663869069
 11
484.78746433081579
 21
473.91202663869069
  0
LINE
  8
_2-0_
  6
CONTINUOUS
 62
    7
 10
484.78746433081579
 20
468.06003241814881
 11
484.78746433081579
 21
473.91202663869069
  0
LINE
  8
_2-0_
  6
CONTINUOUS
 62
    7
 10
491.78889743453436
 20
468.06003241814881
 11
484.78746433081579
 21
468.06003241814881
  0
LINE
  8
_2-0_
  6
CONTINUOUS
 62
    7
 10
491.78889743453436
 20
468.06003241814881
 11
491.78889743453436
 21
473.91202663869069
  0
LINE
  8
_2-0_
  6
CONTINUOUS
 62
    7
 10
482.99444716004035
 20
473.91202663869069
 11
475.99234226270204
 21
473.91202663869069
  0
LINE
  8
_2-0_
  6
CONTINUOUS
 62
    7
 10
475.99234226270204
 20
468.06003241814881
 11
475.99234226270204
 21
473.91202663869069
  0
LINE
  8
_2-0_
  6
CONTINUOUS
 62
    7
 10
482.99444716004035
 20
468.06003241814881
 11
475.99234226270204
 21
468.06003241814881
  0
LINE
  8
_2-0_
  6
CONTINUOUS
 62
    7
 10
482.99444716004035
 20
468.06003241814881
 11
482.99444716004035
 21
473.91202663869069
  0
LINE
  8
_2-0_
  6
CONTINUOUS
 62
    7
 10
474.19999688554617
 20
473.91202663869069
 11
467.25969700121345
 21
473.91202663869069
  0
LINE
  8
_2-0_
  6
CONTINUOUS
 62
    7
 10
467.25969700121345
 20
468.06003241814881
 11
467.25969700121345
 21
473.91202663869069
  0
LINE
  8
_2-0_
  6
CONTINUOUS
 62
    7
 10
474.19999688554617
 20
468.06003241814881
 11
467.25969700121345
 21
468.06003241814881
  0
LINE
  8
_2-0_
  6
CONTINUOUS
 62
    7
 10
474.19999688554617
 20
468.06003241814881
 11
474.19999688554617
 21
473.91202663869069
  0
LINE
  8
_2-0_
  6
CONTINUOUS
 62
    7
 10
520.26690076400337
 20
464.76286933303538
 11
514.70109062542087
 21
464.76286933303538
  0
LINE
  8
_2-0_
  6
CONTINUOUS
 62
    7
 10
520.26690076400337
 20
464.76286933303538
 11
520.26690076400337
 21
467.87058661741469
  0
LINE
  8
_2-0_
  6
CONTINUOUS
 62
    7
 10
520.26690076400337
 20
467.87058661741469
 11
514.70109062542087
 21
467.87058661741469
  0
LINE
  8
_2-0_
  6
CONTINUOUS
 62
    7
 10
514.70109062542087
 20
464.76286933303538
 11
514.70109062542087
 21
467.87058661741469
  0
LINE
  8
_2-0_
  6
CONTINUOUS
 62
    7
 10
520.26690076400337
 20
474.0987852649464
 11
514.70109062542087
 21
474.0987852649464
  0
LINE
  8
_2-0_
  6
CONTINUOUS
 62
    7
 10
520.26690076400337
 20
477.21389227914153
 11
514.70109062542087
 21
477.21389227914153
  0
LINE
  8
_2-0_
  6
CONTINUOUS
 62
    7
 10
514.70109062542087
 20
474.0987852649464
 11
514.70109062542087
 21
477.21389227914153
  0
LINE
  8
_2-0_
  6
CONTINUOUS
 62
    7
 10
470.90820814939002
 20
464.76286933303538
 11
465.34374159804656
 21
464.76286933303538
  0
LINE
  8
_2-0_
  6
CONTINUOUS
 62
    7
 10
465.34374159804656
 20
464.76286933303538
 11
465.34374159804656
 21
467.87058661741469
  0
LINE
  8
_2-0_
  6
CONTINUOUS
 62
    7
 10
470.90820814939002
 20
467.87058661741469
 11
465.34374159804656
 21
467.87058661741469
  0
LINE
  8
_2-0_
  6
CONTINUOUS
 62
    7
 10
470.90820814939002
 20
464.76286933303538
 11
470.90820814939002
 21
467.87058661741469
  0
LINE
  8
_2-0_
  6
CONTINUOUS
 62
    7
 10
470.90820814939002
 20
474.0987852649464
 11
465.34374159804656
 21
474.0987852649464
  0
LINE
  8
_2-0_
  6
CONTINUOUS
 62
    7
 10
470.90820814939002
 20
477.21389227914153
 11
465.34374159804656
 21
477.21389227914153
  0
LINE
  8
_2-0_
  6
CONTINUOUS
 62
    7
 10
470.90820814939002
 20
474.0987852649464
 11
470.90820814939002
 21
477.21389227914153
  0
LINE
  8
_2-0_
  6
CONTINUOUS
 62
    7
 10
518.35161715445611
 20
473.91202663869069
 11
511.40997368288419
 21
473.91202663869069
  0
LINE
  8
_2-0_
  6
CONTINUOUS
 62
    7
 10
520.2655571767641
 20
464.75951036493711
 11
520.2655571767641
 21
467.87528917275233
  0
LINE
  8
_2-0_
  6
CONTINUOUS
 62
    7
 10
506.80415662674403
 20
467.43996690723623
 11
506.9237358910371
 21
467.56424872686637
  0
LINE
  8
_2-0_
  6
CONTINUOUS
 62
    7
 10
506.80415662674403
 20
467.12959825496989
 11
507.16625338772116
 21
467.56424872686637
  0
LINE
  8
_2-0_
  6
CONTINUOUS
 62
    7
 10
506.80415662674403
 20
466.87834744123052
 11
507.4638579612145
 21
467.56424872686637
  0
LINE
  8
_2-0_
  6
CONTINUOUS
 62
    7
 10
506.80415662674403
 20
466.56596340810563
 11
507.76280612194711
 21
467.56424872686637
  0
LINE
  8
_2-0_
  6
CONTINUOUS
 62
    7
 10
507.04398694894979
 20
466.50684556957879
 11
507.99860568243497
 21
467.56424872686637
  0
LINE
  8
_2-0_
  6
CONTINUOUS
 62
    7
 10
507.28516085839459
 20
466.50684556957879
 11
508.18066175335292
 21
467.43996690723623
  0
LINE
  8
_2-0_
  6
CONTINUOUS
 62
    7
 10
507.58075005102916
 20
466.50684556957879
 11
508.18066175335292
 21
467.12959825496989
  0
LINE
  8
_2-0_
  6
CONTINUOUS
 62
    7
 10
507.88171359262054
 20
466.50684556957879
 11
508.18066175335292
 21
466.8158706346054
  0
LINE
  8
_2-0_
  6
CONTINUOUS
 62
    7
 10
508.18066175335292
 20
466.50684556957879
 11
508.18066175335292
 21
466.56596340810563
  0
LINE
  8
_2-0_
  6
CONTINUOUS
 62
    7
 10
506.80415662674403
 20
467.43996690723623
 11
506.9237358910371
 21
467.56424872686637
  0
LINE
  8
_2-0_
  6
CONTINUOUS
 62
    7
 10
506.80415662674403
 20
467.12959825496989
 11
507.16625338772116
 21
467.56424872686637
  0
LINE
  8
_2-0_
  6
CONTINUOUS
 62
    7
 10
506.80415662674403
 20
466.87834744123052
 11
507.4638579612145
 21
467.56424872686637
  0
LINE
  8
_2-0_
  6
CONTINUOUS
 62
    7
 10
506.80415662674403
 20
466.56596340810563
 11
507.76280612194711
 21
467.56424872686637
  0
LINE
  8
_2-0_
  6
CONTINUOUS
 62
    7
 10
507.04398694894979
 20
466.50684556957879
 11
507.99860568243497
 21
467.56424872686637
  0
LINE
  8
_2-0_
  6
CONTINUOUS
 62
    7
 10
507.28516085839459
 20
466.50684556957879
 11
508.18066175335292
 21
467.43996690723623
  0
LINE
  8
_2-0_
  6
CONTINUOUS
 62
    7
 10
507.58075005102916
 20
466.50684556957879
 11
508.18066175335292
 21
467.12959825496989
  0
LINE
  8
_2-0_
  6
CONTINUOUS
 62
    7
 10
507.88171359262054
 20
466.50684556957879
 11
508.18066175335292
 21
466.8158706346054
  0
LINE
  8
_2-0_
  6
CONTINUOUS
 62
    7
 10
508.18066175335292
 20
466.50684556957879
 11
508.18066175335292
 21
466.56596340810563
  0
LINE
  8
_2-0_
  6
CONTINUOUS
 62
    7
 10
506.80415662674403
 20
467.12959825496989
 11
507.16625338772116
 21
467.56424872686637
  0
LINE
  8
_2-0_
  6
CONTINUOUS
 62
    7
 10
506.80415662674403
 20
466.56596340810563
 11
507.76280612194711
 21
467.56424872686637
  0
LINE
  8
_2-0_
  6
CONTINUOUS
 62
    7
 10
507.28516085839459
 20
466.50684556957879
 11
508.18066175335292
 21
467.43996690723623
  0
LINE
  8
_2-0_
  6
CONTINUOUS
 62
    7
 10
507.88171359262054
 20
466.50684556957879
 11
508.18066175335292
 21
466.8158706346054
  0
LINE
  8
_2-0_
  6
CONTINUOUS
 62
    7
 10
508.18066175335292
 20
466.50684556957879
 11
508.18066175335292
 21
467.56424872686637
  0
LINE
  8
_2-0_
  6
CONTINUOUS
 62
    7
 10
506.80415662674403
 20
466.50684556957879
 11
506.80415662674403
 21
467.56424872686637
  0
LINE
  8
_2-0_
  6
CONTINUOUS
 62
    7
 10
508.59918917837848
 20
466.50684556957879
 11
506.38697278895762
 21
466.50684556957879
  0
LINE
  8
_2-0_
  6
CONTINUOUS
 62
    7
 10
506.3842856144791
 20
466.50684556957879
 11
506.3842856144791
 21
467.56424872686637
  0
LINE
  8
_2-0_
  6
CONTINUOUS
 62
    7
 10
508.59918917837848
 20
467.56424872686637
 11
506.38697278895762
 21
467.56424872686637
  0
LINE
  8
_2-0_
  6
CONTINUOUS
 62
    7
 10
508.59918917837848
 20
466.50684556957879
 11
508.59918917837848
 21
467.56424872686637
  0
LINE
  8
_2-0_
  6
CONTINUOUS
 62
    7
 10
501.0012033404343
 20
474.53746649856055
 11
501.121454398347
 21
474.40915391721262
  0
LINE
  8
_2-0_
  6
CONTINUOUS
 62
    7
 10
501.0012033404343
 20
474.85119411892492
 11
501.35926933969375
 21
474.40915391721262
  0
LINE
  8
_2-0_
  6
CONTINUOUS
 62
    7
 10
520.2655571767641
 20
474.0987852649464
 11
520.2655571767641
 21
477.21523586638079
  0
LINE
  8
_2-0_
  6
CONTINUOUS
 62
    7
 10
465.34374159804656
 20
463.70345079488891
 11
465.34374159804656
 21
477.21523586638079
  0
LINE
  8
_2-0_
  6
CONTINUOUS
 62
    7
 10
465.34374159804656
 20
474.0987852649464
 11
465.34374159804656
 21
478.2753261981469
  0
LINE
  8
_2-0_
  6
CONTINUOUS
 62
    7
 10
520.26690076400337
 20
478.2753261981469
 11
465.34374159804656
 21
478.2753261981469
  0
LINE
  8
_2-0_
  6
CONTINUOUS
 62
    7
 10
520.26690076400337
 20
474.0987852649464
 11
520.26690076400337
 21
478.2753261981469
  0
LINE
  8
_2-0_
  6
CONTINUOUS
 62
    7
 10
520.2655571767641
 20
463.70345079488891
 11
520.2655571767641
 21
477.21523586638079
  0
LINE
  8
_2-0_
  6
CONTINUOUS
 62
    7
 10
520.2655571767641
 20
463.70345079488891
 11
465.34374159804656
 21
463.70345079488891
  0
ARC
  8
_2-0_
  6
CONTINUOUS
 62
    2
 10
544.28442084013739
 20
474.61568658483395
 40
5.7064015740103065
 50
320.661199489333
 51
54.386441387944416
  0
ARC
  8
_2-0_
  6
CONTINUOUS
 62
    2
 10
556.261032825131
 20
464.79939177000767
 40
9.7790392828292987
 50
140.66119948933292
 51
214.56691244988951
  0
ARC
  8
_2-0_
  6
CONTINUOUS
 62
    2
 10
556.261032825131
 20
464.79939177000767
 40
8.0790392828292976
 50
140.66119948933292
 51
214.56691244988951
  0
ARC
  8
_2-0_
  6
CONTINUOUS
 62
    2
 10
544.28442084013739
 20
474.61568658483395
 40
7.4064015740103066
 50
320.661199489333
 51
54.386441387944416
  0
LINE
  8
_2-0_
  6
CONTINUOUS
 62
    7
 10
571.00279829270562
 20
468.87235484137113
 11
571.00279829270562
 21
470.9123548413711
  0
LINE
  8
_2-0_
  6
CONTINUOUS
 62
    7
 10
571.00279829270562
 20
465.81235484137108
 11
571.00279829270562
 21
476.01235484137101
  0
LINE
  8
_2-0_
  6
CONTINUOUS
 62
    7
 10
591.07159965182313
 20
465.81235484137108
 11
591.07159965182313
 21
476.01235484137101
  0
LINE
  8
_2-0_
  6
CONTINUOUS
 62
    7
 10
571.00279829270562
 20
476.01235484137101
 11
591.07159965182313
 21
476.01235484137101
  0
LINE
  8
_2-0_
  6
CONTINUOUS
 62
    7
 10
591.07159965182313
 20
465.81235484137108
 11
571.00279829270562
 21
465.81235484137108
  0
LINE
  8
_2-0_
  6
CONTINUOUS
 62
    7
 10
573.0427982927057
 20
465.81235484137108
 11
573.0427982927057
 21
476.01235484137101
  0
LINE
  8
_2-0_
  6
CONTINUOUS
 62
    7
 10
583.93159965182315
 20
471.93235484137108
 11
583.93159965182315
 21
473.97235484137104
  0
LINE
  8
_2-0_
  6
CONTINUOUS
 62
    7
 10
583.93159965182315
 20
467.85235484137104
 11
583.93159965182315
 21
469.892354841371
  0
LINE
  8
_2-0_
  6
CONTINUOUS
 62
    7
 10
583.93159965182315
 20
467.85235484137104
 11
591.07159965182313
 21
467.85235484137104
  0
LINE
  8
_2-0_
  6
CONTINUOUS
 62
    7
 10
583.93159965182315
 20
469.892354841371
 11
591.07159965182313
 21
469.892354841371
  0
LINE
  8
_2-0_
  6
CONTINUOUS
 62
    7
 10
583.93159965182315
 20
471.93235484137108
 11
591.07159965182313
 21
471.93235484137108
  0
LINE
  8
_2-0_
  6
CONTINUOUS
 62
    7
 10
583.93159965182315
 20
473.97235484137104
 11
591.07159965182313
 21
473.97235484137104
  0
LINE
  8
_2-0_
  6
CONTINUOUS
 62
    7
 10
581.58026404010502
 20
478.0451527928094
 11
575.76467191165284
 21
477.7443463034067
  0
LINE
  8
_2-0_
  6
CONTINUOUS
 62
    7
 10
575.76467191165284
 20
477.7443463034067
 11
582.08160818910949
 21
480.00039497392686
  0
LINE
  8
_2-0_
  6
CONTINUOUS
 62
    7
 10
584.49307746617126
 20
476.01235484137101
 11
581.58026404010502
 21
478.0451527928094
  0
LINE
  8
_2-0_
  6
CONTINUOUS
 62
    7
 10
582.08160818910949
 20
480.00039497392686
 11
585.79908022592201
 21
476.01235484137101
  0
LINE
  8
_2-0_
  6
CONTINUOUS
 62
    7
 10
582.08160818910949
 20
461.82431470881522
 11
585.79908022592201
 21
465.81235484137108
  0
LINE
  8
_2-0_
  6
CONTINUOUS
 62
    7
 10
575.76467191165284
 20
464.08036337933549
 11
582.08160818910949
 21
461.82431470881522
  0
LINE
  8
_2-0_
  6
CONTINUOUS
 62
    7
 10
581.58026404010502
 20
463.77955688993279
 11
575.76467191165284
 21
464.08036337933549
  0
LINE
  8
_2-0_
  6
CONTINUOUS
 62
    7
 10
584.49307746617126
 20
465.81235484137108
 11
581.58026404010502
 21
463.77955688993279
  0
LINE
  8
_2-0_
  6
CONTINUOUS
 62
    7
 10
570.92546773534878
 20
473.97876706437114
 11
551.66819253139715
 21
473.97876706437114
  0
LINE
  8
_2-0_
  6
CONTINUOUS
 62
    7
 10
549.93548600561962
 20
473.97876706437114
 11
530.54540173534883
 21
473.97876706437114
  0
LINE
  8
_2-0_
  6
CONTINUOUS
 62
    7
 10
550.86848182719211
 20
470.97876706437114
 11
570.92546773534878
 21
470.97876706437114
  0
LINE
  8
_2-0_
  6
CONTINUOUS
 62
    7
 10
570.92546773534878
 20
467.97876706437114
 11
549.00249018404702
 21
467.97876706437114
  0
LINE
  8
_2-0_
  6
CONTINUOUS
 62
    7
 10
530.14141973534879
 20
470.97876706437114
 11
548.40270715589327
 21
470.97876706437114
  0
LINE
  8
_2-0_
  6
CONTINUOUS
 62
    7
 10
546.6033580714319
 20
467.97876706437114
 11
530.54540173534883
 21
467.97876706437114
  0
LINE
  8
_2-0_
  6
CONTINUOUS
 62
    4
 10
520.92546773534878
 20
430.97876706437114
 11
570.92546773534878
 21
430.97876706437114
  0
LINE
  8
_2-0_
  6
CONTINUOUS
 62
    4
 10
570.92546773534878
 20
426.97876706437114
 11
570.92546773534878
 21
460.88734106437118
  0
LINE
  8
_2-0_
  6
CONTINUOUS
 62
    7
 10
530.50427209562224
 20
426.97876706437114
 11
530.50427209562224
 21
454.97876706437114
  0
LINE
  8
_2-0_
  6
CONTINUOUS
 62
    4
 10
530.50427209562224
 20
430.97876706437114
 11
533.40205009562226
 21
431.75522506437119
  0
LINE
  8
_2-0_
  6
CONTINUOUS
 62
    4
 10
530.50427209562224
 20
430.97876706437114
 11
533.40205009562226
 21
430.20230906437132
  0
LINE
  8
_2-0_
  6
CONTINUOUS
 62
    4
 10
530.50427209562224
 20
430.97876706437114
 11
527.60649409562234
 21
430.20230906437132
  0
LINE
  8
_2-0_
  6
CONTINUOUS
 62
    4
 10
530.50427209562224
 20
430.97876706437114
 11
527.60649409562234
 21
431.75522506437119
  0
LINE
  8
_2-0_
  6
CONTINUOUS
 62
    4
 10
530.50427209562224
 20
426.97876706437114
 11
530.50427209562224
 21
454.97876706437114
  0
LINE
  8
_2-0_
  6
CONTINUOUS
 62
    7
 10
346.10063173534888
 20
482.97876706437114
 11
346.14030973534875
 21
482.9143930643711
  0
LINE
  8
_2-0_
  6
CONTINUOUS
 62
    7
 10
346.14030973534875
 20
482.9143930643711
 11
346.25821773534869
 21
482.72303706437128
  0
LINE
  8
_2-0_
  6
CONTINUOUS
 62
    7
 10
346.25821773534869
 20
482.72303706437128
 11
346.45079573534883
 21
482.41002306437122
  0
LINE
  8
_2-0_
  6
CONTINUOUS
 62
    7
 10
346.45079573534883
 20
482.41002306437122
 11
346.71154173534876
 21
481.98426106437114
  0
LINE
  8
_2-0_
  6
CONTINUOUS
 62
    7
 10
346.71154173534876
 20
481.98426106437114
 11
347.03043573534876
 21
481.45822506437116
  0
LINE
  8
_2-0_
  6
CONTINUOUS
 62
    7
 10
347.03043573534876
 20
481.45822506437116
 11
347.39360773534884
 21
480.8478010643712
  0
LINE
  8
_2-0_
  6
CONTINUOUS
 62
    7
 10
347.39360773534884
 20
480.8478010643712
 11
347.78353973534888
 21
480.17190306437124
  0
LINE
  8
_2-0_
  6
CONTINUOUS
 62
    7
 10
347.78353973534888
 20
480.17190306437124
 11
348.17997973534887
 21
479.45182106437119
  0
LINE
  8
_2-0_
  6
CONTINUOUS
 62
    7
 10
348.17997973534887
 20
479.45182106437119
 11
348.56162373534869
 21
478.71031506437112
  0
LINE
  8
_2-0_
  6
CONTINUOUS
 62
    7
 10
348.56162373534869
 20
478.71031506437112
 11
348.90834773534868
 21
477.97049306437111
  0
LINE
  8
_2-0_
  6
CONTINUOUS
 62
    7
 10
348.90834773534868
 20
477.97049306437111
 11
349.20362373534874
 21
477.2546390643713
  0
LINE
  8
_2-0_
  6
CONTINUOUS
 62
    7
 10
349.20362373534874
 20
477.2546390643713
 11
349.43668373534877
 21
476.58308306437107
  0
LINE
  8
_2-0_
  6
CONTINUOUS
 62
    7
 10
349.43668373534877
 20
476.58308306437107
 11
349.60393173534874
 21
475.97332506437124
  0
LINE
  8
_2-0_
  6
CONTINUOUS
 62
    7
 10
349.60393173534874
 20
475.97332506437124
 11
349.70924573534887
 21
475.43949106437117
  0
LINE
  8
_2-0_
  6
CONTINUOUS
 62
    7
 10
349.70924573534887
 20
475.43949106437117
 11
349.76305173534877
 21
474.99219106437113
  0
LINE
  8
_2-0_
  6
CONTINUOUS
 62
    7
 10
349.76305173534877
 20
474.99219106437113
 11
349.7802017353489
 21
474.63877906437119
  0
LINE
  8
_2-0_
  6
CONTINUOUS
 62
    7
 10
349.7802017353489
 20
474.63877906437119
 11
349.77707973534882
 21
474.38389106437126
  0
LINE
  8
_2-0_
  6
CONTINUOUS
 62
    7
 10
349.77707973534882
 20
474.38389106437126
 11
349.76838773534871
 21
474.23013706437109
  0
LINE
  8
_2-0_
  6
CONTINUOUS
 62
    7
 10
349.76838773534871
 20
474.23013706437109
 11
349.76428373534884
 21
474.17876706437119
  0
LINE
  8
_2-0_
  6
CONTINUOUS
 62
    7
 10
349.76428373534884
 20
474.17876706437119
 11
349.75957973534889
 21
474.12757506437106
  0
LINE
  8
_2-0_
  6
CONTINUOUS
 62
    7
 10
349.75957973534889
 20
474.12757506437106
 11
349.74212573534885
 21
473.97642506437114
  0
LINE
  8
_2-0_
  6
CONTINUOUS
 62
    7
 10
349.74212573534885
 20
473.97642506437114
 11
349.70281573534874
 21
473.73229906437132
  0
LINE
  8
_2-0_
  6
CONTINUOUS
 62
    7
 10
349.70281573534874
 20
473.73229906437132
 11
349.62932773534874
 21
473.40587106437124
  0
LINE
  8
_2-0_
  6
CONTINUOUS
 62
    7
 10
349.62932773534874
 20
473.40587106437124
 11
349.50965373534871
 21
473.01029506437112
  0
LINE
  8
_2-0_
  6
CONTINUOUS
 62
    7
 10
349.50965373534871
 20
473.01029506437112
 11
349.33578973534884
 21
472.55986706437125
  0
LINE
  8
_2-0_
  6
CONTINUOUS
 62
    7
 10
349.33578973534884
 20
472.55986706437125
 11
349.10662573534876
 21
472.06884106437133
  0
LINE
  8
_2-0_
  6
CONTINUOUS
 62
    7
 10
349.10662573534876
 20
472.06884106437133
 11
348.82936373534892
 21
471.55062106437117
  0
LINE
  8
_2-0_
  6
CONTINUOUS
 62
    7
 10
348.82936373534892
 20
471.55062106437117
 11
348.51905973534883
 21
471.01743906437127
  0
LINE
  8
_2-0_
  6
CONTINUOUS
 62
    7
 10
348.51905973534883
 20
471.01743906437127
 11
348.19638773534882
 21
470.48050506437107
  0
LINE
  8
_2-0_
  6
CONTINUOUS
 62
    7
 10
348.19638773534882
 20
470.48050506437107
 11
347.8841257353489
 21
469.95052906437127
  0
LINE
  8
_2-0_
  6
CONTINUOUS
 62
    7
 10
347.8841257353489
 20
469.95052906437127
 11
347.60315973534887
 21
469.43837506437126
  0
LINE
  8
_2-0_
  6
CONTINUOUS
 62
    7
 10
347.60315973534887
 20
469.43837506437126
 11
347.3689477353488
 21
468.95561706437115
  0
LINE
  8
_2-0_
  6
CONTINUOUS
 62
    7
 10
347.3689477353488
 20
468.95561706437115
 11
347.18923773534868
 21
468.51476106437121
  0
LINE
  8
_2-0_
  6
CONTINUOUS
 62
    7
 10
347.18923773534868
 20
468.51476106437121
 11
347.06355373534882
 21
468.12902706437126
  0
LINE
  8
_2-0_
  6
CONTINUOUS
 62
    7
 10
347.06355373534882
 20
468.12902706437126
 11
346.9845417353489
 21
467.81164506437131
  0
LINE
  8
_2-0_
  6
CONTINUOUS
 62
    7
 10
346.9845417353489
 20
467.81164506437131
 11
346.94079773534884
 21
467.5747830643711
  0
LINE
  8
_2-0_
  6
CONTINUOUS
 62
    7
 10
346.94079773534884
 20
467.5747830643711
 11
346.92047373534876
 21
467.42833506437114
  0
LINE
  8
_2-0_
  6
CONTINUOUS
 62
    7
 10
346.92047373534876
 20
467.42833506437114
 11
346.91477773534882
 21
467.37876706437123
  0
LINE
  8
_2-0_
  6
CONTINUOUS
 62
    7
 10
346.91477773534882
 20
467.37876706437123
 11
346.90966573534877
 21
467.32904506437126
  0
LINE
  8
_2-0_
  6
CONTINUOUS
 62
    7
 10
346.90966573534877
 20
467.32904506437126
 11
346.8979037353489
 21
467.18031906437113
  0
LINE
  8
_2-0_
  6
CONTINUOUS
 62
    7
 10
346.8979037353489
 20
467.18031906437113
 11
346.88950573534873
 21
466.9340730643712
  0
LINE
  8
_2-0_
  6
CONTINUOUS
 62
    7
 10
346.88950573534873
 20
466.9340730643712
 11
346.8989877353489
 21
466.59322106437116
  0
LINE
  8
_2-0_
  6
CONTINUOUS
 62
    7
 10
346.8989877353489
 20
466.59322106437116
 11
346.94255773534894
 21
466.16268306437109
  0
LINE
  8
_2-0_
  6
CONTINUOUS
 62
    7
 10
346.94255773534894
 20
466.16268306437109
 11
347.03497973534888
 21
465.64996106437115
  0
LINE
  8
_2-0_
  6
CONTINUOUS
 62
    7
 10
347.03497973534888
 20
465.64996106437115
 11
347.18672973534888
 21
465.06558306437114
  0
LINE
  8
_2-0_
  6
CONTINUOUS
 62
    7
 10
347.18672973534888
 20
465.06558306437114
 11
347.40191573534878
 21
464.42329906437112
  0
LINE
  8
_2-0_
  6
CONTINUOUS
 62
    7
 10
347.40191573534878
 20
464.42329906437112
 11
347.67736973534886
 21
463.7399090643712
  0
LINE
  8
_2-0_
  6
CONTINUOUS
 62
    7
 10
347.67736973534886
 20
463.7399090643712
 11
348.00292173534888
 21
463.0347610643712
  0
LINE
  8
_2-0_
  6
CONTINUOUS
 62
    7
 10
348.00292173534888
 20
463.0347610643712
 11
348.36278573534889
 21
462.32892506437111
  0
LINE
  8
_2-0_
  6
CONTINUOUS
 62
    7
 10
348.36278573534889
 20
462.32892506437111
 11
348.73764973534878
 21
461.6441790643712
  0
LINE
  8
_2-0_
  6
CONTINUOUS
 62
    7
 10
348.73764973534878
 20
461.6441790643712
 11
349.10703373534886
 21
461.0019290643711
  0
LINE
  8
_2-0_
  6
CONTINUOUS
 62
    7
 10
349.10703373534886
 20
461.0019290643711
 11
349.45146973534872
 21
460.42219306437119
  0
LINE
  8
_2-0_
  6
CONTINUOUS
 62
    7
 10
349.45146973534872
 20
460.42219306437119
 11
349.75411773534881
 21
459.92276106437112
  0
LINE
  8
_2-0_
  6
CONTINUOUS
 62
    7
 10
349.75411773534881
 20
459.92276106437112
 11
350.00167173534885
 21
459.51860306437106
  0
LINE
  8
_2-0_
  6
CONTINUOUS
 62
    7
 10
350.00167173534885
 20
459.51860306437106
 11
350.18453773534873
 21
459.22149506437131
  0
LINE
  8
_2-0_
  6
CONTINUOUS
 62
    7
 10
350.18453773534873
 20
459.22149506437131
 11
350.29650573534889
 21
459.03986906437126
  0
LINE
  8
_2-0_
  6
CONTINUOUS
 62
    7
 10
350.29650573534889
 20
459.03986906437126
 11
350.3341837353488
 21
458.97876706437114
  0
LINE
  8
_2-0_
  6
CONTINUOUS
 62
    7
 10
353.59161715445606
 20
473.91202663869069
 11
349.79499150318611
 21
473.91202663869069
  0
LINE
  8
_2-0_
  6
CONTINUOUS
 62
    7
 10
353.23019218709857
 20
473.66615017390848
 11
349.71706147227997
 21
473.66615017390848
  0
LINE
  8
_2-0_
  6
CONTINUOUS
 62
    7
 10
353.23019218709857
 20
468.31262681912733
 11
347.14537045237932
 21
468.31262681912733
  0
LINE
  8
_2-0_
  6
CONTINUOUS
 62
    7
 10
353.59161715445606
 20
468.06406317986637
 11
347.04146374450454
 21
468.06406317986637
  0
LINE
  8
_2-0_
  6
CONTINUOUS
 62
    7
 10
355.44731856382259
 20
478.2753261981469
 11
348.7536457685639
 21
478.2753261981469
  0
LINE
  8
_2-0_
  6
CONTINUOUS
 62
    7
 10
355.62318323159377
 20
463.70345079488891
 11
347.78430555957419
 21
463.70345079488891
  0
TEXT
  8
_2-0_
 62
    7
 10
118.15236125159487
 20
433.96734558372964
 40
8
 41
1
 50
0
  1
50
  0
TEXT
  8
_2-0_
 62
    7
 10
546.91557869500184
 20
433.50828432308356
 40
8
 41
1
 50
0
  1
50
  0
LINE
  8
_2-0_
  6
CONTINUOUS
 62
    4
 10
145.83508408747957
 20
430.97876706437114
 11
148.73286208747959
 21
431.75522506437119
  0
LINE
  8
_2-0_
  6
CONTINUOUS
 62
    4
 10
145.83508408747957
 20
430.97876706437114
 11
148.73286208747959
 21
430.20230906437132
  0
LINE
  8
_2-0_
  6
CONTINUOUS
 62
    4
 10
145.83508408747957
 20
430.97876706437114
 11
142.93730608747967
 21
430.20230906437132
  0
LINE
  8
_2-0_
  6
CONTINUOUS
 62
    4
 10
145.83508408747957
 20
430.97876706437114
 11
142.93730608747967
 21
431.75522506437119
  0
LINE
  8
_2-0_
  6
CONTINUOUS
 62
    4
 10
101.9339233804601
 20
430.97876706437114
 11
104.83170138046012
 21
431.75522506437119
  0
LINE
  8
_2-0_
  6
CONTINUOUS
 62
    4
 10
101.9339233804601
 20
430.97876706437114
 11
104.83170138046012
 21
430.20230906437132
  0
LINE
  8
_2-0_
  6
CONTINUOUS
 62
    4
 10
570.84547822314448
 20
430.97876706437114
 11
567.94770022314458
 21
430.20230906437132
  0
LINE
  8
_2-0_
  6
CONTINUOUS
 62
    4
 10
570.84547822314448
 20
430.97876706437114
 11
567.94770022314458
 21
431.75522506437119
  0
LINE
  8
_2-0_
  6
CONTINUOUS
 62
    7
 10
313.68393437069733
 20
491.17205193330346
 11
325.10942930399403
 21
472.19756927622132
  0
LINE
  8
_2-0_
  6
CONTINUOUS
 62
    7
 10
90.886783171410457
 20
493.00829219044039
 11
82.317661971437929
 21
473.42172944764593
  0
TEXT
  8
_2-0_
 62
    7
 10
563.98226892797209
 20
495.03122966818478
 40
12
 41
1
 50
0
  1
④
  0
LINE
  8
_2-0_
  6
CONTINUOUS
 62
    7
 10
571.94092520225149
 20
494.72211643043488
 11
579.28588623079941
 21
473.42172944764593
  0
LINE
  8
_2-0_
  6
CONTINUOUS
 62
    4
 10
644.08382443470146
 20
426.97876706437114
 11
644.08382443470146
 21
455.8348810643713
  0
LINE
  8
_2-0_
  6
CONTINUOUS
 62
    4
 10
644.08382443470146
 20
430.97876706437114
 11
641.18604643470144
 21
430.20230906437132
  0
LINE
  8
_2-0_
  6
CONTINUOUS
 62
    4
 10
644.08382443470146
 20
430.97876706437114
 11
641.18604643470144
 21
431.75522506437119
  0
TEXT
  8
_2-0_
 62
    7
 10
316.85642130759464
 20
434.69522304899016
 40
8
 41
1
 50
0
  1
全長
  0
LINE
  8
_2-0_
  6
CONTINUOUS
 62
    7
 10
379.82768022582059
 20
498.28345782964965
 11
379.82768022582059
 21
448.97616582964963
  0
LINE
  8
_2-0_
  6
CONTINUOUS
 62
    7
 10
387.17972647222837
 20
498.28345782964965
 11
379.82768022582059
 21
498.28345782964965
  0
LINE
  8
_2-0_
  6
CONTINUOUS
 62
    7
 10
379.82768022582059
 20
448.97616582964963
 11
387.17972647222837
 21
448.97616582964963
  0
TEXT
  8
_2-0_
 62
    7
 10
389.14371898267058
 20
494.6940283649962
 40
8
 41
1
 50
0
  1
A
  0
TEXT
  8
_2-0_
 62
    7
 10
389.14371898267058
 20
445.53170660206951
 40
8
 41
1
 50
0
  1
A
  0
LINE
  8
_1-0_
  6
CONTINUOUS
 62
    7
 10
125.56789529595517
 20
154.30236407513905
 11
142.71531829067339
 21
154.30236407513905
  0
TEXT
  8
_1-0_
 62
    7
 10
131.05171498443161
 20
145.26955984233479
 40
8
 41
1
 50
0
  1
②
  0
LINE
  8
_1-0_
  6
CONTINUOUS
 62
    7
 10
156.18393227755928
 20
154.30236407513905
 11
190.02306915949418
 21
154.30236407513905
  0
TEXT
  8
_1-0_
 62
    7
 10
168.10397113832528
 20
145.26955984233479
 40
8
 41
1
 50
0
  1
③
  0
TEXT
  8
_1-0_
 62
    7
 10
199.81019214909929
 20
145.17643814921308
 40
8
 41
1
 50
0
  1
④
  0
LINE
  8
_1-0_
  6
CONTINUOUS
 62
    7
 10
198.5064884453956
 20
154.30236407513905
 11
209.12236146126861
 21
154.30236407513905
  0
TEXT
  8
_1-0_
 62
    7
 10
217.46054265080741
 20
145.26955984233479
 40
8
 41
1
 50
0
  1
⑤
  0
LINE
  8
_1-0_
  6
CONTINUOUS
 62
    7
 10
216.06371725398199
 20
154.30236407513905
 11
226.95895534922008
 21
154.30236407513905
  0
TEXT
  8
_1-0_
 62
    7
 10
669.97882144036555
 20
87.83692227157573
 40
8
 41
1
 50
0
  1
LED基板
  0
TEXT
  8
_1-0_
 62
    7
 10
520.24982824012613
 20
91.638268598982819
 40
10
 41
1
 50
0
  1
860
  0
TEXT
  8
_1-0_
 62
    7
 10
516.033345506057
 20
60.516575148584167
 40
10
 41
1
 50
0
  1
2581
  0
TEXT
  8
_1-0_
 62
    7
 10
516.033345506057
 20
44.272103165301843
 40
10
 41
1
 50
0
  1
3442
  0
TEXT
  8
_1-0_
 62
    7
 10
515.24979985822779
 20
76.092987672231231
 40
10
 41
1
 50
0
  1
1721
  0
TEXT
  8
_1-0_
 62
    7
 10
760.25388118906426
 20
87.88736318868331
 40
6
 41
1
 50
0
  1
FR-4
  0
LINE
  8
_2-0_
  6
CONTINUOUS
 62
    7
 10
145.81553090958164
 20
473.95085293162015
 11
145.81553090958164
 21
480.97532619814689
  0
LINE
  8
_2-0_
  6
CONTINUOUS
 62
    7
 10
145.81553090958164
 20
461.00345079488892
 11
145.81553090958164
 21
467.90989685581837
  0
LINE
  8
_2-0_
  6
CONTINUOUS
 62
    7
 10
640.08382443470146
 20
480.97876706437114
 11
640.08382443470146
 21
471.57876706437105
  0
LINE
  8
_2-0_
  6
CONTINUOUS
 62
    4
 10
613.25079643470144
 20
480.97876706437114
 11
629.18298243470144
 21
480.97876706437114
  0
LINE
  8
_2-0_
  6
CONTINUOUS
 62
    4
 10
617.25079643470144
 20
480.97876706437114
 11
618.0272524347015
 21
478.08098906437112
  0
LINE
  8
_2-0_
  6
CONTINUOUS
 62
    4
 10
617.25079643470144
 20
480.97876706437114
 11
616.47433843470151
 21
478.08098906437112
  0
LINE
  8
_2-0_
  6
CONTINUOUS
 62
    4
 10
613.25079643470144
 20
460.97876706437114
 11
628.68382443470148
 21
460.97876706437114
  0
LINE
  8
_2-0_
  6
CONTINUOUS
 62
    4
 10
617.25079643470144
 20
460.97876706437114
 11
616.47433843470151
 21
463.87654506437116
  0
LINE
  8
_2-0_
  6
CONTINUOUS
 62
    4
 10
617.25079643470144
 20
460.97876706437114
 11
618.0272524347015
 21
463.87654506437116
  0
LINE
  8
_2-0_
  6
CONTINUOUS
 62
    4
 10
617.25079643470144
 20
480.89874257626832
 11
617.25079643470144
 21
461.05398575479785
  0
TEXT
  8
_2-0_
 62
    7
 10
617.25079643470144
 20
466.97876706437114
 40
8
 41
1
 50
90
  1
10
  0
LINE
  8
_2-0_
  6
CONTINUOUS
 62
    7
 10
640.08382443470146
 20
460.97876706437114
 11
640.08382443470146
 21
471.57876706437105
  0
LINE
  8
_2-0_
  6
CONTINUOUS
 62
    7
 10
640.08382443470146
 20
480.97876706437114
 11
644.08382443470146
 21
480.97876706437114
  0
LINE
  8
_2-0_
  6
CONTINUOUS
 62
    7
 10
640.08382443470146
 20
460.97876706437114
 11
644.08382443470146
 21
460.97876706437114
  0
LINE
  8
_2-0_
  6
CONTINUOUS
 62
    7
 10
644.08382443470146
 20
480.97876706437114
 11
644.08382443470146
 21
460.97876706437114
  0
LINE
  8
_2-0_
  6
CONTINUOUS
 62
    7
 10
644.48382443470143
 20
478.97876706437114
 11
644.48382443470143
 21
462.97876706437114
  0
LINE
  8
_2-0_
  6
CONTINUOUS
 62
    7
 10
644.10032850544837
 20
478.97876706437114
 11
644.48382443470143
 21
478.97876706437114
  0
LINE
  8
_2-0_
  6
CONTINUOUS
 62
    7
 10
644.1335683400423
 20
462.97876706437114
 11
644.48382443470143
 21
462.97876706437114
  0
LINE
  8
_2-0_
  6
CONTINUOUS
 62
    7
 10
265.78374159804662
 20
388.377765904417
 11
265.78374159804662
 21
391.57776590441699
  0
LINE
  8
_2-0_
  6
CONTINUOUS
 62
    7
 10
265.77553090958162
 20
388.377765904417
 11
265.77553090958162
 21
391.57776590441699
  0
LINE
  8
_2-0_
  6
CONTINUOUS
 62
    7
 10
267.73148631274853
 20
393.3217966661349
 11
274.66909902260261
 21
393.3217966661349
  0
LINE
  8
_2-0_
  6
CONTINUOUS
 62
    7
 10
267.73148631274853
 20
391.57776590441699
 11
267.73148631274853
 21
393.3217966661349
  0
LINE
  8
_2-0_
  6
CONTINUOUS
 62
    7
 10
274.66909902260261
 20
393.3217966661349
 11
274.66909902260261
 21
391.57776590441699
  0
LINE
  8
_2-0_
  6
CONTINUOUS
 62
    7
 10
276.53148631274854
 20
393.3217966661349
 11
283.46909902260268
 21
393.3217966661349
  0
LINE
  8
_2-0_
  6
CONTINUOUS
 62
    7
 10
276.53148631274854
 20
391.57776590441699
 11
276.53148631274854
 21
393.3217966661349
  0
LINE
  8
_2-0_
  6
CONTINUOUS
 62
    7
 10
283.46909902260268
 20
393.3217966661349
 11
283.46909902260268
 21
391.57776590441699
  0
LINE
  8
_2-0_
  6
CONTINUOUS
 62
    7
 10
285.33148631274855
 20
393.3217966661349
 11
292.26909902260263
 21
393.3217966661349
  0
LINE
  8
_2-0_
  6
CONTINUOUS
 62
    7
 10
285.33148631274855
 20
391.57776590441699
 11
285.33148631274855
 21
393.3217966661349
  0
LINE
  8
_2-0_
  6
CONTINUOUS
 62
    7
 10
292.26909902260263
 20
393.3217966661349
 11
292.26909902260263
 21
391.57776590441699
  0
LINE
  8
_2-0_
  6
CONTINUOUS
 62
    7
 10
294.13148631274851
 20
393.3217966661349
 11
301.06909902260264
 21
393.3217966661349
  0
LINE
  8
_2-0_
  6
CONTINUOUS
 62
    7
 10
294.13148631274851
 20
391.57776590441699
 11
294.13148631274851
 21
393.3217966661349
  0
LINE
  8
_2-0_
  6
CONTINUOUS
 62
    7
 10
301.06909902260264
 20
393.3217966661349
 11
301.06909902260264
 21
391.57776590441699
  0
LINE
  8
_2-0_
  6
CONTINUOUS
 62
    7
 10
302.93148631274858
 20
393.3217966661349
 11
309.86909902260265
 21
393.3217966661349
  0
LINE
  8
_2-0_
  6
CONTINUOUS
 62
    7
 10
302.93148631274858
 20
391.57776590441699
 11
302.93148631274858
 21
393.3217966661349
  0
LINE
  8
_2-0_
  6
CONTINUOUS
 62
    7
 10
309.86909902260265
 20
393.3217966661349
 11
309.86909902260265
 21
391.57776590441699
  0
LINE
  8
_2-0_
  6
CONTINUOUS
 62
    7
 10
311.73148631274853
 20
393.3217966661349
 11
318.66909902260267
 21
393.3217966661349
  0
LINE
  8
_2-0_
  6
CONTINUOUS
 62
    7
 10
311.73148631274853
 20
391.57776590441699
 11
311.73148631274853
 21
393.3217966661349
  0
LINE
  8
_2-0_
  6
CONTINUOUS
 62
    7
 10
318.66909902260267
 20
393.3217966661349
 11
318.66909902260267
 21
391.57776590441699
  0
LINE
  8
_2-0_
  6
CONTINUOUS
 62
    7
 10
265.77553090958162
 20
388.377765904417
 11
265.77553090958162
 21
391.57776590441699
  0
LINE
  8
_2-0_
  6
CONTINUOUS
 62
    7
 10
320.78374159804662
 20
391.57776590441699
 11
265.77553090958162
 21
391.57776590441699
  0
LINE
  8
_2-0_
  6
CONTINUOUS
 62
    7
 10
320.78374159804662
 20
388.377765904417
 11
265.77553090958162
 21
388.377765904417
  0
LINE
  8
_2-0_
  6
CONTINUOUS
 62
    7
 10
164.66909902260264
 20
393.3217966661349
 11
164.66909902260264
 21
391.57776590441699
  0
LINE
  8
_2-0_
  6
CONTINUOUS
 62
    7
 10
166.53148631274854
 20
393.3217966661349
 11
173.46909902260265
 21
393.3217966661349
  0
LINE
  8
_2-0_
  6
CONTINUOUS
 62
    7
 10
166.53148631274854
 20
391.57776590441699
 11
166.53148631274854
 21
393.3217966661349
  0
LINE
  8
_2-0_
  6
CONTINUOUS
 62
    7
 10
173.46909902260265
 20
393.3217966661349
 11
173.46909902260265
 21
391.57776590441699
  0
LINE
  8
_2-0_
  6
CONTINUOUS
 62
    7
 10
175.33148631274855
 20
393.3217966661349
 11
182.26909902260266
 21
393.3217966661349
  0
LINE
  8
_2-0_
  6
CONTINUOUS
 62
    7
 10
175.33148631274855
 20
391.57776590441699
 11
175.33148631274855
 21
393.3217966661349
  0
LINE
  8
_2-0_
  6
CONTINUOUS
 62
    7
 10
182.26909902260266
 20
393.3217966661349
 11
182.26909902260266
 21
391.57776590441699
  0
LINE
  8
_2-0_
  6
CONTINUOUS
 62
    7
 10
184.13148631274854
 20
393.3217966661349
 11
191.06909902260264
 21
393.3217966661349
  0
LINE
  8
_2-0_
  6
CONTINUOUS
 62
    7
 10
184.13148631274854
 20
391.57776590441699
 11
184.13148631274854
 21
393.3217966661349
  0
LINE
  8
_2-0_
  6
CONTINUOUS
 62
    7
 10
191.06909902260264
 20
393.3217966661349
 11
191.06909902260264
 21
391.57776590441699
  0
LINE
  8
_2-0_
  6
CONTINUOUS
 62
    7
 10
192.93148631274855
 20
393.3217966661349
 11
199.86909902260265
 21
393.3217966661349
  0
LINE
  8
_2-0_
  6
CONTINUOUS
 62
    7
 10
192.93148631274855
 20
391.57776590441699
 11
192.93148631274855
 21
393.3217966661349
  0
LINE
  8
_2-0_
  6
CONTINUOUS
 62
    7
 10
199.86909902260265
 20
393.3217966661349
 11
199.86909902260265
 21
391.57776590441699
  0
LINE
  8
_2-0_
  6
CONTINUOUS
 62
    7
 10
201.73148631274856
 20
393.3217966661349
 11
208.66909902260267
 21
393.3217966661349
  0
LINE
  8
_2-0_
  6
CONTINUOUS
 62
    7
 10
201.73148631274856
 20
391.57776590441699
 11
201.73148631274856
 21
393.3217966661349
  0
LINE
  8
_2-0_
  6
CONTINUOUS
 62
    7
 10
208.66909902260267
 20
393.3217966661349
 11
208.66909902260267
 21
391.57776590441699
  0
LINE
  8
_2-0_
  6
CONTINUOUS
 62
    7
 10
210.78374159804662
 20
391.57776590441699
 11
155.77553090958162
 21
391.57776590441699
  0
LINE
  8
_2-0_
  6
CONTINUOUS
 62
    7
 10
210.78374159804662
 20
388.377765904417
 11
155.77553090958162
 21
388.377765904417
  0
LINE
  8
_2-0_
  6
CONTINUOUS
 62
    7
 10
210.78374159804662
 20
388.377765904417
 11
210.78374159804662
 21
391.57776590441699
  0
LINE
  8
_2-0_
  6
CONTINUOUS
 62
    7
 10
219.67178619708127
 20
393.317765904417
 11
212.73148631274853
 21
393.317765904417
  0
LINE
  8
_2-0_
  6
CONTINUOUS
 62
    7
 10
212.73148631274853
 20
391.57776590441699
 11
212.73148631274853
 21
393.3217966661349
  0
LINE
  8
_2-0_
  6
CONTINUOUS
 62
    7
 10
219.66909902260264
 20
393.3217966661349
 11
219.66909902260264
 21
391.57776590441699
  0
LINE
  8
_2-0_
  6
CONTINUOUS
 62
    7
 10
221.53148631274854
 20
393.3217966661349
 11
228.46909902260265
 21
393.3217966661349
  0
LINE
  8
_2-0_
  6
CONTINUOUS
 62
    7
 10
221.53148631274854
 20
391.57776590441699
 11
221.53148631274854
 21
393.3217966661349
  0
LINE
  8
_2-0_
  6
CONTINUOUS
 62
    7
 10
228.46909902260265
 20
393.3217966661349
 11
228.46909902260265
 21
391.57776590441699
  0
LINE
  8
_2-0_
  6
CONTINUOUS
 62
    7
 10
230.33148631274855
 20
393.3217966661349
 11
237.26909902260266
 21
393.3217966661349
  0
LINE
  8
_2-0_
  6
CONTINUOUS
 62
    7
 10
230.33148631274855
 20
391.57776590441699
 11
230.33148631274855
 21
393.3217966661349
  0
LINE
  8
_2-0_
  6
CONTINUOUS
 62
    7
 10
237.26909902260266
 20
393.3217966661349
 11
237.26909902260266
 21
391.57776590441699
  0
LINE
  8
_2-0_
  6
CONTINUOUS
 62
    7
 10
239.13148631274854
 20
393.3217966661349
 11
246.06909902260264
 21
393.3217966661349
  0
LINE
  8
_2-0_
  6
CONTINUOUS
 62
    7
 10
239.13148631274854
 20
391.57776590441699
 11
239.13148631274854
 21
393.3217966661349
  0
LINE
  8
_2-0_
  6
CONTINUOUS
 62
    7
 10
246.06909902260264
 20
393.3217966661349
 11
246.06909902260264
 21
391.57776590441699
  0
LINE
  8
_2-0_
  6
CONTINUOUS
 62
    7
 10
247.93148631274855
 20
393.3217966661349
 11
254.86909902260265
 21
393.3217966661349
  0
LINE
  8
_2-0_
  6
CONTINUOUS
 62
    7
 10
247.93148631274855
 20
391.57776590441699
 11
247.93148631274855
 21
393.3217966661349
  0
LINE
  8
_2-0_
  6
CONTINUOUS
 62
    7
 10
254.86909902260265
 20
393.3217966661349
 11
254.86909902260265
 21
391.57776590441699
  0
LINE
  8
_2-0_
  6
CONTINUOUS
 62
    7
 10
256.73148631274853
 20
393.3217966661349
 11
263.66909902260267
 21
393.3217966661349
  0
LINE
  8
_2-0_
  6
CONTINUOUS
 62
    7
 10
256.73148631274853
 20
391.57776590441699
 11
256.73148631274853
 21
393.3217966661349
  0
LINE
  8
_2-0_
  6
CONTINUOUS
 62
    7
 10
263.66909902260267
 20
393.3217966661349
 11
263.66909902260267
 21
391.57776590441699
  0
LINE
  8
_2-0_
  6
CONTINUOUS
 62
    7
 10
210.77553090958162
 20
388.377765904417
 11
210.77553090958162
 21
391.57776590441699
  0
LINE
  8
_2-0_
  6
CONTINUOUS
 62
    7
 10
265.78374159804662
 20
391.57776590441699
 11
210.77553090958162
 21
391.57776590441699
  0
LINE
  8
_2-0_
  6
CONTINUOUS
 62
    7
 10
265.78374159804662
 20
388.377765904417
 11
210.77553090958162
 21
388.377765904417
  0
LINE
  8
_2-0_
  6
CONTINUOUS
 62
    7
 10
355.28374159804662
 20
388.377765904417
 11
355.28374159804662
 21
391.57776590441699
  0
LINE
  8
_2-0_
  6
CONTINUOUS
 62
    7
 10
364.17178619708125
 20
393.317765904417
 11
357.23148631274853
 21
393.317765904417
  0
LINE
  8
_2-0_
  6
CONTINUOUS
 62
    7
 10
357.23148631274853
 20
391.57776590441699
 11
357.23148631274853
 21
393.3217966661349
  0
LINE
  8
_2-0_
  6
CONTINUOUS
 62
    7
 10
364.16909902260261
 20
393.3217966661349
 11
364.16909902260261
 21
391.57776590441699
  0
LINE
  8
_2-0_
  6
CONTINUOUS
 62
    7
 10
366.03148631274854
 20
393.3217966661349
 11
372.96909902260268
 21
393.3217966661349
  0
LINE
  8
_2-0_
  6
CONTINUOUS
 62
    7
 10
366.03148631274854
 20
391.57776590441699
 11
366.03148631274854
 21
393.3217966661349
  0
LINE
  8
_2-0_
  6
CONTINUOUS
 62
    7
 10
372.96909902260268
 20
393.3217966661349
 11
372.96909902260268
 21
391.57776590441699
  0
LINE
  8
_2-0_
  6
CONTINUOUS
 62
    7
 10
374.83148631274855
 20
393.3217966661349
 11
381.76909902260263
 21
393.3217966661349
  0
LINE
  8
_2-0_
  6
CONTINUOUS
 62
    7
 10
374.83148631274855
 20
391.57776590441699
 11
374.83148631274855
 21
393.3217966661349
  0
LINE
  8
_2-0_
  6
CONTINUOUS
 62
    7
 10
381.76909902260263
 20
393.3217966661349
 11
381.76909902260263
 21
391.57776590441699
  0
LINE
  8
_2-0_
  6
CONTINUOUS
 62
    7
 10
383.63148631274851
 20
393.3217966661349
 11
390.56909902260264
 21
393.3217966661349
  0
LINE
  8
_2-0_
  6
CONTINUOUS
 62
    7
 10
383.63148631274851
 20
391.57776590441699
 11
383.63148631274851
 21
393.3217966661349
  0
LINE
  8
_2-0_
  6
CONTINUOUS
 62
    7
 10
390.56909902260264
 20
393.3217966661349
 11
390.56909902260264
 21
391.57776590441699
  0
LINE
  8
_2-0_
  6
CONTINUOUS
 62
    7
 10
392.43148631274858
 20
393.3217966661349
 11
399.36909902260265
 21
393.3217966661349
  0
LINE
  8
_2-0_
  6
CONTINUOUS
 62
    7
 10
392.43148631274858
 20
391.57776590441699
 11
392.43148631274858
 21
393.3217966661349
  0
LINE
  8
_2-0_
  6
CONTINUOUS
 62
    7
 10
399.36909902260265
 20
393.3217966661349
 11
399.36909902260265
 21
391.57776590441699
  0
LINE
  8
_2-0_
  6
CONTINUOUS
 62
    7
 10
401.23148631274853
 20
393.3217966661349
 11
408.16909902260267
 21
393.3217966661349
  0
LINE
  8
_2-0_
  6
CONTINUOUS
 62
    7
 10
401.23148631274853
 20
391.57776590441699
 11
401.23148631274853
 21
393.3217966661349
  0
LINE
  8
_2-0_
  6
CONTINUOUS
 62
    7
 10
408.16909902260267
 20
393.3217966661349
 11
408.16909902260267
 21
391.57776590441699
  0
LINE
  8
_2-0_
  6
CONTINUOUS
 62
    7
 10
355.27553090958162
 20
388.377765904417
 11
355.27553090958162
 21
391.57776590441699
  0
LINE
  8
_2-0_
  6
CONTINUOUS
 62
    7
 10
410.28374159804662
 20
391.57776590441699
 11
355.27553090958162
 21
391.57776590441699
  0
LINE
  8
_2-0_
  6
CONTINUOUS
 62
    7
 10
410.28374159804662
 20
388.377765904417
 11
355.27553090958162
 21
388.377765904417
  0
LINE
  8
_2-0_
  6
CONTINUOUS
 62
    7
 10
410.28374159804662
 20
388.377765904417
 11
410.28374159804662
 21
391.57776590441699
  0
LINE
  8
_2-0_
  6
CONTINUOUS
 62
    7
 10
410.27553090958162
 20
388.377765904417
 11
410.27553090958162
 21
391.57776590441699
  0
LINE
  8
_2-0_
  6
CONTINUOUS
 62
    7
 10
410.27553090958162
 20
388.377765904417
 11
410.27553090958162
 21
391.57776590441699
  0
LINE
  8
_2-0_
  6
CONTINUOUS
 62
    7
 10
412.23148631274853
 20
393.3217966661349
 11
419.16909902260261
 21
393.3217966661349
  0
LINE
  8
_2-0_
  6
CONTINUOUS
 62
    7
 10
412.23148631274853
 20
391.57776590441699
 11
412.23148631274853
 21
393.3217966661349
  0
LINE
  8
_2-0_
  6
CONTINUOUS
 62
    7
 10
419.16909902260261
 20
393.3217966661349
 11
419.16909902260261
 21
391.57776590441699
  0
LINE
  8
_2-0_
  6
CONTINUOUS
 62
    7
 10
421.03148631274854
 20
393.3217966661349
 11
427.96909902260268
 21
393.3217966661349
  0
LINE
  8
_2-0_
  6
CONTINUOUS
 62
    7
 10
421.03148631274854
 20
391.57776590441699
 11
421.03148631274854
 21
393.3217966661349
  0
LINE
  8
_2-0_
  6
CONTINUOUS
 62
    7
 10
427.96909902260268
 20
393.3217966661349
 11
427.96909902260268
 21
391.57776590441699
  0
LINE
  8
_2-0_
  6
CONTINUOUS
 62
    7
 10
429.83148631274855
 20
393.3217966661349
 11
436.76909902260263
 21
393.3217966661349
  0
LINE
  8
_2-0_
  6
CONTINUOUS
 62
    7
 10
429.83148631274855
 20
391.57776590441699
 11
429.83148631274855
 21
393.3217966661349
  0
LINE
  8
_2-0_
  6
CONTINUOUS
 62
    7
 10
436.76909902260263
 20
393.3217966661349
 11
436.76909902260263
 21
391.57776590441699
  0
LINE
  8
_2-0_
  6
CONTINUOUS
 62
    7
 10
438.63148631274851
 20
393.3217966661349
 11
445.56909902260264
 21
393.3217966661349
  0
LINE
  8
_2-0_
  6
CONTINUOUS
 62
    7
 10
438.63148631274851
 20
391.57776590441699
 11
438.63148631274851
 21
393.3217966661349
  0
LINE
  8
_2-0_
  6
CONTINUOUS
 62
    7
 10
445.56909902260264
 20
393.3217966661349
 11
445.56909902260264
 21
391.57776590441699
  0
LINE
  8
_2-0_
  6
CONTINUOUS
 62
    7
 10
447.43148631274858
 20
393.3217966661349
 11
454.36909902260265
 21
393.3217966661349
  0
LINE
  8
_2-0_
  6
CONTINUOUS
 62
    7
 10
447.43148631274858
 20
391.57776590441699
 11
447.43148631274858
 21
393.3217966661349
  0
LINE
  8
_2-0_
  6
CONTINUOUS
 62
    7
 10
454.36909902260265
 20
393.3217966661349
 11
454.36909902260265
 21
391.57776590441699
  0
LINE
  8
_2-0_
  6
CONTINUOUS
 62
    7
 10
456.23148631274853
 20
393.3217966661349
 11
463.16909902260267
 21
393.3217966661349
  0
LINE
  8
_2-0_
  6
CONTINUOUS
 62
    7
 10
456.23148631274853
 20
391.57776590441699
 11
456.23148631274853
 21
393.3217966661349
  0
LINE
  8
_2-0_
  6
CONTINUOUS
 62
    7
 10
463.16909902260267
 20
393.3217966661349
 11
463.16909902260267
 21
391.57776590441699
  0
LINE
  8
_2-0_
  6
CONTINUOUS
 62
    7
 10
410.27553090958162
 20
388.377765904417
 11
410.27553090958162
 21
391.57776590441699
  0
LINE
  8
_2-0_
  6
CONTINUOUS
 62
    7
 10
465.28374159804662
 20
391.57776590441699
 11
410.27553090958162
 21
391.57776590441699
  0
LINE
  8
_2-0_
  6
CONTINUOUS
 62
    7
 10
465.28374159804662
 20
388.377765904417
 11
410.27553090958162
 21
388.377765904417
  0
LINE
  8
_2-0_
  6
CONTINUOUS
 62
    7
 10
465.28374159804662
 20
388.377765904417
 11
465.28374159804662
 21
391.57776590441699
  0
LINE
  8
_2-0_
  6
CONTINUOUS
 62
    7
 10
474.17178619708125
 20
393.317765904417
 11
467.23148631274853
 21
393.317765904417
  0
LINE
  8
_2-0_
  6
CONTINUOUS
 62
    7
 10
467.23148631274853
 20
391.57776590441699
 11
467.23148631274853
 21
393.3217966661349
  0
LINE
  8
_2-0_
  6
CONTINUOUS
 62
    7
 10
474.16909902260261
 20
393.3217966661349
 11
474.16909902260261
 21
391.57776590441699
  0
LINE
  8
_2-0_
  6
CONTINUOUS
 62
    7
 10
476.03148631274854
 20
393.3217966661349
 11
482.96909902260268
 21
393.3217966661349
  0
LINE
  8
_2-0_
  6
CONTINUOUS
 62
    7
 10
476.03148631274854
 20
391.57776590441699
 11
476.03148631274854
 21
393.3217966661349
  0
LINE
  8
_2-0_
  6
CONTINUOUS
 62
    7
 10
482.96909902260268
 20
393.3217966661349
 11
482.96909902260268
 21
391.57776590441699
  0
LINE
  8
_2-0_
  6
CONTINUOUS
 62
    7
 10
484.83148631274855
 20
393.3217966661349
 11
491.76909902260263
 21
393.3217966661349
  0
LINE
  8
_2-0_
  6
CONTINUOUS
 62
    7
 10
484.83148631274855
 20
391.57776590441699
 11
484.83148631274855
 21
393.3217966661349
  0
LINE
  8
_2-0_
  6
CONTINUOUS
 62
    7
 10
491.76909902260263
 20
393.3217966661349
 11
491.76909902260263
 21
391.57776590441699
  0
LINE
  8
_2-0_
  6
CONTINUOUS
 62
    7
 10
493.63148631274851
 20
393.3217966661349
 11
500.56909902260264
 21
393.3217966661349
  0
LINE
  8
_2-0_
  6
CONTINUOUS
 62
    7
 10
493.63148631274851
 20
391.57776590441699
 11
493.63148631274851
 21
393.3217966661349
  0
LINE
  8
_2-0_
  6
CONTINUOUS
 62
    7
 10
500.56909902260264
 20
393.3217966661349
 11
500.56909902260264
 21
391.57776590441699
  0
LINE
  8
_2-0_
  6
CONTINUOUS
 62
    7
 10
502.43148631274858
 20
393.3217966661349
 11
509.36909902260265
 21
393.3217966661349
  0
LINE
  8
_2-0_
  6
CONTINUOUS
 62
    7
 10
502.43148631274858
 20
391.57776590441699
 11
502.43148631274858
 21
393.3217966661349
  0
LINE
  8
_2-0_
  6
CONTINUOUS
 62
    7
 10
509.36909902260265
 20
393.3217966661349
 11
509.36909902260265
 21
391.57776590441699
  0
LINE
  8
_2-0_
  6
CONTINUOUS
 62
    7
 10
511.23148631274853
 20
391.57776590441699
 11
511.23148631274853
 21
393.3217966661349
  0
LINE
  8
_2-0_
  6
CONTINUOUS
 62
    7
 10
465.27553090958162
 20
388.377765904417
 11
465.27553090958162
 21
391.57776590441699
  0
LINE
  8
_2-0_
  6
CONTINUOUS
 62
    7
 10
520.28374159804662
 20
391.57776590441699
 11
465.27553090958162
 21
391.57776590441699
  0
LINE
  8
_2-0_
  6
CONTINUOUS
 62
    7
 10
520.28374159804662
 20
388.377765904417
 11
465.27553090958162
 21
388.377765904417
  0
LINE
  8
_2-0_
  6
CONTINUOUS
 62
    7
 10
321.03592437309862
 20
388.377765904417
 11
321.03592437309862
 21
391.57776590441699
  0
LINE
  8
_2-0_
  6
CONTINUOUS
 62
    7
 10
329.92396897213325
 20
393.317765904417
 11
322.98366908780054
 21
393.317765904417
  0
LINE
  8
_2-0_
  6
CONTINUOUS
 62
    7
 10
322.98366908780054
 20
391.57776590441699
 11
322.98366908780054
 21
393.3217966661349
  0
LINE
  8
_2-0_
  6
CONTINUOUS
 62
    7
 10
329.92128179765461
 20
393.3217966661349
 11
329.92128179765461
 21
391.57776590441699
  0
LINE
  8
_2-0_
  6
CONTINUOUS
 62
    7
 10
331.78366908780055
 20
393.3217966661349
 11
338.72128179765468
 21
393.3217966661349
  0
LINE
  8
_2-0_
  6
CONTINUOUS
 62
    7
 10
331.78366908780055
 20
391.57776590441699
 11
331.78366908780055
 21
393.3217966661349
  0
LINE
  8
_2-0_
  6
CONTINUOUS
 62
    7
 10
338.72128179765468
 20
393.3217966661349
 11
338.72128179765468
 21
391.57776590441699
  0
LINE
  8
_2-0_
  6
CONTINUOUS
 62
    7
 10
340.58366908780056
 20
391.57776590441699
 11
340.58366908780056
 21
393.3217966661349
  0
LINE
  8
_2-0_
  6
CONTINUOUS
 62
    7
 10
321.02771368463362
 20
388.377765904417
 11
321.02771368463362
 21
391.57776590441699
  0
LINE
  8
_2-0_
  6
CONTINUOUS
 62
    7
 10
353.2993326996197
 20
393.3217966661349
 11
353.2993326996197
 21
391.57776590441699
  0
LINE
  8
_2-0_
  6
CONTINUOUS
 62
    7
 10
353.30201987409833
 20
393.317765904417
 11
349.52842456116605
 21
393.317765904417
  0
LINE
  8
_2-0_
  6
CONTINUOUS
 62
    7
 10
82.337318901174513
 20
398.1682232573699
 11
70.09731890117439
 21
398.1682232573699
  0
LINE
  8
_2-0_
  6
CONTINUOUS
 62
    7
 10
82.337318901174513
 20
387.96822325736991
 11
70.09731890117439
 21
387.96822325736991
  0
LINE
  8
_2-0_
  6
CONTINUOUS
 62
    7
 10
78.087318901174513
 20
395.61822325736989
 11
70.09731890117439
 21
395.61822325736989
  0
LINE
  8
_2-0_
  6
CONTINUOUS
 62
    7
 10
70.09731890117439
 20
398.1682232573699
 11
70.09731890117439
 21
395.61822325736989
  0
LINE
  8
_2-0_
  6
CONTINUOUS
 62
    7
 10
78.087318901174513
 20
390.51822325736993
 11
70.09731890117439
 21
390.51822325736993
  0
LINE
  8
_2-0_
  6
CONTINUOUS
 62
    7
 10
70.09731890117439
 20
390.51822325736993
 11
70.09731890117439
 21
387.96822325736991
  0
LINE
  8
_2-0_
  6
CONTINUOUS
 62
    7
 10
82.337318901174513
 20
398.1682232573699
 11
82.337318901174513
 21
387.96822325736991
  0
LINE
  8
_2-0_
  6
CONTINUOUS
 62
    7
 10
101.65179366560892
 20
396.46822325736991
 11
82.337318901174513
 21
396.46822325736991
  0
LINE
  8
_2-0_
  6
CONTINUOUS
 62
    7
 10
101.65179366560892
 20
389.6682232573699
 11
82.337318901174513
 21
389.6682232573699
  0
LINE
  8
_2-0_
  6
CONTINUOUS
 62
    7
 10
100.8017936656089
 20
396.46822325736991
 11
100.8017936656089
 21
389.6682232573699
  0
LINE
  8
_2-0_
  6
CONTINUOUS
 62
    7
 10
101.65179366560892
 20
396.46822325736991
 11
101.65179366560892
 21
389.6682232573699
  0
LINE
  8
_2-0_
  6
CONTINUOUS
 62
    7
 10
94.23731890117449
 20
399.86822325736989
 11
75.197318901174413
 21
399.86822325736989
  0
LINE
  8
_2-0_
  6
CONTINUOUS
 62
    7
 10
75.197318901174413
 20
399.86822325736989
 11
75.197318901174413
 21
398.1682232573699
  0
LINE
  8
_2-0_
  6
CONTINUOUS
 62
    7
 10
94.23731890117449
 20
397.31822325736994
 11
82.337318901174513
 21
397.31822325736994
  0
LINE
  8
_2-0_
  6
CONTINUOUS
 62
    7
 10
94.23731890117449
 20
399.86822325736989
 11
94.23731890117449
 21
397.31822325736994
  0
LINE
  8
_2-0_
  6
CONTINUOUS
 62
    7
 10
84.887318901174467
 20
397.31822325736994
 11
84.887318901174467
 21
396.46822325736991
  0
LINE
  8
_2-0_
  6
CONTINUOUS
 62
    7
 10
78.087318901174513
 20
395.61822325736989
 11
78.087318901174513
 21
390.51822325736993
  0
ARC
  8
_2-0_
  6
CONTINUOUS
 62
    2
 10
122.74714075924419
 20
397.67413329509583
 40
7.4064015740103066
 50
320.661199489333
 51
54.386441387944416
  0
ARC
  8
_2-0_
  6
CONTINUOUS
 62
    2
 10
134.72375274423791
 20
387.85783848026955
 40
8.0790392828292976
 50
140.66119948933292
 51
214.56691244988951
  0
ARC
  8
_2-0_
  6
CONTINUOUS
 62
    2
 10
134.72375274423791
 20
387.85783848026955
 40
9.7790392828292987
 50
140.66119948933292
 51
214.56691244988951
  0
ARC
  8
_2-0_
  6
CONTINUOUS
 62
    2
 10
122.74714075924419
 20
397.67413329509583
 40
5.7064015740103065
 50
320.661199489333
 51
54.386441387944416
  0
LINE
  8
_2-0_
  6
CONTINUOUS
 62
    7
 10
101.86981097556679
 20
394.89057961470593
 11
127.60793405053789
 21
394.89057961470593
  0
LINE
  8
_2-0_
  6
CONTINUOUS
 62
    7
 10
125.64817848645384
 20
391.89057961470593
 11
101.80448579009737
 21
391.89057961470593
  0
ARC
  8
_2-0_
  6
CONTINUOUS
 62
    2
 10
555.80434413149703
 20
387.92592242726874
 40
8.0790392828292976
 50
140.66119948933292
 51
214.56691244988951
  0
ARC
  8
_2-0_
  6
CONTINUOUS
 62
    2
 10
555.80434413149703
 20
387.92592242726874
 40
9.7790392828292987
 50
140.66119948933292
 51
214.56691244988951
  0
LINE
  8
_2-0_
  6
CONTINUOUS
 62
    7
 10
550.49080336376062
 20
394.95866356170512
 11
570.84451922430742
 21
394.95866356170512
  0
LINE
  8
_2-0_
  6
CONTINUOUS
 62
    7
 10
548.70199698171734
 20
391.95866356170512
 11
570.84451922430742
 21
391.95866356170512
  0
LINE
  8
_2-0_
  6
CONTINUOUS
 62
    7
 10
570.93449205487002
 20
398.25441841693919
 11
570.93449205487002
 21
388.05441841693914
  0
LINE
  8
_2-0_
  6
CONTINUOUS
 62
    7
 10
570.93449205487002
 20
388.05441841693914
 11
591.00329341398754
 21
388.05441841693914
  0
LINE
  8
_2-0_
  6
CONTINUOUS
 62
    7
 10
591.00329341398754
 20
398.25441841693919
 11
591.00329341398754
 21
388.05441841693914
  0
LINE
  8
_2-0_
  6
CONTINUOUS
 62
    7
 10
570.93449205487002
 20
398.25441841693919
 11
591.00329341398754
 21
398.25441841693919
  0
LINE
  8
_2-0_
  6
CONTINUOUS
 62
    7
 10
585.7307739880863
 20
395.53441841693916
 11
585.7307739880863
 21
390.77441841693923
  0
LINE
  8
_2-0_
  6
CONTINUOUS
 62
    7
 10
575.69636567381724
 20
395.53441841693916
 11
585.7307739880863
 21
395.53441841693916
  0
LINE
  8
_2-0_
  6
CONTINUOUS
 62
    7
 10
575.69636567381724
 20
390.77441841693923
 11
585.7307739880863
 21
390.77441841693923
  0
LINE
  8
_2-0_
  6
CONTINUOUS
 62
    7
 10
575.69636567381724
 20
395.53441841693916
 11
575.69636567381724
 21
390.77441841693923
  0
LINE
  8
_2-0_
  6
CONTINUOUS
 62
    7
 10
582.01330195127377
 20
395.53441841693916
 11
582.01330195127377
 21
390.77441841693923
  0
LINE
  8
_2-0_
  6
CONTINUOUS
 62
    7
 10
520.37905882702239
 20
391.95866356170512
 11
546.96153671810771
 21
391.95866356170512
  0
ARC
  8
_2-0_
  6
CONTINUOUS
 62
    2
 10
543.82773214650331
 20
397.74221724209502
 40
5.7064015740103065
 50
320.661199489333
 51
54.386441387944416
  0
ARC
  8
_2-0_
  6
CONTINUOUS
 62
    2
 10
543.82773214650331
 20
397.74221724209502
 40
7.4064015740103066
 50
320.661199489333
 51
54.386441387944416
  0
LINE
  8
_2-0_
  6
CONTINUOUS
 62
    2
 10
167.00138622706862
 20
391.32524661109107
 11
167.35768822706854
 21
391.6815486110911
  0
LINE
  8
_2-0_
  6
CONTINUOUS
 62
    7
 10
129.76366517103042
 20
394.89057961470593
 11
155.79064714167606
 21
394.89057961470593
  0
LINE
  8
_2-0_
  6
CONTINUOUS
 62
    7
 10
155.75569027557907
 20
391.89057961470593
 11
127.8692347924158
 21
391.89057961470593
  0
ARC
  8
_2-0_
  6
CONTINUOUS
 62
    7
 10
157.3881183548998
 20
390.32285412322403
 40
4.8800802918209705
 50
15.60860233657419
 51
109.29565445966347
  0
LINE
  8
_2-0_
  6
CONTINUOUS
 62
    7
 10
161.20853425442215
 20
393.3217966661349
 11
164.66909902260264
 21
393.3217966661349
  0
ARC
  8
_2-0_
  6
CONTINUOUS
 62
    7
 10
518.69314680460354
 20
390.32285412322403
 40
4.8800802918209705
 50
70.977696379217832
 51
164.39139766342581
  0
LINE
  8
_2-0_
  6
CONTINUOUS
 62
    7
 10
520.3091306452975
 20
394.95866356170512
 11
548.84703533701816
 21
394.95866356170512
  0
LINE
  8
_2-0_
  6
CONTINUOUS
 62
    7
 10
511.23148631274853
 20
393.3217966661349
 11
514.83926851517094
 21
393.3217966661349
  0
LINE
  8
_2-0_
  6
CONTINUOUS
 62
    7
 10
530.26690076400337
 20
381.33776590441698
 11
530.26690076400337
 21
385.33776590441698
  0
LINE
  8
_2-0_
  6
CONTINUOUS
 62
    7
 10
520.28374159804662
 20
385.36806992419542
 11
520.28374159804662
 21
394.93644186571805
  0
LINE
  8
_2-0_
  6
CONTINUOUS
 62
    7
 10
145.81553090958164
 20
381.33776590441698
 11
145.81553090958164
 21
385.33776590441698
  0
LINE
  8
_2-0_
  6
CONTINUOUS
 62
    7
 10
155.77553090958162
 20
385.31743623693984
 11
155.77553090958162
 21
394.9288008647552
  0
LINE
  8
_2-0_
  6
CONTINUOUS
 62
    7
 10
146.21553090958162
 20
380.93776590441701
 11
146.21553090958162
 21
381.36619526101049
  0
LINE
  8
_2-0_
  6
CONTINUOUS
 62
    7
 10
529.86690076400328
 20
380.93776590441701
 11
529.86690076400328
 21
381.33914159944374
  0
LINE
  8
_2-0_
  6
CONTINUOUS
 62
    7
 10
530.26690076400337
 20
385.33776590441698
 11
347.29410411668823
 21
385.33776590441698
  0
LINE
  8
_2-0_
  6
CONTINUOUS
 62
    7
 10
342.92546773534889
 20
400.48240906813987
 11
342.96514373534876
 21
400.41803506813983
  0
LINE
  8
_2-0_
  6
CONTINUOUS
 62
    7
 10
342.96514373534876
 20
400.41803506813983
 11
343.08305373534893
 21
400.22667906814002
  0
LINE
  8
_2-0_
  6
CONTINUOUS
 62
    7
 10
343.08305373534893
 20
400.22667906814002
 11
343.27563173534884
 21
399.91366506813995
  0
LINE
  8
_2-0_
  6
CONTINUOUS
 62
    7
 10
343.27563173534884
 20
399.91366506813995
 11
343.53637773534876
 21
399.48790306813987
  0
LINE
  8
_2-0_
  6
CONTINUOUS
 62
    7
 10
343.53637773534876
 20
399.48790306813987
 11
343.85526973534877
 21
398.9618670681399
  0
LINE
  8
_2-0_
  6
CONTINUOUS
 62
    7
 10
343.85526973534877
 20
398.9618670681399
 11
344.21844373534884
 21
398.35144306813993
  0
LINE
  8
_2-0_
  6
CONTINUOUS
 62
    7
 10
344.21844373534884
 20
398.35144306813993
 11
344.60837373534889
 21
397.67554506813997
  0
LINE
  8
_2-0_
  6
CONTINUOUS
 62
    7
 10
344.60837373534889
 20
397.67554506813997
 11
345.00481373534888
 21
396.95546306813992
  0
LINE
  8
_2-0_
  6
CONTINUOUS
 62
    7
 10
345.00481373534888
 20
396.95546306813992
 11
345.38645973534892
 21
396.21395706813985
  0
LINE
  8
_2-0_
  6
CONTINUOUS
 62
    7
 10
345.38645973534892
 20
396.21395706813985
 11
345.73318373534892
 21
395.47413506813984
  0
LINE
  8
_2-0_
  6
CONTINUOUS
 62
    7
 10
345.73318373534892
 20
395.47413506813984
 11
346.02845973534875
 21
394.75828106814004
  0
LINE
  8
_2-0_
  6
CONTINUOUS
 62
    7
 10
346.02845973534875
 20
394.75828106814004
 11
346.26151973534877
 21
394.0867250681398
  0
LINE
  8
_2-0_
  6
CONTINUOUS
 62
    7
 10
346.26151973534877
 20
394.0867250681398
 11
346.42876573534875
 21
393.47696706813997
  0
LINE
  8
_2-0_
  6
CONTINUOUS
 62
    7
 10
346.42876573534875
 20
393.47696706813997
 11
346.53408173534888
 21
392.9431330681399
  0
LINE
  8
_2-0_
  6
CONTINUOUS
 62
    7
 10
346.53408173534888
 20
392.9431330681399
 11
346.58788573534878
 21
392.49583306813986
  0
LINE
  8
_2-0_
  6
CONTINUOUS
 62
    7
 10
346.58788573534878
 20
392.49583306813986
 11
346.6050377353489
 21
392.14242106813992
  0
LINE
  8
_2-0_
  6
CONTINUOUS
 62
    7
 10
346.6050377353489
 20
392.14242106813992
 11
346.60191573534883
 21
391.88753306813999
  0
LINE
  8
_2-0_
  6
CONTINUOUS
 62
    7
 10
346.60191573534883
 20
391.88753306813999
 11
346.59322373534894
 21
391.73377906813982
  0
LINE
  8
_2-0_
  6
CONTINUOUS
 62
    7
 10
346.59322373534894
 20
391.73377906813982
 11
346.58911973534885
 21
391.68240906813992
  0
LINE
  8
_2-0_
  6
CONTINUOUS
 62
    7
 10
346.58911973534885
 20
391.68240906813992
 11
346.5844157353489
 21
391.63121706813979
  0
LINE
  8
_2-0_
  6
CONTINUOUS
 62
    7
 10
346.5844157353489
 20
391.63121706813979
 11
346.56696173534885
 21
391.48006706813987
  0
LINE
  8
_2-0_
  6
CONTINUOUS
 62
    7
 10
346.56696173534885
 20
391.48006706813987
 11
346.52765173534874
 21
391.23594106814005
  0
LINE
  8
_2-0_
  6
CONTINUOUS
 62
    7
 10
346.52765173534874
 20
391.23594106814005
 11
346.45416173534875
 21
390.90951306813997
  0
LINE
  8
_2-0_
  6
CONTINUOUS
 62
    7
 10
346.45416173534875
 20
390.90951306813997
 11
346.33448973534894
 21
390.51393706813985
  0
LINE
  8
_2-0_
  6
CONTINUOUS
 62
    7
 10
346.33448973534894
 20
390.51393706813985
 11
346.16062573534884
 21
390.06350906813998
  0
LINE
  8
_2-0_
  6
CONTINUOUS
 62
    7
 10
346.16062573534884
 20
390.06350906813998
 11
345.93146173534876
 21
389.57248306814006
  0
LINE
  8
_2-0_
  6
CONTINUOUS
 62
    7
 10
345.93146173534876
 20
389.57248306814006
 11
345.6541997353487
 21
389.0542630681399
  0
LINE
  8
_2-0_
  6
CONTINUOUS
 62
    7
 10
345.6541997353487
 20
389.0542630681399
 11
345.34389573534884
 21
388.52108106814001
  0
LINE
  8
_2-0_
  6
CONTINUOUS
 62
    7
 10
345.34389573534884
 20
388.52108106814001
 11
345.02122373534883
 21
387.98414706813981
  0
LINE
  8
_2-0_
  6
CONTINUOUS
 62
    7
 10
345.02122373534883
 20
387.98414706813981
 11
344.70895973534869
 21
387.45417106814
  0
LINE
  8
_2-0_
  6
CONTINUOUS
 62
    7
 10
344.70895973534869
 20
387.45417106814
 11
344.42799373534888
 21
386.94201706813999
  0
LINE
  8
_2-0_
  6
CONTINUOUS
 62
    7
 10
344.42799373534888
 20
386.94201706813999
 11
344.1937837353488
 21
386.45925906813989
  0
LINE
  8
_2-0_
  6
CONTINUOUS
 62
    7
 10
344.1937837353488
 20
386.45925906813989
 11
344.01407373534892
 21
386.01840306813995
  0
LINE
  8
_2-0_
  6
CONTINUOUS
 62
    7
 10
344.01407373534892
 20
386.01840306813995
 11
343.88838973534882
 21
385.63266906813999
  0
LINE
  8
_2-0_
  6
CONTINUOUS
 62
    7
 10
343.88838973534882
 20
385.63266906813999
 11
343.8093777353489
 21
385.31528706814004
  0
LINE
  8
_2-0_
  6
CONTINUOUS
 62
    7
 10
343.8093777353489
 20
385.31528706814004
 11
343.76563173534885
 21
385.07842506813984
  0
LINE
  8
_2-0_
  6
CONTINUOUS
 62
    7
 10
343.76563173534885
 20
385.07842506813984
 11
343.74530773534877
 21
384.93197706813987
  0
LINE
  8
_2-0_
  6
CONTINUOUS
 62
    7
 10
343.74530773534877
 20
384.93197706813987
 11
343.73961173534883
 21
384.88240906813996
  0
LINE
  8
_2-0_
  6
CONTINUOUS
 62
    7
 10
343.73961173534883
 20
384.88240906813996
 11
343.73450173534877
 21
384.83268706813999
  0
LINE
  8
_2-0_
  6
CONTINUOUS
 62
    7
 10
343.73450173534877
 20
384.83268706813999
 11
343.72273973534891
 21
384.68396106813987
  0
LINE
  8
_2-0_
  6
CONTINUOUS
 62
    7
 10
343.72273973534891
 20
384.68396106813987
 11
343.71433973534874
 21
384.43771506813994
  0
LINE
  8
_2-0_
  6
CONTINUOUS
 62
    7
 10
343.71433973534874
 20
384.43771506813994
 11
343.7238237353489
 21
384.0968630681399
  0
LINE
  8
_2-0_
  6
CONTINUOUS
 62
    7
 10
343.7238237353489
 20
384.0968630681399
 11
343.76739173534895
 21
383.66632506813983
  0
LINE
  8
_2-0_
  6
CONTINUOUS
 62
    7
 10
343.76739173534895
 20
383.66632506813983
 11
343.85981573534889
 21
383.15360306813989
  0
LINE
  8
_2-0_
  6
CONTINUOUS
 62
    7
 10
343.85981573534889
 20
383.15360306813989
 11
344.01156373534889
 21
382.56922506813987
  0
LINE
  8
_2-0_
  6
CONTINUOUS
 62
    7
 10
344.01156373534889
 20
382.56922506813987
 11
344.22675173534878
 21
381.92694106813985
  0
LINE
  8
_2-0_
  6
CONTINUOUS
 62
    7
 10
344.22675173534878
 20
381.92694106813985
 11
344.50220573534887
 21
381.24355106813994
  0
LINE
  8
_2-0_
  6
CONTINUOUS
 62
    7
 10
344.50220573534887
 20
381.24355106813994
 11
344.82775773534888
 21
380.53840306813993
  0
LINE
  8
_2-0_
  6
CONTINUOUS
 62
    7
 10
344.82775773534888
 20
380.53840306813993
 11
345.1876217353489
 21
379.83256706813984
  0
LINE
  8
_2-0_
  6
CONTINUOUS
 62
    7
 10
345.1876217353489
 20
379.83256706813984
 11
345.56248373534879
 21
379.14782106813993
  0
LINE
  8
_2-0_
  6
CONTINUOUS
 62
    7
 10
345.56248373534879
 20
379.14782106813993
 11
345.93186973534887
 21
378.50557106813983
  0
LINE
  8
_2-0_
  6
CONTINUOUS
 62
    7
 10
345.93186973534887
 20
378.50557106813983
 11
346.27630573534896
 21
377.92583506813992
  0
LINE
  8
_2-0_
  6
CONTINUOUS
 62
    7
 10
346.27630573534896
 20
377.92583506813992
 11
346.57895373534882
 21
377.42640306813985
  0
LINE
  8
_2-0_
  6
CONTINUOUS
 62
    7
 10
346.57895373534882
 20
377.42640306813985
 11
346.82650773534886
 21
377.0222450681398
  0
LINE
  8
_2-0_
  6
CONTINUOUS
 62
    7
 10
346.82650773534886
 20
377.0222450681398
 11
347.00937373534896
 21
376.72513706814004
  0
LINE
  8
_2-0_
  6
CONTINUOUS
 62
    7
 10
347.00937373534896
 20
376.72513706814004
 11
347.12134173534889
 21
376.54351106813999
  0
LINE
  8
_2-0_
  6
CONTINUOUS
 62
    7
 10
347.12134173534889
 20
376.54351106813999
 11
347.15901973534881
 21
376.48240906813987
  0
LINE
  8
_2-0_
  6
CONTINUOUS
 62
    7
 10
346.10063173534888
 20
400.48240906813987
 11
346.14030973534875
 21
400.41803506813983
  0
LINE
  8
_2-0_
  6
CONTINUOUS
 62
    7
 10
346.14030973534875
 20
400.41803506813983
 11
346.25821773534869
 21
400.22667906814002
  0
LINE
  8
_2-0_
  6
CONTINUOUS
 62
    7
 10
346.25821773534869
 20
400.22667906814002
 11
346.45079573534883
 21
399.91366506813995
  0
LINE
  8
_2-0_
  6
CONTINUOUS
 62
    7
 10
346.45079573534883
 20
399.91366506813995
 11
346.71154173534876
 21
399.48790306813987
  0
LINE
  8
_2-0_
  6
CONTINUOUS
 62
    7
 10
346.71154173534876
 20
399.48790306813987
 11
347.03043573534876
 21
398.9618670681399
  0
LINE
  8
_2-0_
  6
CONTINUOUS
 62
    7
 10
347.03043573534876
 20
398.9618670681399
 11
347.39360773534884
 21
398.35144306813993
  0
LINE
  8
_2-0_
  6
CONTINUOUS
 62
    7
 10
347.39360773534884
 20
398.35144306813993
 11
347.78353973534888
 21
397.67554506813997
  0
LINE
  8
_2-0_
  6
CONTINUOUS
 62
    7
 10
347.78353973534888
 20
397.67554506813997
 11
348.17997973534887
 21
396.95546306813992
  0
LINE
  8
_2-0_
  6
CONTINUOUS
 62
    7
 10
348.17997973534887
 20
396.95546306813992
 11
348.56162373534869
 21
396.21395706813985
  0
LINE
  8
_2-0_
  6
CONTINUOUS
 62
    7
 10
348.56162373534869
 20
396.21395706813985
 11
348.90834773534868
 21
395.47413506813984
  0
LINE
  8
_2-0_
  6
CONTINUOUS
 62
    7
 10
348.90834773534868
 20
395.47413506813984
 11
349.20362373534874
 21
394.75828106814004
  0
LINE
  8
_2-0_
  6
CONTINUOUS
 62
    7
 10
349.20362373534874
 20
394.75828106814004
 11
349.43668373534877
 21
394.0867250681398
  0
LINE
  8
_2-0_
  6
CONTINUOUS
 62
    7
 10
349.43668373534877
 20
394.0867250681398
 11
349.60393173534874
 21
393.47696706813997
  0
LINE
  8
_2-0_
  6
CONTINUOUS
 62
    7
 10
349.60393173534874
 20
393.47696706813997
 11
349.70924573534887
 21
392.9431330681399
  0
LINE
  8
_2-0_
  6
CONTINUOUS
 62
    7
 10
349.70924573534887
 20
392.9431330681399
 11
349.76305173534877
 21
392.49583306813986
  0
LINE
  8
_2-0_
  6
CONTINUOUS
 62
    7
 10
349.76305173534877
 20
392.49583306813986
 11
349.7802017353489
 21
392.14242106813992
  0
LINE
  8
_2-0_
  6
CONTINUOUS
 62
    7
 10
349.7802017353489
 20
392.14242106813992
 11
349.77707973534882
 21
391.88753306813999
  0
LINE
  8
_2-0_
  6
CONTINUOUS
 62
    7
 10
349.77707973534882
 20
391.88753306813999
 11
349.76838773534871
 21
391.73377906813982
  0
LINE
  8
_2-0_
  6
CONTINUOUS
 62
    7
 10
349.76838773534871
 20
391.73377906813982
 11
349.76428373534884
 21
391.68240906813992
  0
LINE
  8
_2-0_
  6
CONTINUOUS
 62
    7
 10
349.76428373534884
 20
391.68240906813992
 11
349.75957973534889
 21
391.63121706813979
  0
LINE
  8
_2-0_
  6
CONTINUOUS
 62
    7
 10
349.75957973534889
 20
391.63121706813979
 11
349.74212573534885
 21
391.48006706813987
  0
LINE
  8
_2-0_
  6
CONTINUOUS
 62
    7
 10
349.74212573534885
 20
391.48006706813987
 11
349.70281573534874
 21
391.23594106814005
  0
LINE
  8
_2-0_
  6
CONTINUOUS
 62
    7
 10
349.70281573534874
 20
391.23594106814005
 11
349.62932773534874
 21
390.90951306813997
  0
LINE
  8
_2-0_
  6
CONTINUOUS
 62
    7
 10
349.62932773534874
 20
390.90951306813997
 11
349.50965373534871
 21
390.51393706813985
  0
LINE
  8
_2-0_
  6
CONTINUOUS
 62
    7
 10
349.50965373534871
 20
390.51393706813985
 11
349.33578973534884
 21
390.06350906813998
  0
LINE
  8
_2-0_
  6
CONTINUOUS
 62
    7
 10
349.33578973534884
 20
390.06350906813998
 11
349.10662573534876
 21
389.57248306814006
  0
LINE
  8
_2-0_
  6
CONTINUOUS
 62
    7
 10
349.10662573534876
 20
389.57248306814006
 11
348.82936373534892
 21
389.0542630681399
  0
LINE
  8
_2-0_
  6
CONTINUOUS
 62
    7
 10
348.82936373534892
 20
389.0542630681399
 11
348.51905973534883
 21
388.52108106814001
  0
LINE
  8
_2-0_
  6
CONTINUOUS
 62
    7
 10
348.51905973534883
 20
388.52108106814001
 11
348.19638773534882
 21
387.98414706813981
  0
LINE
  8
_2-0_
  6
CONTINUOUS
 62
    7
 10
348.19638773534882
 20
387.98414706813981
 11
347.8841257353489
 21
387.45417106814
  0
LINE
  8
_2-0_
  6
CONTINUOUS
 62
    7
 10
347.8841257353489
 20
387.45417106814
 11
347.60315973534887
 21
386.94201706813999
  0
LINE
  8
_2-0_
  6
CONTINUOUS
 62
    7
 10
347.60315973534887
 20
386.94201706813999
 11
347.3689477353488
 21
386.45925906813989
  0
LINE
  8
_2-0_
  6
CONTINUOUS
 62
    7
 10
347.3689477353488
 20
386.45925906813989
 11
347.18923773534868
 21
386.01840306813995
  0
LINE
  8
_2-0_
  6
CONTINUOUS
 62
    7
 10
347.18923773534868
 20
386.01840306813995
 11
347.06355373534882
 21
385.63266906813999
  0
LINE
  8
_2-0_
  6
CONTINUOUS
 62
    7
 10
347.06355373534882
 20
385.63266906813999
 11
346.9845417353489
 21
385.31528706814004
  0
LINE
  8
_2-0_
  6
CONTINUOUS
 62
    7
 10
346.9845417353489
 20
385.31528706814004
 11
346.94079773534884
 21
385.07842506813984
  0
LINE
  8
_2-0_
  6
CONTINUOUS
 62
    7
 10
346.94079773534884
 20
385.07842506813984
 11
346.92047373534876
 21
384.93197706813987
  0
LINE
  8
_2-0_
  6
CONTINUOUS
 62
    7
 10
346.92047373534876
 20
384.93197706813987
 11
346.91477773534882
 21
384.88240906813996
  0
LINE
  8
_2-0_
  6
CONTINUOUS
 62
    7
 10
346.91477773534882
 20
384.88240906813996
 11
346.90966573534877
 21
384.83268706813999
  0
LINE
  8
_2-0_
  6
CONTINUOUS
 62
    7
 10
346.90966573534877
 20
384.83268706813999
 11
346.8979037353489
 21
384.68396106813987
  0
LINE
  8
_2-0_
  6
CONTINUOUS
 62
    7
 10
346.8979037353489
 20
384.68396106813987
 11
346.88950573534873
 21
384.43771506813994
  0
LINE
  8
_2-0_
  6
CONTINUOUS
 62
    7
 10
346.88950573534873
 20
384.43771506813994
 11
346.8989877353489
 21
384.0968630681399
  0
LINE
  8
_2-0_
  6
CONTINUOUS
 62
    7
 10
346.8989877353489
 20
384.0968630681399
 11
346.94255773534894
 21
383.66632506813983
  0
LINE
  8
_2-0_
  6
CONTINUOUS
 62
    7
 10
346.94255773534894
 20
383.66632506813983
 11
347.03497973534888
 21
383.15360306813989
  0
LINE
  8
_2-0_
  6
CONTINUOUS
 62
    7
 10
347.03497973534888
 20
383.15360306813989
 11
347.18672973534888
 21
382.56922506813987
  0
LINE
  8
_2-0_
  6
CONTINUOUS
 62
    7
 10
347.18672973534888
 20
382.56922506813987
 11
347.40191573534878
 21
381.92694106813985
  0
LINE
  8
_2-0_
  6
CONTINUOUS
 62
    7
 10
347.40191573534878
 20
381.92694106813985
 11
347.67736973534886
 21
381.24355106813994
  0
LINE
  8
_2-0_
  6
CONTINUOUS
 62
    7
 10
347.67736973534886
 20
381.24355106813994
 11
348.00292173534888
 21
380.53840306813993
  0
LINE
  8
_2-0_
  6
CONTINUOUS
 62
    7
 10
348.00292173534888
 20
380.53840306813993
 11
348.36278573534889
 21
379.83256706813984
  0
LINE
  8
_2-0_
  6
CONTINUOUS
 62
    7
 10
348.36278573534889
 20
379.83256706813984
 11
348.73764973534878
 21
379.14782106813993
  0
LINE
  8
_2-0_
  6
CONTINUOUS
 62
    7
 10
348.73764973534878
 20
379.14782106813993
 11
349.10703373534886
 21
378.50557106813983
  0
LINE
  8
_2-0_
  6
CONTINUOUS
 62
    7
 10
349.10703373534886
 20
378.50557106813983
 11
349.45146973534872
 21
377.92583506813992
  0
LINE
  8
_2-0_
  6
CONTINUOUS
 62
    7
 10
349.45146973534872
 20
377.92583506813992
 11
349.75411773534881
 21
377.42640306813985
  0
LINE
  8
_2-0_
  6
CONTINUOUS
 62
    7
 10
349.75411773534881
 20
377.42640306813985
 11
350.00167173534885
 21
377.0222450681398
  0
LINE
  8
_2-0_
  6
CONTINUOUS
 62
    7
 10
350.00167173534885
 20
377.0222450681398
 11
350.18453773534873
 21
376.72513706814004
  0
LINE
  8
_2-0_
  6
CONTINUOUS
 62
    7
 10
350.18453773534873
 20
376.72513706814004
 11
350.29650573534889
 21
376.54351106813999
  0
LINE
  8
_2-0_
  6
CONTINUOUS
 62
    7
 10
350.29650573534889
 20
376.54351106813999
 11
350.3341837353488
 21
376.48240906813987
  0
LINE
  8
_2-0_
  6
CONTINUOUS
 62
    7
 10
344.36011427459391
 20
381.33776590441698
 11
145.81553090958164
 21
381.33776590441698
  0
LINE
  8
_2-0_
  6
CONTINUOUS
 62
    7
 10
344.53798052753689
 20
380.93776590441701
 11
146.21553090958162
 21
380.93776590441701
  0
LINE
  8
_2-0_
  6
CONTINUOUS
 62
    7
 10
530.26690076400337
 20
381.33776590441698
 11
347.56170682756749
 21
381.33776590441698
  0
LINE
  8
_2-0_
  6
CONTINUOUS
 62
    7
 10
529.86690076400328
 20
380.93776590441701
 11
347.95301258404197
 21
380.93776590441701
  0
LINE
  8
_2-0_
  6
CONTINUOUS
 62
    7
 10
343.648649262822
 20
385.33776590441698
 11
145.81553090958164
 21
385.33776590441698
  0
LINE
  8
_2-0_
  6
CONTINUOUS
 62
    7
 10
345.24944553930879
 20
388.377765904417
 11
321.02771368463362
 21
388.377765904417
  0
LINE
  8
_2-0_
  6
CONTINUOUS
 62
    7
 10
355.29041283146705
 20
388.377765904417
 11
348.37989159110515
 21
388.377765904417
  0
LINE
  8
_2-0_
  6
CONTINUOUS
 62
    7
 10
355.4805792312643
 20
391.57776590441699
 11
349.83839486523755
 21
391.57776590441699
  0
LINE
  8
_2-0_
  6
CONTINUOUS
 62
    7
 10
346.60122906167538
 20
391.57776590441699
 11
321.02771368463362
 21
391.57776590441699
  0
LINE
  8
_2-0_
  6
CONTINUOUS
 62
    7
 10
340.58366908780056
 20
393.3217966661349
 11
346.35221630755524
 21
393.3217966661349
  0
TEXT
  8
_0-0_1
 62
    7
 10
63.037579667993896
 20
334.96930286821242
 40
10.000000000000021
 41
0.9999999999999973
 50
0
  1
◆固定方法
  0
LINE
  8
_0-0_1
  6
CONTINUOUS
 62
    7
 10
63.741148992167382
 20
334.77148377343769
 11
115.51575946775131
 21
334.77148377343769
  0
LINE
  8
_3-0_
  6
CONTINUOUS
 62
    4
 10
707.0194371161142
 20
461.23181167228717
 11
707.0194371161142
 21
412.00032764758333
  0
LINE
  8
_3-0_
  6
CONTINUOUS
 62
    4
 10
747.0194371161142
 20
461.23181167228717
 11
747.0194371161142
 21
412.32187087441469
  0
LINE
  8
_3-0_
  6
CONTINUOUS
 62
    4
 10
677.23914966309667
 20
401.4056791909818
 11
701.67393966309669
 21
401.4056791909818
  0
LINE
  8
_3-0_
  6
CONTINUOUS
 62
    4
 10
681.23074066989489
 20
401.53115771663806
 11
680.45428266989495
 21
404.42893571663808
  0
LINE
  8
_3-0_
  6
CONTINUOUS
 62
    4
 10
681.23074066989489
 20
401.53115771663806
 11
682.00719666989494
 21
404.42893571663808
  0
TEXT
  8
_3-0_
 62
    7
 10
760.43970366309668
 20
427.56038919098182
 40
8
 41
1
 50
0
  1
LED基板
  0
TEXT
  8
_3-0_
 62
    7
 10
760.43970366309668
 20
415.4762831909818
 40
8
 41
1
 50
0
  1
アルミフレーム
  0
LINE
  8
_3-0_
  6
CONTINUOUS
 62
    7
 10
760.28549753326206
 20
418.59174636792665
 11
742.2045469864695
 21
406.17351110227236
  0
LINE
  8
_3-0_
  6
CONTINUOUS
 62
    7
 10
758.49727165500792
 20
431.904094572708
 11
738.42940346571061
 21
417.79697931092477
  0
LINE
  8
_3-0_
  6
CONTINUOUS
 62
    7
 10
758.39792577288267
 20
386.40368055935073
 11
740.81370463671624
 21
401.20621699601065
  0
TEXT
  8
_3-0_
 62
    7
 10
760.43970366309668
 20
382.91145683333974
 40
8
 41
1
 50
0
  1
両面テープ
  0
TEXT
  8
_3-0_
 62
    7
 10
344.52145739490385
 20
204.76921787263487
 40
8
 41
1
 50
0
  1
取付寸法
  0
LINE
  8
_1-6_23
  6
CONTINUOUS
 62
    7
 10
628.2461548981837
 20
126.81302687887609
 11
628.2461548981837
 21
87.311010257945725
  0
LINE
  8
_1-0_
  6
CONTINUOUS
 62
    7
 10
818.24613889818374
 20
126.81302687887609
 11
628.2461548981837
 21
126.81302687887609
  0
LINE
  8
_1-0_
  6
CONTINUOUS
 62
    7
 10
648.26590889818351
 20
127.21229754903595
 11
648.26590889818351
 21
86.813026878876087
  0
LINE
  8
_1-0_
  6
CONTINUOUS
 62
    7
 10
740.09278889818358
 20
87.073472447832046
 11
740.09278889818358
 21
126.91749022348554
  0
LINE
  8
_1-0_
  6
CONTINUOUS
 62
    7
 10
798.24613889818363
 20
127.21229754903595
 11
798.24613889818363
 21
86.813026878876087
  0
TEXT
  8
_2-0_
 62
    7
 10
413.69071446369156
 20
360.97271696225931
 40
12
 41
1
 50
0
  1
②
  0
LINE
  8
_2-0_
  6
CONTINUOUS
 62
    7
 10
413.58356492487286
 20
382.53572605818971
 11
418.31258392499416
 21
373.69451662318022
  0
TEXT
  8
_1-0_
 62
    7
 10
78.170806107434032
 20
91.718650206184833
 40
10
 41
1
 50
0
  1
LXSW-FB-505-N
  0
TEXT
  8
_1-0_
 62
    7
 10
78.170806107434032
 20
75.519113672877864
 40
10
 41
1
 50
0
  1
LXSW-FB-1000-N
  0
TEXT
  8
_1-0_
 62
    7
 10
78.170806107434032
 20
59.507700879504654
 40
10
 41
1
 50
0
  1
LXSW-FB-1495-N
  0
TEXT
  8
_1-0_
 62
    7
 10
78.170806107434032
 20
43.074935117884706
 40
10
 41
1
 50
0
  1
LXSW-FB-1990-N
  0
TEXT
  8
_1-0_
 62
    7
 10
267.92686633197377
 20
91.718650206184833
 40
10
 41
1
 50
0
  1
39
  0
TEXT
  8
_1-0_
 62
    7
 10
267.92930705556807
 20
75.689709776180109
 40
10
 41
1
 50
0
  1
76
  0
TEXT
  8
_1-0_
 62
    7
 10
263.3431484912353
 20
59.507700879504654
 40
10
 41
1
 50
0
  1
112
  0
TEXT
  8
_1-0_
 62
    7
 10
263.3431484912353
 20
43.074935117884763
 40
10
 41
1
 50
0
  1
148
  0
LINE
  8
_3-0_
  6
CONTINUOUS
 62
    4
 10
341.91742013100179
 20
326.79800901728578
 11
341.91742013100179
 21
277.56652499258195
  0
LINE
  8
_3-0_
  6
CONTINUOUS
 62
    4
 10
381.91742013100179
 20
326.79800901728578
 11
381.91742013100179
 21
277.8880682194133
  0
TEXT
  8
_3-0_
 62
    7
 10
312.93697455183059
 20
277.00722828915843
 40
8
 41
1
 50
90
  1
6
  0
LINE
  8
_3-0_
  6
CONTINUOUS
 62
    7
 10
409.13968216090251
 20
266.17644135310536
 11
311.34372164226448
 21
266.17644135310536
  0
LINE
  8
_3-0_
  6
CONTINUOUS
 62
    7
 10
312.43867242889053
 20
234.24259290325014
 11
344.24474193591095
 21
266.01150129606447
  0
LINE
  8
_3-0_
  6
CONTINUOUS
 62
    7
 10
312.16983839766522
 20
257.75833725841437
 11
320.47063185880643
 21
266.01150129606447
  0
LINE
  8
_3-0_
  6
CONTINUOUS
 62
    7
 10
312.16983839766522
 20
251.64771646762409
 11
326.53440403632703
 21
266.00993967562221
  0
LINE
  8
_3-0_
  6
CONTINUOUS
 62
    7
 10
312.16983839766522
 20
245.53709567683387
 11
332.64658644755923
 21
266.01150129606447
  0
LINE
  8
_3-0_
  6
CONTINUOUS
 62
    7
 10
312.16983839766522
 20
239.47176187887118
 11
338.71192024552215
 21
266.00993967562221
  0
LINE
  8
_3-0_
  6
CONTINUOUS
 62
    7
 10
312.16983839766522
 20
227.29580729011832
 11
350.93081939643889
 21
266.01150129606447
  0
LINE
  8
_3-0_
  6
CONTINUOUS
 62
    7
 10
316.50333512509792
 20
225.51712160631803
 11
356.99693400462274
 21
266.01150129606447
  0
LINE
  8
_3-0_
  6
CONTINUOUS
 62
    7
 10
322.6139559158878
 20
225.51712160631803
 11
363.10833560563378
 21
266.01150129606447
  0
LINE
  8
_3-0_
  6
CONTINUOUS
 62
    7
 10
328.72535751689884
 20
225.51712160631803
 11
369.21895639642412
 21
266.01150129606447
  0
LINE
  8
_3-0_
  6
CONTINUOUS
 62
    7
 10
334.7899105046406
 20
225.51712160631803
 11
375.28194776372334
 21
266.01150129606447
  0
LINE
  8
_3-0_
  6
CONTINUOUS
 62
    7
 10
340.90053129543071
 20
225.51712160631803
 11
381.39491098517692
 21
266.01150129606447
  0
LINE
  8
_3-0_
  6
CONTINUOUS
 62
    7
 10
347.01037127599943
 20
225.51712160631803
 11
387.45790235247614
 21
266.01150129606447
  0
LINE
  8
_3-0_
  6
CONTINUOUS
 62
    7
 10
353.07648588418374
 20
225.51712160631803
 11
393.57008476370856
 21
266.01150129606447
  0
LINE
  8
_3-0_
  6
CONTINUOUS
 62
    7
 10
376.28445582423188
 20
225.51712160631803
 11
408.93481603221545
 21
258.16904343474368
  0
LINE
  8
_3-0_
  6
CONTINUOUS
 62
    7
 10
382.39429580480083
 20
225.51712160631803
 11
408.93481603221545
 21
252.10214801633882
  0
LINE
  8
_3-0_
  6
CONTINUOUS
 62
    7
 10
388.50647821603326
 20
225.51712160631803
 11
408.93481603221545
 21
245.99152722554857
  0
LINE
  8
_3-0_
  6
CONTINUOUS
 62
    7
 10
394.57025039355386
 20
225.51712160631803
 11
408.93481603221545
 21
239.92619342758587
  0
LINE
  8
_3-0_
  6
CONTINUOUS
 62
    7
 10
400.68087118434397
 20
225.51712160631803
 11
408.93559684243638
 21
233.81869587768
  0
LINE
  8
_3-0_
  6
CONTINUOUS
 62
    7
 10
406.79149197513385
 20
225.51712160631803
 11
408.93481603221545
 21
227.70651346644809
  0
LINE
  8
_3-0_
  6
CONTINUOUS
 62
    7
 10
370.21912202626942
 20
225.51712160631803
 11
408.93481603221545
 21
264.27966422553379
  0
LINE
  8
_3-0_
  6
CONTINUOUS
 62
    7
 10
358.65922764029256
 20
225.51712160631803
 11
399.10675871676926
 21
266.01150129606447
  0
LINE
  8
_3-0_
  6
CONTINUOUS
 62
    7
 10
364.72534224847686
 20
225.51712160631803
 11
405.21894112800169
 21
266.01150129606447
  0
TEXT
  8
_3-0_
 62
    7
 10
413.55692304913623
 20
269.4412025916107
 40
8
 41
1
 50
0
  1
両面テープ
  0
TEXT
  8
_3-0_
 62
    7
 10
413.55692304913623
 20
297.29152012732436
 40
8
 41
1
 50
0
  1
LED基板
  0
TEXT
  8
_3-0_
 62
    7
 10
413.55692304913623
 20
285.20741412732434
 40
8
 41
1
 50
0
  1
アルミフレーム
  0
LINE
  8
_3-0_
  6
CONTINUOUS
 62
    7
 10
412.02103876213323
 20
301.27008746924605
 11
372.92097115345837
 21
284.37257081424082
  0
LINE
  8
_3-0_
  6
CONTINUOUS
 62
    7
 10
413.00345252114516
 20
288.69519135389334
 11
378.42248820392513
 21
272.78008845790004
  0
LINE
  8
_3-0_
  6
CONTINUOUS
 62
    7
 10
413.39641802474995
 20
273.36953671330718
 11
376.65414343770368
 21
266.68912315202607
  0
TEXT
  8
_0-0_1
 62
    7
 10
730.20394363201649
 20
47.343932393979003
 40
8
 41
1
 50
0
  1
LXSW-FB モジュール
  0
TEXT
  8
_1-0_
 62
    7
 10
296.23398934911006
 20
333.91455614992412
 40
8
 41
1
 50
0
  1
S = 1 : 1
  0
TEXT
  8
_0-0_1
 62
    7
 10
748.22513652654379
 20
21.013619341401466
 40
12
 41
1
 50
0
  1
F5207070
  0
LINE
  8
_2-0_
  6
CONTINUOUS
 62
    7
 10
344.1832613526272
 20
480.97532619814689
 11
145.81553090958164
 21
480.97532619814689
  0
LINE
  8
_2-0_
  6
CONTINUOUS
 62
    7
 10
530.26690076400337
 20
480.97532619814689
 11
347.67862322228211
 21
480.97532619814689
  0
LINE
  8
_2-0_
  6
CONTINUOUS
 62
    7
 10
530.26690076400337
 20
461.00345079488892
 11
349.48656901693118
 21
461.00345079488892
  0
LINE
  8
_2-0_
  6
CONTINUOUS
 62
    7
 10
345.50908826870318
 20
461.00345079488892
 11
145.81553090958164
 21
461.00345079488892
  0
TEXT
  8
_1-0_
 62
    7
 10
572.92248754948889
 20
67.889341972198309
 40
10.000000000000057
 41
0.9999999999999943
 50
0
  1
3960
  0
TEXT
  8
_1-0_
 62
    7
 10
742.29525295124176
 20
101.87501750967098
 40
4
 41
1
 50
0
  1
シルバーアルマイト加工
  0
LINE
  8
_2-0_
  6
CONTINUOUS
 62
    7
 10
633.63079643470144
 20
468.06406317986637
 11
633.63079643470144
 21
473.91202663869069
  0
LINE
  8
_2-0_
  6
CONTINUOUS
 62
    7
 10
635.23079643470146
 20
463.97876706437114
 11
635.23079643470146
 21
477.97876706437114
  0
LINE
  8
_2-0_
  6
CONTINUOUS
 62
    7
 10
635.20484202390537
 20
473.91202663869069
 11
633.63079643470144
 21
473.91202663869069
  0
LINE
  8
_2-0_
  6
CONTINUOUS
 62
    7
 10
635.22810648784093
 20
468.06406317986637
 11
633.63079643470144
 21
468.06406317986637
  0
LINE
  8
_2-0_
  6
CONTINUOUS
 62
    7
 10
638.63079643470144
 20
463.97876706437114
 11
638.63079643470144
 21
477.97876706437114
  0
LINE
  8
_2-0_
  6
CONTINUOUS
 62
    7
 10
635.23079643470146
 20
477.97876706437114
 11
639.94624728649001
 21
477.97876706437114
  0
LINE
  8
_2-0_
  6
CONTINUOUS
 62
    7
 10
635.23079643470146
 20
463.97876706437114
 11
639.99277621436102
 21
463.97876706437114
  0
LINE
  8
_2-0_
  6
CONTINUOUS
 62
    4
 10
633.62382443470142
 20
426.97876706437114
 11
633.62382443470142
 21
455.57876706437105
  0
LINE
  8
_2-0_
  6
CONTINUOUS
 62
    4
 10
633.62382443470142
 20
430.97876706437114
 11
636.52160043470144
 21
431.75522506437119
  0
LINE
  8
_2-0_
  6
CONTINUOUS
 62
    4
 10
633.62382443470142
 20
430.97876706437114
 11
636.52160043470144
 21
430.20230906437132
  0
LINE
  8
_2-0_
  6
CONTINUOUS
 62
    4
 10
633.84002568607798
 20
430.97876706437114
 11
644.08382443470146
 21
430.97876706437114
  0
TEXT
  8
_2-0_
 62
    7
 10
637.10990799814999
 20
432.24680366832803
 40
8
 41
1
 50
0
  1
6
  0
LINE
  8
_3-0_
  6
CONTINUOUS
 62
    7
 10
746.82894877730837
 20
409.94530203468776
 11
728.02894877730819
 21
409.94530203468776
  0
LINE
  8
_3-0_
  6
CONTINUOUS
 62
    7
 10
706.82894877730837
 20
409.94530203468776
 11
728.02894877730819
 21
409.94530203468776
  0
LINE
  8
_3-0_
  6
CONTINUOUS
 62
    7
 10
746.82894877730837
 20
409.94530203468776
 11
746.82894877730837
 21
401.94530203468776
  0
LINE
  8
_3-0_
  6
CONTINUOUS
 62
    7
 10
706.82894877730837
 20
409.94530203468776
 11
706.82894877730837
 21
401.94530203468776
  0
LINE
  8
_3-0_
  6
CONTINUOUS
 62
    7
 10
746.82894877730837
 20
401.94530203468776
 11
706.82894877730837
 21
401.94530203468776
  0
LINE
  8
_3-0_
  6
CONTINUOUS
 62
    7
 10
742.82894877730837
 20
401.14530203468775
 11
710.82894877730837
 21
401.14530203468775
  0
LINE
  8
_3-0_
  6
CONTINUOUS
 62
    7
 10
742.82894877730837
 20
401.91229389319392
 11
742.82894877730837
 21
401.14530203468775
  0
LINE
  8
_3-0_
  6
CONTINUOUS
 62
    7
 10
710.82894877730837
 20
401.84581422400618
 11
710.82894877730837
 21
401.14530203468775
  0
LINE
  8
_3-0_
  6
CONTINUOUS
 62
    7
 10
720.99954100829882
 20
422.85135803468773
 11
732.69546792594747
 21
422.85135803468773
  0
LINE
  8
_3-0_
  6
CONTINUOUS
 62
    7
 10
712.82894877730837
 20
419.65135803468775
 11
740.82894877730837
 21
419.65135803468775
  0
LINE
  8
_3-0_
  6
CONTINUOUS
 62
    7
 10
732.69546792594747
 20
419.70326685627987
 11
732.69546792594747
 21
422.85135803468773
  0
LINE
  8
_3-0_
  6
CONTINUOUS
 62
    7
 10
720.99954100829882
 20
419.65673792840886
 11
720.99954100829882
 21
422.85135803468773
  0
LINE
  8
_3-0_
  6
CONTINUOUS
 62
    7
 10
712.82894877730837
 20
412.85135803468773
 11
740.82894877730837
 21
412.85135803468773
  0
LINE
  8
_3-0_
  6
CONTINUOUS
 62
    7
 10
740.82894877730837
 20
419.65135803468775
 11
740.82894877730837
 21
410.22045633111054
  0
LINE
  8
_3-0_
  6
CONTINUOUS
 62
    7
 10
712.82894877730837
 20
419.65135803468775
 11
712.82894877730837
 21
410.12739847536858
  0
LINE
  8
_3-0_
  6
CONTINUOUS
 62
    4
 10
713.0194371161142
 20
437.51095749065058
 11
741.0194371161142
 21
437.51095749065058
  0
LINE
  8
_3-0_
  6
CONTINUOUS
 62
    4
 10
713.0194371161142
 20
437.51095749065058
 11
718.81499207384866
 21
439.06387176126572
  0
LINE
  8
_3-0_
  6
CONTINUOUS
 62
    4
 10
713.0194371161142
 20
437.51095749065058
 11
718.81499207384866
 21
435.95804322003545
  0
LINE
  8
_3-0_
  6
CONTINUOUS
 62
    4
 10
741.0194371161142
 20
437.51095749065058
 11
735.22388215837987
 21
435.95804322003545
  0
LINE
  8
_3-0_
  6
CONTINUOUS
 62
    4
 10
741.0194371161142
 20
437.51095749065058
 11
735.22388215837987
 21
439.06387176126572
  0
LINE
  8
_3-0_
  6
CONTINUOUS
 62
    4
 10
713.0194371161142
 20
438.51095749065058
 11
713.0194371161142
 21
422.88074066982375
  0
LINE
  8
_3-0_
  6
CONTINUOUS
 62
    4
 10
741.0194371161142
 20
438.51095749065058
 11
741.0194371161142
 21
422.88074066982375
  0
TEXT
  8
_3-0_
 62
    7
 10
725.0194371161142
 20
438.51095749065058
 40
8
 41
1
 50
0
  1
7
  0
LINE
  8
_3-0_
  6
CONTINUOUS
 62
    4
 10
707.0194371161142
 20
452.59047340111505
 11
747.0194371161142
 21
452.59047340111505
  0
LINE
  8
_3-0_
  6
CONTINUOUS
 62
    4
 10
707.0194371161142
 20
452.59047340111505
 11
712.81499207384866
 21
454.14338767173018
  0
LINE
  8
_3-0_
  6
CONTINUOUS
 62
    4
 10
707.0194371161142
 20
452.59047340111505
 11
712.81499207384866
 21
451.03755913049991
  0
LINE
  8
_3-0_
  6
CONTINUOUS
 62
    4
 10
747.0194371161142
 20
452.59047340111505
 11
741.22388215837987
 21
451.03755913049991
  0
LINE
  8
_3-0_
  6
CONTINUOUS
 62
    4
 10
747.0194371161142
 20
452.59047340111505
 11
741.22388215837987
 21
454.14338767173018
  0
TEXT
  8
_3-0_
 62
    7
 10
722.7694371161142
 20
453.59047340111505
 40
8
 41
1
 50
0
  1
10
  0
LINE
  8
_3-0_
  6
CONTINUOUS
 62
    4
 10
681.23074066989489
 20
423.1468575795023
 11
682.00719666989494
 21
420.24907957950222
  0
LINE
  8
_3-0_
  6
CONTINUOUS
 62
    4
 10
681.23074066989489
 20
423.1468575795023
 11
680.45428266989495
 21
420.24907957950222
  0
LINE
  8
_3-0_
  6
CONTINUOUS
 62
    4
 10
681.23914966309667
 20
401.4056791909818
 11
681.23914966309667
 21
423.1880018309447
  0
TEXT
  8
_3-0_
 62
    7
 10
678.03899153694306
 20
410.23286137470609
 40
8
 41
1
 50
90
  1
6
  0
LINE
  8
_3-0_
  6
CONTINUOUS
 62
    4
 10
677.23914966309667
 20
423.02137905384603
 11
701.67782959076089
 21
423.02137905384603
  0
LINE
  8
_3-0_
  6
CONTINUOUS
 62
    7
 10
381.65789437328573
 20
275.05556464620855
 11
362.85789437328555
 21
275.05556464620855
  0
LINE
  8
_3-0_
  6
CONTINUOUS
 62
    7
 10
341.65789437328573
 20
275.05556464620855
 11
362.85789437328555
 21
275.05556464620855
  0
LINE
  8
_3-0_
  6
CONTINUOUS
 62
    7
 10
381.65789437328573
 20
275.05556464620855
 11
381.65789437328573
 21
267.05556464620855
  0
LINE
  8
_3-0_
  6
CONTINUOUS
 62
    7
 10
341.65789437328573
 20
275.05556464620855
 11
341.65789437328573
 21
267.05556464620855
  0
LINE
  8
_3-0_
  6
CONTINUOUS
 62
    7
 10
381.65789437328573
 20
267.05556464620855
 11
341.65789437328573
 21
267.05556464620855
  0
LINE
  8
_3-0_
  6
CONTINUOUS
 62
    7
 10
377.65789437328573
 20
266.25556464620854
 11
345.65789437328573
 21
266.25556464620854
  0
LINE
  8
_3-0_
  6
CONTINUOUS
 62
    7
 10
377.65789437328573
 20
267.02255650471471
 11
377.65789437328573
 21
266.25556464620854
  0
LINE
  8
_3-0_
  6
CONTINUOUS
 62
    7
 10
345.65789437328573
 20
266.95607683552697
 11
345.65789437328573
 21
266.25556464620854
  0
LINE
  8
_3-0_
  6
CONTINUOUS
 62
    7
 10
355.82848660427618
 20
287.96162064620853
 11
367.52441352192483
 21
287.96162064620853
  0
LINE
  8
_3-0_
  6
CONTINUOUS
 62
    7
 10
347.65789437328573
 20
284.76162064620854
 11
375.65789437328573
 21
284.76162064620854
  0
LINE
  8
_3-0_
  6
CONTINUOUS
 62
    7
 10
367.52441352192483
 20
284.81352946780066
 11
367.52441352192483
 21
287.96162064620853
  0
LINE
  8
_3-0_
  6
CONTINUOUS
 62
    7
 10
355.82848660427618
 20
284.76700053992965
 11
355.82848660427618
 21
287.96162064620853
  0
LINE
  8
_3-0_
  6
CONTINUOUS
 62
    7
 10
347.65789437328573
 20
277.96162064620853
 11
375.65789437328573
 21
277.96162064620853
  0
LINE
  8
_3-0_
  6
CONTINUOUS
 62
    7
 10
375.65789437328573
 20
284.76162064620854
 11
375.65789437328573
 21
275.33071894263134
  0
LINE
  8
_3-0_
  6
CONTINUOUS
 62
    7
 10
347.65789437328573
 20
284.76162064620854
 11
347.65789437328573
 21
275.23766108688937
  0
LINE
  8
_3-0_
  6
CONTINUOUS
 62
    4
 10
316.13713267798414
 20
266.97187653598041
 11
316.13713267798414
 21
287.84919461845584
  0
LINE
  8
_3-0_
  6
CONTINUOUS
 62
    4
 10
312.13713267798414
 20
266.97187653598041
 11
338.11069047765881
 21
266.97187653598041
  0
LINE
  8
_3-0_
  6
CONTINUOUS
 62
    4
 10
312.13713267798414
 20
288.31713353001209
 11
338.11069047765881
 21
288.31713353001209
  0
LINE
  8
_3-0_
  6
CONTINUOUS
 62
    4
 10
347.91742013100179
 20
304.4020168908587
 11
375.91742013100179
 21
304.4020168908587
  0
LINE
  8
_3-0_
  6
CONTINUOUS
 62
    4
 10
347.91742013100179
 20
304.4020168908587
 11
353.71297508873619
 21
305.95493116147384
  0
LINE
  8
_3-0_
  6
CONTINUOUS
 62
    4
 10
347.91742013100179
 20
304.4020168908587
 11
353.71297508873619
 21
302.84910262024357
  0
LINE
  8
_3-0_
  6
CONTINUOUS
 62
    4
 10
375.91742013100179
 20
304.4020168908587
 11
370.12186517326739
 21
302.84910262024357
  0
LINE
  8
_3-0_
  6
CONTINUOUS
 62
    4
 10
375.91742013100179
 20
304.4020168908587
 11
370.12186517326739
 21
305.95493116147384
  0
LINE
  8
_3-0_
  6
CONTINUOUS
 62
    4
 10
347.91742013100179
 20
305.4020168908587
 11
347.91742013100179
 21
289.77180007003187
  0
LINE
  8
_3-0_
  6
CONTINUOUS
 62
    4
 10
375.91742013100179
 20
305.4020168908587
 11
375.91742013100179
 21
289.77180007003187
  0
TEXT
  8
_3-0_
 62
    7
 10
359.91742013100179
 20
305.4020168908587
 40
8
 41
1
 50
0
  1
7
  0
LINE
  8
_3-0_
  6
CONTINUOUS
 62
    4
 10
341.91742013100179
 20
319.03443502605694
 11
381.91742013100179
 21
319.03443502605694
  0
LINE
  8
_3-0_
  6
CONTINUOUS
 62
    4
 10
341.91742013100179
 20
319.03443502605694
 11
347.71297508873619
 21
320.58734929667207
  0
LINE
  8
_3-0_
  6
CONTINUOUS
 62
    4
 10
341.91742013100179
 20
319.03443502605694
 11
347.71297508873619
 21
317.48152075544181
  0
LINE
  8
_3-0_
  6
CONTINUOUS
 62
    4
 10
381.91742013100179
 20
319.03443502605694
 11
376.12186517326739
 21
317.48152075544181
  0
LINE
  8
_3-0_
  6
CONTINUOUS
 62
    4
 10
381.91742013100179
 20
319.03443502605694
 11
376.12186517326739
 21
320.58734929667207
  0
TEXT
  8
_3-0_
 62
    7
 10
357.66742013100179
 20
320.03443502605694
 40
8
 41
1
 50
0
  1
10
  0
LINE
  8
_2-0_
  6
CONTINUOUS
 62
    7
 10
530.26690076400337
 20
461.00345079488892
 11
530.26690076400337
 21
468.14865690169313
  0
LINE
  8
_2-0_
  6
CONTINUOUS
 62
    7
 10
530.26690076400337
 20
474.09360807350981
 11
530.26690076400337
 21
480.97532619814689
  0
LINE
  8
_3-0_
  6
CONTINUOUS
 62
    4
 10
316.08796380779745
 20
288.48799983576663
 11
317.25264780779753
 21
284.14133283576655
  0
LINE
  8
_3-0_
  6
CONTINUOUS
 62
    4
 10
316.08796380779745
 20
288.48799983576663
 11
314.92327680779761
 21
284.14133283576655
  0
LINE
  8
_3-0_
  6
CONTINUOUS
 62
    4
 10
316.08796380779745
 20
266.87537618517933
 11
314.92327680779761
 21
271.22204318517936
  0
LINE
  8
_3-0_
  6
CONTINUOUS
 62
    4
 10
316.08796380779745
 20
266.87537618517933
 11
317.25264780779753
 21
271.22204318517936
  0
TEXT
  8
_1-0_
 62
    7
 10
636.17885126635792
 20
132.00693023902036
 40
7
 41
1
 50
0
  1
落下等による破損の原因になります。
  0
TEXT
  8
_1-0_
 62
    7
 10
628.97431094702347
 20
158.49510614996032
 40
7
 41
1
 50
0
  1
※電源の入力は必ず片側からだけにしてください。
  0
TEXT
  8
_1-0_
 62
    7
 10
628.97431094702347
 20
141.46300069873243
 40
7
 41
1
 50
0
  1
※取付箇所の下地・強度にご注意下さい。
  0
TEXT
  8
_1-0_
 62
    7
 10
433.31020004118841
 20
160.2408170393594
 40
10
 41
0.9999999999999996
 50
0
  1
K：片側仕様 / R：両側仕様
  0
TEXT
  8
_1-0_
 62
    7
 10
82.416567674862222
 20
156.06110220265685
 40
16
 41
1
 50
0
  1
LXSW-FB-1000-N K
  0
TEXT
  8
_1-0_
 62
    7
 10
628.97431094702347
 20
167.23204283216219
 40
7
 41
1
 50
0
  1
※本製品は入力電圧DC24V専用です。
  0
TEXT
  8
_1-0_
 62
    7
 10
628.97431094702347
 20
150.20242048549753
 40
7
 41
1
 50
0
  1
※定格表を参考にして最大連結長さを守って下さい。
  0
TEXT
  8
_0-0_1
 62
    7
 10
732.99305212032993
 20
61.945408162915385
 40
6
 41
1
 50
0
  1
2020年07月22日
  0
TEXT
  8
_1-0_
 62
    7
 10
102.44498607005119
 20
19.800000000000011
 40
7
 41
1
 50
0
  1
WW:3500K / L30:3000K / L27:2700K / L25:2500K
  0
ENDSEC
  0
EOF
