  0
SECTION
  2
HEADER
  9
$ACADVER
  1
AC1009
  9
$INSBASE
 10
0
 20
0
 30
0
  9
$EXTMIN
 10
0
 20
0
  9
$EXTMAX
 10
420
 20
297
  9
$LIMMIN
 10
0
 20
0
  9
$LIMMAX
 10
420
 20
297
  9
$LTSCALE
 40
1
  0
ENDSEC
  0
SECTION
  2
TABLES
  0
TABLE
  2
LTYPE
 70
     9
  0
LTYPE
  2
CONTINUOUS
 70
    64
  3
実線
 72
    65
 73
     0
 40
0.0
  0
LTYPE
  2
DASHED1
 70
    64
  3
--  --  --  --  --  --  --  --  
 72
    65
 73
     2
 40
2.5
 49
1.25
 49
-1.25
  0
LTYPE
  2
DASHED2
 70
    64
  3
----    ----    ----    ----    
 72
    65
 73
     2
 40
5.0
 49
2.5
 49
-2.5
  0
LTYPE
  2
DASHED3
 70
    64
  3
------  ------  ------  ------  
 72
    65
 73
     2
 40
5.0
 49
3.75
 49
-1.25
  0
LTYPE
  2
CENTER1
 70
    64
  3
----- - ----- - ----- - ----- - 
 72
    65
 73
     4
 40
10.0
 49
6.25
 49
-1.25
 49
1.25
 49
-1.25
  0
LTYPE
  2
CENTER2
 70
    64
  3
----------  --  ----------  --  
 72
    65
 73
     4
 40
20.0
 49
12.5
 49
-2.5
 49
2.5
 49
-2.5
  0
LTYPE
  2
PHANTOM1
 70
    64
  3
--- - - --- - - --- - - --- - - 
 72
    65
 73
     6
 40
10.0
 49
3.25
 49
-1.25
 49
1.25
 49
-1.25
 49
1.25
 49
-1.25
  0
LTYPE
  2
PHANTOM2
 70
    64
  3
--------  -  -  --------  -  -  
 72
    65
 73
     6
 40
20.0
 49
10.0
 49
-2.5
 49
1.25
 49
-2.5
 49
1.25
 49
-2.5
  0
LTYPE
  2
DOT
 70
    64
  3
-   -   -   -   -   -   -   -   
 72
    65
 73
     2
 40
2.5
 49
0.625
 49
-1.875
  0
LTYPE
  2
DUMMY
 70
    64
  3
ダミー
 72
    65
 73
     0
 40
0.0
  0
LTYPE
  2
RAND1
 70
    64
  3
ランダム線1
 72
    65
 73
     4
 40
10.0
 49
1.0
 49
-2.0
 49
3.0
 49
-4.0
  0
LTYPE
  2
RAND2
 70
    64
  3
ランダム線2
 72
    65
 73
     4
 40
14.0
 49
2.0
 49
-3.0
 49
4.0
 49
-5.0
  0
LTYPE
  2
RAND3
 70
    64
  3
ランダム線3
 72
    65
 73
     4
 40
18.0
 49
3.0
 49
-4.0
 49
5.0
 49
-6.0
  0
LTYPE
  2
RAND4
 70
    64
  3
ランダム線4
 72
    65
 73
     4
 40
22.0
 49
4.0
 49
-5.0
 49
6.0
 49
-7.0
  0
LTYPE
  2
RAND5
 70
    64
  3
ランダム線5
 72
    65
 73
     4
 40
26.0
 49
5.0
 49
-6.0
 49
7.0
 49
-8.0
  0
LTYPE
  2
LONG1
 70
    64
  3
----------  --  ----------  --  
 72
    65
 73
     4
 40
40.0
 49
32.5
 49
-2.5
 49
2.5
 49
-2.5
  0
LTYPE
  2
LONG2
 70
    64
  3
--------  -  -  --------  -  -  
 72
    65
 73
     6
 40
40.0
 49
30.0
 49
-2.5
 49
1.25
 49
-2.5
 49
1.25
 49
-2.5
  0
LTYPE
  2
LONG3
 70
    64
  3
+++++++++++++++..+++++++++++++++
 72
    65
 73
     2
 40
40.0
 49
37.5
 49
-2.5
  0
LTYPE
  2
LONG4
 70
    64
  3
+++++++++++++++..+++++++++++++++
 72
    65
 73
     2
 40
80.0
 49
75.0
 49
-5.0
  0
LTYPE
  2
LONG5
 70
    64
  3
----------  --  ----------  --  
 72
    65
 73
     4
 40
60.0
 49
37.5
 49
-7.5
 49
7.5
 49
-7.5
  0
LTYPE
  2
dashed
 70
   64
  3
-------   -------------   ------
 72
   65
 73
    2
 40
7.5
 49
6
 49
-1.5
  0
LTYPE
  2
dashed_spaced
 70
   64
  3
----        --------        ----
 72
   65
 73
    2
 40
12
 49
6
 49
-6
  0
LTYPE
  2
long_dashed_dotted
 70
   64
  3
------------- --- --------------
 72
   65
 73
    4
 40
15.25
 49
12
 49
-1.5
 49
0.25
 49
-1.5
  0
LTYPE
  2
long_dashed_double-dotted
 70
   64
  3
----------- --- --- ------------
 72
   65
 73
    6
 40
17
 49
12
 49
-1.5
 49
0.25
 49
-1.5
 49
0.25
 49
-1.5
  0
LTYPE
  2
long_dashed_triplicate-dotted
 70
   64
  3
--------- --- --- --- ----------
 72
   65
 73
    8
 40
18.75
 49
12
 49
-1.5
 49
0.25
 49
-1.5
 49
0.25
 49
-1.5
 49
0.25
 49
-1.5
  0
LTYPE
  2
dotted
 70
   64
  3
   -       -       -       -    
 72
   65
 73
    2
 40
1.75
 49
0.25
 49
-1.5
  0
LTYPE
  2
chain
 70
   64
  3
-------------- -- --------------
 72
   65
 73
    4
 40
18.5
 49
12
 49
-1.5
 49
3.5
 49
-1.5
  0
LTYPE
  2
chain_double_dash
 70
   64
  3
------------ -- -- -------------
 72
   65
 73
    6
 40
23.5
 49
12
 49
-1.5
 49
3.5
 49
-1.5
 49
3.5
 49
-1.5
  0
LTYPE
  2
dashed_dotted
 70
   64
  3
-----------     -     ----------
 72
   65
 73
    4
 40
9.25
 49
6
 49
-1.5
 49
0.25
 49
-1.5
  0
LTYPE
  2
double-dashed_dotted
 70
   64
  3
------   -----------   -   -----
 72
   65
 73
    6
 40
16.75
 49
6
 49
-1.5
 49
6
 49
-1.5
 49
0.25
 49
-1.5
  0
LTYPE
  2
dashed_double-dotted
 70
   64
  3
---------    -    -    ---------
 72
   65
 73
    6
 40
11
 49
6
 49
-1.5
 49
0.25
 49
-1.5
 49
0.25
 49
-1.5
  0
LTYPE
  2
double-dashed_double-dotted
 70
   64
  3
-----   ---------   -   -   ----
 72
   65
 73
    8
 40
18.5
 49
6
 49
-1.5
 49
6
 49
-1.5
 49
0.25
 49
-1.5
 49
0.25
 49
-1.5
  0
LTYPE
  2
dashed_triplicate-dotted
 70
   64
  3
-------    -    -    -    ------
 72
   65
 73
    8
 40
12.75
 49
6
 49
-1.5
 49
0.25
 49
-1.5
 49
0.25
 49
-1.5
 49
0.25
 49
-1.5
  0
LTYPE
  2
double-dashed_triplicate-dotted
 70
   64
  3
-----  ---------  -  -  -  -----
 72
   65
 73
   10
 40
20.25
 49
6
 49
-1.5
 49
6
 49
-1.5
 49
0.25
 49
-1.5
 49
0.25
 49
-1.5
 49
0.25
 49
-1.5
  0
LTYPE
  2
undefined
 70
   64
  3
--------------------------------
 72
   65
 73
    0
 40
0
  0
LTYPE
  2
_
 70
   64
  3
                                
 72
   65
 73
    0
 40
0
  0
LTYPE
  2
__18
 70
   64
  3
                                
 72
   65
 73
    0
 40
0
  0
LTYPE
  2
__19
 70
   64
  3
                                
 72
   65
 73
    0
 40
0
  0
LTYPE
  2
__20
 70
   64
  3
                                
 72
   65
 73
    0
 40
0
  0
LTYPE
  2
__21
 70
   64
  3
                                
 72
   65
 73
    0
 40
0
  0
LTYPE
  2
__22
 70
   64
  3
                                
 72
   65
 73
    0
 40
0
  0
LTYPE
  2
__23
 70
   64
  3
                                
 72
   65
 73
    0
 40
0
  0
LTYPE
  2
__24
 70
   64
  3
                                
 72
   65
 73
    0
 40
0
  0
LTYPE
  2
__25
 70
   64
  3
                                
 72
   65
 73
    0
 40
0
  0
LTYPE
  2
__26
 70
   64
  3
                                
 72
   65
 73
    0
 40
0
  0
LTYPE
  2
__27
 70
   64
  3
                                
 72
   65
 73
    0
 40
0
  0
LTYPE
  2
__28
 70
   64
  3
                                
 72
   65
 73
    0
 40
0
  0
LTYPE
  2
__29
 70
   64
  3
                                
 72
   65
 73
    0
 40
0
  0
LTYPE
  2
__30
 70
   64
  3
                                
 72
   65
 73
    0
 40
0
  0
LTYPE
  2
__31
 70
   64
  3
                                
 72
   65
 73
    0
 40
0
  0
LTYPE
  2
__32
 70
   64
  3
                                
 72
   65
 73
    0
 40
0
  0
ENDTAB
  0
TABLE
  2
STYLE
  5
3
100
AcDbSymbolTable
 70
     1
  0
STYLE
  5
10
100
AcDbSymbolTableRecord
100
AcDbTextStyleTableRecord
  2
STANDARD
 70
     0
 40
0.0
 41
1.0
 50
0.0
 71
     0
 42
0.2
  3
txt
  4
bigfont.shx
  0
STYLE
  5
26
100
AcDbSymbolTableRecord
100
AcDbTextStyleTableRecord
  2
TATEGAKI
 70
    68
 40
0.0
 41
1.0
 50
0.0
 71
     0
 42
1.0
  3
txt
  4
bigfont.shx
  0
ENDTAB
  0
TABLE
  2
LAYER
 70
    3
  0
LAYER
  2
_0-0_0
 70
   64
 62
    7
  6
CONTINUOUS
  0
LAYER
  2
_0-1__U_30EC_U_30A4_U_30E4_U_30FC_1
 70
   64
 62
    7
  6
CONTINUOUS
  0
LAYER
  2
ADD_LINE
 70
   64
 62
    7
  6
CONTINUOUS
  0
ENDTAB
  0
ENDSEC
  0
SECTION
  2
BLOCKS
  0
ENDSEC
  0
SECTION
  2
ENTITIES
  0
LINE
  8
_0-1__U_30EC_U_30A4_U_30E4_U_30FC_1
  6
CONTINUOUS
 62
  250
 10
307.34436608219909
 20
202.2428023409586
 11
307.42911543113632
 21
200.9781077883234
  0
LINE
  8
_0-1__U_30EC_U_30A4_U_30E4_U_30FC_1
  6
CONTINUOUS
 62
  250
 10
149.29234246719818
 20
112.79641021922302
 11
148.77420010621663
 21
113.09406646914837
  0
LINE
  8
_0-1__U_30EC_U_30A4_U_30E4_U_30FC_1
  6
CONTINUOUS
 62
  250
 10
149.40120748453208
 20
112.32649919503481
 11
148.77420010621663
 21
112.65929541890998
  0
LINE
  8
_0-1__U_30EC_U_30A4_U_30E4_U_30FC_1
  6
CONTINUOUS
 62
  250
 10
149.69541863897243
 20
113.14505388233019
 11
149.29854363907165
 21
112.78814199005839
  0
LINE
  8
_0-1__U_30EC_U_30A4_U_30E4_U_30FC_1
  6
CONTINUOUS
 62
  250
 10
149.81737501915026
 20
112.74817888242941
 11
149.45081685951968
 21
112.32649919503481
  0
LINE
  8
_0-1__U_30EC_U_30A4_U_30E4_U_30FC_1
  6
CONTINUOUS
 62
  250
 10
149.86560635594375
 20
112.73646555777961
 11
149.94966668578385
 21
111.47142649559581
  0
LINE
  8
_0-1__U_30EC_U_30A4_U_30E4_U_30FC_1
  6
CONTINUOUS
 62
  250
 10
143.7588300987899
 20
113.83269494118602
 11
135.74898309558404
 21
118.37126373345419
  0
LINE
  8
_0-0_0
  6
CONTINUOUS
 62
    7
 10
146.66558868158171
 20
112.50002934688771
 11
146.66558868158171
 21
112.50002934688771
  0
LINE
  8
_0-0_0
  6
CONTINUOUS
 62
    7
 10
146.66558868158171
 20
112.50002934688771
 11
146.65039643459392
 21
112.70840716008803
  0
LINE
  8
_0-0_0
  6
CONTINUOUS
 62
    7
 10
146.65039643459392
 20
112.70840716008803
 11
146.60528130236762
 21
112.91045351887851
  0
LINE
  8
_0-0_0
  6
CONTINUOUS
 62
    7
 10
146.60528130236762
 20
112.91045351887851
 11
146.53161408536616
 21
113.10002934688771
  0
LINE
  8
_0-0_0
  6
CONTINUOUS
 62
    7
 10
146.53161408536616
 20
113.10002934688771
 11
146.43163312470068
 21
113.27137447851156
  0
LINE
  8
_0-0_0
  6
CONTINUOUS
 62
    7
 10
146.43163312470068
 20
113.27137447851156
 11
146.30837629126825
 21
113.41928267863049
  0
LINE
  8
_0-0_0
  6
CONTINUOUS
 62
    7
 10
146.30837629126825
 20
113.41928267863049
 11
146.16558868158171
 21
113.53925983142904
  0
LINE
  8
_0-0_0
  6
CONTINUOUS
 62
    7
 10
146.16558868158171
 20
113.53925983142904
 11
146.00760882490738
 21
113.62766049183081
  0
LINE
  8
_0-0_0
  6
CONTINUOUS
 62
    7
 10
146.00760882490738
 20
113.62766049183081
 11
145.83923685924864
 21
113.68179865050236
  0
LINE
  8
_0-0_0
  6
CONTINUOUS
 62
    7
 10
145.83923685924864
 20
113.68179865050236
 11
145.66558868158171
 21
113.70002934688772
  0
LINE
  8
_0-0_0
  6
CONTINUOUS
 62
    7
 10
145.66558868158171
 20
113.70002934688772
 11
145.49194050391478
 21
113.68179865050236
  0
LINE
  8
_0-0_0
  6
CONTINUOUS
 62
    7
 10
145.49194050391478
 20
113.68179865050236
 11
145.32356853825604
 21
113.62766049183081
  0
LINE
  8
_0-0_0
  6
CONTINUOUS
 62
    7
 10
145.32356853825604
 20
113.62766049183081
 11
145.16558868158171
 21
113.53925983142904
  0
LINE
  8
_0-0_0
  6
CONTINUOUS
 62
    7
 10
145.16558868158171
 20
113.53925983142904
 11
145.02280107189517
 21
113.41928267863049
  0
LINE
  8
_0-0_0
  6
CONTINUOUS
 62
    7
 10
145.02280107189517
 20
113.41928267863049
 11
144.89954423846274
 21
113.27137447851156
  0
LINE
  8
_0-0_0
  6
CONTINUOUS
 62
    7
 10
144.89954423846274
 20
113.27137447851156
 11
144.79956327779726
 21
113.10002934688771
  0
LINE
  8
_0-0_0
  6
CONTINUOUS
 62
    7
 10
144.79956327779726
 20
113.10002934688771
 11
144.7258960607958
 21
112.91045351887851
  0
LINE
  8
_0-0_0
  6
CONTINUOUS
 62
    7
 10
144.7258960607958
 20
112.91045351887851
 11
144.6807809285695
 21
112.70840716008803
  0
LINE
  8
_0-0_0
  6
CONTINUOUS
 62
    7
 10
144.6807809285695
 20
112.70840716008803
 11
144.66558868158171
 21
112.50002934688771
  0
LINE
  8
_0-0_0
  6
CONTINUOUS
 62
    7
 10
144.66558868158171
 20
112.50002934688771
 11
144.6807809285695
 21
112.2916515336874
  0
LINE
  8
_0-0_0
  6
CONTINUOUS
 62
    7
 10
144.6807809285695
 20
112.2916515336874
 11
144.7258960607958
 21
112.08960517489692
  0
LINE
  8
_0-0_0
  6
CONTINUOUS
 62
    7
 10
144.7258960607958
 20
112.08960517489692
 11
144.79956327779726
 21
111.90002934688772
  0
LINE
  8
_0-0_0
  6
CONTINUOUS
 62
    7
 10
144.79956327779726
 20
111.90002934688772
 11
144.89954423846274
 21
111.72868421526387
  0
LINE
  8
_0-0_0
  6
CONTINUOUS
 62
    7
 10
144.89954423846274
 20
111.72868421526387
 11
145.02280107189517
 21
111.58077601514495
  0
LINE
  8
_0-0_0
  6
CONTINUOUS
 62
    7
 10
145.02280107189517
 20
111.58077601514495
 11
145.16558868158171
 21
111.46079886234639
  0
LINE
  8
_0-0_0
  6
CONTINUOUS
 62
    7
 10
145.16558868158171
 20
111.46079886234639
 11
145.32356853825604
 21
111.37239820194462
  0
LINE
  8
_0-0_0
  6
CONTINUOUS
 62
    7
 10
145.32356853825604
 20
111.37239820194462
 11
145.49194050391478
 21
111.31826004327307
  0
LINE
  8
_0-0_0
  6
CONTINUOUS
 62
    7
 10
145.49194050391478
 20
111.31826004327307
 11
145.66558868158171
 21
111.30002934688771
  0
LINE
  8
_0-0_0
  6
CONTINUOUS
 62
    7
 10
145.66558868158171
 20
111.30002934688771
 11
145.83923685924864
 21
111.31826004327307
  0
LINE
  8
_0-0_0
  6
CONTINUOUS
 62
    7
 10
145.83923685924864
 20
111.31826004327307
 11
146.00760882490738
 21
111.37239820194462
  0
LINE
  8
_0-0_0
  6
CONTINUOUS
 62
    7
 10
146.00760882490738
 20
111.37239820194462
 11
146.16558868158171
 21
111.46079886234638
  0
LINE
  8
_0-0_0
  6
CONTINUOUS
 62
    7
 10
146.16558868158171
 20
111.46079886234638
 11
146.30837629126825
 21
111.58077601514493
  0
LINE
  8
_0-0_0
  6
CONTINUOUS
 62
    7
 10
146.30837629126825
 20
111.58077601514493
 11
146.43163312470068
 21
111.72868421526387
  0
LINE
  8
_0-0_0
  6
CONTINUOUS
 62
    7
 10
146.43163312470068
 20
111.72868421526387
 11
146.53161408536616
 21
111.90002934688771
  0
LINE
  8
_0-0_0
  6
CONTINUOUS
 62
    7
 10
146.53161408536616
 20
111.90002934688771
 11
146.60528130236762
 21
112.0896051748969
  0
LINE
  8
_0-0_0
  6
CONTINUOUS
 62
    7
 10
146.60528130236762
 20
112.0896051748969
 11
146.65039643459392
 21
112.2916515336874
  0
LINE
  8
_0-0_0
  6
CONTINUOUS
 62
    7
 10
146.65039643459392
 20
112.2916515336874
 11
146.66558868158171
 21
112.50002934688771
  0
LINE
  8
_0-0_0
  6
CONTINUOUS
 62
    7
 10
146.66558868158171
 20
112.50002934688771
 11
146.66558868158171
 21
112.50002934688771
  0
LINE
  8
_0-0_0
  6
CONTINUOUS
 62
    7
 10
306.22584802798247
 20
203.863830554852
 11
306.22584802798247
 21
203.0392037437687
  0
LINE
  8
_0-0_0
  6
CONTINUOUS
 62
    7
 10
306.20213688550996
 20
203.86742884827362
 11
305.57428838930565
 21
203.45292692844941
  0
LINE
  8
_0-0_0
  6
CONTINUOUS
 62
    7
 10
144.89762068051618
 20
104.2441656619052
 11
144.89762068051618
 21
104.2441656619052
  0
LINE
  8
_0-0_0
  6
CONTINUOUS
 62
    7
 10
144.89762068051618
 20
104.2441656619052
 11
145.3761289306367
 21
104.0191766064796
  0
LINE
  8
_0-0_0
  6
CONTINUOUS
 62
    7
 10
145.3761289306367
 20
104.0191766064796
 11
145.88399469598852
 21
103.88623719836109
  0
LINE
  8
_0-0_0
  6
CONTINUOUS
 62
    7
 10
145.88399469598852
 20
103.88623719836109
 11
146.40578673228384
 21
103.84938673419472
  0
LINE
  8
_0-0_0
  6
CONTINUOUS
 62
    7
 10
146.40578673228384
 20
103.84938673419472
 11
146.92565065253942
 21
103.90974489668697
  0
LINE
  8
_0-0_0
  6
CONTINUOUS
 62
    7
 10
146.92565065253942
 20
103.90974489668697
 11
147.42779065460206
 21
104.06547773361322
  0
LINE
  8
_0-0_0
  6
CONTINUOUS
 62
    7
 10
147.42779065460206
 20
104.06547773361322
 11
147.89694946860422
 21
104.3118533815281
  0
LINE
  8
_0-0_0
  6
CONTINUOUS
 62
    7
 10
147.89694946860422
 20
104.3118533815281
 11
148.31887194138827
 21
104.64138584104177
  0
LINE
  8
_0-0_0
  6
CONTINUOUS
 62
    7
 10
148.31887194138827
 20
104.64138584104177
 11
148.68073817212172
 21
105.04406243512339
  0
LINE
  8
_0-0_0
  6
CONTINUOUS
 62
    7
 10
148.68073817212172
 20
105.04406243512339
 11
148.97155303849686
 21
105.50764803922601
  0
LINE
  8
_0-0_0
  6
CONTINUOUS
 62
    7
 10
148.97155303849686
 20
105.50764803922601
 11
149.18248027795835
 21
106.01805683935457
  0
LINE
  8
_0-0_0
  6
CONTINUOUS
 62
    7
 10
149.18248027795835
 20
106.01805683935457
 11
149.30711097306948
 21
106.55978032239649
  0
LINE
  8
_0-0_0
  6
CONTINUOUS
 62
    7
 10
149.30711097306948
 20
106.55978032239649
 11
149.34231774629794
 21
107.05762651340567
  0
LINE
  8
_0-0_0
  6
CONTINUOUS
 62
    7
 10
305.82342692156061
 20
194.39300502328433
 11
305.82342692156061
 21
194.39300502328433
  0
LINE
  8
_0-0_0
  6
CONTINUOUS
 62
    7
 10
305.82342692156061
 20
194.39300502328433
 11
306.26170673380511
 21
194.69727858807286
  0
LINE
  8
_0-0_0
  6
CONTINUOUS
 62
    7
 10
306.26170673380511
 20
194.69727858807286
 11
306.6437938252318
 21
195.0781098104647
  0
LINE
  8
_0-0_0
  6
CONTINUOUS
 62
    7
 10
306.6437938252318
 20
195.0781098104647
 11
306.95807867291319
 21
195.52392732647735
  0
LINE
  8
_0-0_0
  6
CONTINUOUS
 62
    7
 10
306.95807867291319
 20
195.52392732647735
 11
307.19501189078812
 21
196.02118519648133
  0
LINE
  8
_0-0_0
  6
CONTINUOUS
 62
    7
 10
307.19501189078812
 20
196.02118519648133
 11
307.34739438292564
 21
196.55477449172119
  0
LINE
  8
_0-0_0
  6
CONTINUOUS
 62
    7
 10
307.34739438292564
 20
196.55477449172119
 11
307.41059608441128
 21
197.10848237147027
  0
LINE
  8
_0-0_0
  6
CONTINUOUS
 62
    7
 10
307.41059608441128
 20
197.10848237147027
 11
307.41230691014943
 21
197.22586350543509
  0
LINE
  8
_0-0_0
  6
CONTINUOUS
 62
    7
 10
306.30679589206704
 20
194.69977066420873
 11
306.30679589206704
 21
194.69977066420873
  0
LINE
  8
_0-0_0
  6
CONTINUOUS
 62
    7
 10
306.30679589206704
 20
194.69977066420873
 11
306.74773629666493
 21
194.99963873427785
  0
LINE
  8
_0-0_0
  6
CONTINUOUS
 62
    7
 10
306.74773629666493
 20
194.99963873427785
 11
307.13316075331545
 21
195.37662419879541
  0
LINE
  8
_0-0_0
  6
CONTINUOUS
 62
    7
 10
307.13316075331545
 20
195.37662419879541
 11
307.45135833493759
 21
195.81927254518587
  0
LINE
  8
_0-0_0
  6
CONTINUOUS
 62
    7
 10
307.45135833493759
 20
195.81927254518587
 11
307.69266076902943
 21
196.31413412743507
  0
LINE
  8
_0-0_0
  6
CONTINUOUS
 62
    7
 10
307.69266076902943
 20
196.31413412743507
 11
307.84973620323609
 21
196.8461728267784
  0
LINE
  8
_0-0_0
  6
CONTINUOUS
 62
    7
 10
307.84973620323609
 20
196.8461728267784
 11
307.91781197997307
 21
197.39922291656086
  0
LINE
  8
_0-0_0
  6
CONTINUOUS
 62
    7
 10
307.91781197997307
 20
197.39922291656086
 11
307.92061009951806
 21
197.54664544420268
  0
LINE
  8
_0-0_0
  6
CONTINUOUS
 62
    7
 10
307.92406565901035
 20
199.9501972115871
 11
307.92406565901035
 21
197.56409724795628
  0
LINE
  8
_0-0_0
  6
CONTINUOUS
 62
    7
 10
307.88562003279247
 20
199.93981921125308
 11
307.41860206173646
 21
199.63149666725491
  0
LINE
  8
_0-0_0
  6
CONTINUOUS
 62
    7
 10
307.41019733138364
 20
200.24934996628329
 11
307.92729344447628
 21
199.9505833231631
  0
LINE
  8
_0-0_0
  6
CONTINUOUS
 62
    7
 10
149.94799518368151
 20
111.46415941142578
 11
149.53989581091088
 21
111.43842341494479
  0
LINE
  8
_0-0_0
  6
CONTINUOUS
 62
    7
 10
149.53116965791753
 20
111.43760012201813
 11
149.53116965791753
 21
111.43760012201813
  0
LINE
  8
_0-0_0
  6
CONTINUOUS
 62
    7
 10
149.53116965791753
 20
111.43760012201813
 11
149.50117763727999
 21
111.50899657298581
  0
LINE
  8
_0-0_0
  6
CONTINUOUS
 62
    7
 10
149.50117763727999
 20
111.50899657298581
 11
149.46420254466622
 21
111.57062825188925
  0
LINE
  8
_0-0_0
  6
CONTINUOUS
 62
    7
 10
149.46420254466622
 20
111.57062825188925
 11
149.42136784955494
 21
111.6206225113521
  0
LINE
  8
_0-0_0
  6
CONTINUOUS
 62
    7
 10
149.42136784955494
 20
111.6206225113521
 11
149.37397506248172
 21
111.65746030109889
  0
LINE
  8
_0-0_0
  6
CONTINUOUS
 62
    7
 10
149.37397506248172
 20
111.65746030109889
 11
149.32346418929984
 21
111.680022323529
  0
LINE
  8
_0-0_0
  6
CONTINUOUS
 62
    7
 10
149.32346418929984
 20
111.680022323529
 11
149.27136997733126
 21
111.6876230430078
  0
LINE
  8
_0-0_0
  6
CONTINUOUS
 62
    7
 10
149.27136997733126
 20
111.6876230430078
 11
149.21927528284567
 21
111.68003151552011
  0
LINE
  8
_0-0_0
  6
CONTINUOUS
 62
    7
 10
149.21927528284567
 20
111.68003151552011
 11
149.16876297677382
 21
111.65747840578713
  0
LINE
  8
_0-0_0
  6
CONTINUOUS
 62
    7
 10
149.16876297677382
 20
111.65747840578713
 11
149.12136784997523
 21
111.62064897863567
  0
LINE
  8
_0-0_0
  6
CONTINUOUS
 62
    7
 10
149.12136784997523
 20
111.62064897863567
 11
149.07852997939463
 21
111.57066227757313
  0
LINE
  8
_0-0_0
  6
CONTINUOUS
 62
    7
 10
149.07852997939463
 20
111.57066227757313
 11
149.04155097205256
 21
111.50903712321681
  0
LINE
  8
_0-0_0
  6
CONTINUOUS
 62
    7
 10
149.04155097205256
 20
111.50903712321681
 11
149.01155441637485
 21
111.43764596469802
  0
LINE
  8
_0-0_0
  6
CONTINUOUS
 62
    7
 10
149.01155441637485
 20
111.43764596469802
 11
148.98945174252677
 21
111.35865798624263
  0
LINE
  8
_0-0_0
  6
CONTINUOUS
 62
    7
 10
148.98945174252677
 20
111.35865798624263
 11
148.97591452906872
 21
111.27447319760621
  0
LINE
  8
_0-0_0
  6
CONTINUOUS
 62
    7
 10
148.97591452906872
 20
111.27447319760621
 11
148.97135409738144
 21
111.1876495109919
  0
LINE
  8
_0-0_0
  6
CONTINUOUS
 62
    7
 10
148.97135409738144
 20
111.1876495109919
 11
148.97590901387406
 21
111.10082502018257
  0
LINE
  8
_0-0_0
  6
CONTINUOUS
 62
    7
 10
148.97590901387406
 20
111.10082502018257
 11
148.98944087971384
 21
111.01663784339615
  0
LINE
  8
_0-0_0
  6
CONTINUOUS
 62
    7
 10
148.98944087971384
 20
111.01663784339615
 11
149.01153853600471
 21
110.93764596539853
  0
LINE
  8
_0-0_0
  6
CONTINUOUS
 62
    7
 10
149.01153853600471
 20
110.93764596539853
 11
149.04153055664224
 21
110.86624951443085
  0
LINE
  8
_0-0_0
  6
CONTINUOUS
 62
    7
 10
149.04153055664224
 20
110.86624951443085
 11
149.07850564925602
 21
110.80461783552741
  0
LINE
  8
_0-0_0
  6
CONTINUOUS
 62
    7
 10
149.07850564925602
 20
110.80461783552741
 11
149.1213403443673
 21
110.75462357606456
  0
LINE
  8
_0-0_0
  6
CONTINUOUS
 62
    7
 10
149.1213403443673
 20
110.75462357606456
 11
149.16873313144052
 21
110.71778578631776
  0
LINE
  8
_0-0_0
  6
CONTINUOUS
 62
    7
 10
149.16873313144052
 20
110.71778578631776
 11
149.2192440046224
 21
110.69522376388765
  0
LINE
  8
_0-0_0
  6
CONTINUOUS
 62
    7
 10
149.2192440046224
 20
110.69522376388765
 11
149.27133821659098
 21
110.68762304440885
  0
LINE
  8
_0-0_0
  6
CONTINUOUS
 62
    7
 10
149.27133821659098
 20
110.68762304440885
 11
149.32343291107657
 21
110.69521457189654
  0
LINE
  8
_0-0_0
  6
CONTINUOUS
 62
    7
 10
149.32343291107657
 20
110.69521457189654
 11
149.37394521714842
 21
110.71776768162952
  0
LINE
  8
_0-0_0
  6
CONTINUOUS
 62
    7
 10
149.37394521714842
 20
110.71776768162952
 11
149.42134034394701
 21
110.75459710878098
  0
LINE
  8
_0-0_0
  6
CONTINUOUS
 62
    7
 10
149.42134034394701
 20
110.75459710878098
 11
149.46417821452761
 21
110.80458380984352
  0
LINE
  8
_0-0_0
  6
CONTINUOUS
 62
    7
 10
149.46417821452761
 20
110.80458380984352
 11
149.50115722186968
 21
110.86620896419983
  0
LINE
  8
_0-0_0
  6
CONTINUOUS
 62
    7
 10
149.50115722186968
 20
110.86620896419983
 11
149.504341697136
 21
110.87264165905222
  0
LINE
  8
_0-0_0
  6
CONTINUOUS
 62
    7
 10
149.92090764294647
 20
110.90139835292709
 11
149.50858804911232
 21
110.87539621637902
  0
LINE
  8
_0-0_0
  6
CONTINUOUS
 62
    7
 10
146.38299611733581
 20
103.84388454567375
 11
146.38299611733581
 21
103.84388454567375
  0
LINE
  8
_0-0_0
  6
CONTINUOUS
 62
    7
 10
146.38299611733581
 20
103.84388454567375
 11
146.88574458236926
 21
103.7875471700771
  0
LINE
  8
_0-0_0
  6
CONTINUOUS
 62
    7
 10
146.88574458236926
 20
103.7875471700771
 11
147.39000689743952
 21
103.82538782367121
  0
LINE
  8
_0-0_0
  6
CONTINUOUS
 62
    7
 10
147.39000689743952
 20
103.82538782367121
 11
147.88046130727224
 21
103.95625673734489
  0
LINE
  8
_0-0_0
  6
CONTINUOUS
 62
    7
 10
147.88046130727224
 20
103.95625673734489
 11
148.3422056028065
 21
104.17617752537906
  0
LINE
  8
_0-0_0
  6
CONTINUOUS
 62
    7
 10
148.3422056028065
 20
104.17617752537906
 11
148.76120991727643
 21
104.47846800591458
  0
LINE
  8
_0-0_0
  6
CONTINUOUS
 62
    7
 10
148.76120991727643
 20
104.47846800591458
 11
149.12474301661325
 21
104.85394323566672
  0
LINE
  8
_0-0_0
  6
CONTINUOUS
 62
    7
 10
149.12474301661325
 20
104.85394323566672
 11
149.42175913155023
 21
105.29119458977912
  0
LINE
  8
_0-0_0
  6
CONTINUOUS
 62
    7
 10
149.42175913155023
 20
105.29119458977912
 11
149.64323357773245
 21
105.77693640711695
  0
LINE
  8
_0-0_0
  6
CONTINUOUS
 62
    7
 10
149.64323357773245
 20
105.77693640711695
 11
149.78243696618409
 21
106.29640966835758
  0
LINE
  8
_0-0_0
  6
CONTINUOUS
 62
    7
 10
149.78243696618409
 20
106.29640966835758
 11
149.83513967238741
 21
106.83383044132438
  0
LINE
  8
_0-0_0
  6
CONTINUOUS
 62
    7
 10
149.83513967238741
 20
106.83383044132438
 11
149.83555633684153
 21
106.89576550142891
  0
LINE
  8
_0-0_0
  6
CONTINUOUS
 62
    7
 10
148.77374054905158
 20
113.09122968755784
 11
148.77374054905158
 21
112.65951693766576
  0
LINE
  8
_0-0_0
  6
CONTINUOUS
 62
    7
 10
139.57670954984147
 20
112.51013398905135
 11
139.57670954984147
 21
107.31233395786542
  0
LINE
  8
_0-0_0
  6
CONTINUOUS
 62
    7
 10
139.57670954984147
 20
107.31233395786542
 11
144.89618428830863
 21
104.23724034192961
  0
LINE
  8
_0-0_0
  6
CONTINUOUS
 62
    7
 10
134.07670954984147
 20
115.68958604384585
 11
134.07670954984147
 21
110.49178601265994
  0
LINE
  8
_0-0_0
  6
CONTINUOUS
 62
    7
 10
134.07670954984147
 20
115.68958604384585
 11
139.57670954984147
 21
112.51013398905135
  0
LINE
  8
_0-0_0
  6
CONTINUOUS
 62
    7
 10
134.27670954984148
 20
115.56577051623445
 11
134.27670954984148
 21
110.47354910461624
  0
LINE
  8
_0-0_0
  6
CONTINUOUS
 62
    7
 10
134.27796314732527
 20
110.61379783794203
 11
134.07613038815188
 21
110.49821079524361
  0
LINE
  8
_0-0_0
  6
CONTINUOUS
 62
    7
 10
135.45307828261457
 20
118.23105606853744
 11
143.78358187527792
 21
113.41534029305261
  0
LINE
  8
_0-0_0
  6
CONTINUOUS
 62
    7
 10
135.45476616812076
 20
118.22979177694407
 11
135.45476616812076
 21
119.50989420632988
  0
LINE
  8
_0-0_0
  6
CONTINUOUS
 62
    7
 10
135.74961399237256
 20
118.37194071398008
 11
135.74961399237256
 21
119.3137170643319
  0
LINE
  8
_0-0_0
  6
CONTINUOUS
 62
    7
 10
135.45070236813046
 20
118.23272160131937
 11
135.75370867215671
 21
118.37194071398008
  0
LINE
  8
_0-0_0
  6
CONTINUOUS
 62
    7
 10
135.45476616812076
 20
119.50989420632988
 11
143.78128490528033
 21
114.6964820048486
  0
LINE
  8
_0-0_0
  6
CONTINUOUS
 62
    7
 10
143.78128490528033
 20
113.42031463289385
 11
143.78128490528033
 21
114.6964820048486
  0
LINE
  8
_0-0_0
  6
CONTINUOUS
 62
    7
 10
145.66054095400619
 20
113.58263345618502
 11
146.10381345425972
 21
113.45851715611403
  0
LINE
  8
_0-0_0
  6
CONTINUOUS
 62
    7
 10
145.70760793495401
 20
111.43442374226962
 11
145.24834306879563
 21
111.55599385389976
  0
LINE
  8
_0-0_0
  6
CONTINUOUS
 62
    7
 10
144.90971463939576
 20
112.93980121944718
 11
144.82012816880922
 21
112.49903578416138
  0
LINE
  8
_0-0_0
  6
CONTINUOUS
 62
    7
 10
146.53881863363705
 20
112.56658830440281
 11
146.45213981383347
 21
112.12148085135726
  0
LINE
  8
_0-0_0
  6
CONTINUOUS
 62
    7
 10
144.82012816880922
 20
112.49903578416138
 11
145.41228550429526
 21
112.36204416177281
  0
LINE
  8
_0-0_0
  6
CONTINUOUS
 62
    7
 10
145.41228550429526
 20
112.36204416177281
 11
145.24834306879563
 21
111.55599385389976
  0
LINE
  8
_0-0_0
  6
CONTINUOUS
 62
    7
 10
144.90971463939576
 20
112.93980121944718
 11
145.50218920351563
 21
112.80407068293971
  0
LINE
  8
_0-0_0
  6
CONTINUOUS
 62
    7
 10
145.66054095400619
 20
113.58263345618502
 11
145.50218920351563
 21
112.80407068293971
  0
LINE
  8
_0-0_0
  6
CONTINUOUS
 62
    7
 10
146.10381345425972
 20
113.45851715611403
 11
145.95538617815657
 21
112.70024737602196
  0
LINE
  8
_0-0_0
  6
CONTINUOUS
 62
    7
 10
145.95538617815657
 20
112.70024737602196
 11
146.53881863363705
 21
112.56658830440281
  0
LINE
  8
_0-0_0
  6
CONTINUOUS
 62
    7
 10
145.8685242820101
 20
112.25649638483878
 11
145.70760793495401
 21
111.43442374226962
  0
LINE
  8
_0-0_0
  6
CONTINUOUS
 62
    7
 10
145.8685242820101
 20
112.25649638483878
 11
146.45213981383347
 21
112.12148085135726
  0
LINE
  8
_0-0_0
  6
CONTINUOUS
 62
    7
 10
133.15785287844864
 20
113.97333088211741
 11
133.15785287844864
 21
113.97333088211741
  0
LINE
  8
_0-0_0
  6
CONTINUOUS
 62
    7
 10
133.15785287844864
 20
113.97333088211741
 11
133.14266063146084
 21
114.18170869531772
  0
LINE
  8
_0-0_0
  6
CONTINUOUS
 62
    7
 10
133.14266063146084
 20
114.18170869531772
 11
133.09754549923454
 21
114.38375505410821
  0
LINE
  8
_0-0_0
  6
CONTINUOUS
 62
    7
 10
133.09754549923454
 20
114.38375505410821
 11
133.02387828223308
 21
114.5733308821174
  0
LINE
  8
_0-0_0
  6
CONTINUOUS
 62
    7
 10
133.02387828223308
 20
114.5733308821174
 11
132.92389732156761
 21
114.74467601374126
  0
LINE
  8
_0-0_0
  6
CONTINUOUS
 62
    7
 10
132.92389732156761
 20
114.74467601374126
 11
132.80064048813517
 21
114.89258421386019
  0
LINE
  8
_0-0_0
  6
CONTINUOUS
 62
    7
 10
132.80064048813517
 20
114.89258421386019
 11
132.65785287844864
 21
115.01256136665873
  0
LINE
  8
_0-0_0
  6
CONTINUOUS
 62
    7
 10
132.65785287844864
 20
115.01256136665873
 11
132.49987302177431
 21
115.1009620270605
  0
LINE
  8
_0-0_0
  6
CONTINUOUS
 62
    7
 10
132.49987302177431
 20
115.1009620270605
 11
132.33150105611557
 21
115.15510018573205
  0
LINE
  8
_0-0_0
  6
CONTINUOUS
 62
    7
 10
132.33150105611557
 20
115.15510018573205
 11
132.15785287844864
 21
115.17333088211741
  0
LINE
  8
_0-0_0
  6
CONTINUOUS
 62
    7
 10
132.15785287844864
 20
115.17333088211741
 11
131.9842047007817
 21
115.15510018573205
  0
LINE
  8
_0-0_0
  6
CONTINUOUS
 62
    7
 10
131.9842047007817
 20
115.15510018573205
 11
131.81583273512297
 21
115.1009620270605
  0
LINE
  8
_0-0_0
  6
CONTINUOUS
 62
    7
 10
131.81583273512297
 20
115.1009620270605
 11
131.65785287844864
 21
115.01256136665873
  0
LINE
  8
_0-0_0
  6
CONTINUOUS
 62
    7
 10
131.65785287844864
 20
115.01256136665873
 11
131.5150652687621
 21
114.89258421386019
  0
LINE
  8
_0-0_0
  6
CONTINUOUS
 62
    7
 10
131.5150652687621
 20
114.89258421386019
 11
131.39180843532966
 21
114.74467601374126
  0
LINE
  8
_0-0_0
  6
CONTINUOUS
 62
    7
 10
131.39180843532966
 20
114.74467601374126
 11
131.29182747466419
 21
114.5733308821174
  0
LINE
  8
_0-0_0
  6
CONTINUOUS
 62
    7
 10
131.29182747466419
 20
114.5733308821174
 11
131.21816025766273
 21
114.38375505410821
  0
LINE
  8
_0-0_0
  6
CONTINUOUS
 62
    7
 10
131.21816025766273
 20
114.38375505410821
 11
131.17304512543643
 21
114.18170869531772
  0
LINE
  8
_0-0_0
  6
CONTINUOUS
 62
    7
 10
131.17304512543643
 20
114.18170869531772
 11
131.15785287844864
 21
113.97333088211741
  0
LINE
  8
_0-0_0
  6
CONTINUOUS
 62
    7
 10
131.15785287844864
 20
113.97333088211741
 11
131.17304512543643
 21
113.76495306891709
  0
LINE
  8
_0-0_0
  6
CONTINUOUS
 62
    7
 10
131.17304512543643
 20
113.76495306891709
 11
131.21816025766273
 21
113.56290671012661
  0
LINE
  8
_0-0_0
  6
CONTINUOUS
 62
    7
 10
131.21816025766273
 20
113.56290671012661
 11
131.29182747466419
 21
113.37333088211741
  0
LINE
  8
_0-0_0
  6
CONTINUOUS
 62
    7
 10
131.29182747466419
 20
113.37333088211741
 11
131.39180843532966
 21
113.20198575049356
  0
LINE
  8
_0-0_0
  6
CONTINUOUS
 62
    7
 10
131.39180843532966
 20
113.20198575049356
 11
131.5150652687621
 21
113.05407755037464
  0
LINE
  8
_0-0_0
  6
CONTINUOUS
 62
    7
 10
131.5150652687621
 20
113.05407755037464
 11
131.65785287844864
 21
112.93410039757609
  0
LINE
  8
_0-0_0
  6
CONTINUOUS
 62
    7
 10
131.65785287844864
 20
112.93410039757609
 11
131.81583273512297
 21
112.84569973717431
  0
LINE
  8
_0-0_0
  6
CONTINUOUS
 62
    7
 10
131.81583273512297
 20
112.84569973717431
 11
131.9842047007817
 21
112.79156157850277
  0
LINE
  8
_0-0_0
  6
CONTINUOUS
 62
    7
 10
131.9842047007817
 20
112.79156157850277
 11
132.15785287844864
 21
112.77333088211741
  0
LINE
  8
_0-0_0
  6
CONTINUOUS
 62
    7
 10
132.15785287844864
 20
112.77333088211741
 11
132.33150105611557
 21
112.79156157850277
  0
LINE
  8
_0-0_0
  6
CONTINUOUS
 62
    7
 10
132.33150105611557
 20
112.79156157850277
 11
132.49987302177431
 21
112.84569973717431
  0
LINE
  8
_0-0_0
  6
CONTINUOUS
 62
    7
 10
132.49987302177431
 20
112.84569973717431
 11
132.65785287844864
 21
112.93410039757607
  0
LINE
  8
_0-0_0
  6
CONTINUOUS
 62
    7
 10
132.65785287844864
 20
112.93410039757607
 11
132.80064048813517
 21
113.05407755037463
  0
LINE
  8
_0-0_0
  6
CONTINUOUS
 62
    7
 10
132.80064048813517
 20
113.05407755037463
 11
132.92389732156761
 21
113.20198575049356
  0
LINE
  8
_0-0_0
  6
CONTINUOUS
 62
    7
 10
132.92389732156761
 20
113.20198575049356
 11
133.02387828223308
 21
113.3733308821174
  0
LINE
  8
_0-0_0
  6
CONTINUOUS
 62
    7
 10
133.02387828223308
 20
113.3733308821174
 11
133.09754549923454
 21
113.5629067101266
  0
LINE
  8
_0-0_0
  6
CONTINUOUS
 62
    7
 10
133.09754549923454
 20
113.5629067101266
 11
133.14266063146084
 21
113.76495306891709
  0
LINE
  8
_0-0_0
  6
CONTINUOUS
 62
    7
 10
133.14266063146084
 20
113.76495306891709
 11
133.15785287844864
 21
113.97333088211741
  0
LINE
  8
_0-0_0
  6
CONTINUOUS
 62
    7
 10
133.15785287844864
 20
113.97333088211741
 11
133.15785287844864
 21
113.97333088211741
  0
LINE
  8
_0-0_0
  6
CONTINUOUS
 62
    7
 10
132.15280515087312
 20
115.0559349914147
 11
132.59607765112665
 21
114.93181869134372
  0
LINE
  8
_0-0_0
  6
CONTINUOUS
 62
    7
 10
132.19987213182094
 20
112.90772527749928
 11
131.74060726566256
 21
113.02929538912943
  0
LINE
  8
_0-0_0
  6
CONTINUOUS
 62
    7
 10
131.40197883626269
 20
114.41310275467686
 11
131.31239236567615
 21
113.97233731939106
  0
LINE
  8
_0-0_0
  6
CONTINUOUS
 62
    7
 10
133.03108283050398
 20
114.03988983963248
 11
132.9444040107004
 21
113.59478238658696
  0
LINE
  8
_0-0_0
  6
CONTINUOUS
 62
    7
 10
131.31239236567615
 20
113.97233731939106
 11
131.90454970116218
 21
113.83534569700251
  0
LINE
  8
_0-0_0
  6
CONTINUOUS
 62
    7
 10
131.90454970116218
 20
113.83534569700251
 11
131.74060726566256
 21
113.02929538912943
  0
LINE
  8
_0-0_0
  6
CONTINUOUS
 62
    7
 10
131.40197883626269
 20
114.41310275467686
 11
131.99445340038255
 21
114.2773722181694
  0
LINE
  8
_0-0_0
  6
CONTINUOUS
 62
    7
 10
132.15280515087312
 20
115.0559349914147
 11
131.99445340038255
 21
114.2773722181694
  0
LINE
  8
_0-0_0
  6
CONTINUOUS
 62
    7
 10
132.59607765112665
 20
114.93181869134372
 11
132.44765037502353
 21
114.17354891125166
  0
LINE
  8
_0-0_0
  6
CONTINUOUS
 62
    7
 10
132.44765037502353
 20
114.17354891125166
 11
133.03108283050398
 21
114.03988983963248
  0
LINE
  8
_0-0_0
  6
CONTINUOUS
 62
    7
 10
132.36078847887703
 20
113.72979792006848
 11
132.19987213182094
 21
112.90772527749928
  0
LINE
  8
_0-0_0
  6
CONTINUOUS
 62
    7
 10
132.36078847887703
 20
113.72979792006848
 11
132.9444040107004
 21
113.59478238658696
  0
LINE
  8
_0-0_0
  6
CONTINUOUS
 62
    7
 10
134.27944591215325
 20
110.91639825746041
 11
139.56882576343773
 21
107.8037179334535
  0
LINE
  8
_0-0_0
  6
CONTINUOUS
 62
    7
 10
134.28029174355112
 20
111.26399173561799
 11
139.57504802605575
 21
108.14814750352677
  0
LINE
  8
_0-0_0
  6
CONTINUOUS
 62
    7
 10
134.284669861222
 20
112.59806501223019
 11
136.68507872015238
 21
114.18477595287908
  0
LINE
  8
_0-0_0
  6
CONTINUOUS
 62
    7
 10
134.29827487306372
 20
112.31981206378308
 11
136.91788673566069
 21
114.05141990516074
  0
LINE
  8
_0-0_0
  6
CONTINUOUS
 62
    7
 10
147.36449345573874
 20
121.91974372874608
 11
147.36449345573874
 21
121.91974372874608
  0
LINE
  8
_0-0_0
  6
CONTINUOUS
 62
    7
 10
147.36449345573874
 20
121.91974372874608
 11
147.15611564253842
 21
121.90455148175829
  0
LINE
  8
_0-0_0
  6
CONTINUOUS
 62
    7
 10
147.15611564253842
 20
121.90455148175829
 11
146.95406928374794
 21
121.85943634953199
  0
LINE
  8
_0-0_0
  6
CONTINUOUS
 62
    7
 10
146.95406928374794
 20
121.85943634953199
 11
146.76449345573874
 21
121.78576913253052
  0
LINE
  8
_0-0_0
  6
CONTINUOUS
 62
    7
 10
146.76449345573874
 20
121.78576913253052
 11
146.59314832411488
 21
121.68578817186506
  0
LINE
  8
_0-0_0
  6
CONTINUOUS
 62
    7
 10
146.59314832411488
 20
121.68578817186506
 11
146.44524012399597
 21
121.56253133843262
  0
LINE
  8
_0-0_0
  6
CONTINUOUS
 62
    7
 10
146.44524012399597
 20
121.56253133843262
 11
146.32526297119742
 21
121.41974372874608
  0
LINE
  8
_0-0_0
  6
CONTINUOUS
 62
    7
 10
146.32526297119742
 20
121.41974372874608
 11
146.23686231079566
 21
121.26176387207175
  0
LINE
  8
_0-0_0
  6
CONTINUOUS
 62
    7
 10
146.23686231079566
 20
121.26176387207175
 11
146.18272415212408
 21
121.09339190641302
  0
LINE
  8
_0-0_0
  6
CONTINUOUS
 62
    7
 10
146.18272415212408
 20
121.09339190641302
 11
146.16449345573875
 21
120.91974372874608
  0
LINE
  8
_0-0_0
  6
CONTINUOUS
 62
    7
 10
146.16449345573875
 20
120.91974372874608
 11
146.18272415212408
 21
120.74609555107915
  0
LINE
  8
_0-0_0
  6
CONTINUOUS
 62
    7
 10
146.18272415212408
 20
120.74609555107915
 11
146.23686231079566
 21
120.57772358542042
  0
LINE
  8
_0-0_0
  6
CONTINUOUS
 62
    7
 10
146.23686231079566
 20
120.57772358542042
 11
146.32526297119742
 21
120.41974372874608
  0
LINE
  8
_0-0_0
  6
CONTINUOUS
 62
    7
 10
146.32526297119742
 20
120.41974372874608
 11
146.44524012399597
 21
120.27695611905955
  0
LINE
  8
_0-0_0
  6
CONTINUOUS
 62
    7
 10
146.44524012399597
 20
120.27695611905955
 11
146.59314832411488
 21
120.15369928562711
  0
LINE
  8
_0-0_0
  6
CONTINUOUS
 62
    7
 10
146.59314832411488
 20
120.15369928562711
 11
146.76449345573874
 21
120.05371832496165
  0
LINE
  8
_0-0_0
  6
CONTINUOUS
 62
    7
 10
146.76449345573874
 20
120.05371832496165
 11
146.95406928374794
 21
119.98005110796018
  0
LINE
  8
_0-0_0
  6
CONTINUOUS
 62
    7
 10
146.95406928374794
 20
119.98005110796018
 11
147.15611564253842
 21
119.93493597573388
  0
LINE
  8
_0-0_0
  6
CONTINUOUS
 62
    7
 10
147.15611564253842
 20
119.93493597573388
 11
147.36449345573874
 21
119.91974372874608
  0
LINE
  8
_0-0_0
  6
CONTINUOUS
 62
    7
 10
147.36449345573874
 20
119.91974372874608
 11
147.57287126893905
 21
119.93493597573388
  0
LINE
  8
_0-0_0
  6
CONTINUOUS
 62
    7
 10
147.57287126893905
 20
119.93493597573388
 11
147.77491762772954
 21
119.98005110796018
  0
LINE
  8
_0-0_0
  6
CONTINUOUS
 62
    7
 10
147.77491762772954
 20
119.98005110796018
 11
147.96449345573873
 21
120.05371832496165
  0
LINE
  8
_0-0_0
  6
CONTINUOUS
 62
    7
 10
147.96449345573873
 20
120.05371832496165
 11
148.13583858736257
 21
120.1536992856271
  0
LINE
  8
_0-0_0
  6
CONTINUOUS
 62
    7
 10
148.13583858736257
 20
120.1536992856271
 11
148.2837467874815
 21
120.27695611905955
  0
LINE
  8
_0-0_0
  6
CONTINUOUS
 62
    7
 10
148.2837467874815
 20
120.27695611905955
 11
148.40372394028006
 21
120.41974372874608
  0
LINE
  8
_0-0_0
  6
CONTINUOUS
 62
    7
 10
148.40372394028006
 20
120.41974372874608
 11
148.49212460068182
 21
120.57772358542042
  0
LINE
  8
_0-0_0
  6
CONTINUOUS
 62
    7
 10
148.49212460068182
 20
120.57772358542042
 11
148.5462627593534
 21
120.74609555107915
  0
LINE
  8
_0-0_0
  6
CONTINUOUS
 62
    7
 10
148.5462627593534
 20
120.74609555107915
 11
148.56449345573873
 21
120.91974372874608
  0
LINE
  8
_0-0_0
  6
CONTINUOUS
 62
    7
 10
148.56449345573873
 20
120.91974372874608
 11
148.5462627593534
 21
121.09339190641302
  0
LINE
  8
_0-0_0
  6
CONTINUOUS
 62
    7
 10
148.5462627593534
 20
121.09339190641302
 11
148.49212460068182
 21
121.26176387207175
  0
LINE
  8
_0-0_0
  6
CONTINUOUS
 62
    7
 10
148.49212460068182
 20
121.26176387207175
 11
148.40372394028006
 21
121.41974372874608
  0
LINE
  8
_0-0_0
  6
CONTINUOUS
 62
    7
 10
148.40372394028006
 20
121.41974372874608
 11
148.2837467874815
 21
121.56253133843262
  0
LINE
  8
_0-0_0
  6
CONTINUOUS
 62
    7
 10
148.2837467874815
 20
121.56253133843262
 11
148.1358385873626
 21
121.68578817186506
  0
LINE
  8
_0-0_0
  6
CONTINUOUS
 62
    7
 10
148.1358385873626
 20
121.68578817186506
 11
147.96449345573873
 21
121.78576913253052
  0
LINE
  8
_0-0_0
  6
CONTINUOUS
 62
    7
 10
147.96449345573873
 20
121.78576913253052
 11
147.77491762772954
 21
121.85943634953199
  0
LINE
  8
_0-0_0
  6
CONTINUOUS
 62
    7
 10
147.77491762772954
 20
121.85943634953199
 11
147.57287126893905
 21
121.90455148175829
  0
LINE
  8
_0-0_0
  6
CONTINUOUS
 62
    7
 10
147.57287126893905
 20
121.90455148175829
 11
147.36449345573874
 21
121.91974372874608
  0
LINE
  8
_0-0_0
  6
CONTINUOUS
 62
    7
 10
147.36449345573874
 20
121.91974372874608
 11
147.36449345573874
 21
121.91974372874608
  0
LINE
  8
_0-0_0
  6
CONTINUOUS
 62
    7
 10
148.52464043012304
 20
120.73453112459715
 11
148.52464043012304
 21
120.73453112459715
  0
LINE
  8
_0-0_0
  6
CONTINUOUS
 62
    7
 10
148.52464043012304
 20
120.73453112459715
 11
148.4920175015902
 21
120.90670960083536
  0
LINE
  8
_0-0_0
  6
CONTINUOUS
 62
    7
 10
148.4920175015902
 20
120.90670960083536
 11
148.4240120142864
 21
121.07155153906166
  0
LINE
  8
_0-0_0
  6
CONTINUOUS
 62
    7
 10
148.4240120142864
 20
121.07155153906166
 11
148.32269028053096
 21
121.2240483003971
  0
LINE
  8
_0-0_0
  6
CONTINUOUS
 62
    7
 10
148.32269028053096
 20
121.2240483003971
 11
148.19113090993275
 21
121.3595663479156
  0
LINE
  8
_0-0_0
  6
CONTINUOUS
 62
    7
 10
148.19113090993275
 20
121.3595663479156
 11
148.03333126739514
 21
121.47398803431874
  0
LINE
  8
_0-0_0
  6
CONTINUOUS
 62
    7
 10
148.03333126739514
 20
121.47398803431874
 11
147.85408601520618
 21
121.56383671456531
  0
LINE
  8
_0-0_0
  6
CONTINUOUS
 62
    7
 10
147.85408601520618
 20
121.56383671456531
 11
147.65884142965115
 21
121.62638238197168
  0
LINE
  8
_0-0_0
  6
CONTINUOUS
 62
    7
 10
147.65884142965115
 20
121.62638238197168
 11
147.45352991866361
 21
121.65972461808332
  0
LINE
  8
_0-0_0
  6
CONTINUOUS
 62
    7
 10
147.45352991866361
 20
121.65972461808332
 11
147.24438976861225
 21
121.66285033592796
  0
LINE
  8
_0-0_0
  6
CONTINUOUS
 62
    7
 10
147.24438976861225
 20
121.66285033592796
 11
147.0377755971264
 21
121.63566456215058
  0
LINE
  8
_0-0_0
  6
CONTINUOUS
 62
    7
 10
147.0377755971264
 20
121.63566456215058
 11
146.83996527125484
 21
121.57899332273075
  0
LINE
  8
_0-0_0
  6
CONTINUOUS
 62
    7
 10
146.83996527125484
 20
121.57899332273075
 11
146.6569691576523
 21
121.49455854460122
  0
LINE
  8
_0-0_0
  6
CONTINUOUS
 62
    7
 10
146.6569691576523
 20
121.49455854460122
 11
146.49434750063011
 21
121.38492573576939
  0
LINE
  8
_0-0_0
  6
CONTINUOUS
 62
    7
 10
146.49434750063011
 20
121.38492573576939
 11
146.35704147694636
 21
121.2534260336547
  0
LINE
  8
_0-0_0
  6
CONTINUOUS
 62
    7
 10
146.35704147694636
 20
121.2534260336547
 11
146.24922306065045
 21
121.1040549901639
  0
LINE
  8
_0-0_0
  6
CONTINUOUS
 62
    7
 10
146.24922306065045
 20
121.1040549901639
 11
146.20725424815035
 21
121.02367991988676
  0
LINE
  8
_0-0_0
  6
CONTINUOUS
 62
    7
 10
293.51295481302179
 20
205.60773928885777
 11
293.51295481302179
 21
205.60773928885777
  0
LINE
  8
_0-0_0
  6
CONTINUOUS
 62
    7
 10
293.51295481302179
 20
205.60773928885777
 11
293.30457699982145
 21
205.59254704186998
  0
LINE
  8
_0-0_0
  6
CONTINUOUS
 62
    7
 10
293.30457699982145
 20
205.59254704186998
 11
293.10253064103097
 21
205.54743190964368
  0
LINE
  8
_0-0_0
  6
CONTINUOUS
 62
    7
 10
293.10253064103097
 20
205.54743190964368
 11
292.91295481302177
 21
205.47376469264222
  0
LINE
  8
_0-0_0
  6
CONTINUOUS
 62
    7
 10
292.91295481302177
 20
205.47376469264222
 11
292.74160968139796
 21
205.37378373197674
  0
LINE
  8
_0-0_0
  6
CONTINUOUS
 62
    7
 10
292.74160968139796
 20
205.37378373197674
 11
292.59370148127903
 21
205.25052689854431
  0
LINE
  8
_0-0_0
  6
CONTINUOUS
 62
    7
 10
292.59370148127903
 20
205.25052689854431
 11
292.47372432848044
 21
205.10773928885777
  0
LINE
  8
_0-0_0
  6
CONTINUOUS
 62
    7
 10
292.47372432848044
 20
205.10773928885777
 11
292.38532366807868
 21
204.94975943218344
  0
LINE
  8
_0-0_0
  6
CONTINUOUS
 62
    7
 10
292.38532366807868
 20
204.94975943218344
 11
292.33118550940713
 21
204.78138746652471
  0
LINE
  8
_0-0_0
  6
CONTINUOUS
 62
    7
 10
292.33118550940713
 20
204.78138746652471
 11
292.3129548130218
 21
204.60773928885777
  0
LINE
  8
_0-0_0
  6
CONTINUOUS
 62
    7
 10
292.3129548130218
 20
204.60773928885777
 11
292.33118550940713
 21
204.43409111119084
  0
LINE
  8
_0-0_0
  6
CONTINUOUS
 62
    7
 10
292.33118550940713
 20
204.43409111119084
 11
292.38532366807868
 21
204.2657191455321
  0
LINE
  8
_0-0_0
  6
CONTINUOUS
 62
    7
 10
292.38532366807868
 20
204.2657191455321
 11
292.47372432848044
 21
204.10773928885777
  0
LINE
  8
_0-0_0
  6
CONTINUOUS
 62
    7
 10
292.47372432848044
 20
204.10773928885777
 11
292.59370148127903
 21
203.96495167917124
  0
LINE
  8
_0-0_0
  6
CONTINUOUS
 62
    7
 10
292.59370148127903
 20
203.96495167917124
 11
292.74160968139796
 21
203.8416948457388
  0
LINE
  8
_0-0_0
  6
CONTINUOUS
 62
    7
 10
292.74160968139796
 20
203.8416948457388
 11
292.91295481302177
 21
203.74171388507332
  0
LINE
  8
_0-0_0
  6
CONTINUOUS
 62
    7
 10
292.91295481302177
 20
203.74171388507332
 11
293.10253064103097
 21
203.66804666807187
  0
LINE
  8
_0-0_0
  6
CONTINUOUS
 62
    7
 10
293.10253064103097
 20
203.66804666807187
 11
293.30457699982145
 21
203.62293153584557
  0
LINE
  8
_0-0_0
  6
CONTINUOUS
 62
    7
 10
293.30457699982145
 20
203.62293153584557
 11
293.51295481302179
 21
203.60773928885777
  0
LINE
  8
_0-0_0
  6
CONTINUOUS
 62
    7
 10
293.51295481302179
 20
203.60773928885777
 11
293.72133262622208
 21
203.62293153584557
  0
LINE
  8
_0-0_0
  6
CONTINUOUS
 62
    7
 10
293.72133262622208
 20
203.62293153584557
 11
293.92337898501262
 21
203.66804666807187
  0
LINE
  8
_0-0_0
  6
CONTINUOUS
 62
    7
 10
293.92337898501262
 20
203.66804666807187
 11
294.11295481302182
 21
203.74171388507332
  0
LINE
  8
_0-0_0
  6
CONTINUOUS
 62
    7
 10
294.11295481302182
 20
203.74171388507332
 11
294.28429994464562
 21
203.8416948457388
  0
LINE
  8
_0-0_0
  6
CONTINUOUS
 62
    7
 10
294.28429994464562
 20
203.8416948457388
 11
294.43220814476456
 21
203.96495167917124
  0
LINE
  8
_0-0_0
  6
CONTINUOUS
 62
    7
 10
294.43220814476456
 20
203.96495167917124
 11
294.55218529756314
 21
204.10773928885777
  0
LINE
  8
_0-0_0
  6
CONTINUOUS
 62
    7
 10
294.55218529756314
 20
204.10773928885777
 11
294.6405859579649
 21
204.2657191455321
  0
LINE
  8
_0-0_0
  6
CONTINUOUS
 62
    7
 10
294.6405859579649
 20
204.2657191455321
 11
294.69472411663645
 21
204.43409111119084
  0
LINE
  8
_0-0_0
  6
CONTINUOUS
 62
    7
 10
294.69472411663645
 20
204.43409111119084
 11
294.71295481302178
 21
204.60773928885777
  0
LINE
  8
_0-0_0
  6
CONTINUOUS
 62
    7
 10
294.71295481302178
 20
204.60773928885777
 11
294.69472411663645
 21
204.78138746652471
  0
LINE
  8
_0-0_0
  6
CONTINUOUS
 62
    7
 10
294.69472411663645
 20
204.78138746652471
 11
294.6405859579649
 21
204.94975943218344
  0
LINE
  8
_0-0_0
  6
CONTINUOUS
 62
    7
 10
294.6405859579649
 20
204.94975943218344
 11
294.55218529756314
 21
205.10773928885777
  0
LINE
  8
_0-0_0
  6
CONTINUOUS
 62
    7
 10
294.55218529756314
 20
205.10773928885777
 11
294.43220814476456
 21
205.25052689854431
  0
LINE
  8
_0-0_0
  6
CONTINUOUS
 62
    7
 10
294.43220814476456
 20
205.25052689854431
 11
294.28429994464562
 21
205.37378373197674
  0
LINE
  8
_0-0_0
  6
CONTINUOUS
 62
    7
 10
294.28429994464562
 20
205.37378373197674
 11
294.11295481302182
 21
205.47376469264222
  0
LINE
  8
_0-0_0
  6
CONTINUOUS
 62
    7
 10
294.11295481302182
 20
205.47376469264222
 11
293.92337898501262
 21
205.54743190964368
  0
LINE
  8
_0-0_0
  6
CONTINUOUS
 62
    7
 10
293.92337898501262
 20
205.54743190964368
 11
293.72133262622214
 21
205.59254704186998
  0
LINE
  8
_0-0_0
  6
CONTINUOUS
 62
    7
 10
293.72133262622214
 20
205.59254704186998
 11
293.51295481302179
 21
205.60773928885777
  0
LINE
  8
_0-0_0
  6
CONTINUOUS
 62
    7
 10
293.51295481302179
 20
205.60773928885777
 11
293.51295481302179
 21
205.60773928885777
  0
LINE
  8
_0-0_0
  6
CONTINUOUS
 62
    7
 10
294.67310178740604
 20
204.42252668470886
 11
294.67310178740604
 21
204.42252668470886
  0
LINE
  8
_0-0_0
  6
CONTINUOUS
 62
    7
 10
294.67310178740604
 20
204.42252668470886
 11
294.64047885887322
 21
204.59470516094706
  0
LINE
  8
_0-0_0
  6
CONTINUOUS
 62
    7
 10
294.64047885887322
 20
204.59470516094706
 11
294.5724733715694
 21
204.75954709917337
  0
LINE
  8
_0-0_0
  6
CONTINUOUS
 62
    7
 10
294.5724733715694
 20
204.75954709917337
 11
294.47115163781399
 21
204.91204386050882
  0
LINE
  8
_0-0_0
  6
CONTINUOUS
 62
    7
 10
294.47115163781399
 20
204.91204386050882
 11
294.33959226721578
 21
205.04756190802729
  0
LINE
  8
_0-0_0
  6
CONTINUOUS
 62
    7
 10
294.33959226721578
 20
205.04756190802729
 11
294.18179262467817
 21
205.16198359443044
  0
LINE
  8
_0-0_0
  6
CONTINUOUS
 62
    7
 10
294.18179262467817
 20
205.16198359443044
 11
294.00254737248918
 21
205.25183227467701
  0
LINE
  8
_0-0_0
  6
CONTINUOUS
 62
    7
 10
294.00254737248918
 20
205.25183227467701
 11
293.80730278693414
 21
205.31437794208338
  0
LINE
  8
_0-0_0
  6
CONTINUOUS
 62
    7
 10
293.80730278693414
 20
205.31437794208338
 11
293.6019912759466
 21
205.347720178195
  0
LINE
  8
_0-0_0
  6
CONTINUOUS
 62
    7
 10
293.6019912759466
 20
205.347720178195
 11
293.39285112589528
 21
205.35084589603966
  0
LINE
  8
_0-0_0
  6
CONTINUOUS
 62
    7
 10
293.39285112589528
 20
205.35084589603966
 11
293.18623695440942
 21
205.32366012226228
  0
LINE
  8
_0-0_0
  6
CONTINUOUS
 62
    7
 10
293.18623695440942
 20
205.32366012226228
 11
292.98842662853787
 21
205.26698888284247
  0
LINE
  8
_0-0_0
  6
CONTINUOUS
 62
    7
 10
292.98842662853787
 20
205.26698888284247
 11
292.80543051493532
 21
205.18255410471292
  0
LINE
  8
_0-0_0
  6
CONTINUOUS
 62
    7
 10
292.80543051493532
 20
205.18255410471292
 11
292.64280885791317
 21
205.07292129588109
  0
LINE
  8
_0-0_0
  6
CONTINUOUS
 62
    7
 10
292.64280885791317
 20
205.07292129588109
 11
292.50550283422939
 21
204.94142159376642
  0
LINE
  8
_0-0_0
  6
CONTINUOUS
 62
    7
 10
292.50550283422939
 20
204.94142159376642
 11
292.39768441793348
 21
204.7920505502756
  0
LINE
  8
_0-0_0
  6
CONTINUOUS
 62
    7
 10
292.39768441793348
 20
204.7920505502756
 11
292.35571560543337
 21
204.71167547999846
  0
LINE
  8
_0-0_0
  6
CONTINUOUS
 62
    7
 10
131.17838662017968
 20
112.16725488432743
 11
134.07670954984147
 21
110.49178601265994
  0
LINE
  8
_0-0_0
  6
CONTINUOUS
 62
    7
 10
130.61139276670602
 20
113.21064592496307
 11
130.61139276670602
 21
113.21064592496307
  0
LINE
  8
_0-0_0
  6
CONTINUOUS
 62
    7
 10
130.61139276670602
 20
113.21064592496307
 11
130.63140508690978
 21
113.00285525755346
  0
LINE
  8
_0-0_0
  6
CONTINUOUS
 62
    7
 10
130.63140508690978
 20
113.00285525755346
 11
130.68118210061209
 21
112.80239152080603
  0
LINE
  8
_0-0_0
  6
CONTINUOUS
 62
    7
 10
130.68118210061209
 20
112.80239152080603
 11
130.75921135844001
 21
112.61534570392229
  0
LINE
  8
_0-0_0
  6
CONTINUOUS
 62
    7
 10
130.75921135844001
 20
112.61534570392229
 11
130.86312198087916
 21
112.44740109939849
  0
LINE
  8
_0-0_0
  6
CONTINUOUS
 62
    7
 10
130.86312198087916
 20
112.44740109939849
 11
130.98975669624798
 21
112.30366061905906
  0
LINE
  8
_0-0_0
  6
CONTINUOUS
 62
    7
 10
130.98975669624798
 20
112.30366061905906
 11
131.13526777280032
 21
112.18849174466287
  0
LINE
  8
_0-0_0
  6
CONTINUOUS
 62
    7
 10
131.13526777280032
 20
112.18849174466287
 11
131.17035327867052
 21
112.16678282027216
  0
LINE
  8
_0-0_0
  6
CONTINUOUS
 62
    7
 10
131.55779861687188
 20
121.04575289789557
 11
131.55779861687188
 21
121.04575289789557
  0
LINE
  8
_0-0_0
  6
CONTINUOUS
 62
    7
 10
131.55779861687188
 20
121.04575289789557
 11
131.38508454796985
 21
121.01749947499486
  0
LINE
  8
_0-0_0
  6
CONTINUOUS
 62
    7
 10
131.38508454796985
 20
121.01749947499486
 11
131.21908285669383
 21
120.95368550508638
  0
LINE
  8
_0-0_0
  6
CONTINUOUS
 62
    7
 10
131.21908285669383
 20
120.95368550508638
 11
131.06483742043233
 21
120.85624994335438
  0
LINE
  8
_0-0_0
  6
CONTINUOUS
 62
    7
 10
131.06483742043233
 20
120.85624994335438
 11
130.92703490871415
 21
120.72815332003729
  0
LINE
  8
_0-0_0
  6
CONTINUOUS
 62
    7
 10
130.92703490871415
 20
120.72815332003729
 11
130.80986238112646
 21
120.57328778621461
  0
LINE
  8
_0-0_0
  6
CONTINUOUS
 62
    7
 10
130.80986238112646
 20
120.57328778621461
 11
130.71688006562786
 21
120.39635885276577
  0
LINE
  8
_0-0_0
  6
CONTINUOUS
 62
    7
 10
130.71688006562786
 20
120.39635885276577
 11
130.65091318282342
 21
120.20274241580327
  0
LINE
  8
_0-0_0
  6
CONTINUOUS
 62
    7
 10
130.65091318282342
 20
120.20274241580327
 11
130.6139661030663
 21
119.99832141278956
  0
LINE
  8
_0-0_0
  6
CONTINUOUS
 62
    7
 10
130.6139661030663
 20
119.99832141278956
 11
130.60710704779001
 21
119.79067599968421
  0
LINE
  8
_0-0_0
  6
CONTINUOUS
 62
    7
 10
130.60934436831602
 20
119.78292701605736
 11
130.60934436831602
 21
113.21379474890352
  0
LINE
  8
_0-0_0
  6
CONTINUOUS
 62
    7
 10
305.82857438805729
 20
194.39228024764037
 11
148.67376132551721
 21
104.39172651138418
  0
LINE
  8
_0-0_0
  6
CONTINUOUS
 62
    7
 10
148.43949308898084
 20
111.24987413045595
 11
148.43949308898084
 21
111.24987413045595
  0
LINE
  8
_0-0_0
  6
CONTINUOUS
 62
    7
 10
148.43949308898084
 20
111.24987413045595
 11
148.43470510296086
 21
111.35421413720516
  0
LINE
  8
_0-0_0
  6
CONTINUOUS
 62
    7
 10
148.43470510296086
 20
111.35421413720516
 11
148.41791088918725
 21
111.45572184723052
  0
LINE
  8
_0-0_0
  6
CONTINUOUS
 62
    7
 10
148.41791088918725
 20
111.45572184723052
 11
148.38962073134721
 21
111.5513130001283
  0
LINE
  8
_0-0_0
  6
CONTINUOUS
 62
    7
 10
148.38962073134721
 20
111.5513130001283
 11
148.35069421157121
 21
111.63808310708917
  0
LINE
  8
_0-0_0
  6
CONTINUOUS
 62
    7
 10
148.35069421157121
 20
111.63808310708917
 11
148.30231409246488
 21
111.71339570232091
  0
LINE
  8
_0-0_0
  6
CONTINUOUS
 62
    7
 10
148.30231409246488
 20
111.71339570232091
 11
148.24595037946574
 21
111.7749624507274
  0
LINE
  8
_0-0_0
  6
CONTINUOUS
 62
    7
 10
148.24595037946574
 20
111.7749624507274
 11
148.23736305814242
 21
111.78250448296635
  0
LINE
  8
_0-0_0
  6
CONTINUOUS
 62
    7
 10
147.97151335303701
 20
113.04356601451519
 11
147.97151335303701
 21
113.04356601451519
  0
LINE
  8
_0-0_0
  6
CONTINUOUS
 62
    7
 10
147.97151335303701
 20
113.04356601451519
 11
147.96672536701703
 21
113.1479060212644
  0
LINE
  8
_0-0_0
  6
CONTINUOUS
 62
    7
 10
147.96672536701703
 20
113.1479060212644
 11
147.94993115324343
 21
113.24941373128976
  0
LINE
  8
_0-0_0
  6
CONTINUOUS
 62
    7
 10
147.94993115324343
 20
113.24941373128976
 11
147.92164099540338
 21
113.34500488418755
  0
LINE
  8
_0-0_0
  6
CONTINUOUS
 62
    7
 10
147.92164099540338
 20
113.34500488418755
 11
147.88271447562738
 21
113.43177499114842
  0
LINE
  8
_0-0_0
  6
CONTINUOUS
 62
    7
 10
147.88271447562738
 20
113.43177499114842
 11
147.83433435652105
 21
113.50708758638015
  0
LINE
  8
_0-0_0
  6
CONTINUOUS
 62
    7
 10
147.83433435652105
 20
113.50708758638015
 11
147.77797064352191
 21
113.56865433478664
  0
LINE
  8
_0-0_0
  6
CONTINUOUS
 62
    7
 10
147.77797064352191
 20
113.56865433478664
 11
147.76938332219859
 21
113.57619636702559
  0
LINE
  8
_0-0_0
  6
CONTINUOUS
 62
    7
 10
148.4650875087753
 20
113.40017980243084
 11
148.4650875087753
 21
113.40017980243084
  0
LINE
  8
_0-0_0
  6
CONTINUOUS
 62
    7
 10
148.4650875087753
 20
113.40017980243084
 11
148.46029952275532
 21
113.50451980918005
  0
LINE
  8
_0-0_0
  6
CONTINUOUS
 62
    7
 10
148.46029952275532
 20
113.50451980918005
 11
148.44350530898171
 21
113.60602751920541
  0
LINE
  8
_0-0_0
  6
CONTINUOUS
 62
    7
 10
148.44350530898171
 20
113.60602751920541
 11
148.41521515114167
 21
113.70161867210319
  0
LINE
  8
_0-0_0
  6
CONTINUOUS
 62
    7
 10
148.41521515114167
 20
113.70161867210319
 11
148.37628863136567
 21
113.78838877906406
  0
LINE
  8
_0-0_0
  6
CONTINUOUS
 62
    7
 10
148.37628863136567
 20
113.78838877906406
 11
148.32790851225934
 21
113.8637013742958
  0
LINE
  8
_0-0_0
  6
CONTINUOUS
 62
    7
 10
148.32790851225934
 20
113.8637013742958
 11
148.2715447992602
 21
113.92526812270229
  0
LINE
  8
_0-0_0
  6
CONTINUOUS
 62
    7
 10
148.2715447992602
 20
113.92526812270229
 11
148.26295747793688
 21
113.93281015494124
  0
LINE
  8
_0-0_0
  6
CONTINUOUS
 62
    7
 10
149.83351457832913
 20
109.77318271998723
 11
149.83351457832913
 21
109.77318271998723
  0
LINE
  8
_0-0_0
  6
CONTINUOUS
 62
    7
 10
149.83351457832913
 20
109.77318271998723
 11
149.82872659230915
 21
109.87752272673644
  0
LINE
  8
_0-0_0
  6
CONTINUOUS
 62
    7
 10
149.82872659230915
 20
109.87752272673644
 11
149.81193237853554
 21
109.9790304367618
  0
LINE
  8
_0-0_0
  6
CONTINUOUS
 62
    7
 10
149.81193237853554
 20
109.9790304367618
 11
149.7836422206955
 21
110.07462158965959
  0
LINE
  8
_0-0_0
  6
CONTINUOUS
 62
    7
 10
149.7836422206955
 20
110.07462158965959
 11
149.7447157009195
 21
110.16139169662046
  0
LINE
  8
_0-0_0
  6
CONTINUOUS
 62
    7
 10
149.7447157009195
 20
110.16139169662046
 11
149.69633558181317
 21
110.23670429185219
  0
LINE
  8
_0-0_0
  6
CONTINUOUS
 62
    7
 10
149.69633558181317
 20
110.23670429185219
 11
149.63997186881403
 21
110.29827104025868
  0
LINE
  8
_0-0_0
  6
CONTINUOUS
 62
    7
 10
149.63997186881403
 20
110.29827104025868
 11
149.63138454749071
 21
110.30581307249763
  0
LINE
  8
_0-0_0
  6
CONTINUOUS
 62
    7
 10
149.83343663378227
 20
109.79162685093416
 11
149.83343663378227
 21
106.88067174960969
  0
LINE
  8
_0-0_0
  6
CONTINUOUS
 62
    7
 10
149.34723935448125
 20
109.41117105725496
 11
149.34723935448125
 21
109.41117105725496
  0
LINE
  8
_0-0_0
  6
CONTINUOUS
 62
    7
 10
149.34723935448125
 20
109.41117105725496
 11
149.34245136846127
 21
109.51551106400417
  0
LINE
  8
_0-0_0
  6
CONTINUOUS
 62
    7
 10
149.34245136846127
 20
109.51551106400417
 11
149.32565715468766
 21
109.61701877402953
  0
LINE
  8
_0-0_0
  6
CONTINUOUS
 62
    7
 10
149.32565715468766
 20
109.61701877402953
 11
149.29736699684761
 21
109.71260992692731
  0
LINE
  8
_0-0_0
  6
CONTINUOUS
 62
    7
 10
149.29736699684761
 20
109.71260992692731
 11
149.25844047707162
 21
109.79938003388818
  0
LINE
  8
_0-0_0
  6
CONTINUOUS
 62
    7
 10
149.25844047707162
 20
109.79938003388818
 11
149.21006035796529
 21
109.87469262911992
  0
LINE
  8
_0-0_0
  6
CONTINUOUS
 62
    7
 10
149.21006035796529
 20
109.87469262911992
 11
149.15369664496615
 21
109.93625937752641
  0
LINE
  8
_0-0_0
  6
CONTINUOUS
 62
    7
 10
149.15369664496615
 20
109.93625937752641
 11
149.14510932364283
 21
109.94380140976536
  0
LINE
  8
_0-0_0
  6
CONTINUOUS
 62
    7
 10
149.34829634691076
 20
109.43994507422656
 11
149.34829634691076
 21
107.05966512333688
  0
LINE
  8
_0-0_0
  6
CONTINUOUS
 62
    7
 10
148.43757554496167
 20
110.8023194746692
 11
148.43757554496167
 21
110.8023194746692
  0
LINE
  8
_0-0_0
  6
CONTINUOUS
 62
    7
 10
148.43757554496167
 20
110.8023194746692
 11
148.4410811584201
 21
110.73294828660663
  0
LINE
  8
_0-0_0
  6
CONTINUOUS
 62
    7
 10
148.4410811584201
 20
110.73294828660663
 11
148.45055660392788
 21
110.66584848954425
  0
LINE
  8
_0-0_0
  6
CONTINUOUS
 62
    7
 10
148.45055660392788
 20
110.66584848954425
 11
148.46571397486801
 21
110.60305887686168
  0
LINE
  8
_0-0_0
  6
CONTINUOUS
 62
    7
 10
148.46571397486801
 20
110.60305887686168
 11
148.48609272219448
 21
110.54648727916721
  0
LINE
  8
_0-0_0
  6
CONTINUOUS
 62
    7
 10
148.48609272219448
 20
110.54648727916721
 11
148.51107364798199
 21
110.49785259583017
  0
LINE
  8
_0-0_0
  6
CONTINUOUS
 62
    7
 10
148.51107364798199
 20
110.49785259583017
 11
148.53989771944137
 21
110.45863256709342
  0
LINE
  8
_0-0_0
  6
CONTINUOUS
 62
    7
 10
148.53989771944137
 20
110.45863256709342
 11
148.56693795653769
 21
110.43346859269499
  0
LINE
  8
_0-0_0
  6
CONTINUOUS
 62
    7
 10
148.93036004147157
 20
111.15275007458773
 11
148.93036004147157
 21
111.15275007458773
  0
LINE
  8
_0-0_0
  6
CONTINUOUS
 62
    7
 10
148.93036004147157
 20
111.15275007458773
 11
148.93386565493
 21
111.08337888652515
  0
LINE
  8
_0-0_0
  6
CONTINUOUS
 62
    7
 10
148.93386565493
 20
111.08337888652515
 11
148.94334110043778
 21
111.01627908946277
  0
LINE
  8
_0-0_0
  6
CONTINUOUS
 62
    7
 10
148.94334110043778
 20
111.01627908946277
 11
148.95849847137791
 21
110.95348947678021
  0
LINE
  8
_0-0_0
  6
CONTINUOUS
 62
    7
 10
148.95849847137791
 20
110.95348947678021
 11
148.97887721870438
 21
110.89691787908573
  0
LINE
  8
_0-0_0
  6
CONTINUOUS
 62
    7
 10
148.97887721870438
 20
110.89691787908573
 11
149.00385814449189
 21
110.84828319574869
  0
LINE
  8
_0-0_0
  6
CONTINUOUS
 62
    7
 10
149.00385814449189
 20
110.84828319574869
 11
149.03268221595127
 21
110.80906316701194
  0
LINE
  8
_0-0_0
  6
CONTINUOUS
 62
    7
 10
149.03268221595127
 20
110.80906316701194
 11
149.05972245304758
 21
110.78389919261352
  0
LINE
  8
_0-0_0
  6
CONTINUOUS
 62
    7
 10
147.96926574008612
 20
112.23208565386712
 11
147.96926574008612
 21
112.23208565386712
  0
LINE
  8
_0-0_0
  6
CONTINUOUS
 62
    7
 10
147.96926574008612
 20
112.23208565386712
 11
147.97277135354454
 21
112.16271446580454
  0
LINE
  8
_0-0_0
  6
CONTINUOUS
 62
    7
 10
147.97277135354454
 20
112.16271446580454
 11
147.98224679905232
 21
112.09561466874216
  0
LINE
  8
_0-0_0
  6
CONTINUOUS
 62
    7
 10
147.98224679905232
 20
112.09561466874216
 11
147.99740416999245
 21
112.03282505605959
  0
LINE
  8
_0-0_0
  6
CONTINUOUS
 62
    7
 10
147.99740416999245
 20
112.03282505605959
 11
148.01778291731893
 21
111.97625345836512
  0
LINE
  8
_0-0_0
  6
CONTINUOUS
 62
    7
 10
148.01778291731893
 20
111.97625345836512
 11
148.04276384310643
 21
111.92761877502808
  0
LINE
  8
_0-0_0
  6
CONTINUOUS
 62
    7
 10
148.04276384310643
 20
111.92761877502808
 11
148.07158791456581
 21
111.88839874629133
  0
LINE
  8
_0-0_0
  6
CONTINUOUS
 62
    7
 10
148.07158791456581
 20
111.88839874629133
 11
148.09862815166213
 21
111.86323477189291
  0
LINE
  8
_0-0_0
  6
CONTINUOUS
 62
    7
 10
148.23659303610361
 20
111.78312079438467
 11
148.09843688481939
 21
111.86407166427776
  0
LINE
  8
_0-0_0
  6
CONTINUOUS
 62
    7
 10
148.57408899697148
 20
110.42725148441704
 11
149.16010180091124
 21
109.93041454194639
  0
LINE
  8
_0-0_0
  6
CONTINUOUS
 62
    7
 10
148.72919726337031
 20
112.1302253058675
 11
148.59158686494038
 21
112.21085639869753
  0
LINE
  8
_0-0_0
  6
CONTINUOUS
 62
    7
 10
148.4398173921646
 20
110.80465383974624
 11
148.4398173921646
 21
111.31738410693268
  0
LINE
  8
_0-0_0
  6
CONTINUOUS
 62
    7
 10
148.931389918565
 20
111.11386219875619
 11
148.931389918565
 21
111.6757757122985
  0
LINE
  8
_0-0_0
  6
CONTINUOUS
 62
    7
 10
149.06201933746098
 20
110.78400327537648
 11
149.63342007199634
 21
110.30596867393513
  0
LINE
  8
_0-0_0
  6
CONTINUOUS
 62
    7
 10
147.96971753613258
 20
113.04100891023737
 11
147.96971753613258
 21
112.21280871241163
  0
LINE
  8
_0-0_0
  6
CONTINUOUS
 62
    7
 10
148.46563950131826
 20
113.39543979143832
 11
148.46563950131826
 21
112.55805840891398
  0
LINE
  8
_0-0_0
  6
CONTINUOUS
 62
    7
 10
149.69610410250959
 20
113.14790794230419
 11
148.30766278302642
 21
113.90232114479792
  0
LINE
  8
_0-0_0
  6
CONTINUOUS
 62
    7
 10
131.55318597092489
 20
121.35735811288157
 11
131.55318597092489
 21
121.35735811288157
  0
LINE
  8
_0-0_0
  6
CONTINUOUS
 62
    7
 10
131.55318597092489
 20
121.35735811288157
 11
131.38392618340092
 21
121.32957558036256
  0
LINE
  8
_0-0_0
  6
CONTINUOUS
 62
    7
 10
131.38392618340092
 20
121.32957558036256
 11
131.2212445259504
 21
121.26682517661922
  0
LINE
  8
_0-0_0
  6
CONTINUOUS
 62
    7
 10
131.2212445259504
 20
121.26682517661922
 11
131.07008399841413
 21
121.17101354091608
  0
LINE
  8
_0-0_0
  6
CONTINUOUS
 62
    7
 10
131.07008399841413
 20
121.17101354091608
 11
130.93503753693031
 21
121.04505186132094
  0
LINE
  8
_0-0_0
  6
CONTINUOUS
 62
    7
 10
130.93503753693031
 20
121.04505186132094
 11
130.82020845989439
 21
120.89276741972863
  0
LINE
  8
_0-0_0
  6
CONTINUOUS
 62
    7
 10
130.82020845989439
 20
120.89276741972863
 11
130.72908579070574
 21
120.71878730183728
  0
LINE
  8
_0-0_0
  6
CONTINUOUS
 62
    7
 10
130.72908579070574
 20
120.71878730183728
 11
130.66443824555739
 21
120.52839780549081
  0
LINE
  8
_0-0_0
  6
CONTINUOUS
 62
    7
 10
130.66443824555739
 20
120.52839780549081
 11
130.62823010739541
 21
120.32738381919401
  0
LINE
  8
_0-0_0
  6
CONTINUOUS
 62
    7
 10
130.62823010739541
 20
120.32738381919401
 11
130.6204377614001
 21
120.17213752095799
  0
LINE
  8
_0-0_0
  6
CONTINUOUS
 62
    7
 10
130.62141698708484
 20
120.17934939579337
 11
130.622622478637
 21
120.06844417299359
  0
LINE
  8
_0-0_0
  6
CONTINUOUS
 62
    7
 10
148.46576768457996
 20
112.57569130419564
 11
148.46576768457996
 21
112.57569130419564
  0
LINE
  8
_0-0_0
  6
CONTINUOUS
 62
    7
 10
148.46576768457996
 20
112.57569130419564
 11
148.46927329803839
 21
112.50632011613307
  0
LINE
  8
_0-0_0
  6
CONTINUOUS
 62
    7
 10
148.46927329803839
 20
112.50632011613307
 11
148.47874874354616
 21
112.43922031907069
  0
LINE
  8
_0-0_0
  6
CONTINUOUS
 62
    7
 10
148.47874874354616
 20
112.43922031907069
 11
148.49390611448629
 21
112.37643070638812
  0
LINE
  8
_0-0_0
  6
CONTINUOUS
 62
    7
 10
148.49390611448629
 20
112.37643070638812
 11
148.51428486181277
 21
112.31985910869365
  0
LINE
  8
_0-0_0
  6
CONTINUOUS
 62
    7
 10
148.51428486181277
 20
112.31985910869365
 11
148.53926578760027
 21
112.27122442535661
  0
LINE
  8
_0-0_0
  6
CONTINUOUS
 62
    7
 10
148.53926578760027
 20
112.27122442535661
 11
148.56808985905965
 21
112.23200439661986
  0
LINE
  8
_0-0_0
  6
CONTINUOUS
 62
    7
 10
148.56808985905965
 20
112.23200439661986
 11
148.59090725662796
 21
112.21013771084061
  0
LINE
  8
_0-0_0
  6
CONTINUOUS
 62
    7
 10
148.93110872284242
 20
111.59902175766854
 11
148.93110872284242
 21
111.59902175766854
  0
LINE
  8
_0-0_0
  6
CONTINUOUS
 62
    7
 10
148.93110872284242
 20
111.59902175766854
 11
148.92632073682245
 21
111.70336176441775
  0
LINE
  8
_0-0_0
  6
CONTINUOUS
 62
    7
 10
148.92632073682245
 20
111.70336176441775
 11
148.90952652304884
 21
111.80486947444311
  0
LINE
  8
_0-0_0
  6
CONTINUOUS
 62
    7
 10
148.90952652304884
 20
111.80486947444311
 11
148.88123636520879
 21
111.90046062734089
  0
LINE
  8
_0-0_0
  6
CONTINUOUS
 62
    7
 10
148.88123636520879
 20
111.90046062734089
 11
148.84230984543279
 21
111.98723073430176
  0
LINE
  8
_0-0_0
  6
CONTINUOUS
 62
    7
 10
148.84230984543279
 20
111.98723073430176
 11
148.79392972632647
 21
112.0625433295335
  0
LINE
  8
_0-0_0
  6
CONTINUOUS
 62
    7
 10
148.79392972632647
 20
112.0625433295335
 11
148.73756601332732
 21
112.12411007793999
  0
LINE
  8
_0-0_0
  6
CONTINUOUS
 62
    7
 10
148.73756601332732
 20
112.12411007793999
 11
148.73071034936046
 21
112.13016572724899
  0
LINE
  8
_0-0_0
  6
CONTINUOUS
 62
    7
 10
148.41031692147209
 20
111.6299053541119
 11
148.82014748531427
 21
111.92447107187348
  0
LINE
  8
_0-0_0
  6
CONTINUOUS
 62
    7
 10
148.0648713970985
 20
112.00606081050444
 11
148.48188249907676
 21
112.30578754005133
  0
LINE
  8
_0-0_0
  6
CONTINUOUS
 62
    7
 10
149.35402575847809
 20
109.78459296791053
 11
149.74283287854189
 21
110.06404808545639
  0
LINE
  8
_0-0_0
  6
CONTINUOUS
 62
    7
 10
148.51749186388943
 20
110.59520560898542
 11
148.9309211058395
 21
110.89235787663702
  0
LINE
  8
_0-0_0
  6
CONTINUOUS
 62
    7
 10
147.98550566894824
 20
113.47389367065355
 11
148.32370605996471
 21
113.71697520169664
  0
LINE
  8
_0-0_0
  6
CONTINUOUS
 62
    7
 10
149.69710536111785
 20
113.14429618383946
 11
306.85580579636422
 21
202.63853035456597
  0
LINE
  8
_0-0_0
  6
CONTINUOUS
 62
    7
 10
307.32699051393388
 20
202.26158258051024
 11
149.84987687934822
 21
112.74528684361673
  0
LINE
  8
_0-0_0
  6
CONTINUOUS
 62
    7
 10
149.95234394500403
 20
111.47298744505684
 11
307.42809530549692
 21
200.97979214052603
  0
LINE
  8
_0-0_0
  6
CONTINUOUS
 62
    7
 10
307.41340905278309
 20
200.42982770243449
 11
307.41340905278309
 21
197.20185721888862
  0
LINE
  8
_0-0_0
  6
CONTINUOUS
 62
    7
 10
307.41570871905344
 20
200.43478233701188
 11
149.92759341321653
 21
110.89547564698847
  0
LINE
  8
_0-0_0
  6
CONTINUOUS
 62
    7
 10
149.84031511386505
 20
109.29217234613782
 11
307.40698183758127
 21
198.84630148483635
  0
LINE
  8
_0-0_0
  6
CONTINUOUS
 62
    7
 10
149.85107627286061
 20
109.19476779928561
 11
307.4033204010567
 21
198.74069975384245
  0
LINE
  8
_0-0_0
  6
CONTINUOUS
 62
    7
 10
134.75288598009882
 20
121.47966557429314
 11
131.54748437641715
 21
121.3572370408192
  0
LINE
  8
_0-0_0
  6
CONTINUOUS
 62
    7
 10
135.52160434829659
 20
121.29841260495283
 11
148.25484652553814
 21
113.93755205865705
  0
LINE
  8
_0-0_0
  6
CONTINUOUS
 62
    7
 10
134.20862499731226
 20
121.1508482065488
 11
131.56129563303173
 21
121.04973493221866
  0
LINE
  8
_0-0_0
  6
CONTINUOUS
 62
    7
 10
134.98494281217498
 20
120.96359659567634
 11
147.76069708310717
 21
113.57816056508263
  0
LINE
  8
_0-0_0
  6
CONTINUOUS
 62
    7
 10
135.52259903244064
 20
121.29615345813683
 11
135.52259903244064
 21
121.29615345813683
  0
LINE
  8
_0-0_0
  6
CONTINUOUS
 62
    7
 10
135.52259903244064
 20
121.29615345813683
 11
135.3421329684584
 21
121.38428873561321
  0
LINE
  8
_0-0_0
  6
CONTINUOUS
 62
    7
 10
135.3421329684584
 20
121.38428873561321
 11
135.1460431531068
 21
121.44497037090146
  0
LINE
  8
_0-0_0
  6
CONTINUOUS
 62
    7
 10
135.1460431531068
 20
121.44497037090146
 11
134.94028767619901
 21
121.47635458321975
  0
LINE
  8
_0-0_0
  6
CONTINUOUS
 62
    7
 10
134.94028767619901
 20
121.47635458321975
 11
134.74558333020954
 21
121.4783901649557
  0
LINE
  8
_0-0_0
  6
CONTINUOUS
 62
    7
 10
134.98511837655278
 20
120.96432055246008
 11
134.98511837655278
 21
120.96432055246008
  0
LINE
  8
_0-0_0
  6
CONTINUOUS
 62
    7
 10
134.98511837655278
 20
120.96432055246008
 11
134.80497417410069
 21
121.05291191164393
  0
LINE
  8
_0-0_0
  6
CONTINUOUS
 62
    7
 10
134.80497417410069
 20
121.05291191164393
 11
134.6091062931705
 21
121.11408927529051
  0
LINE
  8
_0-0_0
  6
CONTINUOUS
 62
    7
 10
134.6091062931705
 20
121.11408927529051
 11
134.40346608021034
 21
121.14599380016267
  0
LINE
  8
_0-0_0
  6
CONTINUOUS
 62
    7
 10
134.40346608021034
 20
121.14599380016267
 11
134.20912389805889
 21
121.14854121631241
  0
LINE
  8
_0-0_0
  6
CONTINUOUS
 62
    7
 10
292.32946471676718
 20
211.07428631689226
 11
292.32946471676718
 21
211.07428631689226
  0
LINE
  8
_0-0_0
  6
CONTINUOUS
 62
    7
 10
292.32946471676718
 20
211.07428631689226
 11
292.14932051431504
 21
211.16287767607608
  0
LINE
  8
_0-0_0
  6
CONTINUOUS
 62
    7
 10
292.14932051431504
 20
211.16287767607608
 11
291.95345263338487
 21
211.22405503972269
  0
LINE
  8
_0-0_0
  6
CONTINUOUS
 62
    7
 10
291.95345263338487
 20
211.22405503972269
 11
291.74781242042468
 21
211.25595956459483
  0
LINE
  8
_0-0_0
  6
CONTINUOUS
 62
    7
 10
291.74781242042468
 20
211.25595956459483
 11
291.55347023827323
 21
211.25850698074456
  0
LINE
  8
_0-0_0
  6
CONTINUOUS
 62
    7
 10
292.68015850638989
 20
211.68755205648355
 11
292.68015850638989
 21
211.68755205648355
  0
LINE
  8
_0-0_0
  6
CONTINUOUS
 62
    7
 10
292.68015850638989
 20
211.68755205648355
 11
292.50091903782578
 21
211.77740874884586
  0
LINE
  8
_0-0_0
  6
CONTINUOUS
 62
    7
 10
292.50091903782578
 20
211.77740874884586
 11
292.30567847848221
 21
211.83996314357583
  0
LINE
  8
_0-0_0
  6
CONTINUOUS
 62
    7
 10
292.30567847848221
 20
211.83996314357583
 11
292.10036911395827
 21
211.87331455704364
  0
LINE
  8
_0-0_0
  6
CONTINUOUS
 62
    7
 10
292.10036911395827
 20
211.87331455704364
 11
292.02566122744037
 21
211.87793209942612
  0
LINE
  8
_0-0_0
  6
CONTINUOUS
 62
    7
 10
292.68241403636659
 20
211.68626371956327
 11
306.25795457001141
 21
203.84261807790182
  0
LINE
  8
_0-0_0
  6
CONTINUOUS
 62
    7
 10
292.33435819785632
 20
211.07892260206873
 11
306.87876249783017
 21
202.67548900652824
  0
LINE
  8
_0-0_0
  6
CONTINUOUS
 62
    7
 10
288.46654725931887
 20
211.13825994629721
 11
288.46654725931887
 21
211.13825994629721
  0
LINE
  8
_0-0_0
  6
CONTINUOUS
 62
    7
 10
288.46654725931887
 20
211.13825994629721
 11
288.26002285006621
 21
211.11060458078828
  0
LINE
  8
_0-0_0
  6
CONTINUOUS
 62
    7
 10
288.26002285006621
 20
211.11060458078828
 11
288.06239877523586
 21
211.0534838729973
  0
LINE
  8
_0-0_0
  6
CONTINUOUS
 62
    7
 10
288.06239877523586
 20
211.0534838729973
 11
287.87967974233902
 21
210.96863340672607
  0
LINE
  8
_0-0_0
  6
CONTINUOUS
 62
    7
 10
287.87967974233902
 20
210.96863340672607
 11
287.85342775610889
 21
210.95337604976717
  0
LINE
  8
_0-0_0
  6
CONTINUOUS
 62
    7
 10
291.55341210898359
 20
211.25887439238872
 11
288.46868397631187
 21
211.14105491509918
  0
LINE
  8
_0-0_0
  6
CONTINUOUS
 62
    7
 10
289.58717773412701
 20
211.78377453443827
 11
289.58717773412701
 21
211.78377453443827
  0
LINE
  8
_0-0_0
  6
CONTINUOUS
 62
    7
 10
289.58717773412701
 20
211.78377453443827
 11
289.38065332487434
 21
211.75611916892933
  0
LINE
  8
_0-0_0
  6
CONTINUOUS
 62
    7
 10
289.38065332487434
 20
211.75611916892933
 11
289.183029250044
 21
211.69899846113836
  0
LINE
  8
_0-0_0
  6
CONTINUOUS
 62
    7
 10
289.183029250044
 20
211.69899846113836
 11
289.00031021714716
 21
211.61414799486712
  0
LINE
  8
_0-0_0
  6
CONTINUOUS
 62
    7
 10
289.00031021714716
 20
211.61414799486712
 11
288.97405823091702
 21
211.59889063790823
  0
LINE
  8
_0-0_0
  6
CONTINUOUS
 62
    7
 10
292.02551326544415
 20
211.87781028324761
 11
289.58447174779269
 21
211.7845760586151
  0
LINE
  8
_0-0_0
  6
CONTINUOUS
 62
    7
 10
288.97490462314909
 20
211.59714391844881
 11
131.35960512380822
 21
121.33287548270312
  0
LINE
  8
_0-0_0
  6
CONTINUOUS
 62
    7
 10
291.750627636697
 20
211.15858310569573
 11
135.15653989652355
 21
121.47914959810763
  0
LINE
  8
_0-0_0
  6
CONTINUOUS
 62
    7
 10
306.09903229202098
 20
202.19448564460524
 11
306.64955862835473
 21
201.8988326121297
  0
LINE
  8
_0-0_0
  6
CONTINUOUS
 62
    7
 10
306.77728545335071
 20
200.61503238470235
 11
307.25031040731716
 21
200.34172907796614
  0
ENDSEC
  0
EOF
