  0
SECTION
  2
HEADER
  9
$ACADVER
  1
AC1009
  9
$INSBASE
 10
0
 20
0
 30
0
  9
$EXTMIN
 10
0
 20
0
  9
$EXTMAX
 10
420
 20
297
  9
$LIMMIN
 10
0
 20
0
  9
$LIMMAX
 10
420
 20
297
  9
$LTSCALE
 40
1
  0
ENDSEC
  0
SECTION
  2
TABLES
  0
TABLE
  2
LTYPE
 70
     9
  0
LTYPE
  2
CONTINUOUS
 70
    64
  3
実線
 72
    65
 73
     0
 40
0.0
  0
LTYPE
  2
DASHED1
 70
    64
  3
--  --  --  --  --  --  --  --  
 72
    65
 73
     2
 40
2.5
 49
1.25
 49
-1.25
  0
LTYPE
  2
DASHED2
 70
    64
  3
----    ----    ----    ----    
 72
    65
 73
     2
 40
5.0
 49
2.5
 49
-2.5
  0
LTYPE
  2
DASHED3
 70
    64
  3
------  ------  ------  ------  
 72
    65
 73
     2
 40
5.0
 49
3.75
 49
-1.25
  0
LTYPE
  2
CENTER1
 70
    64
  3
----- - ----- - ----- - ----- - 
 72
    65
 73
     4
 40
10.0
 49
6.25
 49
-1.25
 49
1.25
 49
-1.25
  0
LTYPE
  2
CENTER2
 70
    64
  3
----------  --  ----------  --  
 72
    65
 73
     4
 40
20.0
 49
12.5
 49
-2.5
 49
2.5
 49
-2.5
  0
LTYPE
  2
PHANTOM1
 70
    64
  3
--- - - --- - - --- - - --- - - 
 72
    65
 73
     6
 40
10.0
 49
3.25
 49
-1.25
 49
1.25
 49
-1.25
 49
1.25
 49
-1.25
  0
LTYPE
  2
PHANTOM2
 70
    64
  3
--------  -  -  --------  -  -  
 72
    65
 73
     6
 40
20.0
 49
10.0
 49
-2.5
 49
1.25
 49
-2.5
 49
1.25
 49
-2.5
  0
LTYPE
  2
DOT
 70
    64
  3
-   -   -   -   -   -   -   -   
 72
    65
 73
     2
 40
2.5
 49
0.625
 49
-1.875
  0
LTYPE
  2
DUMMY
 70
    64
  3
ダミー
 72
    65
 73
     0
 40
0.0
  0
LTYPE
  2
RAND1
 70
    64
  3
ランダム線1
 72
    65
 73
     4
 40
10.0
 49
1.0
 49
-2.0
 49
3.0
 49
-4.0
  0
LTYPE
  2
RAND2
 70
    64
  3
ランダム線2
 72
    65
 73
     4
 40
14.0
 49
2.0
 49
-3.0
 49
4.0
 49
-5.0
  0
LTYPE
  2
RAND3
 70
    64
  3
ランダム線3
 72
    65
 73
     4
 40
18.0
 49
3.0
 49
-4.0
 49
5.0
 49
-6.0
  0
LTYPE
  2
RAND4
 70
    64
  3
ランダム線4
 72
    65
 73
     4
 40
22.0
 49
4.0
 49
-5.0
 49
6.0
 49
-7.0
  0
LTYPE
  2
RAND5
 70
    64
  3
ランダム線5
 72
    65
 73
     4
 40
26.0
 49
5.0
 49
-6.0
 49
7.0
 49
-8.0
  0
LTYPE
  2
LONG1
 70
    64
  3
----------  --  ----------  --  
 72
    65
 73
     4
 40
40.0
 49
32.5
 49
-2.5
 49
2.5
 49
-2.5
  0
LTYPE
  2
LONG2
 70
    64
  3
--------  -  -  --------  -  -  
 72
    65
 73
     6
 40
40.0
 49
30.0
 49
-2.5
 49
1.25
 49
-2.5
 49
1.25
 49
-2.5
  0
LTYPE
  2
LONG3
 70
    64
  3
+++++++++++++++..+++++++++++++++
 72
    65
 73
     2
 40
40.0
 49
37.5
 49
-2.5
  0
LTYPE
  2
LONG4
 70
    64
  3
+++++++++++++++..+++++++++++++++
 72
    65
 73
     2
 40
80.0
 49
75.0
 49
-5.0
  0
LTYPE
  2
LONG5
 70
    64
  3
----------  --  ----------  --  
 72
    65
 73
     4
 40
60.0
 49
37.5
 49
-7.5
 49
7.5
 49
-7.5
  0
LTYPE
  2
dashed
 70
   64
  3
-------   -------------   ------
 72
   65
 73
    2
 40
7.5
 49
6
 49
-1.5
  0
LTYPE
  2
dashed_spaced
 70
   64
  3
----        --------        ----
 72
   65
 73
    2
 40
12
 49
6
 49
-6
  0
LTYPE
  2
long_dashed_dotted
 70
   64
  3
------------- --- --------------
 72
   65
 73
    4
 40
15.25
 49
12
 49
-1.5
 49
0.25
 49
-1.5
  0
LTYPE
  2
long_dashed_double-dotted
 70
   64
  3
----------- --- --- ------------
 72
   65
 73
    6
 40
17
 49
12
 49
-1.5
 49
0.25
 49
-1.5
 49
0.25
 49
-1.5
  0
LTYPE
  2
long_dashed_triplicate-dotted
 70
   64
  3
--------- --- --- --- ----------
 72
   65
 73
    8
 40
18.75
 49
12
 49
-1.5
 49
0.25
 49
-1.5
 49
0.25
 49
-1.5
 49
0.25
 49
-1.5
  0
LTYPE
  2
dotted
 70
   64
  3
   -       -       -       -    
 72
   65
 73
    2
 40
1.75
 49
0.25
 49
-1.5
  0
LTYPE
  2
chain
 70
   64
  3
-------------- -- --------------
 72
   65
 73
    4
 40
18.5
 49
12
 49
-1.5
 49
3.5
 49
-1.5
  0
LTYPE
  2
chain_double_dash
 70
   64
  3
------------ -- -- -------------
 72
   65
 73
    6
 40
23.5
 49
12
 49
-1.5
 49
3.5
 49
-1.5
 49
3.5
 49
-1.5
  0
LTYPE
  2
dashed_dotted
 70
   64
  3
-----------     -     ----------
 72
   65
 73
    4
 40
9.25
 49
6
 49
-1.5
 49
0.25
 49
-1.5
  0
LTYPE
  2
double-dashed_dotted
 70
   64
  3
------   -----------   -   -----
 72
   65
 73
    6
 40
16.75
 49
6
 49
-1.5
 49
6
 49
-1.5
 49
0.25
 49
-1.5
  0
LTYPE
  2
dashed_double-dotted
 70
   64
  3
---------    -    -    ---------
 72
   65
 73
    6
 40
11
 49
6
 49
-1.5
 49
0.25
 49
-1.5
 49
0.25
 49
-1.5
  0
LTYPE
  2
double-dashed_double-dotted
 70
   64
  3
-----   ---------   -   -   ----
 72
   65
 73
    8
 40
18.5
 49
6
 49
-1.5
 49
6
 49
-1.5
 49
0.25
 49
-1.5
 49
0.25
 49
-1.5
  0
LTYPE
  2
dashed_triplicate-dotted
 70
   64
  3
-------    -    -    -    ------
 72
   65
 73
    8
 40
12.75
 49
6
 49
-1.5
 49
0.25
 49
-1.5
 49
0.25
 49
-1.5
 49
0.25
 49
-1.5
  0
LTYPE
  2
double-dashed_triplicate-dotted
 70
   64
  3
-----  ---------  -  -  -  -----
 72
   65
 73
   10
 40
20.25
 49
6
 49
-1.5
 49
6
 49
-1.5
 49
0.25
 49
-1.5
 49
0.25
 49
-1.5
 49
0.25
 49
-1.5
  0
LTYPE
  2
undefined
 70
   64
  3
--------------------------------
 72
   65
 73
    0
 40
0
  0
LTYPE
  2
_
 70
   64
  3
                                
 72
   65
 73
    0
 40
0
  0
LTYPE
  2
__18
 70
   64
  3
                                
 72
   65
 73
    0
 40
0
  0
LTYPE
  2
__19
 70
   64
  3
                                
 72
   65
 73
    0
 40
0
  0
LTYPE
  2
__20
 70
   64
  3
                                
 72
   65
 73
    0
 40
0
  0
LTYPE
  2
__21
 70
   64
  3
                                
 72
   65
 73
    0
 40
0
  0
LTYPE
  2
__22
 70
   64
  3
                                
 72
   65
 73
    0
 40
0
  0
LTYPE
  2
__23
 70
   64
  3
                                
 72
   65
 73
    0
 40
0
  0
LTYPE
  2
__24
 70
   64
  3
                                
 72
   65
 73
    0
 40
0
  0
LTYPE
  2
__25
 70
   64
  3
                                
 72
   65
 73
    0
 40
0
  0
LTYPE
  2
__26
 70
   64
  3
                                
 72
   65
 73
    0
 40
0
  0
LTYPE
  2
__27
 70
   64
  3
                                
 72
   65
 73
    0
 40
0
  0
LTYPE
  2
__28
 70
   64
  3
                                
 72
   65
 73
    0
 40
0
  0
LTYPE
  2
__29
 70
   64
  3
                                
 72
   65
 73
    0
 40
0
  0
LTYPE
  2
__30
 70
   64
  3
                                
 72
   65
 73
    0
 40
0
  0
LTYPE
  2
__31
 70
   64
  3
                                
 72
   65
 73
    0
 40
0
  0
LTYPE
  2
__32
 70
   64
  3
                                
 72
   65
 73
    0
 40
0
  0
ENDTAB
  0
TABLE
  2
STYLE
  5
3
100
AcDbSymbolTable
 70
     1
  0
STYLE
  5
10
100
AcDbSymbolTableRecord
100
AcDbTextStyleTableRecord
  2
STANDARD
 70
     0
 40
0.0
 41
1.0
 50
0.0
 71
     0
 42
0.2
  3
txt
  4
bigfont.shx
  0
STYLE
  5
26
100
AcDbSymbolTableRecord
100
AcDbTextStyleTableRecord
  2
TATEGAKI
 70
    68
 40
0.0
 41
1.0
 50
0.0
 71
     0
 42
1.0
  3
txt
  4
bigfont.shx
  0
ENDTAB
  0
TABLE
  2
LAYER
 70
    6
  0
LAYER
  2
_0-0_
 70
   64
 62
    7
  6
CONTINUOUS
  0
LAYER
  2
_7-3_
 70
   64
 62
    7
  6
CONTINUOUS
  0
LAYER
  2
_8-0_
 70
   64
 62
    7
  6
CONTINUOUS
  0
LAYER
  2
_8-f_
 70
   64
 62
    7
  6
CONTINUOUS
  0
LAYER
  2
_9-0_ADD_LINE
 70
   64
 62
    7
  6
CONTINUOUS
  0
LAYER
  2
ADD_LINE
 70
   64
 62
    7
  6
CONTINUOUS
  0
ENDTAB
  0
ENDSEC
  0
SECTION
  2
BLOCKS
  0
ENDSEC
  0
SECTION
  2
ENTITIES
  0
LINE
  8
_0-0_
  6
CONTINUOUS
 62
    7
 10
210.00331510113093
 20
3.0024031509004203
 11
210.0031672187186
 21
15.002095054631126
  0
LINE
  8
_0-0_
  6
CONTINUOUS
 62
    7
 10
275.02411035572424
 20
261.60313517294878
 11
394.99996700802364
 21
261.60313517294878
  0
LINE
  8
_0-0_
  6
CONTINUOUS
 62
    7
 10
15
 20
272.00000659839525
 11
394.99996700802364
 21
272.00000659839525
  0
LINE
  8
_0-0_
  6
CONTINUOUS
 62
    7
 10
394.99996700802364
 20
272.00000659839525
 11
394.99996700802364
 21
15
  0
LINE
  8
_0-0_
  6
CONTINUOUS
 62
    7
 10
279.94698480640784
 20
266.44730204783434
 11
277.69699243580237
 21
261.94730002127641
  0
LINE
  8
_0-0_
  6
CONTINUOUS
 62
    7
 10
277.69699243580237
 20
261.94730002127641
 11
282.19698480640784
 21
261.94730002127641
  0
LINE
  8
_0-0_
  6
CONTINUOUS
 62
    7
 10
279.94698480640784
 20
266.44730204783434
 11
282.19698480640784
 21
261.94730002127641
  0
TEXT
  8
_0-0_
 62
    7
 10
375.52411798511877
 20
267.10311478816026
 40
4
 41
1
 50
0
  1
担当
  0
TEXT
  8
_0-0_
 62
    7
 10
385.52411798511877
 20
267.10311478816026
 40
4
 41
1
 50
0
  1
検印
  0
TEXT
  8
_0-0_
 62
    7
 10
276.7939238933219
 20
267.7922115965938
 40
3
 41
1
 50
0
  1
Ｎｏ
  0
TEXT
  8
_0-0_
 62
    7
 10
292.17555383716955
 20
267.81606489859575
 40
3
 41
1
 50
0
  1
年　月　日
  0
TEXT
  8
_0-0_
 62
    7
 10
279.33104852711096
 20
262.18189722739214
 40
3
 41
1
 50
0
  1
1
  0
TEXT
  8
_0-0_
 62
    7
 10
332.97356561695471
 20
267.81606489859575
 40
3
 41
1
 50
0
  1
訂　正　記　事
  0
TEXT
  8
_0-0_
 62
    7
 10
297.95645633474799
 20
262.46271130286214
 40
3
 41
1
 50
0
  1
.   .
  0
LINE
  8
_0-0_
  6
CONTINUOUS
 62
    7
 10
275.02411035572424
 20
266.60311478816026
 11
275.02411035572424
 21
261.60313517294878
  0
LINE
  8
_0-0_
  6
CONTINUOUS
 62
    7
 10
285.02411798511877
 20
266.60311478816026
 11
285.02411798511877
 21
261.60313517294878
  0
LINE
  8
_0-0_
  6
CONTINUOUS
 62
    7
 10
315.02411831294432
 20
266.60311478816026
 11
315.02411831294432
 21
261.60313517294878
  0
LINE
  8
_0-0_
  6
CONTINUOUS
 62
    7
 10
275.02411035572424
 20
272.00000659839525
 11
275.02411035572424
 21
266.60311478816026
  0
LINE
  8
_0-0_
  6
CONTINUOUS
 62
    7
 10
285.02411798511877
 20
272.00000659839525
 11
285.02411798511877
 21
266.60311478816026
  0
LINE
  8
_0-0_
  6
CONTINUOUS
 62
    7
 10
315.02411831294432
 20
272.00000659839525
 11
315.02411831294432
 21
266.60311478816026
  0
LINE
  8
_0-0_
  6
CONTINUOUS
 62
    7
 10
375.02411798511877
 20
272.00000659839525
 11
375.02411798511877
 21
261.60313517294878
  0
LINE
  8
_0-0_
  6
CONTINUOUS
 62
    7
 10
385.02411798511877
 20
272.00000659839525
 11
385.02411798511877
 21
261.60313517294878
  0
LINE
  8
_0-0_
  6
CONTINUOUS
 62
    7
 10
394.99996700802364
 20
266.60311478816026
 11
275.0241256145133
 21
266.60311478816026
  0
LINE
  8
_0-0_
  6
CONTINUOUS
 62
    2
 10
349.99996700802364
 20
35.000004123997044
 11
349.99996700802364
 21
15
  0
LINE
  8
_0-0_
  6
CONTINUOUS
 62
    2
 10
349.99996700802364
 20
45.000006185995573
 11
349.99996700802364
 21
35.000004123997044
  0
LINE
  8
_0-0_
  6
CONTINUOUS
 62
    7
 10
344.99997525601776
 20
35.000004123997044
 11
344.99997525601776
 21
15
  0
LINE
  8
_0-0_
  6
CONTINUOUS
 62
    7
 10
310.02294591955239
 20
31.279208209063554
 11
310.02294591955239
 21
28.279210683461784
  0
LINE
  8
_0-0_
  6
CONTINUOUS
 62
    7
 10
310.02294591955239
 20
31.279208209063554
 11
317.02294426995354
 21
32.779206971864454
  0
LINE
  8
_0-0_
  6
CONTINUOUS
 62
    7
 10
317.02294426995354
 20
32.779206971864454
 11
317.02294426995354
 21
26.779205734665339
  0
LINE
  8
_0-0_
  6
CONTINUOUS
 62
    7
 10
310.02294591955239
 20
28.279210683461784
 11
317.02294426995354
 21
26.779205734665339
  0
LINE
  8
_0-0_
  6
CENTER2
 62
    2
 10
319.02292612436656
 20
29.779209446262669
 11
301.02294097075593
 21
29.779209446262669
  0
LINE
  8
_0-0_
  6
CENTER2
 62
    2
 10
305.02292942356422
 20
33.779210271062083
 11
305.02292942356422
 21
25.779207074964375
  0
LINE
  8
_0-0_
  6
CONTINUOUS
 62
    7
 10
344.99997525601776
 20
45.000006185995573
 11
344.99997525601776
 21
15
  0
LINE
  8
_0-0_
  6
CONTINUOUS
 62
    7
 10
374.99997525601776
 20
45.000006185995573
 11
374.99997525601776
 21
35.000004123997044
  0
LINE
  8
_0-0_
  6
CONTINUOUS
 62
    2
 10
380.00001649598817
 20
45.000006185995573
 11
380.00001649598817
 21
35.000004123997044
  0
LINE
  8
_0-0_
  6
CONTINUOUS
 62
    7
 10
319.99999175200593
 20
35.000004123997044
 11
319.99999175200593
 21
25.000000515499635
  0
LINE
  8
_0-0_
  6
CONTINUOUS
 62
    2
 10
324.99998350401182
 20
35.000004123997044
 11
324.99998350401182
 21
25.000000515499635
  0
LINE
  8
_0-0_
  6
CONTINUOUS
 62
    2
 10
335.00001649598817
 20
45.000006185995573
 11
335.00001649598817
 21
35.000004123997044
  0
LINE
  8
_0-0_
  6
CONTINUOUS
 62
    7
 10
329.99997525601776
 20
45.000006185995573
 11
329.99997525601776
 21
35.000004123997044
  0
LINE
  8
_0-0_
  6
CONTINUOUS
 62
    2
 10
319.99999175200593
 20
45.000006185995573
 11
319.99999175200593
 21
35.000004123997044
  0
LINE
  8
_0-0_
  6
CONTINUOUS
 62
    7
 10
314.99997525601776
 20
45.000006185995573
 11
314.99997525601776
 21
35.000004123997044
  0
LINE
  8
_0-0_
  6
CONTINUOUS
 62
    2
 10
304.99996700802364
 20
45.000006185995573
 11
304.99996700802364
 21
35.000004123997044
  0
LINE
  8
_0-0_
  6
CONTINUOUS
 62
    7
 10
394.99996700802364
 20
45.000006185995573
 11
299.99997525601776
 21
45.000006185995573
  0
LINE
  8
_0-0_
  6
CONTINUOUS
 62
    7
 10
394.99996700802364
 20
35.000004123997044
 11
299.99997525601776
 21
35.000004123997044
  0
LINE
  8
_0-0_
  6
CONTINUOUS
 62
    7
 10
394.99996700802364
 20
25.000000515499635
 11
299.99997525601776
 21
25.000000515499635
  0
CIRCLE
  8
_0-0_
  6
CONTINUOUS
 62
    7
 10
305.02292942356422
 20
29.779209446262669
 40
3.0000000386624723
  0
CIRCLE
  8
_0-0_
  6
CONTINUOUS
 62
    7
 10
305.02292942356422
 20
29.779209446262669
 40
1.5000000193312361
  0
TEXT
  8
_0-0_
 62
    7
 10
347.6258264490076
 20
23.126073888830234
 40
3
 41
1
 50
0
  1
図番
  7
TATEGAKI
  0
TEXT
  8
_0-0_
 62
    7
 10
347.50309629698057
 20
33.277761201600782
 40
3
 41
1
 50
0
  1
品名
  7
TATEGAKI
  0
TEXT
  8
_0-0_
 62
    7
 10
347.57888711465375
 20
43.076007018218177
 40
3
 41
1
 50
0
  1
作図
  7
TATEGAKI
  0
TEXT
  8
_0-0_
 62
    7
 10
377.2779260583826
 20
43.013794460812135
 40
3
 41
1
 50
0
  1
尺度
  7
TATEGAKI
  0
TEXT
  8
_0-0_
 62
    7
 10
385.93899783572635
 20
37.594552942224453
 40
3
 41
1
 50
0
  1
：
  0
TEXT
  8
_0-0_
 62
    7
 10
322.56749663481843
 20
33.277761201600782
 40
3
 41
1
 50
0
  1
材質
  7
TATEGAKI
  0
TEXT
  8
_0-0_
 62
    7
 10
302.5010425464527
 20
42.994976662300729
 40
3
 41
1
 50
0
  1
設計
  7
TATEGAKI
  0
TEXT
  8
_0-0_
 62
    7
 10
317.48364752692145
 20
42.994976662300729
 40
3
 41
1
 50
0
  1
製図
  7
TATEGAKI
  0
TEXT
  8
_0-0_
 62
    7
 10
332.4662525073902
 20
42.994976662300729
 40
3
 41
1
 50
0
  1
検図
  7
TATEGAKI
  0
TEXT
  8
_0-0_
 62
    7
 10
305.62195121951219
 20
18.162195121951214
 40
4
 41
1
 50
0
  1
ＦＫＫ株式会社
  0
LINE
  8
_0-0_
  6
CONTINUOUS
 62
    7
 10
394.99996700802364
 20
50.000006185995573
 11
299.99997525601776
 21
50.000006185995573
  0
TEXT
  8
_0-0_
 62
    7
 10
305.73940582397756
 20
45.395881365276665
 40
4
 41
1
 50
0
  1
出図
  0
TEXT
  8
_0-0_
 62
    7
 10
331.66244169064771
 20
45.896091496297259
 40
3
 41
1
 50
0
  1
.   .
  0
LINE
  8
_0-0_
  6
CONTINUOUS
 62
    7
 10
394.99996700802364
 20
15
 11
15.00316722972974
 21
15
  0
TEXT
  8
_8-f_
 62
    7
 10
383.496482808741
 20
36.935951283079418
 40
4
 41
1
 50
0
  1
4
  0
TEXT
  8
_8-f_
 62
    7
 10
389.36890161387327
 20
37.131698576583801
 40
4
 41
1
 50
0
  1
1
  0
TEXT
  8
_8-f_
 62
    7
 10
323.79355828989577
 20
45.255211257016867
 40
4
 41
1
 50
0
  1
13
  0
LINE
  8
_7-3_
  6
PHANTOM1
 62
    2
 10
305.31215962563709
 20
141.04103862100501
 11
308.31511619460934
 21
144.28330428665239
  0
LINE
  8
_7-3_
  6
PHANTOM1
 62
    2
 10
308.31511619460934
 20
144.28330428665239
 11
308.08382895533185
 21
139.87008085986761
  0
ARC
  8
_7-3_
  6
CONTINUOUS
 62
    7
 10
306.48602169972451
 20
139.95381838985628
 40
1.6
 50
357.00000000000164
 51
137.19442890773649
  0
LINE
  8
_7-3_
  6
CONTINUOUS
 62
    7
 10
359.37376298317809
 20
124.78437858249907
 11
307.43587212972812
 21
127.50632810277335
  0
ARC
  8
_7-3_
  6
CONTINUOUS
 62
    7
 10
299.49664922841344
 20
128.87551160281549
 40
4
 50
137.19442890774013
 51
176.99999999999997
  0
ARC
  8
_7-3_
  6
CONTINUOUS
 62
    7
 10
298.94441067175972
 20
118.33817221907298
 40
4
 50
176.99999999999994
 51
267.00000000000005
  0
LINE
  8
_7-3_
  6
CONTINUOUS
 62
    7
 10
359.37376298317809
 20
124.78437858249907
 11
359.37376298317809
 21
167.37090201999905
  0
ARC
  8
_7-3_
  6
CONTINUOUS
 62
    4
 10
359.37376298317809
 20
124.78437858249907
 40
20.63758710244306
 50
90
 51
176.99999999999997
  0
LINE
  8
_7-3_
  6
CONTINUOUS
 62
    4
 10
323.85358723284588
 20
126.64591727662283
 11
322.60611708793931
 21
132.51480288102567
  0
LINE
  8
_7-3_
  6
CONTINUOUS
 62
    4
 10
323.85358723284588
 20
126.64591727662283
 11
325.70768919909556
 21
132.35225637439376
  0
LINE
  8
_7-3_
  6
CONTINUOUS
 62
    4
 10
323.14181795808565
 20
113.06455045479776
 11
321.28771599183596
 21
107.35821135702684
  0
LINE
  8
_7-3_
  6
CONTINUOUS
 62
    4
 10
323.14181795808565
 20
113.06455045479776
 11
324.38928810299216
 21
107.19566485039493
  0
LINE
  8
_7-3_
  6
CONTINUOUS
 62
    4
 10
324.29159814428322
 20
135.00366334847581
 11
322.04808546380667
 21
92.194891231650444
  0
TEXT
  8
_7-3_
 62
    7
 10
319.88753886866527
 20
96.195582811062308
 40
4
 41
1
 50
87.000000000000113
  1
1.7
  0
LINE
  8
_7-3_
  6
CONTINUOUS
 62
    4
 10
369.77376298317773
 20
157.33990104343655
 11
375.56931794091212
 21
158.89281531405165
  0
LINE
  8
_7-3_
  6
CONTINUOUS
 62
    4
 10
369.77376298317773
 20
157.33990104343655
 11
375.56931794091212
 21
155.78698677282142
  0
LINE
  8
_7-3_
  6
CONTINUOUS
 62
    4
 10
359.37376298317809
 20
157.33990104343655
 11
353.5782080254437
 21
158.89281531405165
  0
LINE
  8
_7-3_
  6
CONTINUOUS
 62
    4
 10
359.37376298317809
 20
157.33990104343655
 11
353.5782080254437
 21
155.78698677282142
  0
LINE
  8
_7-3_
  6
CONTINUOUS
 62
    4
 10
390.77155666632233
 20
157.33990104343655
 11
351.99188381475988
 21
157.33990104343655
  0
TEXT
  8
_7-3_
 62
    7
 10
379.91985744757232
 20
160.16941276218653
 40
4
 41
1
 50
0
  1
1.3
  0
LINE
  8
_7-3_
  6
CONTINUOUS
 62
    7
 10
369.77376298317773
 20
119.05091477463167
 11
369.77376298317773
 21
167.37090201999905
  0
ARC
  8
_7-3_
  6
CONTINUOUS
 62
    7
 10
361.77376298317773
 20
119.05091477463167
 40
8
 50
267.00000000000017
 51
359.99999999999994
  0
LINE
  8
_7-3_
  6
CONTINUOUS
 62
    4
 10
294.94989253274144
 20
82.807112957499043
 11
369.77376298317773
 21
82.807112957499043
  0
LINE
  8
_7-3_
  6
CONTINUOUS
 62
    4
 10
294.94989253274144
 20
82.807112957499043
 11
300.74544749047583
 21
84.360027228114176
  0
LINE
  8
_7-3_
  6
CONTINUOUS
 62
    4
 10
294.94989253274144
 20
82.807112957499043
 11
300.74544749047583
 21
81.254198686883938
  0
LINE
  8
_7-3_
  6
CONTINUOUS
 62
    4
 10
369.77376298317773
 20
82.807112957499043
 11
363.97820802544333
 21
84.360027228114176
  0
LINE
  8
_7-3_
  6
CONTINUOUS
 62
    4
 10
369.77376298317773
 20
82.807112957499043
 11
363.97820802544333
 21
81.254198686883938
  0
LINE
  8
_7-3_
  6
CONTINUOUS
 62
    4
 10
294.94989253274144
 20
81.807112957499043
 11
294.94989253274144
 21
111.34695670749906
  0
TEXT
  8
_7-3_
 62
    7
 10
329.11182775795958
 20
85.807112957499043
 40
4
 41
1
 50
0
  1
9.4
  0
LINE
  8
_7-3_
  6
CONTINUOUS
 62
    4
 10
369.77376298317773
 20
81.807112957499043
 11
369.77376298317773
 21
115.45681022312405
  0
ARC
  8
_7-3_
  6
CONTINUOUS
 62
    4
 10
307.43587212972812
 20
127.50632810277335
 40
8.5677248825774778
 50
357.00000000000005
 51
87.000000000001335
  0
LINE
  8
_7-3_
  6
CONTINUOUS
 62
    7
 10
308.08382895533173
 20
139.87008085986761
 11
307.43587212972812
 21
127.50632810277335
  0
ARC
  8
_7-3_
  6
CONTINUOUS
 62
    4
 10
308.31511619460934
 20
144.28330428665239
 40
12.591390554356424
 50
227.19442890774254
 51
267.00000000000125
  0
LINE
  8
_7-3_
  6
CONTINUOUS
 62
    4
 10
319.5468508645456
 20
143.6946740151047
 11
318.29938071963908
 21
149.56355961950754
  0
LINE
  8
_7-3_
  6
CONTINUOUS
 62
    4
 10
319.5468508645456
 20
143.6946740151047
 11
321.40095283079529
 21
149.40101311287563
  0
LINE
  8
_7-3_
  6
CONTINUOUS
 62
    4
 10
318.66760679966404
 20
126.91769783122566
 11
316.81350483341435
 21
121.21135873345474
  0
LINE
  8
_7-3_
  6
CONTINUOUS
 62
    4
 10
318.66760679966404
 20
126.91769783122566
 11
319.91507694457055
 21
121.04881222682283
  0
LINE
  8
_7-3_
  6
CONTINUOUS
 62
    4
 10
320.54548039930017
 20
143.64233805886175
 11
309.72583647583604
 21
144.20937156952376
  0
LINE
  8
_7-3_
  6
CONTINUOUS
 62
    4
 10
319.66623633441861
 20
126.86536187498271
 11
308.84659241095448
 21
127.43239538564472
  0
LINE
  8
_7-3_
  6
CONTINUOUS
 62
    4
 10
320.6906623117689
 20
165.51989658455957
 11
318.27986329559439
 21
119.51911103029496
  0
TEXT
  8
_7-3_
 62
    7
 10
317.5759275405403
 20
154.0525749985623
 40
4
 41
1
 50
87.000000000000113
  1
2.1
  0
TEXT
  8
_7-3_
 62
    7
 10
345.53023902541224
 20
144.18378360177831
 40
4
 41
1
 50
43.499999999999957
  1
87ﾟ
  0
TEXT
  8
_7-3_
 62
    7
 10
330.64077053350985
 20
143.97508170749904
 40
4
 41
1
 50
0
  1
90ﾟ
  0
LINE
  8
_7-3_
  6
CONTINUOUS
 62
    4
 10
314.66965725225986
 20
133.69156608249903
 11
326.79909084600984
 21
142.56676139499904
  0
LINE
  8
_7-3_
  6
PHANTOM1
 62
    2
 10
296.56199404319465
 20
131.59356218068714
 11
295.57792400765657
 21
130.53107046109872
  0
LINE
  8
_7-3_
  6
PHANTOM1
 62
    2
 10
295.57792400765657
 20
130.53107046109872
 11
295.50213108939493
 21
129.08485542778728
  0
LINE
  8
_7-3_
  6
PHANTOM1
 62
    2
 10
294.94989253274144
 20
118.54751604404475
 11
294.74054870776944
 21
114.55299790502644
  0
LINE
  8
_7-3_
  6
PHANTOM1
 62
    2
 10
294.74054870776944
 20
114.55299790502644
 11
298.73506684678795
 21
114.34365408005467
  0
LINE
  8
_7-3_
  6
CONTINUOUS
 62
    7
 10
361.35507533323419
 20
111.06187849659508
 11
298.73506684678801
 21
114.34365408005467
  0
LINE
  8
_7-3_
  6
CONTINUOUS
 62
    7
 10
294.94989253274121
 20
118.54751604404478
 11
295.50213108939493
 21
129.08485542778728
  0
LINE
  8
_7-3_
  6
CONTINUOUS
 62
    7
 10
296.56199404319477
 20
131.59356218068705
 11
305.31215962563618
 21
141.04103862100561
  0
LINE
  8
_7-3_
  6
CONTINUOUS
 62
    4
 10
276.24911182083332
 20
115.52209304802329
 11
277.08648712072039
 21
131.50016560409554
  0
LINE
  8
_7-3_
  6
CONTINUOUS
 62
    4
 10
276.24911182083332
 20
115.52209304802329
 11
275.00164167592674
 21
121.39097865242612
  0
LINE
  8
_7-3_
  6
CONTINUOUS
 62
    4
 10
276.24911182083332
 20
115.52209304802329
 11
278.103213787083
 21
121.22843214579421
  0
LINE
  8
_7-3_
  6
CONTINUOUS
 62
    4
 10
277.08648712072039
 20
131.50016560409554
 11
275.2323851544707
 21
125.79382650632462
  0
LINE
  8
_7-3_
  6
CONTINUOUS
 62
    4
 10
277.08648712072039
 20
131.50016560409554
 11
278.3339572656269
 21
125.6312799996927
  0
LINE
  8
_7-3_
  6
CONTINUOUS
 62
    4
 10
275.25048228607874
 20
115.57442900426622
 11
292.30901666681739
 21
114.68042909954831
  0
LINE
  8
_7-3_
  6
CONTINUOUS
 62
    4
 10
276.08785758596582
 20
131.55250156033849
 11
293.14639196670447
 21
130.65850165562056
  0
TEXT
  8
_7-3_
 62
    7
 10
273.61957491027015
 20
122.66950766003368
 40
4
 41
1
 50
87.000000000000113
  1
2
  0
LINE
  8
_7-3_
  6
CONTINUOUS
 62
    4
 10
302.78955301947178
 20
133.61088990452051
 11
291.45958037848055
 21
152.29329159977197
  0
ARC
  8
_7-3_
  6
CONTINUOUS
 62
    4
 10
294.74054870776944
 20
114.55299790502644
 40
6.2166990543194584
 50
357.00000000000011
 51
86.999999999999786
  0
TEXT
  8
_7-3_
 62
    7
 10
278.90650295538483
 20
102.42988639499904
 40
4
 41
1
 50
0
  1
90ﾟ
  0
LINE
  8
_7-3_
  6
CONTINUOUS
 62
    4
 10
287.98769497198645
 20
108.56113151218656
 11
296.38559475225986
 21
119.66382682468656
  0
ARC
  8
_7-3_
  6
CONTINUOUS
 62
    4
 10
295.57792400765657
 20
130.53107046109872
 40
3.0325299035697228
 50
266.99999999999971
 51
47.194428907742612
  0
LINE
  8
_7-3_
  6
CONTINUOUS
 62
    4
 10
295.43756984158261
 20
127.85295343354979
 11
295.36687769907496
 21
126.50406699961297
  0
LINE
  8
_7-3_
  6
CONTINUOUS
 62
    4
 10
297.40023580622704
 20
132.49860440336567
 11
298.31807906632707
 21
133.48959165886398
  0
LINE
  8
_7-3_
  6
CONTINUOUS
 62
    4
 10
298.37295600409089
 20
129.46517577793363
 11
284.14433750433505
 21
142.47214521457914
  0
TEXT
  8
_7-3_
 62
    7
 10
298.27664943975986
 20
146.05013053562404
 40
4
 41
1
 50
0
  1
R0.2
  0
TEXT
  8
_7-3_
 62
    7
 10
281.33981838507236
 20
132.93238883640529
 40
4
 41
1
 50
0
  1
R0.5
  0
TEXT
  8
_7-3_
 62
    7
 10
277.85282375616611
 20
142.5631359067178
 40
4
 41
1
 50
0
  1
140ﾟ
  0
TEXT
  8
_7-3_
 62
    7
 10
287.64961818975984
 20
152.02783561374906
 40
4
 41
1
 50
0
  1
40°
  0
LINE
  8
_7-3_
  6
CONTINUOUS
 62
    4
 10
295.40921903509678
 20
130.8599101834512
 11
290.28769567389076
 21
133.82385561802152
  0
TEXT
  8
_7-3_
 62
    7
 10
303.56986233038486
 20
120.78192741062404
 40
4
 41
1
 50
0
  1
R0.5
  0
LINE
  8
_7-3_
  6
CONTINUOUS
 62
    4
 10
295.99114162725987
 20
115.91797233249906
 11
303.34363186163488
 21
120.83848502781155
  0
TEXT
  8
_7-3_
 62
    7
 10
375.55030666632239
 20
103.11854850437404
 40
4
 41
1
 50
0
  1
R1
  0
LINE
  8
_7-3_
  6
CONTINUOUS
 62
    4
 10
374.67438869757233
 20
105.70497184421779
 11
367.25736477179111
 21
113.12199576999904
  0
TEXT
  8
_8-f_
 62
    7
 10
387.47260626787368
 20
45.261896554939568
 40
4
 41
1
 50
0
  1
長
  0
LINE
  8
_8-0_
  6
PHANTOM1
 62
    2
 10
99.161952781536342
 20
151.03620614232713
 11
100.66343106602249
 21
152.65733897515082
  0
LINE
  8
_8-0_
  6
PHANTOM1
 62
    2
 10
100.66343106602249
 20
152.65733897515082
 11
100.54778744638372
 21
150.45072726175843
  0
ARC
  8
_8-0_
  6
CONTINUOUS
 62
    7
 10
99.748883818580083
 20
203.72315621939554
 40
0.8
 50
222.8055710922635
 51
2.999999999998363
  0
LINE
  8
_8-0_
  6
CONTINUOUS
 62
    7
 10
100.54778744638369
 20
203.76502498438981
 11
100.22380903358188
 21
209.94690136293701
  0
LINE
  8
_8-0_
  6
CONTINUOUS
 62
    7
 10
126.19275446030687
 20
211.30787612307415
 11
100.22380903358188
 21
209.94690136293701
  0
LINE
  8
_8-0_
  6
CONTINUOUS
 62
    7
 10
94.786869990315238
 20
207.90328432398013
 11
99.161952781535632
 21
203.17954610382116
  0
ARC
  8
_8-0_
  6
CONTINUOUS
 62
    7
 10
96.254197582924547
 20
209.26230961291594
 40
2
 50
183
 51
222.80557109225986
  0
LINE
  8
_8-0_
  6
CONTINUOUS
 62
    7
 10
93.980819235088432
 20
214.42630739230133
 11
94.256938513415292
 21
209.15763770043008
  0
ARC
  8
_8-0_
  6
CONTINUOUS
 62
    7
 10
95.978078304597687
 20
214.53097930478719
 40
2
 50
92.999999999999914
 51
183.00000000000005
  0
LINE
  8
_8-0_
  6
CONTINUOUS
 62
    7
 10
126.19275446030687
 20
211.30787612307415
 11
126.19275446030687
 21
177.10787612307416
  0
ARC
  8
_8-0_
  6
CONTINUOUS
 62
    7
 10
99.748883818580083
 20
150.49259602675277
 40
0.8
 50
357.00000000000164
 51
137.19442890773649
  0
LINE
  8
_8-0_
  6
CONTINUOUS
 62
    7
 10
126.19275446030687
 20
142.90787612307417
 11
100.22380903358188
 21
144.26885088321131
  0
ARC
  8
_8-0_
  6
CONTINUOUS
 62
    7
 10
96.254197582924547
 20
144.95344263323238
 40
2
 50
137.19442890774013
 51
176.99999999999997
  0
ARC
  8
_8-0_
  6
CONTINUOUS
 62
    7
 10
95.978078304597687
 20
139.68477294136113
 40
2
 50
176.99999999999994
 51
267.00000000000005
  0
LINE
  8
_8-0_
  6
CONTINUOUS
 62
    7
 10
126.19275446030687
 20
142.90787612307417
 11
126.19275446030687
 21
177.10787612307416
  0
LINE
  8
_8-0_
  6
CENTER1
 62
    2
 10
199.50712249328523
 20
177.10787612307416
 11
242.69545257141024
 21
177.10787612307416
  0
LINE
  8
_8-0_
  6
CENTER1
 62
    2
 10
94.659515071410254
 20
177.10787612307416
 11
136.36713225891023
 21
177.10787612307416
  0
LINE
  8
_8-f_
  6
CONTINUOUS
 62
    4
 10
205.34857757141026
 20
115.85162612307415
 11
237.34857757141026
 21
115.85162612307415
  0
LINE
  8
_8-f_
  6
CONTINUOUS
 62
    4
 10
205.34857757141026
 20
115.85162612307415
 11
208.24635505027745
 21
116.62808325838172
  0
LINE
  8
_8-f_
  6
CONTINUOUS
 62
    4
 10
205.34857757141026
 20
115.85162612307415
 11
208.24635505027745
 21
115.0751689877666
  0
LINE
  8
_8-f_
  6
CONTINUOUS
 62
    4
 10
237.34857757141026
 20
115.85162612307415
 11
234.45080009254303
 21
116.62808325838172
  0
LINE
  8
_8-f_
  6
CONTINUOUS
 62
    4
 10
237.34857757141026
 20
115.85162612307415
 11
234.45080009254303
 21
115.0751689877666
  0
LINE
  8
_8-f_
  6
CONTINUOUS
 62
    4
 10
205.34857757141026
 20
115.35162612307415
 11
205.34857757141026
 21
132.09381362307414
  0
TEXT
  8
_8-f_
 62
    7
 10
220.34857757141026
 20
116.35162612307415
 40
4
 41
1
 50
0
  1
8
  0
ARC
  8
_8-f_
  6
CONTINUOUS
 62
    4
 10
126.19275446030687
 20
142.90787612307417
 40
10.31879355122153
 50
90
 51
176.99999999999997
  0
LINE
  8
_8-f_
  6
CONTINUOUS
 62
    4
 10
108.43266658514073
 20
143.83864547013604
 11
107.80893151268747
 21
146.77308827233747
  0
LINE
  8
_8-f_
  6
CONTINUOUS
 62
    4
 10
108.43266658514073
 20
143.83864547013604
 11
109.35971756826558
 21
146.6918150190215
  0
LINE
  8
_8-f_
  6
CONTINUOUS
 62
    4
 10
108.07678194776065
 20
137.04796205922349
 11
107.1497309646358
 21
134.19479251033806
  0
LINE
  8
_8-f_
  6
CONTINUOUS
 62
    4
 10
108.07678194776065
 20
137.04796205922349
 11
108.7005170202139
 21
134.11351925702209
  0
LINE
  8
_8-f_
  6
CONTINUOUS
 62
    4
 10
108.65167204085943
 20
148.01751850606251
 11
107.52991570062113
 21
126.61313244764984
  0
TEXT
  8
_8-f_
 62
    7
 10
107.36322600891026
 20
126.93836928713665
 40
4
 41
1
 50
86.999999999999971
  1
1.7
  0
LINE
  8
_8-f_
  6
CONTINUOUS
 62
    4
 10
131.39275446030669
 20
159.18563735354288
 11
134.29053193917388
 21
159.96209448885045
  0
LINE
  8
_8-f_
  6
CONTINUOUS
 62
    4
 10
131.39275446030669
 20
159.18563735354288
 11
134.29053193917388
 21
158.40918021823534
  0
LINE
  8
_8-f_
  6
CONTINUOUS
 62
    4
 10
126.19275446030687
 20
159.18563735354288
 11
123.29497698143967
 21
159.96209448885045
  0
LINE
  8
_8-f_
  6
CONTINUOUS
 62
    4
 10
126.19275446030687
 20
159.18563735354288
 11
123.29497698143967
 21
158.40918021823534
  0
LINE
  8
_8-f_
  6
CONTINUOUS
 62
    4
 10
141.89165130187899
 20
159.18563735354288
 11
122.50181487609773
 21
159.18563735354288
  0
TEXT
  8
_8-f_
 62
    7
 10
134.84080169250398
 20
159.6003932129179
 40
4
 41
1
 50
0
  1
1.3
  0
LINE
  8
_8-f_
  6
CONTINUOUS
 62
    4
 10
100.65552833745493
 20
201.70920631500428
 11
126.62447376417992
 21
203.07018107514142
  0
LINE
  8
_8-f_
  6
CONTINUOUS
 62
    4
 10
100.65552833745493
 20
201.70920631500428
 11
103.50869788634042
 21
202.63625729812912
  0
LINE
  8
_8-f_
  6
CONTINUOUS
 62
    4
 10
100.65552833745493
 20
201.70920631500428
 11
103.58997113965637
 21
201.08547124255096
  0
LINE
  8
_8-f_
  6
CONTINUOUS
 62
    4
 10
126.62447376417992
 20
203.07018107514142
 11
123.69003096197849
 21
203.69391614759467
  0
LINE
  8
_8-f_
  6
CONTINUOUS
 62
    4
 10
126.62447376417992
 20
203.07018107514142
 11
123.77130421529446
 21
202.14313009201657
  0
LINE
  8
_8-f_
  6
CONTINUOUS
 62
    4
 10
100.68169631557643
 20
201.20989154762696
 11
100.34419515282326
 21
207.64979736638719
  0
LINE
  8
_8-f_
  6
CONTINUOUS
 62
    4
 10
126.65064174230138
 20
202.5708663077641
 11
126.31314057954824
 21
209.01077212652432
  0
TEXT
  8
_8-f_
 62
    7
 10
110.36828708474359
 20
202.71891660466056
 40
4
 41
1
 50
2.9999999999999631
  1
6.5
  0
LINE
  8
_8-f_
  6
CONTINUOUS
 62
    4
 10
142.83065276672274
 20
142.90787612307417
 11
142.83065276672274
 21
211.30787612307415
  0
LINE
  8
_8-f_
  6
CONTINUOUS
 62
    4
 10
142.83065276672274
 20
142.90787612307417
 11
142.05419563141518
 21
145.80565360194137
  0
LINE
  8
_8-f_
  6
CONTINUOUS
 62
    4
 10
142.83065276672274
 20
142.90787612307417
 11
143.60710990203031
 21
145.80565360194137
  0
LINE
  8
_8-f_
  6
CONTINUOUS
 62
    4
 10
142.83065276672274
 20
211.30787612307415
 11
142.05419563141518
 21
208.41009864420692
  0
LINE
  8
_8-f_
  6
CONTINUOUS
 62
    4
 10
142.83065276672274
 20
211.30787612307415
 11
143.60710990203031
 21
208.41009864420692
  0
TEXT
  8
_8-f_
 62
    7
 10
142.33065276672274
 20
172.73287612307416
 40
4
 41
1
 50
90
  1
17.1
  0
LINE
  8
_8-0_
  6
CONTINUOUS
 62
    7
 10
131.39275446030669
 20
140.04114421914044
 11
131.39275446030669
 21
177.10787612307416
  0
ARC
  8
_8-0_
  6
CONTINUOUS
 62
    7
 10
127.39275446030666
 20
140.04114421914044
 40
4
 50
267.00000000000017
 51
359.99999999999994
  0
LINE
  8
_8-0_
  6
CONTINUOUS
 62
    7
 10
131.39275446030669
 20
214.17460802700782
 11
131.39275446030669
 21
177.10787612307416
  0
LINE
  8
_8-0_
  6
CONTINUOUS
 62
    7
 10
127.18341063533492
 20
218.16912616602613
 11
95.873406392111604
 21
216.52823837429633
  0
ARC
  8
_8-0_
  6
CONTINUOUS
 62
    7
 10
127.39275446030666
 20
214.17460802700782
 40
4
 50
0
 51
92.999999999999744
  0
LINE
  8
_8-0_
  6
CONTINUOUS
 62
    4
 10
93.980819235088546
 20
121.91924331057415
 11
131.39275446030669
 21
121.91924331057415
  0
LINE
  8
_8-0_
  6
CONTINUOUS
 62
    4
 10
93.980819235088546
 20
121.91924331057415
 11
96.878596713955744
 21
122.69570044588171
  0
LINE
  8
_8-0_
  6
CONTINUOUS
 62
    4
 10
93.980819235088546
 20
121.91924331057415
 11
96.878596713955744
 21
121.14278617526659
  0
LINE
  8
_8-0_
  6
CONTINUOUS
 62
    4
 10
131.39275446030669
 20
121.91924331057415
 11
128.49497698143946
 21
122.69570044588171
  0
LINE
  8
_8-0_
  6
CONTINUOUS
 62
    4
 10
131.39275446030669
 20
121.91924331057415
 11
128.49497698143946
 21
121.14278617526659
  0
LINE
  8
_8-0_
  6
CONTINUOUS
 62
    4
 10
93.980819235088546
 20
121.41924331057415
 11
93.980819235088546
 21
136.18916518557415
  0
TEXT
  8
_8-0_
 62
    7
 10
109.43678684769761
 20
122.41924331057415
 40
4
 41
1
 50
0
  1
9.4
  0
LINE
  8
_8-0_
  6
CONTINUOUS
 62
    4
 10
152.44834807922273
 20
136.04662608012216
 11
152.44834807922273
 21
218.16912616602613
  0
LINE
  8
_8-0_
  6
CONTINUOUS
 62
    4
 10
152.44834807922273
 20
136.04662608012216
 11
151.67189094391517
 21
138.94440355898936
  0
LINE
  8
_8-0_
  6
CONTINUOUS
 62
    4
 10
152.44834807922273
 20
136.04662608012216
 11
153.2248052145303
 21
138.94440355898936
  0
LINE
  8
_8-0_
  6
CONTINUOUS
 62
    4
 10
152.44834807922273
 20
218.16912616602613
 11
151.67189094391517
 21
215.27134868715893
  0
LINE
  8
_8-0_
  6
CONTINUOUS
 62
    4
 10
152.44834807922273
 20
218.16912616602613
 11
153.2248052145303
 21
215.27134868715893
  0
TEXT
  8
_8-0_
 62
    7
 10
151.94834807922273
 20
172.73287612307416
 40
4
 41
1
 50
90
  1
20.5
  0
LINE
  8
_8-0_
  6
CONTINUOUS
 62
    4
 10
152.94834807922273
 20
218.16912616602613
 11
130.55039886047273
 21
218.16912616602613
  0
LINE
  8
_8-0_
  6
CONTINUOUS
 62
    4
 10
152.94834807922273
 20
136.04662608012216
 11
128.79856292297273
 21
136.04662608012216
  0
LINE
  8
_8-0_
  6
CONTINUOUS
 62
    4
 10
131.39275446030669
 20
121.41924331057415
 11
131.39275446030669
 21
138.24409194338664
  0
LINE
  8
_8-f_
  6
CONTINUOUS
 62
    4
 10
143.33065276672274
 20
211.30787612307415
 11
128.79856292297273
 21
211.30787612307415
  0
LINE
  8
_8-f_
  6
CONTINUOUS
 62
    4
 10
143.33065276672274
 20
142.90787612307417
 11
129.67448089172273
 21
142.90787612307417
  0
ARC
  8
_8-0_
  6
CONTINUOUS
 62
    4
 10
100.22380903358188
 20
144.26885088321131
 40
4.2838624412887389
 50
357.00000000000005
 51
87.000000000001335
  0
LINE
  8
_8-0_
  6
CONTINUOUS
 62
    7
 10
100.54778744638369
 20
150.45072726175843
 11
100.22380903358188
 21
144.26885088321131
  0
ARC
  8
_8-0_
  6
CONTINUOUS
 62
    4
 10
100.66343106602249
 20
152.65733897515082
 40
6.2956952771782122
 50
227.19442890774254
 51
267.00000000000125
  0
LINE
  8
_8-f_
  6
CONTINUOUS
 62
    4
 10
106.27929840099062
 20
152.36302383937697
 11
105.65556332853736
 21
155.2974666415784
  0
LINE
  8
_8-f_
  6
CONTINUOUS
 62
    4
 10
106.27929840099062
 20
152.36302383937697
 11
107.20634938411546
 21
155.21619338826243
  0
LINE
  8
_8-f_
  6
CONTINUOUS
 62
    4
 10
105.83967636854981
 20
143.97453574743747
 11
104.91262538542497
 21
141.12136619855198
  0
LINE
  8
_8-f_
  6
CONTINUOUS
 62
    4
 10
105.83967636854981
 20
143.97453574743747
 11
106.4634114410031
 21
141.04009294523604
  0
LINE
  8
_8-f_
  6
CONTINUOUS
 62
    4
 10
106.77861316836791
 20
152.33685586125551
 11
101.36879120663584
 21
152.6203726165865
  0
LINE
  8
_8-f_
  6
CONTINUOUS
 62
    4
 10
106.33899113592713
 20
143.94836776931597
 11
100.92916917419506
 21
144.231884524647
  0
LINE
  8
_8-f_
  6
CONTINUOUS
 62
    4
 10
106.85120412460224
 20
163.27563512410441
 11
105.64580461651502
 21
140.2752423469721
  0
TEXT
  8
_8-f_
 62
    7
 10
106.20742034484774
 20
155.86686538088665
 40
4
 41
1
 50
87.000000000000113
  1
2.1
  0
TEXT
  8
_8-f_
 62
    7
 10
118.78061370422273
 20
150.76362807619915
 40
4
 41
1
 50
43.499999999999964
  1
87ﾟ
  0
TEXT
  8
_8-0_
 62
    7
 10
110.20125823547274
 20
151.50322768557415
 40
4
 41
1
 50
0
  1
90ﾟ
  0
LINE
  8
_8-f_
  6
CONTINUOUS
 62
    4
 10
103.84070159484775
 20
147.36146987307415
 11
109.90541839172274
 21
151.79906752932416
  0
LINE
  8
_8-f_
  6
PHANTOM1
 62
    2
 10
94.786869990315153
 20
146.31246792216819
 11
94.294834972546084
 21
145.78122206237398
  0
LINE
  8
_8-f_
  6
PHANTOM1
 62
    2
 10
94.294834972546084
 20
145.78122206237398
 11
94.256938513415292
 21
145.05811454571826
  0
LINE
  8
_8-f_
  6
PHANTOM1
 62
    2
 10
93.980819235088546
 20
139.78944485384701
 11
93.876147322602548
 21
137.79218578433784
  0
LINE
  8
_8-f_
  6
PHANTOM1
 62
    2
 10
93.876147322602548
 20
137.79218578433784
 11
95.873406392111803
 21
137.68751387185196
  0
LINE
  8
_8-0_
  6
CONTINUOUS
 62
    7
 10
127.18341063533492
 20
136.04662608012216
 11
95.873406392111832
 21
137.68751387185196
  0
LINE
  8
_8-0_
  6
CONTINUOUS
 62
    7
 10
93.980819235088432
 20
139.78944485384701
 11
94.256938513415292
 21
145.05811454571826
  0
LINE
  8
_8-0_
  6
CONTINUOUS
 62
    7
 10
94.78686999031521
 20
146.31246792216813
 11
99.161952781535887
 21
151.03620614232744
  0
LINE
  8
_8-f_
  6
CONTINUOUS
 62
    4
 10
84.630428879134456
 20
138.27673335583625
 11
85.049116529077991
 21
146.26576963387239
  0
LINE
  8
_8-f_
  6
CONTINUOUS
 62
    4
 10
84.630428879134456
 20
138.27673335583625
 11
84.006693806681198
 21
141.21117615803768
  0
LINE
  8
_8-f_
  6
CONTINUOUS
 62
    4
 10
84.630428879134456
 20
138.27673335583625
 11
85.557479862259299
 21
141.12990290472174
  0
LINE
  8
_8-f_
  6
CONTINUOUS
 62
    4
 10
85.049116529077991
 20
146.26576963387239
 11
84.122065545953148
 21
143.41260008498693
  0
LINE
  8
_8-f_
  6
CONTINUOUS
 62
    4
 10
85.049116529077991
 20
146.26576963387239
 11
85.672851601531277
 21
143.33132683167099
  0
LINE
  8
_8-f_
  6
CONTINUOUS
 62
    4
 10
84.131114111757199
 20
138.30290133395774
 11
92.660381302126495
 21
137.85590138159878
  0
LINE
  8
_8-f_
  6
CONTINUOUS
 62
    4
 10
84.549801761700734
 20
146.29193761199388
 11
93.079068952070031
 21
145.84493765963492
  0
TEXT
  8
_8-f_
 62
    7
 10
84.28812198048601
 20
141.29878993822123
 40
4
 41
1
 50
87.000000000000113
  1
2
  0
LINE
  8
_8-f_
  6
CONTINUOUS
 62
    4
 10
97.900649478453715
 20
147.32113178408488
 11
92.2356631579581
 21
156.66233263171062
  0
TEXT
  8
_8-0_
 62
    7
 10
88.619714442748147
 20
156.84313006747112
 40
4
 41
1
 50
0
  1
40°
  0
ARC
  8
_8-f_
  6
CONTINUOUS
 62
    4
 10
93.876147322602548
 20
137.79218578433784
 40
3.1083495271597292
 50
357.00000000000011
 51
86.999999999999786
  0
TEXT
  8
_8-f_
 62
    7
 10
84.334124446410243
 20
130.73063002932414
 40
4
 41
1
 50
0
  1
90ﾟ
  0
LINE
  8
_8-f_
  6
CONTINUOUS
 62
    4
 10
90.499720454711052
 20
134.7962525879179
 11
94.698670344847755
 21
140.34760024416789
  0
ARC
  8
_8-f_
  6
CONTINUOUS
 62
    4
 10
94.294834972546084
 20
145.78122206237398
 40
1.5162649517848614
 50
266.99999999999971
 51
47.194428907742612
  0
LINE
  8
_8-f_
  6
CONTINUOUS
 62
    4
 10
94.224657889509103
 20
144.44216354859952
 11
94.189311818255305
 21
143.76772033163112
  0
LINE
  8
_8-f_
  6
CONTINUOUS
 62
    4
 10
95.205990871831346
 20
146.76498903350744
 11
95.66491250188136
 21
147.26048266125661
  0
TEXT
  8
_8-f_
 62
    7
 10
81.212216487425877
 20
150.4582486664091
 40
4
 41
1
 50
0
  1
140ﾟ
  0
LINE
  8
_8-f_
  6
CONTINUOUS
 62
    4
 10
95.692350970763271
 20
145.24827472079144
 11
88.578041720885352
 21
151.7517594391142
  0
LINE
  8
_8-0_
  6
CONTINUOUS
 62
    7
 10
217.34857757141026
 20
218.16136010689666
 11
217.34857757141026
 21
211.30787612307415
  0
LINE
  8
_8-0_
  6
CONTINUOUS
 62
    7
 10
225.34857757141026
 20
142.90787612307417
 11
225.34857757141026
 21
136.05439213925166
  0
LINE
  8
_8-0_
  6
CONTINUOUS
 62
    7
 10
237.34857757141026
 20
211.30787612307415
 11
225.34857757141026
 21
142.90787612307417
  0
LINE
  8
_8-0_
  6
CONTINUOUS
 62
    7
 10
237.34857757141026
 20
218.16136010689666
 11
237.34857757141026
 21
211.30787612307415
  0
LINE
  8
_8-0_
  6
CONTINUOUS
 62
    7
 10
205.34857757141026
 20
142.90787612307414
 11
217.34857757141026
 21
211.30787612307415
  0
LINE
  8
_8-0_
  6
CONTINUOUS
 62
    7
 10
205.34857757141026
 20
142.90787612307414
 11
205.34857757141026
 21
136.05439213925166
  0
LINE
  8
ADD_LINE
  6
DOT
 62
    9
 10
217.34857757141026
 20
218.16136010689666
 11
217.34857757141026
 21
136.05439213925163
  0
LINE
  8
_8-0_
  6
CONTINUOUS
 62
    7
 10
217.34857757141026
 20
218.16136010689666
 11
237.34857757141026
 21
218.16136010689666
  0
LINE
  8
ADD_LINE
  6
DOT
 62
    9
 10
225.34857757141026
 20
218.16136010689666
 11
225.34857757141026
 21
136.05439213925166
  0
LINE
  8
_8-0_
  6
CONTINUOUS
 62
    7
 10
205.34857757141026
 20
136.05439213925166
 11
225.34857757141026
 21
136.05439213925166
  0
LINE
  8
_8-0_
  6
DASHED1
 62
    7
 10
217.34857757141026
 20
211.30787612307415
 11
237.34857757141026
 21
211.30787612307415
  0
LINE
  8
_8-0_
  6
DASHED1
 62
    7
 10
205.34857757141026
 20
142.90787612307417
 11
225.34857757141026
 21
142.90787612307417
  0
LINE
  8
_8-f_
  6
CONTINUOUS
 62
    4
 10
237.34857757141026
 20
115.35162612307415
 11
237.34857757141026
 21
203.52510211031682
  0
LINE
  8
_8-f_
  6
CONTINUOUS
 62
    4
 10
205.34857757141026
 20
125.72237556661193
 11
225.34857757141026
 21
125.72237556661193
  0
LINE
  8
_8-f_
  6
CONTINUOUS
 62
    4
 10
205.34857757141026
 20
125.72237556661193
 11
208.24635505027745
 21
126.49883270191949
  0
LINE
  8
_8-f_
  6
CONTINUOUS
 62
    4
 10
205.34857757141026
 20
125.72237556661193
 11
208.24635505027745
 21
124.94591843130437
  0
LINE
  8
_8-f_
  6
CONTINUOUS
 62
    4
 10
225.34857757141026
 20
125.72237556661193
 11
222.45080009254303
 21
126.49883270191949
  0
LINE
  8
_8-f_
  6
CONTINUOUS
 62
    4
 10
225.34857757141026
 20
125.72237556661193
 11
222.45080009254303
 21
124.94591843130437
  0
LINE
  8
_8-f_
  6
CONTINUOUS
 62
    4
 10
205.34857757141026
 20
125.22237556661193
 11
205.34857757141026
 21
132.4585423669327
  0
LINE
  8
_8-f_
  6
CONTINUOUS
 62
    4
 10
225.34857757141026
 20
125.22237556661193
 11
225.34857757141026
 21
132.4585423669327
  0
TEXT
  8
_8-f_
 62
    7
 10
214.34857757141026
 20
126.22237556661193
 40
4
 41
1
 50
0
  1
5
  0
LINE
  8
_8-f_
  6
CONTINUOUS
 62
    4
 10
217.34857757141026
 20
226.76487757142348
 11
237.34857757141026
 21
226.76487757142348
  0
LINE
  8
_8-f_
  6
CONTINUOUS
 62
    4
 10
217.34857757141026
 20
226.76487757142348
 11
220.24635505027745
 21
227.54133470673104
  0
LINE
  8
_8-f_
  6
CONTINUOUS
 62
    4
 10
217.34857757141026
 20
226.76487757142348
 11
220.24635505027745
 21
225.98842043611591
  0
LINE
  8
_8-f_
  6
CONTINUOUS
 62
    4
 10
237.34857757141026
 20
226.76487757142348
 11
234.45080009254303
 21
227.54133470673104
  0
LINE
  8
_8-f_
  6
CONTINUOUS
 62
    4
 10
237.34857757141026
 20
226.76487757142348
 11
234.45080009254303
 21
225.98842043611591
  0
LINE
  8
_8-f_
  6
CONTINUOUS
 62
    4
 10
217.34857757141026
 20
227.26487757142348
 11
217.34857757141026
 21
220.7023274511348
  0
LINE
  8
_8-f_
  6
CONTINUOUS
 62
    4
 10
237.34857757141026
 20
227.26487757142348
 11
237.34857757141026
 21
220.7023274511348
  0
TEXT
  8
_8-f_
 62
    7
 10
226.34857757141026
 20
227.26487757142348
 40
4
 41
1
 50
0
  1
5
  0
TEXT
  8
_8-0_
 62
    7
 10
178.71613290371482
 20
214.30296899083003
 40
4
 41
1
 50
0
  1
コーナーC0.5
  0
LINE
  8
_8-f_
  6
CONTINUOUS
 62
    4
 10
208.01845848511015
 20
215.98701069091026
 11
233.27908398631305
 21
188.70553514961113
  0
LINE
  8
_8-f_
  6
CONTINUOUS
 62
    4
 10
206.67122512504602
 20
215.31339401087817
 11
212.73377524533469
 21
189.71596016965924
  0
TEXT
  8
_0-0_
 62
    7
 10
18.020244140624953
 20
3.8589697265625204
 40
4
 41
1
 50
0
  1
寸法公差
  0
TEXT
  8
_0-0_
 62
    7
 10
22.122846679687455
 20
9.834499511718775
 40
4
 41
1
 50
0
  1
寸法
  0
TEXT
  8
_0-0_
 62
    7
 10
45.222282714843714
 20
9.7453125000000113
 40
4
 41
1
 50
0
  1
4以下
  0
LINE
  8
_0-0_
  6
CONTINUOUS
 62
    7
 10
40.003315114040503
 20
3.0003080962692934
 11
40.003167231628168
 21
15
  0
LINE
  8
_0-0_
  6
CONTINUOUS
 62
    7
 10
60.003315112521732
 20
3.0005545732847167
 11
60.003167230109397
 21
15.000246477015423
  0
LINE
  8
_0-0_
  6
CONTINUOUS
 62
    7
 10
95.003315109863876
 20
3.0009859080617218
 11
95.003167227451541
 21
15.000677811792428
  0
LINE
  8
_0-0_
  6
CONTINUOUS
 62
    7
 10
130.00331510720602
 20
3.0014172428387269
 11
130.00316722479368
 21
15.001109146569433
  0
TEXT
  8
_0-0_
 62
    7
 10
63.441842923015201
 20
9.71330818965518
 40
4
 41
1
 50
0
  1
4をこえ16以下
  0
TEXT
  8
_0-0_
 62
    7
 10
97.229463211708036
 20
9.9298954991980963
 40
4
 41
1
 50
0
  1
16をこえ63以下
  0
LINE
  8
_0-0_
  6
CONTINUOUS
 62
    7
 10
210.00324118764237
 20
9
 11
14.999999999999943
 21
9
  0
TEXT
  8
_0-0_
 62
    7
 10
171.51891038492374
 20
9.9298954991980963
 40
4
 41
1
 50
0
  1
250をこえ1000以下
  0
TEXT
  8
_0-0_
 62
    7
 10
132.96636928628703
 20
9.9298954991980963
 40
4
 41
1
 50
0
  1
63をこえ250以下
  0
TEXT
  8
_0-0_
 62
    7
 10
44.815334302325538
 20
4.082038141539698
 40
4
 41
1
 50
0
  1
±0.1
  0
TEXT
  8
_0-0_
 62
    7
 10
71.238986066559675
 20
4.082038141539698
 40
4
 41
1
 50
0
  1
±0.2
  0
TEXT
  8
_0-0_
 62
    7
 10
105.24319366479545
 20
3.8654508319968101
 40
4
 41
1
 50
0
  1
±0.3
  0
TEXT
  8
_0-0_
 62
    7
 10
144.01232207297508
 20
4.082038141539698
 40
4
 41
1
 50
0
  1
±0.5
  0
TEXT
  8
_0-0_
 62
    7
 10
183.64779971932631
 20
3.8654508319968101
 40
4
 41
1
 50
0
  1
±0.8
  0
LINE
  8
_0-0_
  6
CONTINUOUS
 62
    7
 10
15.003315115938988
 20
3
 11
15
 21
272.00000659839525
  0
LINE
  8
_0-0_
  6
CONTINUOUS
 62
    7
 10
210.00331513074701
 20
3
 11
15.003315115938988
 21
3
  0
LINE
  8
_0-0_
  6
CONTINUOUS
 62
    7
 10
240.0031672187186
 20
15.002095054631126
 11
240.0031672187186
 21
27
  0
LINE
  8
_0-0_
  6
CONTINUOUS
 62
    7
 10
190.0031672187186
 20
15.002095054631126
 11
190.0031672187186
 21
27
  0
LINE
  8
_0-0_
  6
CONTINUOUS
 62
    7
 10
140.00316722175614
 20
15.00160210060028
 11
140.00316722175614
 21
27
  0
LINE
  8
_0-0_
  6
CONTINUOUS
 62
    7
 10
299.99997525601776
 20
27
 11
140.00316722175614
 21
27
  0
LINE
  8
_0-0_
  6
CONTINUOUS
 62
    7
 10
299.99997525601776
 20
21
 11
140.00316722175614
 21
21
  0
LINE
  8
_0-0_
  6
CONTINUOUS
 62
    7
 10
170.00331510416847
 20
3.0019101968695736
 11
170.00331510416847
 21
15
  0
TEXT
  8
_0-0_
 62
    7
 10
158.23226103514514
 20
15.582788588361864
 40
4
 41
1
 50
0
  1
材質　
  0
TEXT
  8
_0-0_
 62
    7
 10
204.88035117481635
 20
15.855584437131881
 40
4
 41
1
 50
0
  1
メーカー　
  0
TEXT
  8
_0-0_
 62
    7
 10
264.89543790421794
 20
16.264778210286863
 40
4
 41
1
 50
0
  1
型番
  0
TEXT
  8
_8-f_
 62
    7
 10
190.64310881801969
 20
21.83170418949345
 40
4
 41
1
 50
0
  1
三菱ｴﾝｼﾞﾆｱﾘﾝｸﾞﾌﾟﾗｽﾁｯｸｽ
  0
TEXT
  8
_0-0_
 62
    7
 10
140.84179894179899
 20
21.9679894179894
 40
4
 41
1
 50
0
  1
PC（カラーアイスブルー）
  0
TEXT
  8
_0-0_
 62
    7
 10
251.468253968254
 20
21.735185185185173
 40
4
 41
1
 50
0
  1
ﾕｰﾋﾟﾛﾝS3000UVR-5355
  0
LINE
  8
_0-0_
  6
CONTINUOUS
 62
    7
 10
319.99999175200593
 20
45.000006185995573
 11
319.99999175200593
 21
50.000006185995573
  0
LINE
  8
_0-0_
  6
CONTINUOUS
 62
    7
 10
299.99997525601776
 20
50.000006185995573
 11
299.99997525601776
 21
15
  0
LINE
  8
_0-0_
  6
CONTINUOUS
 62
    7
 10
349.99997525601776
 20
45.000006185995573
 11
349.99997525601776
 21
50.000006185995573
  0
LINE
  8
_0-0_
  6
CONTINUOUS
 62
    7
 10
384.99996700802364
 20
50.000006185995573
 11
384.99996700802364
 21
45.000006185995573
  0
TEXT
  8
_8-f_
 62
    7
 10
352.77297430432878
 20
45.376416792443009
 40
4
 41
1
 50
0
  1
F2128056-3
  0
TEXT
  8
_8-f_
 62
    7
 10
334.22069582877008
 20
45.376416792443009
 40
4
 41
1
 50
0
  1
1
  0
TEXT
  8
_8-f_
 62
    7
 10
342.46615292901844
 20
45.605457267449907
 40
4
 41
1
 50
0
  1
22
  0
TEXT
  8
_8-f_
 62
    7
 10
355.05740740740742
 20
37.850088183421533
 40
4
 41
1
 50
0
  1
2020.9.9
  0
TEXT
  8
_8-f_
 62
    7
 10
353.64502054931836
 20
25.680481906575778
 40
4
 41
1
 50
0
  1
FLTシリーズﾚｰﾙｸﾘｯﾌﾟ
  0
TEXT
  8
_0-0_
 62
    7
 10
362.16569664902999
 20
30.54003527336863
 40
4
 41
1
 50
0
  1
FLT-A-RLC
  0
TEXT
  8
_8-f_
 62
    7
 10
306.35670194003529
 20
38.04215167548503
 40
4
 41
1
 50
0
  1
谷山
  0
TEXT
  8
_8-f_
 62
    7
 10
321.007848324515
 20
38.04215167548503
 40
4
 41
1
 50
0
  1
谷山
  0
TEXT
  8
_8-f_
 62
    2
 10
357.34179894179897
 20
16.348677248677233
 40
7
 41
1
 50
0
  1
F7209070
  0
TEXT
  8
_8-f_
 62
    3
 10
331.41904761904766
 20
27.290476190476198
 40
5
 41
1
 50
0
  1
PC
  0
TEXT
  8
_8-f_
 62
    7
 10
336.1260162601626
 20
38.04215167548503
 40
4
 41
1
 50
0
  1
指方
  0
ENDSEC
  0
EOF
