  0
SECTION
  2
HEADER
  9
$ACADVER
  1
AC1009
  9
$INSBASE
 10
0
 20
0
 30
0
  9
$EXTMIN
 10
0
 20
0
  9
$EXTMAX
 10
420
 20
297
  9
$LIMMIN
 10
0
 20
0
  9
$LIMMAX
 10
420
 20
297
  9
$LTSCALE
 40
1
  0
ENDSEC
  0
SECTION
  2
TABLES
  0
TABLE
  2
LTYPE
 70
     9
  0
LTYPE
  2
CONTINUOUS
 70
    64
  3
実線
 72
    65
 73
     0
 40
0.0
  0
LTYPE
  2
DASHED1
 70
    64
  3
--  --  --  --  --  --  --  --  
 72
    65
 73
     2
 40
2.5
 49
1.25
 49
-1.25
  0
LTYPE
  2
DASHED2
 70
    64
  3
----    ----    ----    ----    
 72
    65
 73
     2
 40
5.0
 49
2.5
 49
-2.5
  0
LTYPE
  2
DASHED3
 70
    64
  3
------  ------  ------  ------  
 72
    65
 73
     2
 40
5.0
 49
3.75
 49
-1.25
  0
LTYPE
  2
CENTER1
 70
    64
  3
----- - ----- - ----- - ----- - 
 72
    65
 73
     4
 40
10.0
 49
6.25
 49
-1.25
 49
1.25
 49
-1.25
  0
LTYPE
  2
CENTER2
 70
    64
  3
----------  --  ----------  --  
 72
    65
 73
     4
 40
20.0
 49
12.5
 49
-2.5
 49
2.5
 49
-2.5
  0
LTYPE
  2
PHANTOM1
 70
    64
  3
--- - - --- - - --- - - --- - - 
 72
    65
 73
     6
 40
10.0
 49
3.25
 49
-1.25
 49
1.25
 49
-1.25
 49
1.25
 49
-1.25
  0
LTYPE
  2
PHANTOM2
 70
    64
  3
--------  -  -  --------  -  -  
 72
    65
 73
     6
 40
20.0
 49
10.0
 49
-2.5
 49
1.25
 49
-2.5
 49
1.25
 49
-2.5
  0
LTYPE
  2
DOT
 70
    64
  3
-   -   -   -   -   -   -   -   
 72
    65
 73
     2
 40
2.5
 49
0.625
 49
-1.875
  0
LTYPE
  2
DUMMY
 70
    64
  3
ダミー
 72
    65
 73
     0
 40
0.0
  0
LTYPE
  2
RAND1
 70
    64
  3
ランダム線1
 72
    65
 73
     4
 40
10.0
 49
1.0
 49
-2.0
 49
3.0
 49
-4.0
  0
LTYPE
  2
RAND2
 70
    64
  3
ランダム線2
 72
    65
 73
     4
 40
14.0
 49
2.0
 49
-3.0
 49
4.0
 49
-5.0
  0
LTYPE
  2
RAND3
 70
    64
  3
ランダム線3
 72
    65
 73
     4
 40
18.0
 49
3.0
 49
-4.0
 49
5.0
 49
-6.0
  0
LTYPE
  2
RAND4
 70
    64
  3
ランダム線4
 72
    65
 73
     4
 40
22.0
 49
4.0
 49
-5.0
 49
6.0
 49
-7.0
  0
LTYPE
  2
RAND5
 70
    64
  3
ランダム線5
 72
    65
 73
     4
 40
26.0
 49
5.0
 49
-6.0
 49
7.0
 49
-8.0
  0
LTYPE
  2
LONG1
 70
    64
  3
----------  --  ----------  --  
 72
    65
 73
     4
 40
40.0
 49
32.5
 49
-2.5
 49
2.5
 49
-2.5
  0
LTYPE
  2
LONG2
 70
    64
  3
--------  -  -  --------  -  -  
 72
    65
 73
     6
 40
40.0
 49
30.0
 49
-2.5
 49
1.25
 49
-2.5
 49
1.25
 49
-2.5
  0
LTYPE
  2
LONG3
 70
    64
  3
+++++++++++++++..+++++++++++++++
 72
    65
 73
     2
 40
40.0
 49
37.5
 49
-2.5
  0
LTYPE
  2
LONG4
 70
    64
  3
+++++++++++++++..+++++++++++++++
 72
    65
 73
     2
 40
80.0
 49
75.0
 49
-5.0
  0
LTYPE
  2
LONG5
 70
    64
  3
----------  --  ----------  --  
 72
    65
 73
     4
 40
60.0
 49
37.5
 49
-7.5
 49
7.5
 49
-7.5
  0
LTYPE
  2
dashed
 70
   64
  3
-------   -------------   ------
 72
   65
 73
    2
 40
7.5
 49
6
 49
-1.5
  0
LTYPE
  2
dashed_spaced
 70
   64
  3
----        --------        ----
 72
   65
 73
    2
 40
12
 49
6
 49
-6
  0
LTYPE
  2
long_dashed_dotted
 70
   64
  3
------------- --- --------------
 72
   65
 73
    4
 40
15.25
 49
12
 49
-1.5
 49
0.25
 49
-1.5
  0
LTYPE
  2
long_dashed_double-dotted
 70
   64
  3
----------- --- --- ------------
 72
   65
 73
    6
 40
17
 49
12
 49
-1.5
 49
0.25
 49
-1.5
 49
0.25
 49
-1.5
  0
LTYPE
  2
long_dashed_triplicate-dotted
 70
   64
  3
--------- --- --- --- ----------
 72
   65
 73
    8
 40
18.75
 49
12
 49
-1.5
 49
0.25
 49
-1.5
 49
0.25
 49
-1.5
 49
0.25
 49
-1.5
  0
LTYPE
  2
dotted
 70
   64
  3
   -       -       -       -    
 72
   65
 73
    2
 40
1.75
 49
0.25
 49
-1.5
  0
LTYPE
  2
chain
 70
   64
  3
-------------- -- --------------
 72
   65
 73
    4
 40
18.5
 49
12
 49
-1.5
 49
3.5
 49
-1.5
  0
LTYPE
  2
chain_double_dash
 70
   64
  3
------------ -- -- -------------
 72
   65
 73
    6
 40
23.5
 49
12
 49
-1.5
 49
3.5
 49
-1.5
 49
3.5
 49
-1.5
  0
LTYPE
  2
dashed_dotted
 70
   64
  3
-----------     -     ----------
 72
   65
 73
    4
 40
9.25
 49
6
 49
-1.5
 49
0.25
 49
-1.5
  0
LTYPE
  2
double-dashed_dotted
 70
   64
  3
------   -----------   -   -----
 72
   65
 73
    6
 40
16.75
 49
6
 49
-1.5
 49
6
 49
-1.5
 49
0.25
 49
-1.5
  0
LTYPE
  2
dashed_double-dotted
 70
   64
  3
---------    -    -    ---------
 72
   65
 73
    6
 40
11
 49
6
 49
-1.5
 49
0.25
 49
-1.5
 49
0.25
 49
-1.5
  0
LTYPE
  2
double-dashed_double-dotted
 70
   64
  3
-----   ---------   -   -   ----
 72
   65
 73
    8
 40
18.5
 49
6
 49
-1.5
 49
6
 49
-1.5
 49
0.25
 49
-1.5
 49
0.25
 49
-1.5
  0
LTYPE
  2
dashed_triplicate-dotted
 70
   64
  3
-------    -    -    -    ------
 72
   65
 73
    8
 40
12.75
 49
6
 49
-1.5
 49
0.25
 49
-1.5
 49
0.25
 49
-1.5
 49
0.25
 49
-1.5
  0
LTYPE
  2
double-dashed_triplicate-dotted
 70
   64
  3
-----  ---------  -  -  -  -----
 72
   65
 73
   10
 40
20.25
 49
6
 49
-1.5
 49
6
 49
-1.5
 49
0.25
 49
-1.5
 49
0.25
 49
-1.5
 49
0.25
 49
-1.5
  0
LTYPE
  2
undefined
 70
   64
  3
--------------------------------
 72
   65
 73
    0
 40
0
  0
LTYPE
  2
_
 70
   64
  3
                                
 72
   65
 73
    0
 40
0
  0
LTYPE
  2
__18
 70
   64
  3
                                
 72
   65
 73
    0
 40
0
  0
LTYPE
  2
__19
 70
   64
  3
                                
 72
   65
 73
    0
 40
0
  0
LTYPE
  2
__20
 70
   64
  3
                                
 72
   65
 73
    0
 40
0
  0
LTYPE
  2
__21
 70
   64
  3
                                
 72
   65
 73
    0
 40
0
  0
LTYPE
  2
__22
 70
   64
  3
                                
 72
   65
 73
    0
 40
0
  0
LTYPE
  2
__23
 70
   64
  3
                                
 72
   65
 73
    0
 40
0
  0
LTYPE
  2
__24
 70
   64
  3
                                
 72
   65
 73
    0
 40
0
  0
LTYPE
  2
__25
 70
   64
  3
                                
 72
   65
 73
    0
 40
0
  0
LTYPE
  2
__26
 70
   64
  3
                                
 72
   65
 73
    0
 40
0
  0
LTYPE
  2
__27
 70
   64
  3
                                
 72
   65
 73
    0
 40
0
  0
LTYPE
  2
__28
 70
   64
  3
                                
 72
   65
 73
    0
 40
0
  0
LTYPE
  2
__29
 70
   64
  3
                                
 72
   65
 73
    0
 40
0
  0
LTYPE
  2
__30
 70
   64
  3
                                
 72
   65
 73
    0
 40
0
  0
LTYPE
  2
__31
 70
   64
  3
                                
 72
   65
 73
    0
 40
0
  0
LTYPE
  2
__32
 70
   64
  3
                                
 72
   65
 73
    0
 40
0
  0
ENDTAB
  0
TABLE
  2
STYLE
  5
3
100
AcDbSymbolTable
 70
     1
  0
STYLE
  5
10
100
AcDbSymbolTableRecord
100
AcDbTextStyleTableRecord
  2
STANDARD
 70
     0
 40
0.0
 41
1.0
 50
0.0
 71
     0
 42
0.2
  3
txt
  4
bigfont.shx
  0
STYLE
  5
26
100
AcDbSymbolTableRecord
100
AcDbTextStyleTableRecord
  2
TATEGAKI
 70
    68
 40
0.0
 41
1.0
 50
0.0
 71
     0
 42
1.0
  3
txt
  4
bigfont.shx
  0
ENDTAB
  0
TABLE
  2
LAYER
 70
    3
  0
LAYER
  2
_0-0_
 70
   64
 62
    7
  6
CONTINUOUS
  0
LAYER
  2
_3-0_
 70
   64
 62
    7
  6
CONTINUOUS
  0
LAYER
  2
ADD_LINE
 70
   64
 62
    7
  6
CONTINUOUS
  0
ENDTAB
  0
ENDSEC
  0
SECTION
  2
BLOCKS
  0
ENDSEC
  0
SECTION
  2
ENTITIES
  0
TEXT
  8
_0-0_
 62
    7
 10
297.95645633474799
 20
262.46271130286214
 40
3
 41
1
 50
0
  1
.   .
  0
LINE
  8
_0-0_
  6
CONTINUOUS
 62
    7
 10
394.99996700802364
 20
266.60311478816026
 11
275.0241256145133
 21
266.60311478816026
  0
LINE
  8
_0-0_
  6
CONTINUOUS
 62
    7
 10
210.00331510113093
 20
3.0024031509004203
 11
210.0031672187186
 21
15.002095054631126
  0
LINE
  8
_0-0_
  6
CONTINUOUS
 62
    7
 10
275.02411035572424
 20
261.60313517294878
 11
394.99996700802364
 21
261.60313517294878
  0
LINE
  8
_0-0_
  6
CONTINUOUS
 62
    7
 10
15
 20
272.00000659839525
 11
394.99996700802364
 21
272.00000659839525
  0
LINE
  8
_0-0_
  6
CONTINUOUS
 62
    7
 10
394.99996700802364
 20
272.00000659839525
 11
394.99996700802364
 21
15
  0
LINE
  8
_0-0_
  6
CONTINUOUS
 62
    7
 10
279.94698480640784
 20
266.44730204783434
 11
277.69699243580237
 21
261.94730002127641
  0
LINE
  8
_0-0_
  6
CONTINUOUS
 62
    7
 10
277.69699243580237
 20
261.94730002127641
 11
282.19698480640784
 21
261.94730002127641
  0
LINE
  8
_0-0_
  6
CONTINUOUS
 62
    7
 10
279.94698480640784
 20
266.44730204783434
 11
282.19698480640784
 21
261.94730002127641
  0
TEXT
  8
_0-0_
 62
    7
 10
375.52411798511877
 20
267.10311478816026
 40
4
 41
1
 50
0
  1
担当
  0
TEXT
  8
_0-0_
 62
    7
 10
385.52411798511877
 20
267.10311478816026
 40
4
 41
1
 50
0
  1
検印
  0
TEXT
  8
_0-0_
 62
    7
 10
276.7939238933219
 20
267.7922115965938
 40
3
 41
1
 50
0
  1
Ｎｏ
  0
TEXT
  8
_0-0_
 62
    7
 10
292.17555383716955
 20
267.81606489859575
 40
3
 41
1
 50
0
  1
年　月　日
  0
TEXT
  8
_0-0_
 62
    7
 10
279.33104852711096
 20
262.18189722739214
 40
3
 41
1
 50
0
  1
1
  0
TEXT
  8
_0-0_
 62
    7
 10
332.97356561695471
 20
267.81606489859575
 40
3
 41
1
 50
0
  1
訂　正　記　事
  0
LINE
  8
_0-0_
  6
CONTINUOUS
 62
    7
 10
275.02411035572424
 20
266.60311478816026
 11
275.02411035572424
 21
261.60313517294878
  0
LINE
  8
_0-0_
  6
CONTINUOUS
 62
    7
 10
285.02411798511877
 20
266.60311478816026
 11
285.02411798511877
 21
261.60313517294878
  0
LINE
  8
_0-0_
  6
CONTINUOUS
 62
    7
 10
315.02411831294432
 20
266.60311478816026
 11
315.02411831294432
 21
261.60313517294878
  0
LINE
  8
_0-0_
  6
CONTINUOUS
 62
    7
 10
275.02411035572424
 20
272.00000659839525
 11
275.02411035572424
 21
266.60311478816026
  0
LINE
  8
_0-0_
  6
CONTINUOUS
 62
    7
 10
285.02411798511877
 20
272.00000659839525
 11
285.02411798511877
 21
266.60311478816026
  0
LINE
  8
_0-0_
  6
CONTINUOUS
 62
    7
 10
315.02411831294432
 20
272.00000659839525
 11
315.02411831294432
 21
266.60311478816026
  0
LINE
  8
_0-0_
  6
CONTINUOUS
 62
    7
 10
375.02411798511877
 20
272.00000659839525
 11
375.02411798511877
 21
261.60313517294878
  0
LINE
  8
_0-0_
  6
CONTINUOUS
 62
    7
 10
385.02411798511877
 20
272.00000659839525
 11
385.02411798511877
 21
261.60313517294878
  0
LINE
  8
_0-0_
  6
CONTINUOUS
 62
    2
 10
349.99996700802364
 20
35.000004123997044
 11
349.99996700802364
 21
15
  0
LINE
  8
_0-0_
  6
CONTINUOUS
 62
    2
 10
349.99996700802364
 20
45.000006185995573
 11
349.99996700802364
 21
35.000004123997044
  0
LINE
  8
_0-0_
  6
CONTINUOUS
 62
    7
 10
344.99997525601776
 20
35.000004123997044
 11
344.99997525601776
 21
15
  0
LINE
  8
_0-0_
  6
CONTINUOUS
 62
    7
 10
310.02294591955239
 20
31.279208209063554
 11
310.02294591955239
 21
28.279210683461784
  0
LINE
  8
_0-0_
  6
CONTINUOUS
 62
    7
 10
310.02294591955239
 20
31.279208209063554
 11
317.02294426995354
 21
32.779206971864454
  0
LINE
  8
_0-0_
  6
CONTINUOUS
 62
    7
 10
317.02294426995354
 20
32.779206971864454
 11
317.02294426995354
 21
26.779205734665339
  0
LINE
  8
_0-0_
  6
CONTINUOUS
 62
    7
 10
310.02294591955239
 20
28.279210683461784
 11
317.02294426995354
 21
26.779205734665339
  0
LINE
  8
_0-0_
  6
CENTER2
 62
    2
 10
319.02292612436656
 20
29.779209446262669
 11
301.02294097075593
 21
29.779209446262669
  0
LINE
  8
_0-0_
  6
CENTER2
 62
    2
 10
305.02292942356422
 20
33.779210271062083
 11
305.02292942356422
 21
25.779207074964375
  0
LINE
  8
_0-0_
  6
CONTINUOUS
 62
    7
 10
344.99997525601776
 20
45.000006185995573
 11
344.99997525601776
 21
15
  0
LINE
  8
_0-0_
  6
CONTINUOUS
 62
    7
 10
374.99997525601776
 20
45.000006185995573
 11
374.99997525601776
 21
35.000004123997044
  0
LINE
  8
_0-0_
  6
CONTINUOUS
 62
    2
 10
380.00001649598817
 20
45.000006185995573
 11
380.00001649598817
 21
35.000004123997044
  0
LINE
  8
_0-0_
  6
CONTINUOUS
 62
    7
 10
319.99999175200593
 20
35.000004123997044
 11
319.99999175200593
 21
25.000000515499635
  0
LINE
  8
_0-0_
  6
CONTINUOUS
 62
    2
 10
324.99998350401182
 20
35.000004123997044
 11
324.99998350401182
 21
25.000000515499635
  0
LINE
  8
_0-0_
  6
CONTINUOUS
 62
    2
 10
335.00001649598817
 20
45.000006185995573
 11
335.00001649598817
 21
35.000004123997044
  0
LINE
  8
_0-0_
  6
CONTINUOUS
 62
    7
 10
329.99997525601776
 20
45.000006185995573
 11
329.99997525601776
 21
35.000004123997044
  0
LINE
  8
_0-0_
  6
CONTINUOUS
 62
    2
 10
319.99999175200593
 20
45.000006185995573
 11
319.99999175200593
 21
35.000004123997044
  0
LINE
  8
_0-0_
  6
CONTINUOUS
 62
    7
 10
314.99997525601776
 20
45.000006185995573
 11
314.99997525601776
 21
35.000004123997044
  0
LINE
  8
_0-0_
  6
CONTINUOUS
 62
    2
 10
304.99996700802364
 20
45.000006185995573
 11
304.99996700802364
 21
35.000004123997044
  0
LINE
  8
_0-0_
  6
CONTINUOUS
 62
    7
 10
394.99996700802364
 20
45.000006185995573
 11
299.99997525601776
 21
45.000006185995573
  0
LINE
  8
_0-0_
  6
CONTINUOUS
 62
    7
 10
394.99996700802364
 20
35.000004123997044
 11
299.99997525601776
 21
35.000004123997044
  0
LINE
  8
_0-0_
  6
CONTINUOUS
 62
    7
 10
394.99996700802364
 20
25.000000515499635
 11
299.99997525601776
 21
25.000000515499635
  0
CIRCLE
  8
_0-0_
  6
CONTINUOUS
 62
    7
 10
305.02292942356422
 20
29.779209446262669
 40
3.0000000386624723
  0
CIRCLE
  8
_0-0_
  6
CONTINUOUS
 62
    7
 10
305.02292942356422
 20
29.779209446262669
 40
1.5000000193312361
  0
TEXT
  8
_0-0_
 62
    7
 10
347.6258264490076
 20
23.126073888830234
 40
3
 41
1
 50
0
  1
図番
  7
TATEGAKI
  0
TEXT
  8
_0-0_
 62
    7
 10
347.50309629698057
 20
33.277761201600782
 40
3
 41
1
 50
0
  1
品名
  7
TATEGAKI
  0
TEXT
  8
_0-0_
 62
    7
 10
347.57888711465375
 20
43.076007018218177
 40
3
 41
1
 50
0
  1
作図
  7
TATEGAKI
  0
TEXT
  8
_0-0_
 62
    7
 10
377.2779260583826
 20
43.013794460812135
 40
3
 41
1
 50
0
  1
尺度
  7
TATEGAKI
  0
TEXT
  8
_0-0_
 62
    7
 10
385.93899783572635
 20
37.594552942224453
 40
3
 41
1
 50
0
  1
：
  0
TEXT
  8
_0-0_
 62
    7
 10
322.56749663481843
 20
33.277761201600782
 40
3
 41
1
 50
0
  1
材質
  7
TATEGAKI
  0
TEXT
  8
_0-0_
 62
    7
 10
302.5010425464527
 20
42.994976662300729
 40
3
 41
1
 50
0
  1
設計
  7
TATEGAKI
  0
TEXT
  8
_0-0_
 62
    7
 10
317.48364752692145
 20
42.994976662300729
 40
3
 41
1
 50
0
  1
製図
  7
TATEGAKI
  0
TEXT
  8
_0-0_
 62
    7
 10
332.4662525073902
 20
42.994976662300729
 40
3
 41
1
 50
0
  1
検図
  7
TATEGAKI
  0
TEXT
  8
_0-0_
 62
    7
 10
305.62195121951219
 20
18.162195121951214
 40
4
 41
1
 50
0
  1
ＦＫＫ株式会社
  0
LINE
  8
_0-0_
  6
CONTINUOUS
 62
    7
 10
394.99996700802364
 20
50.000006185995573
 11
299.99997525601776
 21
50.000006185995573
  0
TEXT
  8
_0-0_
 62
    7
 10
305.73940582397756
 20
45.395881365276665
 40
4
 41
1
 50
0
  1
出図
  0
TEXT
  8
_0-0_
 62
    7
 10
331.66244169064771
 20
45.896091496297259
 40
3
 41
1
 50
0
  1
.   .
  0
LINE
  8
_3-0_
  6
CENTER1
 62
    2
 10
221.02273514652316
 20
145.7156249999999
 11
241.02273514652316
 21
145.7156249999999
  0
LINE
  8
_3-0_
  6
CONTINUOUS
 62
    7
 10
221.02273514652316
 20
162.7156249999999
 11
241.02273514652316
 21
162.7156249999999
  0
LINE
  8
_3-0_
  6
CENTER1
 62
    2
 10
221.02273514652316
 20
170.7156249999999
 11
241.02273514652316
 21
170.7156249999999
  0
ARC
  8
_3-0_
  6
CONTINUOUS
 62
    7
 10
225.02273514652316
 20
176.7156249999999
 40
4
 50
90
 51
180
  0
LINE
  8
_3-0_
  6
CONTINUOUS
 62
    7
 10
237.02273514652316
 20
180.71562499999993
 11
225.02273514652316
 21
180.71562499999993
  0
ARC
  8
_3-0_
  6
CONTINUOUS
 62
    7
 10
237.02273514652316
 20
176.7156249999999
 40
4
 50
0
 51
90
  0
LINE
  8
_3-0_
  6
CONTINUOUS
 62
    7
 10
221.02273514652316
 20
128.7156249999999
 11
241.02273514652316
 21
128.7156249999999
  0
LINE
  8
_3-0_
  6
CENTER1
 62
    2
 10
221.02273514652316
 20
120.71562499999991
 11
241.02273514652316
 21
120.71562499999991
  0
ARC
  8
_3-0_
  6
CONTINUOUS
 62
    7
 10
225.02273514652316
 20
114.71562499999991
 40
4
 50
180
 51
270
  0
LINE
  8
_3-0_
  6
CONTINUOUS
 62
    7
 10
237.02273514652316
 20
110.71562499999991
 11
225.02273514652316
 21
110.71562499999991
  0
ARC
  8
_3-0_
  6
CONTINUOUS
 62
    7
 10
237.02273514652316
 20
114.71562499999991
 40
4
 50
270
 51
0
  0
LINE
  8
_3-0_
  6
CONTINUOUS
 62
    7
 10
221.02273514652316
 20
176.7156249999999
 11
221.02273514652316
 21
114.71562499999991
  0
LINE
  8
_3-0_
  6
CONTINUOUS
 62
    7
 10
241.02273514652316
 20
176.7156249999999
 11
241.02273514652316
 21
114.71562499999991
  0
LINE
  8
_3-0_
  6
CENTER1
 62
    2
 10
231.02273514652316
 20
180.71562499999993
 11
231.02273514652316
 21
110.71562499999991
  0
LINE
  8
_3-0_
  6
DASHED1
 62
    7
 10
221.02273514652316
 20
157.91562499999992
 11
241.02273514652316
 21
157.91562499999992
  0
LINE
  8
_3-0_
  6
DASHED1
 62
    7
 10
221.02273514652316
 20
159.7156249999999
 11
241.02273514652316
 21
159.7156249999999
  0
LINE
  8
_3-0_
  6
DASHED1
 62
    7
 10
221.02273514652316
 20
133.51562499999991
 11
241.02273514652316
 21
133.51562499999991
  0
LINE
  8
_3-0_
  6
DASHED1
 62
    7
 10
221.02273514652316
 20
131.7156249999999
 11
241.02273514652316
 21
131.7156249999999
  0
CIRCLE
  8
_3-0_
  6
CONTINUOUS
 62
    7
 10
231.02273514652316
 20
170.7156249999999
 40
4.7999999999999998
  0
CIRCLE
  8
_3-0_
  6
CONTINUOUS
 62
    7
 10
231.02273514652316
 20
120.71562499999991
 40
4.7999999999999998
  0
LINE
  8
_3-0_
  6
CONTINUOUS
 62
    4
 10
234.77406556869024
 20
174.19746093750001
 11
247.92008607650274
 21
182.46067382812498
  0
TEXT
  8
_3-0_
 62
    7
 10
248.24275453353402
 20
180.984375
 40
4
 41
1
 50
0
  1
2-Φ4.8
  0
TEXT
  8
_3-0_
 62
    7
 10
247.92008607650274
 20
107.15275634765625
 40
4
 41
1
 50
0
  1
R2
  0
LINE
  8
_3-0_
  6
CONTINUOUS
 62
    4
 10
247.3566851975965
 20
110.15756103515624
 11
240.03247377181526
 21
112.41116455078125
  0
LINE
  8
_3-0_
  6
CENTER1
 62
    2
 10
143.00678706640954
 20
170.7156249999999
 11
140.00678706640954
 21
170.7156249999999
  0
LINE
  8
_3-0_
  6
CONTINUOUS
 62
    7
 10
143.00678706640954
 20
180.71562499999993
 11
140.00678706640954
 21
180.71562499999993
  0
LINE
  8
_3-0_
  6
CONTINUOUS
 62
    7
 10
140.00678706640954
 20
159.7156249999999
 11
140.00678706640954
 21
180.71562499999993
  0
LINE
  8
_3-0_
  6
CONTINUOUS
 62
    7
 10
143.00678706640954
 20
162.7156249999999
 11
143.00678706640954
 21
180.71562499999993
  0
LINE
  8
_3-0_
  6
CENTER1
 62
    2
 10
143.00678706640954
 20
120.71562499999991
 11
140.00678706640954
 21
120.71562499999991
  0
LINE
  8
_3-0_
  6
CONTINUOUS
 62
    7
 10
143.00678706640954
 20
110.71562499999991
 11
140.00678706640954
 21
110.71562499999991
  0
LINE
  8
_3-0_
  6
CONTINUOUS
 62
    7
 10
140.00678706640954
 20
131.7156249999999
 11
140.00678706640954
 21
110.71562499999991
  0
LINE
  8
_3-0_
  6
CONTINUOUS
 62
    7
 10
143.00678706640954
 20
128.7156249999999
 11
143.00678706640954
 21
110.71562499999991
  0
LINE
  8
_3-0_
  6
CONTINUOUS
 62
    4
 10
140.00678706640954
 20
189.3375
 11
137.10900958754234
 21
190.11395713530754
  0
LINE
  8
_3-0_
  6
CONTINUOUS
 62
    4
 10
140.00678706640954
 20
189.3375
 11
137.10900958754234
 21
188.56104286469243
  0
LINE
  8
_3-0_
  6
CONTINUOUS
 62
    4
 10
143.00678706640954
 20
189.8375
 11
143.00678706640954
 21
182.84062499999998
  0
LINE
  8
_3-0_
  6
CONTINUOUS
 62
    4
 10
140.00678706640954
 20
189.8375
 11
140.00678706640954
 21
182.84062499999998
  0
LINE
  8
_3-0_
  6
CONTINUOUS
 62
    4
 10
140.00678706640954
 20
197.69062500000001
 11
142.90456454527674
 21
198.46708213530754
  0
LINE
  8
_3-0_
  6
CONTINUOUS
 62
    4
 10
140.00678706640954
 20
197.69062500000001
 11
142.90456454527674
 21
196.91416786469244
  0
LINE
  8
_3-0_
  6
CONTINUOUS
 62
    4
 10
140.00678706640954
 20
198.19062500000001
 11
140.00678706640954
 21
183.76875000000001
  0
TEXT
  8
_3-0_
 62
    7
 10
129.18392471371572
 20
189.58795233560545
 40
4
 41
1
 50
0
  1
1.5
  0
LINE
  8
_3-0_
  6
CONTINUOUS
 62
    4
 10
144.38770259312633
 20
131.7156249999999
 11
143.61124545781876
 21
134.61340247886712
  0
LINE
  8
_3-0_
  6
CONTINUOUS
 62
    4
 10
144.38770259312633
 20
131.7156249999999
 11
145.1641597284339
 21
134.61340247886712
  0
LINE
  8
_3-0_
  6
CONTINUOUS
 62
    4
 10
144.38770259312633
 20
128.7156249999999
 11
143.61124545781876
 21
125.8178475211327
  0
LINE
  8
_3-0_
  6
CONTINUOUS
 62
    4
 10
144.38770259312633
 20
128.7156249999999
 11
145.1641597284339
 21
125.8178475211327
  0
TEXT
  8
_3-0_
 62
    7
 10
143.73801509312633
 20
134.16046875
 40
4
 41
1
 50
90
  1
1.5
  0
TEXT
  8
_3-0_
 62
    7
 10
138.3780932181263
 20
142.83843749999999
 40
4
 41
1
 50
0
  1
1.5
  0
LINE
  8
_3-0_
  6
CONTINUOUS
 62
    4
 10
144.38770259312633
 20
140.819765625
 11
144.38770259312633
 21
125.552109375
  0
LINE
  8
_3-0_
  6
CONTINUOUS
 62
    4
 10
132.36848384312634
 20
159.7156249999999
 11
131.59202670781877
 21
162.61340247886712
  0
LINE
  8
_3-0_
  6
CONTINUOUS
 62
    4
 10
132.36848384312634
 20
159.7156249999999
 11
133.1449409784339
 21
162.61340247886712
  0
LINE
  8
_3-0_
  6
CONTINUOUS
 62
    4
 10
132.36848384312634
 20
157.91562499999992
 11
131.59202670781877
 21
155.01784752113272
  0
LINE
  8
_3-0_
  6
CONTINUOUS
 62
    4
 10
132.36848384312634
 20
157.91562499999992
 11
133.1449409784339
 21
155.01784752113272
  0
LINE
  8
_3-0_
  6
CONTINUOUS
 62
    4
 10
131.86848384312634
 20
159.7156249999999
 11
138.86535884312633
 21
159.7156249999999
  0
LINE
  8
_3-0_
  6
CONTINUOUS
 62
    4
 10
131.86848384312634
 20
157.91562499999992
 11
138.86535884312633
 21
157.91562499999992
  0
TEXT
  8
_3-0_
 62
    7
 10
131.71879634312631
 20
163.233984375
 40
4
 41
1
 50
90
  1
0.9
  0
LINE
  8
_3-0_
  6
CONTINUOUS
 62
    4
 10
132.36848384312634
 20
170.54296875
 11
132.36848384312634
 21
154.13835937499999
  0
TEXT
  8
_3-0_
 62
    7
 10
136.91629634312633
 20
152.83898437499999
 40
4
 41
1
 50
0
  1
0.9
  0
TEXT
  8
_3-0_
 62
    7
 10
382.87560791015624
 20
36.955327148437504
 40
4
 41
1
 50
0
  1
2
  0
TEXT
  8
_3-0_
 62
    7
 10
389.68209960937497
 20
36.847287597656247
 40
4
 41
1
 50
0
  1
1
  0
LINE
  8
_3-0_
  6
CONTINUOUS
 62
    7
 10
146.60678706640953
 20
159.7156249999999
 11
140.00678706640954
 21
159.7156249999999
  0
LINE
  8
_3-0_
  6
CONTINUOUS
 62
    7
 10
146.60678706640953
 20
159.7156249999999
 11
148.40678706640954
 21
157.91562499999992
  0
LINE
  8
_3-0_
  6
CONTINUOUS
 62
    7
 10
148.40678706640954
 20
133.51562499999991
 11
148.40678706640954
 21
157.91562499999992
  0
LINE
  8
_3-0_
  6
CONTINUOUS
 62
    7
 10
146.60678706640953
 20
131.7156249999999
 11
140.00678706640954
 21
131.7156249999999
  0
LINE
  8
_3-0_
  6
CONTINUOUS
 62
    7
 10
148.40678706640954
 20
133.51562499999991
 11
146.60678706640953
 21
131.7156249999999
  0
LINE
  8
_3-0_
  6
CONTINUOUS
 62
    4
 10
162.83746821812633
 20
110.71562499999991
 11
162.83746821812633
 21
128.7156249999999
  0
LINE
  8
_3-0_
  6
CONTINUOUS
 62
    4
 10
162.83746821812633
 20
110.71562499999991
 11
162.06101108281876
 21
113.61340247886712
  0
LINE
  8
_3-0_
  6
CONTINUOUS
 62
    4
 10
162.83746821812633
 20
110.71562499999991
 11
163.61392535343389
 21
113.61340247886712
  0
LINE
  8
_3-0_
  6
CONTINUOUS
 62
    4
 10
162.83746821812633
 20
128.7156249999999
 11
162.06101108281876
 21
125.8178475211327
  0
LINE
  8
_3-0_
  6
CONTINUOUS
 62
    4
 10
162.83746821812633
 20
128.7156249999999
 11
163.61392535343389
 21
125.8178475211327
  0
LINE
  8
_3-0_
  6
CONTINUOUS
 62
    4
 10
163.33746821812633
 20
128.7156249999999
 11
154.02028071812631
 21
128.7156249999999
  0
TEXT
  8
_3-0_
 62
    7
 10
162.33746821812633
 20
118.71562499999991
 40
4
 41
1
 50
90
  1
9
  0
LINE
  8
_3-0_
  6
CONTINUOUS
 62
    4
 10
162.83746821812633
 20
128.7156249999999
 11
162.83746821812633
 21
162.7156249999999
  0
LINE
  8
_3-0_
  6
CONTINUOUS
 62
    4
 10
162.83746821812633
 20
128.7156249999999
 11
162.06101108281876
 21
131.61340247886712
  0
LINE
  8
_3-0_
  6
CONTINUOUS
 62
    4
 10
162.83746821812633
 20
128.7156249999999
 11
163.61392535343389
 21
131.61340247886712
  0
LINE
  8
_3-0_
  6
CONTINUOUS
 62
    4
 10
162.83746821812633
 20
162.7156249999999
 11
162.06101108281876
 21
159.8178475211327
  0
LINE
  8
_3-0_
  6
CONTINUOUS
 62
    4
 10
162.83746821812633
 20
162.7156249999999
 11
163.61392535343389
 21
159.8178475211327
  0
LINE
  8
_3-0_
  6
CONTINUOUS
 62
    4
 10
163.33746821812633
 20
162.7156249999999
 11
154.02028071812631
 21
162.7156249999999
  0
TEXT
  8
_3-0_
 62
    7
 10
162.33746821812633
 20
143.5906249999999
 40
4
 41
1
 50
90
  1
17
  0
LINE
  8
_3-0_
  6
CONTINUOUS
 62
    4
 10
162.83746821812633
 20
162.7156249999999
 11
162.83746821812633
 21
180.71562499999993
  0
LINE
  8
_3-0_
  6
CONTINUOUS
 62
    4
 10
162.83746821812633
 20
162.7156249999999
 11
162.06101108281876
 21
165.61340247886712
  0
LINE
  8
_3-0_
  6
CONTINUOUS
 62
    4
 10
162.83746821812633
 20
162.7156249999999
 11
163.61392535343389
 21
165.61340247886712
  0
LINE
  8
_3-0_
  6
CONTINUOUS
 62
    4
 10
162.83746821812633
 20
180.71562499999993
 11
162.06101108281876
 21
177.8178475211327
  0
LINE
  8
_3-0_
  6
CONTINUOUS
 62
    4
 10
162.83746821812633
 20
180.71562499999993
 11
163.61392535343389
 21
177.8178475211327
  0
TEXT
  8
_3-0_
 62
    7
 10
162.33746821812633
 20
170.71562499999993
 40
4
 41
1
 50
90
  1
9
  0
LINE
  8
_3-0_
  6
CONTINUOUS
 62
    4
 10
169.79840571812633
 20
110.71562499999991
 11
169.79840571812633
 21
180.71562499999993
  0
LINE
  8
_3-0_
  6
CONTINUOUS
 62
    4
 10
169.79840571812633
 20
110.71562499999991
 11
169.02194858281876
 21
113.61340247886712
  0
LINE
  8
_3-0_
  6
CONTINUOUS
 62
    4
 10
169.79840571812633
 20
110.71562499999991
 11
170.57486285343389
 21
113.61340247886712
  0
LINE
  8
_3-0_
  6
CONTINUOUS
 62
    4
 10
169.79840571812633
 20
180.71562499999993
 11
169.02194858281876
 21
177.8178475211327
  0
LINE
  8
_3-0_
  6
CONTINUOUS
 62
    4
 10
169.79840571812633
 20
180.71562499999993
 11
170.57486285343389
 21
177.8178475211327
  0
LINE
  8
_3-0_
  6
CONTINUOUS
 62
    4
 10
170.29840571812633
 20
110.71562499999991
 11
154.02028071812631
 21
110.71562499999991
  0
LINE
  8
_3-0_
  6
CONTINUOUS
 62
    4
 10
170.29840571812633
 20
180.71562499999993
 11
154.02028071812631
 21
180.71562499999993
  0
TEXT
  8
_3-0_
 62
    7
 10
169.29840571812633
 20
143.59062499999993
 40
4
 41
1
 50
90
  1
35
  0
LINE
  8
_3-0_
  6
CONTINUOUS
 62
    4
 10
143.00678706640954
 20
189.3375
 11
145.30456454527674
 21
190.11395713530754
  0
LINE
  8
_3-0_
  6
CONTINUOUS
 62
    4
 10
143.00678706640954
 20
189.3375
 11
145.30456454527674
 21
188.56104286469243
  0
LINE
  8
_3-0_
  6
CONTINUOUS
 62
    4
 10
140.00678706640954
 20
197.69062500000001
 11
151.40678706640954
 21
197.69062500000001
  0
LINE
  8
_3-0_
  6
CONTINUOUS
 62
    4
 10
151.40678706640954
 20
197.69062500000001
 11
148.50900958754232
 21
198.46708213530754
  0
LINE
  8
_3-0_
  6
CONTINUOUS
 62
    4
 10
151.40678706640954
 20
197.69062500000001
 11
148.50900958754232
 21
196.91416786469244
  0
LINE
  8
_3-0_
  6
CONTINUOUS
 62
    4
 10
146.95849242622577
 20
189.3375
 11
127.56696275501485
 21
189.3375
  0
LINE
  8
_3-0_
  6
CONTINUOUS
 62
    4
 10
151.40678706640954
 20
141.58546874999998
 11
154.30456454527674
 21
142.36192588530755
  0
LINE
  8
_3-0_
  6
CONTINUOUS
 62
    4
 10
151.40678706640954
 20
141.58546874999998
 11
154.30456454527674
 21
140.80901161469245
  0
LINE
  8
_3-0_
  6
CONTINUOUS
 62
    4
 10
148.40678706640954
 20
141.58546874999998
 11
145.50900958754232
 21
142.36192588530755
  0
LINE
  8
_3-0_
  6
CONTINUOUS
 62
    4
 10
148.40678706640954
 20
141.58546874999998
 11
145.50900958754232
 21
140.80901161469245
  0
LINE
  8
_3-0_
  6
CONTINUOUS
 62
    4
 10
156.94387446812632
 20
141.58546874999998
 11
138.21567134312633
 21
141.58546874999998
  0
LINE
  8
_3-0_
  6
CONTINUOUS
 62
    4
 10
148.40678706640954
 20
152.35171875
 11
151.30456454527674
 21
153.12817588530757
  0
LINE
  8
_3-0_
  6
CONTINUOUS
 62
    4
 10
148.40678706640954
 20
152.35171875
 11
151.30456454527674
 21
151.57526161469243
  0
LINE
  8
_3-0_
  6
CONTINUOUS
 62
    4
 10
146.60678706640953
 20
152.35171875
 11
144.30900958754233
 21
153.12817588530757
  0
LINE
  8
_3-0_
  6
CONTINUOUS
 62
    4
 10
146.60678706640953
 20
152.35171875
 11
144.30900958754233
 21
151.57526161469243
  0
LINE
  8
_3-0_
  6
CONTINUOUS
 62
    4
 10
148.40678706640954
 20
151.85171875
 11
148.40678706640954
 21
155.92500000000001
  0
LINE
  8
_3-0_
  6
CONTINUOUS
 62
    4
 10
146.60678706640953
 20
151.85171875
 11
146.60678706640953
 21
155.92500000000001
  0
LINE
  8
_3-0_
  6
CONTINUOUS
 62
    4
 10
153.04574946812633
 20
152.35171875
 11
135.61692134312633
 21
152.35171875
  0
LINE
  8
_3-0_
  6
CONTINUOUS
 62
    4
 10
163.33746821812633
 20
180.71562499999993
 11
146.59528071812633
 21
180.71562499999993
  0
LINE
  8
_3-0_
  6
CONTINUOUS
 62
    4
 10
163.33746821812633
 20
110.71562499999991
 11
147.98746821812633
 21
110.71562499999991
  0
LINE
  8
_3-0_
  6
CONTINUOUS
 62
    4
 10
151.40678706640954
 20
198.19062500000001
 11
151.40678706640954
 21
164.80744628906251
  0
LINE
  8
_3-0_
  6
CONTINUOUS
 62
    7
 10
151.00678706640954
 20
162.7156249999999
 11
143.00678706640954
 21
162.7156249999999
  0
ARC
  8
_3-0_
  6
CONTINUOUS
 62
    7
 10
151.00678706640954
 20
162.31562499999992
 40
0.4
 50
0
 51
90
  0
LINE
  8
_3-0_
  6
CONTINUOUS
 62
    7
 10
151.40678706640954
 20
129.1156249999999
 11
151.40678706640954
 21
162.31562499999992
  0
LINE
  8
_3-0_
  6
CONTINUOUS
 62
    7
 10
151.00678706640954
 20
128.7156249999999
 11
143.00678706640954
 21
128.7156249999999
  0
ARC
  8
_3-0_
  6
CONTINUOUS
 62
    7
 10
151.00678706640954
 20
129.1156249999999
 40
0.4
 50
270
 51
0
  0
TEXT
  8
_3-0_
 62
    7
 10
155.90698481968883
 20
100.95534667968749
 40
4
 41
1
 50
0
  1
R0.2
  0
LINE
  8
_3-0_
  6
CONTINUOUS
 62
    4
 10
151.39977778843882
 20
128.37418945312501
 11
157.78498774937631
 21
106.9649560546875
  0
TEXT
  8
_3-0_
 62
    7
 10
142.02064453125001
 20
198.50273437499998
 40
4
 41
1
 50
0
  1
5.7
  0
LINE
  8
_3-0_
  6
CONTINUOUS
 62
    4
 10
221.02273514652316
 20
192.12187499999998
 11
241.02273514652316
 21
192.12187499999998
  0
LINE
  8
_3-0_
  6
CONTINUOUS
 62
    4
 10
221.02273514652316
 20
192.12187499999998
 11
223.92051262539035
 21
192.89833213530755
  0
LINE
  8
_3-0_
  6
CONTINUOUS
 62
    4
 10
221.02273514652316
 20
192.12187499999998
 11
223.92051262539035
 21
191.34541786469242
  0
LINE
  8
_3-0_
  6
CONTINUOUS
 62
    4
 10
241.02273514652316
 20
192.12187499999998
 11
238.12495766765593
 21
192.89833213530755
  0
LINE
  8
_3-0_
  6
CONTINUOUS
 62
    4
 10
241.02273514652316
 20
192.12187499999998
 11
238.12495766765593
 21
191.34541786469242
  0
LINE
  8
_3-0_
  6
CONTINUOUS
 62
    4
 10
221.02273514652316
 20
192.62187499999998
 11
221.02273514652316
 21
183.76875000000001
  0
LINE
  8
_3-0_
  6
CONTINUOUS
 62
    4
 10
241.02273514652316
 20
192.62187499999998
 11
241.02273514652316
 21
183.76875000000001
  0
TEXT
  8
_3-0_
 62
    7
 10
228.89773514652316
 20
192.62187499999998
 40
4
 41
1
 50
0
  1
10
  0
LINE
  8
_0-0_
  6
CONTINUOUS
 62
    7
 10
394.99996700802364
 20
15
 11
15.00316722972974
 21
15
  0
TEXT
  8
_3-0_
 62
    7
 10
387.83102219987154
 20
45.333741798278992
 40
4
 41
1
 50
0
  1
長
  0
TEXT
  8
_0-0_
 62
    7
 10
18.020244140624953
 20
3.8589697265625204
 40
4
 41
1
 50
0
  1
寸法公差
  0
TEXT
  8
_0-0_
 62
    7
 10
22.122846679687455
 20
9.834499511718775
 40
4
 41
1
 50
0
  1
寸法
  0
TEXT
  8
_0-0_
 62
    7
 10
45.222282714843714
 20
9.7453125000000113
 40
4
 41
1
 50
0
  1
4以下
  0
LINE
  8
_0-0_
  6
CONTINUOUS
 62
    7
 10
40.003315114040503
 20
3.0003080962692934
 11
40.003167231628168
 21
15
  0
LINE
  8
_0-0_
  6
CONTINUOUS
 62
    7
 10
60.003315112521732
 20
3.0005545732847167
 11
60.003167230109397
 21
15.000246477015423
  0
LINE
  8
_0-0_
  6
CONTINUOUS
 62
    7
 10
95.003315109863876
 20
3.0009859080617218
 11
95.003167227451541
 21
15.000677811792428
  0
LINE
  8
_0-0_
  6
CONTINUOUS
 62
    7
 10
130.00331510720602
 20
3.0014172428387269
 11
130.00316722479368
 21
15.001109146569433
  0
TEXT
  8
_0-0_
 62
    7
 10
63.441842923015201
 20
9.71330818965518
 40
4
 41
1
 50
0
  1
4をこえ16以下
  0
TEXT
  8
_0-0_
 62
    7
 10
97.229463211708036
 20
9.9298954991980963
 40
4
 41
1
 50
0
  1
16をこえ63以下
  0
LINE
  8
_0-0_
  6
CONTINUOUS
 62
    7
 10
210.00324118764237
 20
9
 11
14.999999999999943
 21
9
  0
TEXT
  8
_0-0_
 62
    7
 10
171.51891038492374
 20
9.9298954991980963
 40
4
 41
1
 50
0
  1
250をこえ1000以下
  0
TEXT
  8
_0-0_
 62
    7
 10
132.96636928628703
 20
9.9298954991980963
 40
4
 41
1
 50
0
  1
63をこえ250以下
  0
TEXT
  8
_0-0_
 62
    7
 10
44.815334302325538
 20
4.082038141539698
 40
4
 41
1
 50
0
  1
±0.1
  0
TEXT
  8
_0-0_
 62
    7
 10
71.238986066559675
 20
4.082038141539698
 40
4
 41
1
 50
0
  1
±0.2
  0
TEXT
  8
_0-0_
 62
    7
 10
105.24319366479545
 20
3.8654508319968101
 40
4
 41
1
 50
0
  1
±0.3
  0
TEXT
  8
_0-0_
 62
    7
 10
144.01232207297508
 20
4.082038141539698
 40
4
 41
1
 50
0
  1
±0.5
  0
TEXT
  8
_0-0_
 62
    7
 10
183.64779971932631
 20
3.8654508319968101
 40
4
 41
1
 50
0
  1
±0.8
  0
LINE
  8
_0-0_
  6
CONTINUOUS
 62
    7
 10
15.003315115938988
 20
3
 11
15
 21
272.00000659839525
  0
LINE
  8
_0-0_
  6
CONTINUOUS
 62
    7
 10
210.00331513074701
 20
3
 11
15.003315115938988
 21
3
  0
LINE
  8
_0-0_
  6
CONTINUOUS
 62
    7
 10
240.0031672187186
 20
15.002095054631126
 11
240.0031672187186
 21
27
  0
LINE
  8
_0-0_
  6
CONTINUOUS
 62
    7
 10
190.0031672187186
 20
15.002095054631126
 11
190.0031672187186
 21
27
  0
LINE
  8
_0-0_
  6
CONTINUOUS
 62
    7
 10
140.00316722175614
 20
15.00160210060028
 11
140.00316722175614
 21
27
  0
LINE
  8
_0-0_
  6
CONTINUOUS
 62
    7
 10
299.99997525601776
 20
27
 11
140.00316722175614
 21
27
  0
LINE
  8
_0-0_
  6
CONTINUOUS
 62
    7
 10
299.99997525601776
 20
21
 11
140.00316722175614
 21
21
  0
LINE
  8
_0-0_
  6
CONTINUOUS
 62
    7
 10
170.00331510416847
 20
3.0019101968695736
 11
170.00331510416847
 21
15
  0
TEXT
  8
_0-0_
 62
    7
 10
158.23226103514514
 20
15.582788588361864
 40
4
 41
1
 50
0
  1
材質　
  0
TEXT
  8
_0-0_
 62
    7
 10
204.88035117481635
 20
15.855584437131881
 40
4
 41
1
 50
0
  1
メーカー　
  0
TEXT
  8
_0-0_
 62
    7
 10
264.89543790421794
 20
16.264778210286863
 40
4
 41
1
 50
0
  1
型番
  0
TEXT
  8
_3-0_
 62
    7
 10
190.70712130926574
 20
21.907870951229227
 40
4
 41
1
 50
0
  1
三菱ｴﾝｼﾞﾆｱﾘﾝｸﾞﾌﾟﾗｽﾁｯｸｽ
  0
TEXT
  8
_3-0_
 62
    7
 10
334.72874433524179
 20
45.467978963465796
 40
4
 41
1
 50
0
  1
8
  0
TEXT
  8
_3-0_
 62
    7
 10
342.81315448012162
 20
45.511397552230434
 40
4
 41
1
 50
0
  1
9
  0
TEXT
  8
_3-0_
 62
    7
 10
323.80205516495402
 20
45.467978963465796
 40
4
 41
1
 50
0
  1
12
  0
TEXT
  8
_3-0_
 62
    7
 10
352.34703464738788
 20
45.333741798278992
 40
4
 41
1
 50
0
  1
F2128052-3
  0
TEXT
  8
_3-0_
 62
    2
 10
356.90771604938277
 20
16.410273368606738
 40
7
 41
1
 50
0
  1
F7209060
  0
TEXT
  8
_3-0_
 62
    7
 10
352.63333524114648
 20
25.962535586610755
 40
3
 41
1
 50
0
  1
FLTシリーズ取付けクリップ
  0
TEXT
  8
_0-0_
 62
    7
 10
364.404012345679
 20
30.751014109347465
 40
3
 41
1
 50
0
  1
FLT-A-CR
  0
TEXT
  8
_0-0_
 62
    7
 10
356.13318695893156
 20
38.271956572661537
 40
3
 41
1
 50
0
  1
2020.9.9
  0
TEXT
  8
_3-0_
 62
    7
 10
306.43575837742503
 20
37.572178130511503
 40
4
 41
1
 50
0
  1
谷山
  0
TEXT
  8
_3-0_
 62
    7
 10
321.06621105232215
 20
37.572178130511503
 40
4
 41
1
 50
0
  1
谷山
  0
TEXT
  8
_3-0_
 62
    7
 10
250.6957387384896
 20
21.784437582033291
 40
4
 41
1
 50
0
  1
ﾕｰﾋﾟﾛﾝS3000UVR-5355
  0
LINE
  8
_0-0_
  6
CONTINUOUS
 62
    7
 10
299.99997525601776
 20
50.000006185995573
 11
299.99997525601776
 21
15
  0
LINE
  8
_0-0_
  6
CONTINUOUS
 62
    7
 10
319.99999175200593
 20
45.000006185995573
 11
319.99999175200593
 21
50.000006185995573
  0
LINE
  8
_0-0_
  6
CONTINUOUS
 62
    7
 10
349.99997525601776
 20
45.000006185995573
 11
349.99997525601776
 21
50.000006185995573
  0
LINE
  8
_0-0_
  6
CONTINUOUS
 62
    7
 10
384.99996700802364
 20
50.000006185995573
 11
384.99996700802364
 21
45.000006185995573
  0
TEXT
  8
_3-0_
 62
    7
 10
142.74398883009993
 20
22.031304320425164
 40
4
 41
1
 50
0
  1
PC（カラーアイスブルー）
  0
TEXT
  8
_3-0_
 62
    3
 10
331.73333333333334
 20
27.377777777777779
 40
5
 41
1
 50
0
  1
PC
  0
TEXT
  8
_3-0_
 62
    7
 10
335.82043108682455
 20
37.572178130511503
 40
4
 41
1
 50
0
  1
指方
  0
ENDSEC
  0
EOF
