  0
SECTION
  2
HEADER
  9
$ACADVER
  1
AC1027
  9
$ACADMAINTVER
 70
     8
  9
$DWGCODEPAGE
  3
DOS932
  9
$REQUIREDVERSIONS
160
                 0
  9
$INSBASE
 10
0.0
 20
0.0
 30
0.0
  9
$EXTMIN
 10
0.0
 20
0.0
 30
0.0
  9
$EXTMAX
 10
420.0
 20
297.0
 30
0.0
  9
$LIMMIN
 10
0.0
 20
0.0
  9
$LIMMAX
 10
420.0
 20
297.0
  9
$ORTHOMODE
 70
     0
  9
$REGENMODE
 70
     1
  9
$FILLMODE
 70
     1
  9
$QTEXTMODE
 70
     0
  9
$MIRRTEXT
 70
     1
  9
$LTSCALE
 40
1.0
  9
$ATTMODE
 70
     1
  9
$TEXTSIZE
 40
3.5
  9
$TRACEWID
 40
1.0
  9
$TEXTSTYLE
  7
Standard
  9
$CLAYER
  8
0
  9
$CELTYPE
  6
ByLayer
  9
$CECOLOR
 62
   256
  9
$CELTSCALE
 40
1.0
  9
$DISPSILH
 70
     0
  9
$DIMSCALE
 40
1.0
  9
$DIMASZ
 40
3.302
  9
$DIMEXO
 40
1.0
  9
$DIMDLI
 40
3.75
  9
$DIMRND
 40
0.0
  9
$DIMDLE
 40
0.0
  9
$DIMEXE
 40
1.0
  9
$DIMTP
 40
0.0
  9
$DIMTM
 40
0.0
  9
$DIMTXT
 40
3.5
  9
$DIMCEN
 40
2.5
  9
$DIMTSZ
 40
0.0
  9
$DIMTOL
 70
     0
  9
$DIMLIM
 70
     0
  9
$DIMTIH
 70
     1
  9
$DIMTOH
 70
     1
  9
$DIMSE1
 70
     0
  9
$DIMSE2
 70
     0
  9
$DIMTAD
 70
     1
  9
$DIMZIN
 70
     0
  9
$DIMBLK
  1

  9
$DIMASO
 70
     1
  9
$DIMSHO
 70
     1
  9
$DIMPOST
  1

  9
$DIMAPOST
  1

  9
$DIMALT
 70
     0
  9
$DIMALTD
 70
     3
  9
$DIMALTF
 40
0.0393700787
  9
$DIMLFAC
 40
2.0
  9
$DIMTOFL
 70
     1
  9
$DIMTVP
 40
0.0
  9
$DIMTIX
 70
     0
  9
$DIMSOXD
 70
     0
  9
$DIMSAH
 70
     0
  9
$DIMBLK1
  1

  9
$DIMBLK2
  1

  9
$DIMSTYLE
  2
ISO-25
  9
$DIMCLRD
 70
     0
  9
$DIMCLRE
 70
     0
  9
$DIMCLRT
 70
     0
  9
$DIMTFAC
 40
1.0
  9
$DIMGAP
 40
1.524
  9
$DIMJUST
 70
     0
  9
$DIMSD1
 70
     0
  9
$DIMSD2
 70
     0
  9
$DIMTOLJ
 70
     0
  9
$DIMTZIN
 70
     0
  9
$DIMALTZ
 70
     0
  9
$DIMALTTZ
 70
     0
  9
$DIMUPT
 70
     0
  9
$DIMDEC
 70
     2
  9
$DIMTDEC
 70
     2
  9
$DIMALTU
 70
     2
  9
$DIMALTTD
 70
     3
  9
$DIMTXSTY
  7
Standard
  9
$DIMAUNIT
 70
     0
  9
$DIMADEC
 70
     2
  9
$DIMALTRND
 40
0.0
  9
$DIMAZIN
 70
     0
  9
$DIMDSEP
 70
    44
  9
$DIMATFIT
 70
     3
  9
$DIMFRAC
 70
     0
  9
$DIMLDRBLK
  1

  9
$DIMLUNIT
 70
     2
  9
$DIMLWD
 70
    -2
  9
$DIMLWE
 70
    -2
  9
$DIMTMOVE
 70
     0
  9
$DIMFXL
 40
1.0
  9
$DIMFXLON
 70
     0
  9
$DIMJOGANG
 40
0.7853981634
  9
$DIMTFILL
 70
     0
  9
$DIMTFILLCLR
 70
     0
  9
$DIMARCSYM
 70
     0
  9
$DIMLTYPE
  6

  9
$DIMLTEX1
  6

  9
$DIMLTEX2
  6

  9
$DIMTXTDIRECTION
 70
     0
  9
$LUNITS
 70
     2
  9
$LUPREC
 70
     2
  9
$SKETCHINC
 40
1.0
  9
$FILLETRAD
 40
10.0
  9
$AUNITS
 70
     0
  9
$AUPREC
 70
     2
  9
$MENU
  1
.
  9
$ELEVATION
 40
0.0
  9
$PELEVATION
 40
0.0
  9
$THICKNESS
 40
0.0
  9
$LIMCHECK
 70
     0
  9
$CHAMFERA
 40
0.0
  9
$CHAMFERB
 40
0.0
  9
$CHAMFERC
 40
0.0
  9
$CHAMFERD
 40
0.0
  9
$SKPOLY
 70
     0
  9
$TDCREATE
 40
2459668.45829816
  9
$TDUCREATE
 40
2459668.08329816
  9
$TDUPDATE
 40
2459668.458299063
  9
$TDUUPDATE
 40
2459668.083299063
  9
$TDINDWG
 40
0.0000000116
  9
$TDUSRTIMER
 40
0.0000000116
  9
$USRTIMER
 70
     1
  9
$ANGBASE
 50
0.0
  9
$ANGDIR
 70
     0
  9
$PDMODE
 70
     0
  9
$PDSIZE
 40
-1.0
  9
$PLINEWID
 40
0.0
  9
$SPLFRAME
 70
     0
  9
$SPLINETYPE
 70
     6
  9
$SPLINESEGS
 70
     8
  9
$HANDSEED
  5
340
  9
$SURFTAB1
 70
     6
  9
$SURFTAB2
 70
     6
  9
$SURFTYPE
 70
     6
  9
$SURFU
 70
     6
  9
$SURFV
 70
     6
  9
$UCSBASE
  2

  9
$UCSNAME
  2

  9
$UCSORG
 10
0.0
 20
0.0
 30
0.0
  9
$UCSXDIR
 10
1.0
 20
0.0
 30
0.0
  9
$UCSYDIR
 10
0.0
 20
1.0
 30
0.0
  9
$UCSORTHOREF
  2

  9
$UCSORTHOVIEW
 70
     0
  9
$UCSORGTOP
 10
0.0
 20
0.0
 30
0.0
  9
$UCSORGBOTTOM
 10
0.0
 20
0.0
 30
0.0
  9
$UCSORGLEFT
 10
0.0
 20
0.0
 30
0.0
  9
$UCSORGRIGHT
 10
0.0
 20
0.0
 30
0.0
  9
$UCSORGFRONT
 10
0.0
 20
0.0
 30
0.0
  9
$UCSORGBACK
 10
0.0
 20
0.0
 30
0.0
  9
$PUCSBASE
  2

  9
$PUCSNAME
  2

  9
$PUCSORG
 10
0.0
 20
0.0
 30
0.0
  9
$PUCSXDIR
 10
1.0
 20
0.0
 30
0.0
  9
$PUCSYDIR
 10
0.0
 20
1.0
 30
0.0
  9
$PUCSORTHOREF
  2

  9
$PUCSORTHOVIEW
 70
     0
  9
$PUCSORGTOP
 10
0.0
 20
0.0
 30
0.0
  9
$PUCSORGBOTTOM
 10
0.0
 20
0.0
 30
0.0
  9
$PUCSORGLEFT
 10
0.0
 20
0.0
 30
0.0
  9
$PUCSORGRIGHT
 10
0.0
 20
0.0
 30
0.0
  9
$PUCSORGFRONT
 10
0.0
 20
0.0
 30
0.0
  9
$PUCSORGBACK
 10
0.0
 20
0.0
 30
0.0
  9
$USERI1
 70
     0
  9
$USERI2
 70
     0
  9
$USERI3
 70
     0
  9
$USERI4
 70
     0
  9
$USERI5
 70
     0
  9
$USERR1
 40
0.0
  9
$USERR2
 40
0.0
  9
$USERR3
 40
0.0
  9
$USERR4
 40
0.0
  9
$USERR5
 40
0.0
  9
$WORLDVIEW
 70
     1
  9
$SHADEDGE
 70
     3
  9
$SHADEDIF
 70
    70
  9
$TILEMODE
 70
     1
  9
$MAXACTVP
 70
    64
  9
$PINSBASE
 10
0.0
 20
0.0
 30
0.0
  9
$PLIMCHECK
 70
     0
  9
$PEXTMIN
 10
1.0000000000E+20
 20
1.0000000000E+20
 30
1.0000000000E+20
  9
$PEXTMAX
 10
-1.0000000000E+20
 20
-1.0000000000E+20
 30
-1.0000000000E+20
  9
$PLIMMIN
 10
0.0
 20
0.0
  9
$PLIMMAX
 10
420.0
 20
297.0
  9
$UNITMODE
 70
     0
  9
$VISRETAIN
 70
     1
  9
$PLINEGEN
 70
     0
  9
$PSLTSCALE
 70
     1
  9
$TREEDEPTH
 70
  3020
  9
$CMLSTYLE
  2
Standard
  9
$CMLJUST
 70
     0
  9
$CMLSCALE
 40
20.0
  9
$PROXYGRAPHICS
 70
     1
  9
$MEASUREMENT
 70
     1
  9
$CELWEIGHT
370
    -1
  9
$ENDCAPS
280
     0
  9
$JOINSTYLE
280
     0
  9
$LWDISPLAY
290
     1
  9
$INSUNITS
 70
     4
  9
$HYPERLINKBASE
  1

  9
$STYLESHEET
  1

  9
$XEDIT
290
     1
  9
$CEPSNTYPE
380
     0
  9
$PSTYLEMODE
290
     1
  9
$FINGERPRINTGUID
  2
{9D62388B-0C1D-437D-922B-605B0EF6BAD4}
  9
$VERSIONGUID
  2
{FAEB1C32-E019-11D5-929B-00C0DF256EC4}
  9
$EXTNAMES
290
     1
  9
$PSVPSCALE
 40
0.0
  9
$OLESTARTUP
290
     0
  9
$SORTENTS
280
   127
  9
$INDEXCTL
280
     0
  9
$HIDETEXT
280
     1
  9
$XCLIPFRAME
280
     2
  9
$HALOGAP
280
     0
  9
$OBSCOLOR
 70
   257
  9
$OBSLTYPE
280
     0
  9
$INTERSECTIONDISPLAY
280
     0
  9
$INTERSECTIONCOLOR
 70
   257
  9
$DIMASSOC
280
     2
  9
$PROJECTNAME
  1

  9
$CAMERADISPLAY
290
     0
  9
$LENSLENGTH
 40
50.0
  9
$CAMERAHEIGHT
 40
0.0
  9
$STEPSPERSEC
 40
2.0
  9
$STEPSIZE
 40
6.0
  9
$3DDWFPREC
 40
2.0
  9
$PSOLWIDTH
 40
5.0
  9
$PSOLHEIGHT
 40
80.0
  9
$LOFTANG1
 40
1.5707963268
  9
$LOFTANG2
 40
1.5707963268
  9
$LOFTMAG1
 40
0.0
  9
$LOFTMAG2
 40
0.0
  9
$LOFTPARAM
 70
     7
  9
$LOFTNORMALS
280
     1
  9
$LATITUDE
 40
37.795
  9
$LONGITUDE
 40
-122.394
  9
$NORTHDIRECTION
 40
0.0
  9
$TIMEZONE
 70
 -8000
  9
$LIGHTGLYPHDISPLAY
280
     1
  9
$TILEMODELIGHTSYNCH
280
     1
  9
$CMATERIAL
347
44
  9
$SOLIDHIST
280
     0
  9
$SHOWHIST
280
     1
  9
$DWFFRAME
280
     2
  9
$DGNFRAME
280
     2
  9
$REALWORLDSCALE
290
     1
  9
$INTERFERECOLOR
 62
   256
  9
$CSHADOW
280
     0
  9
$SHADOWPLANELOCATION
 40
0.0
  0
ENDSEC
  0
SECTION
  2
CLASSES
  0
CLASS
  1
ACDBDICTIONARYWDFLT
  2
AcDbDictionaryWithDefault
  3
ObjectDBX Classes
 90
        0
 91
        4
280
     0
281
     0
  0
CLASS
  1
VISUALSTYLE
  2
AcDbVisualStyle
  3
ObjectDBX Classes
 90
     4095
 91
        4
280
     0
281
     0
  0
CLASS
  1
MATERIAL
  2
AcDbMaterial
  3
ObjectDBX Classes
 90
     1153
 91
        4
280
     0
281
     0
  0
CLASS
  1
SCALE
  2
AcDbScale
  3
ObjectDBX Classes
 90
     1153
 91
        4
280
     0
281
     0
  0
CLASS
  1
TABLESTYLE
  2
AcDbTableStyle
  3
ObjectDBX Classes
 90
     4095
 91
        4
280
     0
281
     0
  0
CLASS
  1
MLEADERSTYLE
  2
AcDbMLeaderStyle
  3
ACDB_MLEADERSTYLE_CLASS
 90
     4095
 91
        4
280
     0
281
     0
  0
CLASS
  1
SUN
  2
AcDbSun
  3
SCENEOE
 90
     1153
 91
        4
280
     0
281
     0
  0
CLASS
  1
DICTIONARYVAR
  2
AcDbDictionaryVar
  3
ObjectDBX Classes
 90
        0
 91
        4
280
     0
281
     0
  0
CLASS
  1
CELLSTYLEMAP
  2
AcDbCellStyleMap
  3
ObjectDBX Classes
 90
     1152
 91
        4
280
     0
281
     0
  0
ENDSEC
  0
SECTION
  2
TABLES
  0
TABLE
  2
VPORT
  5
8
330
0
100
AcDbSymbolTable
 70
     1
  0
VPORT
  5
29
330
8
100
AcDbSymbolTableRecord
100
AcDbViewportTableRecord
  2
*Active
 70
     0
 10
0.0
 20
0.0
 11
1.0
 21
1.0
 12
210.0
 22
148.5
 13
0.0
 23
0.0
 14
10.0
 24
10.0
 15
10.0
 25
10.0
 16
0.0
 26
0.0
 36
1.0
 17
0.0
 27
0.0
 37
0.0
 40
297.0
 41
1.4141414141
 42
50.0
 43
0.0
 44
0.0
 50
0.0
 51
0.0
 71
     0
 72
  2000
 73
     1
 74
     3
 75
     0
 76
     0
 77
     0
 78
     0
281
     0
 65
     1
110
0.0
120
0.0
130
0.0
111
1.0
121
0.0
131
0.0
112
0.0
122
1.0
132
0.0
 79
     0
146
0.0
 60
     3
 61
     5
292
     1
282
     1
141
0.0
142
0.0
 63
   250
361
6D
  0
ENDTAB
  0
TABLE
  2
LTYPE
  5
5
330
0
100
AcDbSymbolTable
 70
     8
  0
LTYPE
  5
14
330
5
100
AcDbSymbolTableRecord
100
AcDbLinetypeTableRecord
  2
ByBlock
 70
     0
  3

 72
    65
 73
     0
 40
0.0
  0
LTYPE
  5
15
330
5
100
AcDbSymbolTableRecord
100
AcDbLinetypeTableRecord
  2
ByLayer
 70
     0
  3

 72
    65
 73
     0
 40
0.0
  0
LTYPE
  5
16
330
5
100
AcDbSymbolTableRecord
100
AcDbLinetypeTableRecord
  2
Continuous
 70
     0
  3
Solid line
 72
    65
 73
     0
 40
0.0
  0
LTYPE
  5
6E
330
5
100
AcDbSymbolTableRecord
100
AcDbLinetypeTableRecord
  2
SLD-実線
 70
     0
  3
SolidWorks Line Style
 72
    65
 73
     0
 40
0.0
  0
LTYPE
  5
6F
330
5
100
AcDbSymbolTableRecord
100
AcDbLinetypeTableRecord
  2
SLD-破線
 70
     0
  3
SolidWorks Line Style
 72
    65
 73
     2
 40
1.905
 49
1.27
 74
     0
 49
-0.635
 74
     0
  0
LTYPE
  5
70
330
5
100
AcDbSymbolTableRecord
100
AcDbLinetypeTableRecord
  2
SLD-2点鎖線
 70
     0
  3
SolidWorks Line Style
 72
    65
 73
     6
 40
12.7
 49
6.35
 74
     0
 49
-1.27
 74
     0
 49
1.27
 74
     0
 49
-1.27
 74
     0
 49
1.27
 74
     0
 49
-1.27
 74
     0
  0
LTYPE
  5
71
330
5
100
AcDbSymbolTableRecord
100
AcDbLinetypeTableRecord
  2
SLD-鎖線
 70
     0
  3
SolidWorks Line Style
 72
    65
 73
     4
 40
10.16
 49
6.35
 74
     0
 49
-1.27
 74
     0
 49
1.27
 74
     0
 49
-1.27
 74
     0
  0
LTYPE
  5
72
330
5
100
AcDbSymbolTableRecord
100
AcDbLinetypeTableRecord
  2
SLD-1点鎖線(中心線)
 70
     0
  3
SolidWorks Line Style
 72
    65
 73
     4
 40
34.29
 49
30.48
 74
     0
 49
-1.27
 74
     0
 49
1.27
 74
     0
 49
-1.27
 74
     0
  0
LTYPE
  5
73
330
5
100
AcDbSymbolTableRecord
100
AcDbLinetypeTableRecord
  2
SLD-点線
 70
     0
  3
SolidWorks Line Style
 72
    65
 73
     2
 40
0.635
 49
0.0
 74
     0
 49
-0.635
 74
     0
  0
LTYPE
  5
74
330
5
100
AcDbSymbolTableRecord
100
AcDbLinetypeTableRecord
  2
SLD-細-太鎖線(切断面)
 70
     0
  3
SolidWorks Line Style
 72
    65
 73
     4
 40
10.16
 49
6.35
 74
     0
 49
-1.27
 74
     0
 49
1.27
 74
     0
 49
-1.27
 74
     0
  0
ENDTAB
  0
TABLE
  2
LAYER
  5
2
330
0
100
AcDbSymbolTable
 70
     1
  0
LAYER
  5
10
330
2
100
AcDbSymbolTableRecord
100
AcDbLayerTableRecord
  2
0
 70
     0
 62
     7
  6
Continuous
370
    -3
390
F
347
46
348
0
  0
ENDTAB
  0
TABLE
  2
STYLE
  5
3
330
0
100
AcDbSymbolTable
 70
     1
  0
STYLE
  5
11
330
3
100
AcDbSymbolTableRecord
100
AcDbTextStyleTableRecord
  2
Standard
 70
     0
 40
0.0
 41
1.0
 50
0.0
 71
     0
 42
3.5
  3
txt
  4
bigfont
  0
ENDTAB
  0
TABLE
  2
VIEW
  5
6
330
0
100
AcDbSymbolTable
 70
     0
  0
ENDTAB
  0
TABLE
  2
UCS
  5
7
330
0
100
AcDbSymbolTable
 70
     0
  0
ENDTAB
  0
TABLE
  2
APPID
  5
9
330
0
100
AcDbSymbolTable
 70
     1
  0
APPID
  5
12
330
9
100
AcDbSymbolTableRecord
100
AcDbRegAppTableRecord
  2
ACAD
 70
     0
  0
ENDTAB
  0
TABLE
  2
DIMSTYLE
  5
A
330
0
100
AcDbSymbolTable
 70
     1
100
AcDbDimStyleTable
  0
DIMSTYLE
105
27
330
A
100
AcDbSymbolTableRecord
100
AcDbDimStyleTableRecord
  2
ISO-25
 70
     0
 41
2.5
 42
0.625
 43
3.75
 44
1.25
 73
     0
 74
     0
 77
     1
 78
     8
140
2.5
141
2.5
143
0.0393700787
147
0.625
171
     3
172
     1
178
     0
271
     2
272
     2
274
     3
278
    44
283
     0
284
     8
340
11
  0
ENDTAB
  0
TABLE
  2
BLOCK_RECORD
  5
1
330
0
100
AcDbSymbolTable
 70
     1
  0
BLOCK_RECORD
  5
1F
330
1
100
AcDbSymbolTableRecord
100
AcDbBlockTableRecord
  2
*Model_Space
340
22
 70
     0
280
     1
281
     0
  0
BLOCK_RECORD
  5
1B
330
1
100
AcDbSymbolTableRecord
100
AcDbBlockTableRecord
  2
*Paper_Space
340
1E
 70
     0
280
     1
281
     0
  0
BLOCK_RECORD
  5
23
330
1
100
AcDbSymbolTableRecord
100
AcDbBlockTableRecord
  2
*Paper_Space0
340
26
 70
     0
280
     1
281
     0
  0
ENDTAB
  0
ENDSEC
  0
SECTION
  2
BLOCKS
  0
BLOCK
  5
20
330
1F
100
AcDbEntity
  8
0
100
AcDbBlockBegin
  2
*Model_Space
 70
     0
 10
0.0
 20
0.0
 30
0.0
  3
*Model_Space
  1

  0
ENDBLK
  5
21
330
1F
100
AcDbEntity
  8
0
100
AcDbBlockEnd
  0
BLOCK
  5
1C
330
1B
100
AcDbEntity
 67
     1
  8
0
100
AcDbBlockBegin
  2
*Paper_Space
 70
     0
 10
0.0
 20
0.0
 30
0.0
  3
*Paper_Space
  1

  0
ENDBLK
  5
1D
330
1B
100
AcDbEntity
 67
     1
  8
0
100
AcDbBlockEnd
  0
BLOCK
  5
24
330
23
100
AcDbEntity
  8
0
100
AcDbBlockBegin
  2
*Paper_Space0
 70
     0
 10
0.0
 20
0.0
 30
0.0
  3
*Paper_Space0
  1

  0
ENDBLK
  5
25
330
23
100
AcDbEntity
  8
0
100
AcDbBlockEnd
  0
ENDSEC
  0
SECTION
  2
ENTITIES
  0
LINE
  5
75
330
1F
100
AcDbEntity
  8
0
  6
SLD-実線
 62
     7
370
    15
100
AcDbLine
 10
329.8113132691
 20
231.2421063927
 30
0.0
 11
328.8618829841
 21
230.214196363
 31
0.0
  0
LINE
  5
76
330
1F
100
AcDbEntity
  8
0
  6
SLD-実線
 62
     7
370
    15
100
AcDbLine
 10
331.3218337646
 20
225.9519227784
 30
0.0
 11
332.686839796
 21
226.259778596
 31
0.0
  0
LWPOLYLINE
  5
77
330
1F
100
AcDbEntity
  8
0
  6
SLD-実線
 62
     7
370
    15
100
AcDbPolyline
 90
        8
 70
   128
 43
0.0
 10
333.2059574254
 20
229.6222933008
 10
332.9727312537
 20
230.0426931086
 10
332.5682703391
 20
230.5780721805
 10
332.1087991437
 20
231.026507336
 10
331.6150190143
 20
231.3636111662
 10
331.1075058343
 20
231.5677455559
 10
330.6118722005
 20
231.6183386405
 10
330.54593786
 20
231.6016227418
  0
LWPOLYLINE
  5
78
330
1F
100
AcDbEntity
  8
0
  6
SLD-実線
 62
     7
370
    15
100
AcDbPolyline
 90
       10
 70
   128
 43
0.0
 10
332.6188401365
 20
226.2555491393
 10
332.6759657445
 20
226.257378266
 10
333.083483952
 20
226.4302143129
 10
333.3897715209
 20
226.7310198067
 10
333.5914468252
 20
227.134565972
 10
333.6879349555
 20
227.6330193946
 10
333.6711692355
 20
228.2088832634
 10
333.5396872025
 20
228.8265581048
 10
333.3022651145
 20
229.4486718241
 10
333.2059574254
 20
229.6222933008
  0
LINE
  5
79
330
1F
100
AcDbEntity
  8
0
  6
SLD-実線
 62
     7
370
    15
100
AcDbLine
 10
332.4220255903
 20
232.3143994704
 30
0.0
 11
331.3613790741
 21
231.7022524352
 31
0.0
  0
LINE
  5
7A
330
1F
100
AcDbEntity
  8
0
  6
SLD-実線
 62
     7
370
    15
100
AcDbLine
 10
333.8607129976
 20
227.3717408628
 30
0.0
 11
334.9213595138
 21
227.9838878979
 31
0.0
  0
LINE
  5
7B
330
1F
100
AcDbEntity
  8
0
  6
SLD-実線
 62
     7
370
    15
100
AcDbLine
 10
333.659478136
 20
233.028589255
 30
0.0
 11
332.5988105464
 21
232.4164300575
 31
0.0
  0
LINE
  5
7C
330
1F
100
AcDbEntity
  8
0
  6
SLD-実線
 62
     7
370
    15
100
AcDbLine
 10
335.0981444698
 20
228.085918485
 30
0.0
 11
336.1588120595
 21
228.6980776826
 31
0.0
  0
LINE
  5
7D
330
1F
100
AcDbEntity
  8
0
  6
SLD-実線
 62
     7
370
    15
100
AcDbLine
 10
334.7201246522
 20
233.6407362902
 30
0.0
 11
333.8362420187
 21
233.1306076797
 31
0.0
  0
LINE
  5
7E
330
1F
100
AcDbEntity
  8
0
  6
SLD-実線
 62
     7
370
    15
100
AcDbLine
 10
336.3355759421
 20
228.8000961072
 30
0.0
 11
337.2194585757
 21
229.3102247177
 31
0.0
  0
LINE
  5
7F
330
1F
100
AcDbEntity
  8
0
  6
SLD-実線
 62
     7
370
    15
100
AcDbLine
 10
336.5077392328
 20
235.3605406252
 30
0.0
 11
334.6346935254
 21
233.5914301916
 31
0.0
  0
LINE
  5
80
330
1F
100
AcDbEntity
  8
0
  6
SLD-実線
 62
     7
370
    15
100
AcDbLine
 10
337.1340274076
 20
229.2609186429
 30
0.0
 11
339.6028715847
 21
229.9977091101
 31
0.0
  0
LINE
  5
81
330
1F
100
AcDbEntity
  8
0
  6
SLD-実線
 62
     7
370
    15
100
AcDbLine
 10
337.2361407428
 20
235.8144666821
 30
0.0
 11
336.705806948
 21
235.5083870833
 31
0.0
  0
LINE
  5
82
330
1F
100
AcDbEntity
  8
0
  6
SLD-実線
 62
     7
370
    15
100
AcDbLine
 10
339.8299742802
 20
230.0952476355
 30
0.0
 11
340.360308075
 21
230.4013272343
 31
0.0
  0
ARC
  5
83
330
1F
100
AcDbEntity
  8
0
  6
SLD-実線
 62
     7
370
    15
100
AcDbCircle
 10
337.9582374651
 20
235.0148400767
 30
0.0
 40
1.186963290861367
100
AcDbArc
 50
78.9041653402
 51
147.4219811463
  0
ARC
  5
84
330
1F
100
AcDbEntity
  8
0
  6
SLD-実線
 62
     7
370
    15
100
AcDbCircle
 10
340.0504586964
 20
231.3596677097
 30
0.0
 40
1.12352947286895
100
AcDbArc
 50
271.2280456513
 51
334.8625387309
  0
ARC
  5
85
330
1F
100
AcDbEntity
  8
0
  6
SLD-実線
 62
     7
370
    15
100
AcDbCircle
 10
338.6569034391
 20
235.4352788297
 30
0.0
 40
1.176524132283413
100
AcDbArc
 50
78.3855572116
 51
142.454071721
  0
ARC
  5
86
330
1F
100
AcDbEntity
  8
0
  6
SLD-実線
 62
     7
370
    15
100
AcDbCircle
 10
340.7450605015
 20
231.8021213127
 30
0.0
 40
1.149738664105467
100
AcDbArc
 50
278.8496310049
 51
333.578031025
  0
ARC
  5
87
330
1F
100
AcDbEntity
  8
0
  6
SLD-実線
 62
     7
370
    15
100
AcDbCircle
 10
339.3640832973
 20
235.8431561093
 30
0.0
 40
1.176723817920861
100
AcDbArc
 50
78.3916406254
 51
142.4479883073
  0
ARC
  5
88
330
1F
100
AcDbEntity
  8
0
  6
SLD-実線
 62
     7
370
    15
100
AcDbCircle
 10
341.4522249292
 20
232.2101443379
 30
0.0
 40
1.149645514511346
100
AcDbArc
 50
278.8480499449
 51
333.5798980252
  0
LINE
  5
89
330
1F
100
AcDbEntity
  8
0
  6
SLD-実線
 62
     7
370
    15
100
AcDbLine
 10
340.771671277
 20
237.8549811241
 30
0.0
 11
339.301146659
 21
237.006274914
 31
0.0
  0
LINE
  5
8A
330
1F
100
AcDbEntity
  8
0
  6
SLD-実線
 62
     7
370
    15
100
AcDbLine
 10
342.4134496534
 20
231.5862880207
 30
0.0
 11
343.8958386092
 21
232.4418416763
 31
0.0
  0
LINE
  5
8B
330
1F
100
AcDbEntity
  8
0
  6
SLD-実線
 62
     7
370
    15
100
AcDbLine
 10
340.0583807293
 20
237.8744745787
 30
0.0
 11
340.0420168861
 21
237.8432236889
 31
0.0
  0
LINE
  5
8C
330
1F
100
AcDbEntity
  8
0
  6
SLD-実線
 62
     7
370
    15
100
AcDbLine
 10
343.4329631504
 20
231.8223937436
 30
0.0
 11
343.4731314019
 21
231.8189033594
 31
0.0
  0
LINE
  5
8D
330
1F
100
AcDbEntity
  8
0
  6
SLD-実線
 62
     7
370
    15
100
AcDbLine
 10
339.923776866
 20
237.5603437785
 30
0.0
 11
339.9052590884
 21
237.502192934
 31
0.0
  0
LINE
  5
8E
330
1F
100
AcDbEntity
  8
0
  6
SLD-実線
 62
     7
370
    15
100
AcDbLine
 10
343.0664579423
 20
231.8911256399
 30
0.0
 11
343.1320817379
 21
231.8740365229
 31
0.0
  0
LINE
  5
8F
330
1F
100
AcDbEntity
  8
0
  6
SLD-実線
 62
     7
370
    15
100
AcDbLine
 10
71.9072217135
 20
75.8978937939
 30
0.0
 11
72.2607758206
 21
76.1019458462
 31
0.0
  0
LINE
  5
90
330
1F
100
AcDbEntity
  8
0
  6
SLD-実線
 62
     7
370
    15
100
AcDbLine
 10
69.5115084925
 20
80.8655085355
 30
0.0
 11
69.1579543854
 21
80.6614564832
 31
0.0
  0
LINE
  5
91
330
1F
100
AcDbEntity
  8
0
  6
SLD-実線
 62
     7
370
    15
100
AcDbLine
 10
72.766667736
 20
76.8268932256
 30
0.0
 11
72.7804313163
 21
76.8348368097
 31
0.0
  0
LINE
  5
92
330
1F
100
AcDbEntity
  8
0
  6
SLD-実線
 62
     7
370
    15
100
AcDbLine
 10
70.4060640746
 20
80.9488228832
 30
0.0
 11
70.3923004944
 21
80.9408792991
 31
0.0
  0
LINE
  5
93
330
1F
100
AcDbEntity
  8
0
  6
SLD-実線
 62
     7
370
    15
100
AcDbLine
 10
70.9002663311
 20
81.9794957597
 30
0.0
 11
70.8118791214
 21
81.9284835068
 31
0.0
  0
LINE
  5
94
330
1F
100
AcDbEntity
  8
0
  6
SLD-実線
 62
     7
370
    15
100
AcDbLine
 10
71.2538204382
 20
82.183547812
 30
0.0
 11
71.1654332285
 21
82.1325355591
 31
0.0
  0
LINE
  5
95
330
1F
100
AcDbEntity
  8
0
  6
SLD-実線
 62
     7
370
    15
100
AcDbLine
 10
71.6073745453
 20
82.3875998644
 30
0.0
 11
71.5189847014
 21
82.3365860911
 31
0.0
  0
LINE
  5
96
330
1F
100
AcDbEntity
  8
0
  6
SLD-実線
 62
     7
370
    15
100
AcDbLine
 10
73.6546081562
 20
76.5939173469
 30
0.0
 11
73.7429953659
 21
76.6449295998
 31
0.0
  0
LINE
  5
97
330
1F
100
AcDbEntity
  8
0
  6
SLD-実線
 62
     7
370
    15
100
AcDbLine
 10
74.0081622633
 20
76.7979693992
 30
0.0
 11
74.096549473
 21
76.8489816521
 31
0.0
  0
LINE
  5
98
330
1F
100
AcDbEntity
  8
0
  6
SLD-実線
 62
     7
370
    15
100
AcDbLine
 10
74.3617137362
 20
77.0020199312
 30
0.0
 11
74.4501035801
 21
77.0530337045
 31
0.0
  0
LINE
  5
99
330
1F
100
AcDbEntity
  8
0
  6
SLD-実線
 62
     7
370
    15
100
AcDbLine
 10
73.3010540491
 20
76.3898652946
 30
0.0
 11
73.389443893
 21
76.4408790678
 31
0.0
  0
LINE
  5
9A
330
1F
100
AcDbEntity
  8
0
  6
SLD-実線
 62
     7
370
    15
100
AcDbLine
 10
70.5467148582
 20
81.7754452277
 30
0.0
 11
70.4583250143
 21
81.7244314545
 31
0.0
  0
LINE
  5
9B
330
1F
100
AcDbEntity
  8
0
  6
SLD-実線
 62
     7
370
    15
100
AcDbLine
 10
74.8932758812
 20
77.6212805939
 30
0.0
 11
75.0892007748
 21
77.7343577039
 31
0.0
  0
LINE
  5
9C
330
1F
100
AcDbEntity
  8
0
  6
SLD-実線
 62
     7
370
    15
100
AcDbLine
 10
72.9678814006
 20
76.5100484305
 30
0.0
 11
73.0554125025
 21
76.5605665849
 31
0.0
  0
LINE
  5
9D
330
1F
100
AcDbEntity
  8
0
  6
SLD-実線
 62
     7
370
    15
100
AcDbLine
 10
70.4829222279
 20
81.4261553004
 30
0.0
 11
70.2186140725
 21
81.2736111198
 31
0.0
  0
LINE
  5
9E
330
1F
100
AcDbEntity
  8
0
  6
SLD-実線
 62
     7
370
    15
100
AcDbLine
 10
70.8921171515
 20
79.7571304603
 30
0.0
 11
70.3421192177
 21
79.4397017982
 31
0.0
  0
LINE
  5
9F
330
1F
100
AcDbEntity
  8
0
  6
SLD-実線
 62
     7
370
    15
100
AcDbLine
 10
70.6920259554
 20
78.8334302132
 30
0.0
 11
71.3764776043
 21
79.2284581902
 31
0.0
  0
LINE
  5
A0
330
1F
100
AcDbEntity
  8
0
  6
SLD-実線
 62
     7
370
    15
100
AcDbLine
 10
71.7762818273
 20
78.5357309561
 30
0.0
 11
71.0802582343
 21
78.1340242872
 31
0.0
  0
LINE
  5
A1
330
1F
100
AcDbEntity
  8
0
  6
SLD-実線
 62
     7
370
    15
100
AcDbLine
 10
71.4301649926
 20
77.5277526547
 30
0.0
 11
71.9917348705
 21
77.8518600086
 31
0.0
  0
LINE
  5
A2
330
1F
100
AcDbEntity
  8
0
  6
SLD-実線
 62
     7
370
    15
100
AcDbLine
 10
77.0724235303
 20
81.7881046301
 30
0.0
 11
77.0250381249
 21
81.875835939
 31
0.0
  0
LINE
  5
A3
330
1F
100
AcDbEntity
  8
0
  6
SLD-実線
 62
     7
370
    15
100
AcDbLine
 10
76.8245244931
 20
82.2150793679
 30
0.0
 11
76.7706981931
 21
82.2985931733
 31
0.0
  0
LINE
  5
A4
330
1F
100
AcDbEntity
  8
0
  6
SLD-実線
 62
     7
370
    15
100
AcDbLine
 10
77.2850703508
 20
81.3463029143
 30
0.0
 11
77.2456097053
 21
81.4353247035
 31
0.0
  0
LINE
  5
A5
330
1F
100
AcDbEntity
  8
0
  6
SLD-実線
 62
     7
370
    15
100
AcDbLine
 10
76.5454578614
 20
82.6198093434
 30
0.0
 11
76.4870885921
 21
82.6964336346
 31
0.0
  0
LINE
  5
A6
330
1F
100
AcDbEntity
  8
0
  6
SLD-実線
 62
     7
370
    15
100
AcDbLine
 10
77.4589656135
 20
80.8972927059
 30
0.0
 11
77.4284341731
 21
80.9845173275
 31
0.0
  0
LINE
  5
A7
330
1F
100
AcDbEntity
  8
0
  6
SLD-実線
 62
     7
370
    15
100
AcDbLine
 10
76.2397968975
 20
82.995201708
 30
0.0
 11
76.1791457715
 21
83.0626243306
 31
0.0
  0
LINE
  5
A8
330
1F
100
AcDbEntity
  8
0
  6
SLD-実線
 62
     7
370
    15
100
AcDbLine
 10
77.5912438269
 20
80.4487373055
 30
0.0
 11
77.5701035603
 21
80.5310207552
 31
0.0
  0
LINE
  5
A9
330
1F
100
AcDbEntity
  8
0
  6
SLD-実線
 62
     7
370
    15
100
AcDbLine
 10
75.9125066979
 20
83.3346035563
 30
0.0
 11
75.8521451668
 21
83.3909869455
 31
0.0
  0
LINE
  5
AA
330
1F
100
AcDbEntity
  8
0
  6
SLD-実線
 62
     7
370
    15
100
AcDbLine
 10
77.6797324524
 20
80.0082021439
 30
0.0
 11
77.667811809
 21
80.0824516569
 31
0.0
  0
LINE
  5
AB
330
1F
100
AcDbEntity
  8
0
  6
SLD-実線
 62
     7
370
    15
100
AcDbLine
 10
77.5469723491
 20
78.7198746425
 30
0.0
 11
78.45863239
 21
79.24603485
 31
0.0
  0
LINE
  5
AC
330
1F
100
AcDbEntity
  8
0
  6
SLD-実線
 62
     7
370
    15
100
AcDbLine
 10
75.3344650578
 20
84.6591742978
 30
0.0
 11
74.5366015079
 21
84.1986911876
 31
0.0
  0
LINE
  5
AD
330
1F
100
AcDbEntity
  8
0
  6
SLD-実線
 62
     7
370
    15
100
AcDbLine
 10
75.568841789
 20
83.6318922155
 30
0.0
 11
75.5115972315
 21
83.6760129856
 31
0.0
  0
LINE
  5
AE
330
1F
100
AcDbEntity
  8
0
  6
SLD-実線
 62
     7
370
    15
100
AcDbLine
 10
77.7229652408
 20
79.5826935793
 30
0.0
 11
77.7204795646
 21
79.6263940358
 31
0.0
  0
LINE
  5
AF
330
1F
100
AcDbEntity
  8
0
  6
SLD-実線
 62
     7
370
    15
100
AcDbLine
 10
77.719968534
 20
79.6353955907
 30
0.0
 11
77.7193462095
 21
79.6463032486
 31
0.0
  0
LINE
  5
B0
330
1F
100
AcDbEntity
  8
0
  6
SLD-実線
 62
     7
370
    15
100
AcDbLine
 10
75.2145884723
 20
83.8812967957
 30
0.0
 11
75.1631055206
 21
83.9129356281
 31
0.0
  0
LINE
  5
B1
330
1F
100
AcDbEntity
  8
0
  6
SLD-実線
 62
     7
370
    15
100
AcDbLine
 10
77.7200110101
 20
79.1785063307
 30
0.0
 11
77.7230436076
 21
79.2298517938
 31
0.0
  0
LINE
  5
B2
330
1F
100
AcDbEntity
  8
0
  6
SLD-実線
 62
     7
370
    15
100
AcDbLine
 10
74.8556717138
 20
84.077817505
 30
0.0
 11
74.8122506229
 21
84.0977809312
 31
0.0
  0
LINE
  5
B3
330
1F
100
AcDbEntity
  8
0
  6
SLD-実線
 62
     7
370
    15
100
AcDbLine
 10
77.6704733166
 20
78.8029648311
 30
0.0
 11
77.6777558311
 21
78.8403484337
 31
0.0
  0
LINE
  5
B4
330
1F
100
AcDbEntity
  8
0
  6
SLD-実線
 62
     7
370
    15
100
AcDbLine
 10
74.4969934616
 20
84.2175633883
 30
0.0
 11
74.4635922385
 21
84.2276042166
 31
0.0
  0
LINE
  5
B5
330
1F
100
AcDbEntity
  8
0
  6
SLD-実線
 62
     7
370
    15
100
AcDbLine
 10
74.1441622409
 20
84.2965958816
 30
0.0
 11
74.1223063217
 21
84.2994576953
 31
0.0
  0
ARC
  5
B6
330
1F
100
AcDbEntity
  8
0
  6
SLD-実線
 62
     7
370
    15
100
AcDbCircle
 10
76.0056757293
 20
83.88763798
 30
0.0
 40
1.142469089822672
100
AcDbArc
 50
87.7752058647
 51
148.520202771
  0
ARC
  5
B7
330
1F
100
AcDbEntity
  8
0
  6
SLD-実線
 62
     7
370
    15
100
AcDbCircle
 10
78.1236728684
 20
80.2783616553
 30
0.0
 40
1.192227281261786
100
AcDbArc
 50
272.9122648488
 51
339.3099319174
  0
LINE
  5
B8
330
1F
100
AcDbEntity
  8
0
  6
SLD-実線
 62
     7
370
    15
100
AcDbLine
 10
76.041573272
 20
85.0672784024
 30
0.0
 11
75.9633276477
 21
85.0221193167
 31
0.0
  0
ARC
  5
B9
330
1F
100
AcDbEntity
  8
0
  6
SLD-実線
 62
     7
370
    15
100
AcDbCircle
 10
76.7222432394
 20
84.3380058559
 30
0.0
 40
1.099894497308191
100
AcDbArc
 50
88.1823933427
 51
142.1348325124
  0
ARC
  5
BA
330
1F
100
AcDbEntity
  8
0
  6
SLD-実線
 62
     7
370
    15
100
AcDbCircle
 10
78.8637721157
 20
80.6553322211
 30
0.0
 40
1.150492833683653
100
AcDbArc
 50
277.0715293162
 51
340.1797278404
  0
LINE
  5
BB
330
1F
100
AcDbEntity
  8
0
  6
SLD-実線
 62
     7
370
    15
100
AcDbLine
 10
76.7486762178
 20
85.4753794665
 30
0.0
 11
76.6704358619
 21
85.4302234214
 31
0.0
  0
ARC
  5
BC
330
1F
100
AcDbEntity
  8
0
  6
SLD-実線
 62
     7
370
    15
100
AcDbCircle
 10
77.4293565797
 20
84.7460990466
 30
0.0
 40
1.099905243186363
100
AcDbArc
 50
88.1826782666
 51
142.1345475885
  0
ARC
  5
BD
330
1F
100
AcDbEntity
  8
0
  6
SLD-実線
 62
     7
370
    15
100
AcDbCircle
 10
79.5708856732
 20
81.0634296385
 30
0.0
 40
1.150485539454067
100
AcDbArc
 50
277.0713062362
 51
340.1799509204
  0
LINE
  5
BE
330
1F
100
AcDbEntity
  8
0
  6
SLD-実線
 62
     7
370
    15
100
AcDbLine
 10
74.5237975093
 20
76.7835996909
 30
0.0
 11
74.5516086671
 21
76.7775491294
 31
0.0
  0
LINE
  5
BF
330
1F
100
AcDbEntity
  8
0
  6
SLD-実線
 62
     7
370
    15
100
AcDbLine
 10
71.2150178433
 20
82.4205411413
 30
0.0
 11
71.2065787601
 21
82.3896966937
 31
0.0
  0
LINE
  5
C0
330
1F
100
AcDbEntity
  8
0
  6
SLD-実線
 62
     7
370
    15
100
AcDbLine
 10
80.5091766688
 20
80.4294966175
 30
0.0
 11
80.7567314519
 21
80.5723716698
 31
0.0
  0
LINE
  5
C1
330
1F
100
AcDbEntity
  8
0
  6
SLD-実線
 62
     7
370
    15
100
AcDbLine
 10
77.6325641197
 20
85.9855111176
 30
0.0
 11
77.3775388077
 21
85.8383244854
 31
0.0
  0
LINE
  5
C2
330
1F
100
AcDbEntity
  8
0
  6
SLD-実線
 62
     7
370
    15
100
AcDbLine
 10
74.1680654309
 20
76.8931873721
 30
0.0
 11
74.2064708411
 21
76.8785526741
 31
0.0
  0
LINE
  5
C3
330
1F
100
AcDbEntity
  8
0
  6
SLD-実線
 62
     7
370
    15
100
AcDbLine
 10
80.9547992494
 20
80.7202180804
 30
0.0
 11
82.9008626432
 21
82.5582966316
 31
0.0
  0
LINE
  5
C4
330
1F
100
AcDbEntity
  8
0
  6
SLD-実線
 62
     7
370
    15
100
AcDbLine
 10
80.4247568194
 20
86.8485617913
 30
0.0
 11
77.8596668153
 21
86.0830495479
 31
0.0
  0
LINE
  5
C5
330
1F
100
AcDbEntity
  8
0
  6
SLD-実線
 62
     7
370
    15
100
AcDbLine
 10
82.8278402647
 20
82.4893258238
 30
0.0
 11
83.6262912363
 21
82.9501479615
 31
0.0
  0
LINE
  5
C6
330
1F
100
AcDbEntity
  8
0
  6
SLD-実線
 62
     7
370
    15
100
AcDbLine
 10
81.1269573129
 20
87.280659534
 30
0.0
 11
80.3285063413
 21
86.8198373963
 31
0.0
  0
LINE
  5
C7
330
1F
100
AcDbEntity
  8
0
  6
SLD-実線
 62
     7
370
    15
100
AcDbLine
 10
83.8030709241
 20
83.052175508
 30
0.0
 11
84.863727977
 21
83.6643286244
 31
0.0
  0
LINE
  5
C8
330
1F
100
AcDbEntity
  8
0
  6
SLD-実線
 62
     7
370
    15
100
AcDbLine
 10
82.3643940536
 20
87.9948401968
 30
0.0
 11
81.3037370007
 21
87.3826870805
 31
0.0
  0
LINE
  5
C9
330
1F
100
AcDbEntity
  8
0
  6
SLD-実線
 62
     7
370
    15
100
AcDbLine
 10
85.0405076647
 20
83.7663561708
 30
0.0
 11
86.1011647176
 21
84.3785092872
 31
0.0
  0
LINE
  5
CA
330
1F
100
AcDbEntity
  8
0
  6
SLD-実線
 62
     7
370
    15
100
AcDbLine
 10
83.6018307942
 20
88.7090208597
 30
0.0
 11
82.5411737413
 21
88.0968677433
 31
0.0
  0
LINE
  5
CB
330
1F
100
AcDbEntity
  8
0
  6
SLD-実線
 62
     7
370
    15
100
AcDbLine
 10
86.2779444053
 20
84.4805368337
 30
0.0
 11
86.9850526195
 21
84.8886409383
 31
0.0
  0
LINE
  5
CC
330
1F
100
AcDbEntity
  8
0
  6
SLD-実線
 62
     7
370
    15
100
AcDbLine
 10
84.4857186961
 20
89.2191525108
 30
0.0
 11
83.7786104819
 21
88.8110484061
 31
0.0
  0
ARC
  5
CD
330
1F
100
AcDbEntity
  8
0
  6
SLD-実線
 62
     7
370
    15
100
AcDbCircle
 10
84.7246106413
 20
88.7315854841
 30
0.0
 40
0.8883378101193724
100
AcDbArc
 50
135.3629249234
 51
172.4170639104
  0
ARC
  5
CE
330
1F
100
AcDbEntity
  8
0
  6
SLD-実線
 62
     7
370
    15
100
AcDbCircle
 10
86.7002039654
 20
85.3056418639
 30
0.0
 40
0.8598578044983745
100
AcDbArc
 50
245.8381470225
 51
285.0079935889
  0
LINE
  5
CF
330
1F
100
AcDbEntity
  8
0
  6
SLD-実線
 62
     7
370
    15
100
AcDbLine
 10
87.6512357499
 20
84.8386583941
 30
0.0
 11
88.6006606841
 21
85.8665653356
 31
0.0
  0
LINE
  5
D0
330
1F
100
AcDbEntity
  8
0
  6
SLD-実線
 62
     7
370
    15
100
AcDbLine
 10
86.1407100272
 20
90.1288388489
 30
0.0
 11
84.7757092641
 21
89.820986167
 31
0.0
  0
LINE
  5
D1
330
1F
100
AcDbEntity
  8
0
  6
SLD-実線
 62
     7
370
    15
100
AcDbLine
 10
114.8311794252
 20
105.1444971416
 30
0.0
 11
87.7043613688
 21
89.4883845793
 31
0.0
  0
LINE
  5
D2
330
1F
100
AcDbEntity
  8
0
  6
SLD-実線
 62
     7
370
    15
100
AcDbLine
 10
88.8283517892
 20
87.5408842802
 30
0.0
 11
115.9551698456
 21
103.1969968424
 31
0.0
  0
LWPOLYLINE
  5
D3
330
1F
100
AcDbEntity
  8
0
  6
SLD-実線
 62
     7
370
    15
100
AcDbPolyline
 90
       22
 70
   128
 43
0.0
 10
115.4708934189
 20
102.3861236787
 10
115.7220951392
 20
102.262687173
 10
116.2060557938
 20
102.1480588526
 10
116.6016066835
 20
102.1899775395
 10
116.974634281
 20
102.3867042079
 10
117.2340331517
 20
102.6972444009
 10
117.3846198902
 20
103.0918652734
 10
117.4292634455
 20
103.5708265175
 10
117.3580051431
 20
104.1143242622
 10
117.1735726743
 20
104.6755915149
 10
116.8910223422
 20
105.2134359975
 10
116.5285617499
 20
105.6943506516
 10
116.1062011016
 20
106.0873912583
 10
115.6423360562
 20
106.3647310964
 10
115.2052541136
 20
106.4903841347
 10
114.8000046793
 20
106.4785724007
 10
114.443761344
 20
106.3348993781
 10
114.1504316673
 20
106.0555877662
 10
113.967577318
 20
105.6865074284
 10
113.889238839
 20
105.2331383219
 10
113.9240768313
 20
104.7053486165
 10
113.9437200615
 20
104.6323041608
  0
LWPOLYLINE
  5
D4
330
1F
100
AcDbEntity
  8
0
  6
SLD-実線
 62
     7
370
    15
100
AcDbPolyline
 90
        3
 70
   128
 43
0.0
 10
115.0634555744
 20
102.6823482393
 10
115.074907046
 20
102.6704072228
 10
115.4708934189
 20
102.3861236787
  0
LINE
  5
D5
330
1F
100
AcDbEntity
  8
0
  6
SLD-実線
 62
     7
370
    15
100
AcDbLine
 10
116.7631764627
 20
111.7705623027
 30
0.0
 11
114.8993886562
 21
107.3250299357
 31
0.0
  0
LINE
  5
D6
330
1F
100
AcDbEntity
  8
0
  6
SLD-実線
 62
     7
370
    15
100
AcDbLine
 10
117.9621165024
 20
102.1801346316
 30
0.0
 11
121.5418696174
 21
102.8135013508
 31
0.0
  0
LINE
  5
D7
330
1F
100
AcDbEntity
  8
0
  6
SLD-実線
 62
     7
370
    15
100
AcDbLine
 10
121.0267253163
 20
114.2690035256
 30
0.0
 11
116.8312805015
 21
111.8476227307
 31
0.0
  0
LINE
  5
D8
330
1F
100
AcDbEntity
  8
0
  6
SLD-実線
 62
     7
370
    15
100
AcDbLine
 10
121.6147230792
 20
102.8400353064
 30
0.0
 11
125.7692327673
 21
105.2377905899
 31
0.0
  0
LINE
  5
D9
330
1F
100
AcDbEntity
  8
0
  6
SLD-実線
 62
     7
370
    15
100
AcDbLine
 10
294.2204116539
 20
214.2269065401
 30
0.0
 11
290.0252407936
 21
211.8056838568
 31
0.0
  0
LINE
  5
DA
330
1F
100
AcDbEntity
  8
0
  6
SLD-実線
 62
     7
370
    15
100
AcDbLine
 10
294.7677482447
 20
202.7744709211
 30
0.0
 11
298.9222684695
 21
205.1722322858
 31
0.0
  0
LINE
  5
DB
330
1F
100
AcDbEntity
  8
0
  6
SLD-実線
 62
     7
370
    15
100
AcDbLine
 10
299.5491876946
 20
213.9016333117
 30
0.0
 11
294.3096156234
 21
214.2474188995
 31
0.0
  0
LINE
  5
DC
330
1F
100
AcDbEntity
  8
0
  6
SLD-実線
 62
     7
370
    15
100
AcDbLine
 10
298.9449530229
 20
205.1894307318
 30
0.0
 11
302.5385619144
 21
208.7016851733
 31
0.0
  0
ARC
  5
DD
330
1F
100
AcDbEntity
  8
0
  6
SLD-実線
 62
     7
370
    15
100
AcDbCircle
 10
301.257591582
 20
212.7498764384
 30
0.0
 40
1.196423873021794
100
AcDbArc
 50
52.1534760486
 51
141.6430821241
  0
LWPOLYLINE
  5
DE
330
1F
100
AcDbEntity
  8
0
  6
SLD-実線
 62
     7
370
    15
100
AcDbPolyline
 90
       12
 70
   128
 43
0.0
 10
302.6141924584
 20
209.6007805036
 10
302.6625337412
 20
209.6021863405
 10
303.0187771794
 20
209.7458592086
 10
303.3121121657
 20
210.0251738849
 10
303.4949664326
 20
210.394254294
 10
303.57331018
 20
210.8476263936
 10
303.5384669193
 20
211.3754131119
 10
303.3876040861
 20
211.9364325774
 10
303.133465175
 20
212.4852487846
 10
302.7936308549
 20
212.9871035583
 10
302.387636684
 20
213.4103545353
 10
301.9916556
 20
213.694641013
  0
LINE
  5
DF
330
1F
100
AcDbEntity
  8
0
  6
SLD-実線
 62
     7
370
    15
100
AcDbLine
 10
303.5188136463
 20
211.4484516878
 30
0.0
 11
330.8749421687
 21
227.2369096826
 31
0.0
  0
LINE
  5
E0
330
1F
100
AcDbEntity
  8
0
  6
SLD-実線
 62
     7
370
    15
100
AcDbLine
 10
329.7509517483
 20
229.1844099817
 30
0.0
 11
302.3990800576
 21
213.3984087969
 31
0.0
  0
LINE
  5
E1
330
1F
100
AcDbEntity
  8
0
  6
SLD-実線
 62
     7
370
    15
100
AcDbLine
 10
290.8662793447
 20
210.6231636282
 30
0.0
 11
122.5752408664
 21
113.494800244
 31
0.0
  0
LINE
  5
E2
330
1F
100
AcDbEntity
  8
0
  6
SLD-実線
 62
     7
370
    15
100
AcDbLine
 10
125.8728537578
 20
106.5590038957
 30
0.0
 11
294.3099521396
 21
203.7716650506
 31
0.0
  0
ARC
  5
E3
330
1F
100
AcDbEntity
  8
0
  6
SLD-実線
 62
     7
370
    15
100
AcDbCircle
 10
330.5504584685
 20
230.5596896432
 30
0.0
 40
1.005996145976611
100
AcDbArc
 50
96.2479123096
 51
137.2852166793
  0
LWPOLYLINE
  5
E4
330
1F
100
AcDbEntity
  8
0
  6
SLD-実線
 62
     7
370
    15
100
AcDbPolyline
 90
        3
 70
   128
 43
0.0
 10
330.3129469534
 20
226.1690559513
 10
329.8360091409
 20
226.5200265079
 10
329.7581802415
 20
226.5923758917
  0
LWPOLYLINE
  5
E5
330
1F
100
AcDbEntity
  8
0
  6
SLD-実線
 62
     7
370
    15
100
AcDbPolyline
 90
       21
 70
   128
 43
0.0
 10
328.6341898211
 20
228.5398761909
 10
328.5821544329
 20
228.7942018069
 10
328.5493010468
 20
229.3678635534
 10
328.6472492526
 20
229.8557007362
 10
328.8687345635
 20
230.2215328517
 10
329.1973305335
 20
230.4382277145
 10
329.6086666682
 20
230.4897138635
 10
330.0722360529
 20
230.372173145
 10
330.5536578126
 20
230.094322892
 10
331.0172272128
 20
229.6767699203
 10
331.4285634144
 20
229.1504823894
 10
331.7571593432
 20
228.5544923833
 10
331.9786446541
 20
227.9330019041
 10
332.0765927776
 20
227.3321040972
 10
332.0437394738
 20
226.7963646506
 10
331.8825210282
 20
226.3655171394
 10
331.6048946333
 20
226.0715152666
 10
331.2314503418
 20
225.9361640024
 10
330.7898847247
 20
225.9695018028
 10
330.3129469534
 20
226.1690559513
 10
330.3129469534
 20
226.1690559513
  0
LWPOLYLINE
  5
E6
330
1F
100
AcDbEntity
  8
0
  6
SLD-実線
 62
     7
370
    15
100
AcDbPolyline
 90
       14
 70
   128
 43
0.0
 10
331.1845941181
 20
231.6002218482
 10
331.3186446393
 20
231.6625339473
 10
331.729980774
 20
231.7140200963
 10
332.1935501587
 20
231.5964793778
 10
332.6749719185
 20
231.3186291248
 10
333.1385413186
 20
230.9010761531
 10
333.5498775202
 20
230.3747886222
 10
333.878473449
 20
229.7787986161
 10
334.0999587599
 20
229.1573081368
 10
334.1979068834
 20
228.5564103299
 10
334.1650535797
 20
228.0206708833
 10
334.003835134
 20
227.5898233722
 10
333.7262087392
 20
227.2958214994
 10
333.6839280415
 20
227.2697102757
  0
LWPOLYLINE
  5
E7
330
1F
100
AcDbEntity
  8
0
  6
SLD-実線
 62
     7
370
    15
100
AcDbPolyline
 90
       11
 70
   128
 43
0.0
 10
331.9401027631
 20
231.8126702643
 10
332.3703784553
 20
231.6981210247
 10
332.8517135753
 20
231.4203207754
 10
333.3151995049
 20
231.0028429781
 10
333.7264616202
 20
230.4766499236
 10
334.0549984447
 20
229.8807672329
 10
334.2764439136
 20
229.2593887333
 10
334.3743744211
 20
228.6585990151
 10
334.3415270442
 20
228.1229560125
 10
334.1803375745
 20
227.6921860455
 10
334.1584518356
 20
227.6575656645
  0
LWPOLYLINE
  5
E8
330
1F
100
AcDbEntity
  8
0
  6
SLD-実線
 62
     7
370
    15
100
AcDbPolyline
 90
       12
 70
   128
 43
0.0
 10
331.4251702227
 20
231.6932094962
 10
331.7301075439
 20
231.713610005
 10
332.1935934992
 20
231.5960904377
 10
332.6749286192
 20
231.3182901884
 10
333.1384145488
 20
230.9008123911
 10
333.5496766642
 20
230.3746193365
 10
333.8782134886
 20
229.7787366458
 10
334.0996589576
 20
229.1573581463
 10
334.197589465
 20
228.5565684281
 10
334.1647420881
 20
228.0209254255
 10
334.0035526184
 20
227.5901554584
 10
333.8590073673
 20
227.4047282928
  0
LWPOLYLINE
  5
E9
330
1F
100
AcDbEntity
  8
0
  6
SLD-実線
 62
     7
370
    15
100
AcDbPolyline
 90
       14
 70
   128
 43
0.0
 10
332.4220255903
 20
232.3143994704
 10
332.5560761116
 20
232.3767115695
 10
332.9674122463
 20
232.4281977185
 10
333.430981631
 20
232.310657
 10
333.9124033908
 20
232.032806747
 10
334.3759727909
 20
231.6152537753
 10
334.7873089925
 20
231.0889662444
 10
335.1159049213
 20
230.4929762383
 10
335.3373902322
 20
229.871485759
 10
335.4353383557
 20
229.2705879521
 10
335.4024850519
 20
228.7348485056
 10
335.2412666063
 20
228.3040009944
 10
334.9636402114
 20
228.0099991216
 10
334.9213595138
 20
227.9838878979
  0
LWPOLYLINE
  5
EA
330
1F
100
AcDbEntity
  8
0
  6
SLD-実線
 62
     7
370
    15
100
AcDbPolyline
 90
       14
 70
   128
 43
0.0
 10
331.2761171109
 20
231.6458224915
 10
331.4954295954
 20
231.7645645343
 10
331.9067657301
 20
231.8160506833
 10
332.3703351148
 20
231.6985099649
 10
332.8517568746
 20
231.4206597118
 10
333.3153262747
 20
231.0031067402
 10
333.7266624763
 20
230.4768192092
 10
334.0552584051
 20
229.8808292031
 10
334.276743716
 20
229.2593387239
 10
334.3746918395
 20
228.658440917
 10
334.3418385357
 20
228.1227014704
 10
334.1806200901
 20
227.6918539592
 10
333.9029936952
 20
227.3978520864
 10
333.7691981954
 20
227.3261450037
  0
LWPOLYLINE
  5
EB
330
1F
100
AcDbEntity
  8
0
  6
SLD-実線
 62
     7
370
    15
100
AcDbPolyline
 90
       14
 70
   128
 43
0.0
 10
332.5135485832
 20
232.3600001137
 10
332.7328610677
 20
232.4787421566
 10
333.1441972024
 20
232.5302283056
 10
333.6077665871
 20
232.4126875871
 10
334.0891883468
 20
232.1348373341
 10
334.552757747
 20
231.7172843624
 10
334.9640939486
 20
231.1909968315
 10
335.2926898774
 20
230.5950068253
 10
335.5141751883
 20
229.9735163461
 10
335.6121233118
 20
229.3726185392
 10
335.579270008
 20
228.8368790926
 10
335.4180515624
 20
228.4060315815
 10
335.1404251675
 20
228.1120297087
 10
335.0066296676
 20
228.040322626
  0
LWPOLYLINE
  5
EC
330
1F
100
AcDbEntity
  8
0
  6
SLD-実線
 62
     7
370
    15
100
AcDbPolyline
 90
       14
 70
   128
 43
0.0
 10
333.659478136
 20
233.028589255
 10
333.7935286573
 20
233.0909013541
 10
334.204864792
 20
233.1423875031
 10
334.6684341767
 20
233.0248467847
 10
335.1498559365
 20
232.7469965317
 10
335.6134253366
 20
232.32944356
 10
336.0247615382
 20
231.803156029
 10
336.353357467
 20
231.2071660229
 10
336.5748427779
 20
230.5856755437
 10
336.6727909014
 20
229.9847777368
 10
336.6399375976
 20
229.4490382902
 10
336.478719152
 20
229.018190779
 10
336.2010927571
 20
228.7241889063
 10
336.1588120595
 20
228.6980776826
  0
LWPOLYLINE
  5
ED
330
1F
100
AcDbEntity
  8
0
  6
SLD-実線
 62
     7
370
    15
100
AcDbPolyline
 90
       14
 70
   128
 43
0.0
 10
333.7509800555
 20
233.0741777359
 10
333.9702925399
 20
233.1929197788
 10
334.3816286747
 20
233.2444059278
 10
334.8451980594
 20
233.1268652093
 10
335.3266198191
 20
232.8490149563
 10
335.7901892193
 20
232.4314619846
 10
336.2015254209
 20
231.9051744537
 10
336.5301213497
 20
231.3091844476
 10
336.7516066606
 20
230.6876939683
 10
336.8495547841
 20
230.0867961614
 10
336.8167014803
 20
229.5510567149
 10
336.6554830347
 20
229.1202092037
 10
336.3778566398
 20
228.8262073309
 10
336.2440611399
 20
228.7545002482
  0
LWPOLYLINE
  5
EE
330
1F
100
AcDbEntity
  8
0
  6
SLD-実線
 62
     7
370
    15
100
AcDbPolyline
 90
       14
 70
   128
 43
0.0
 10
334.7201246522
 20
233.6407362902
 10
334.8541751735
 20
233.7030483893
 10
335.2655113082
 20
233.7545345383
 10
335.7290806929
 20
233.6369938198
 10
336.2105024527
 20
233.3591435668
 10
336.6740718528
 20
232.9415905951
 10
337.0854080544
 20
232.4153030642
 10
337.4140039832
 20
231.8193130581
 10
337.6354892941
 20
231.1978225788
 10
337.7334374176
 20
230.5969247719
 10
337.7005841138
 20
230.0611853254
 10
337.5393656682
 20
229.6303378142
 10
337.2617392733
 20
229.3363359414
 10
337.2194585757
 20
229.3102247177
  0
LWPOLYLINE
  5
EF
330
1F
100
AcDbEntity
  8
0
  6
SLD-実線
 62
     7
370
    15
100
AcDbPolyline
 90
       16
 70
   128
 43
0.0
 10
336.5077392328
 20
235.3605406252
 10
336.8025827799
 20
235.5577157092
 10
337.2409878362
 20
235.6541774674
 10
337.7390727476
 20
235.5848703364
 10
338.2678906553
 20
235.353822186
 10
338.796708563
 20
234.9744609128
 10
339.2947934332
 20
234.4688334458
 10
339.7331985306
 20
233.8663249249
 10
340.0864452621
 20
233.2019512448
 10
340.334004161
 20
232.514323263
 10
340.4614880057
 20
231.8434033343
 10
340.4614880057
 20
231.2281829582
 10
340.334004161
 20
230.7044164644
 10
340.0864452621
 20
230.3025432432
 10
339.7331985306
 20
230.045918867
 10
339.6028715847
 20
229.9977091101
  0
LWPOLYLINE
  5
F0
330
1F
100
AcDbEntity
  8
0
  6
SLD-実線
 62
     7
370
    15
100
AcDbPolyline
 90
       15
 70
   128
 43
0.0
 10
337.2361407428
 20
235.8144666821
 10
337.3329165748
 20
235.863795308
 10
337.771321631
 20
235.9602570662
 10
338.2694065424
 20
235.8909499352
 10
338.7982244501
 20
235.6599017848
 10
339.3270423578
 20
235.2805405115
 10
339.825127228
 20
234.7749130446
 10
340.2635323254
 20
234.1724045237
 10
340.6167790569
 20
233.5080308436
 10
340.8643379559
 20
232.8204028618
 10
340.9918218005
 20
232.1494829331
 10
340.9918218005
 20
231.534262557
 10
340.8643379559
 20
231.0104960632
 10
340.6167790569
 20
230.608622842
 10
340.360308075
 20
230.4013272343
  0
LWPOLYLINE
  5
F1
330
1F
100
AcDbEntity
  8
0
  6
SLD-実線
 62
     7
370
    15
100
AcDbPolyline
 90
       12
 70
   128
 43
0.0
 10
338.2894477187
 20
236.1592930683
 10
338.6229553812
 20
236.0949989469
 10
339.1517732888
 20
235.8639507965
 10
339.6805911965
 20
235.4845895233
 10
340.1786760668
 20
234.9789620563
 10
340.6170811642
 20
234.3764535354
 10
340.9703278956
 20
233.7120798553
 10
341.2178867946
 20
233.0244518736
 10
341.3453706393
 20
232.3535319448
 10
341.3453706393
 20
231.7383115687
 10
341.2178867946
 20
231.2145450749
 10
341.0948637658
 20
230.9752611897
  0
LWPOLYLINE
  5
F2
330
1F
100
AcDbEntity
  8
0
  6
SLD-実線
 62
     7
370
    15
100
AcDbPolyline
 90
       15
 70
   128
 43
0.0
 10
337.9432384203
 20
236.2225647055
 10
338.0400142522
 20
236.2718933314
 10
338.4784193085
 20
236.3683550896
 10
338.9765042199
 20
236.2990479586
 10
339.5053221276
 20
236.0679998083
 10
340.0341400352
 20
235.688638535
 10
340.5322249055
 20
235.183011068
 10
340.9706300029
 20
234.5805025471
 10
341.3238767343
 20
233.916128867
 10
341.5714356333
 20
233.2285008853
 10
341.698919478
 20
232.5575809566
 10
341.698919478
 20
231.9423605804
 10
341.5714356333
 20
231.4185940866
 10
341.3238767343
 20
231.0167208654
 10
341.0674057525
 20
230.8094252577
  0
LWPOLYLINE
  5
F3
330
1F
100
AcDbEntity
  8
0
  6
SLD-実線
 62
     7
370
    15
100
AcDbPolyline
 90
       12
 70
   128
 43
0.0
 10
338.9965664696
 20
236.5674032542
 10
339.330074132
 20
236.5031091328
 10
339.8588920397
 20
236.2720609824
 10
340.3877099474
 20
235.8926997091
 10
340.8857948176
 20
235.3870722422
 10
341.324199915
 20
234.7845637212
 10
341.6774466465
 20
234.1201900412
 10
341.9250055455
 20
233.4325620594
 10
342.0524893901
 20
232.7616421307
 10
342.0524893901
 20
232.1464217546
 10
341.9250055455
 20
231.6226552608
 10
341.8019825167
 20
231.3833713756
  0
LWPOLYLINE
  5
F4
330
1F
100
AcDbEntity
  8
0
  6
SLD-実線
 62
     7
370
    15
100
AcDbPolyline
 90
       15
 70
   128
 43
0.0
 10
338.6503571712
 20
236.6306748914
 10
338.7471330031
 20
236.6800035173
 10
339.1855380594
 20
236.7764652755
 10
339.6836229708
 20
236.7071581445
 10
340.2124408785
 20
236.4761099941
 10
340.7412587861
 20
236.0967487208
 10
341.2393436564
 20
235.5911212539
 10
341.6777487538
 20
234.988612733
 10
342.0309954852
 20
234.3242390529
 10
342.2785543842
 20
233.6366110711
 10
342.4060382289
 20
232.9656911424
 10
342.4060382289
 20
232.3504707663
 10
342.2785543842
 20
231.8267042725
 10
342.0309954852
 20
231.4248310513
 10
341.7745245034
 20
231.2175354436
  0
LWPOLYLINE
  5
F5
330
1F
100
AcDbEntity
  8
0
  6
SLD-実線
 62
     7
370
    15
100
AcDbPolyline
 90
       12
 70
   128
 43
0.0
 10
339.7036641471
 20
236.9755012776
 10
340.0371718095
 20
236.9112071562
 10
340.5659897172
 20
236.6801590058
 10
341.0948076249
 20
236.3007977326
 10
341.5928924951
 20
235.7951702656
 10
342.0312975925
 20
235.1926617447
 10
342.384544324
 20
234.5282880646
 10
342.6321032229
 20
233.8406600829
 10
342.7595870676
 20
233.1697401541
 10
342.7595870676
 20
232.554519778
 10
342.6321032229
 20
232.0307532842
 10
342.5090801941
 20
231.791469399
  0
LWPOLYLINE
  5
F6
330
1F
100
AcDbEntity
  8
0
  6
SLD-実線
 62
     7
370
    15
100
AcDbPolyline
 90
       15
 70
   128
 43
0.0
 10
340.771671277
 20
237.8549811241
 10
340.8684471089
 20
237.90430975
 10
341.3068521652
 20
238.0007715082
 10
341.8049370766
 20
237.9314643772
 10
342.3337549843
 20
237.7004162268
 10
342.862572892
 20
237.3210549536
 10
343.3606577622
 20
236.8154274866
 10
343.7990628596
 20
236.2129189657
 10
344.152309591
 20
235.5485452856
 10
344.39986849
 20
234.8609173039
 10
344.5273523347
 20
234.1899973752
 10
344.5273523347
 20
233.574776999
 10
344.39986849
 20
233.0510105052
 10
344.152309591
 20
232.649137284
 10
343.8958386092
 20
232.4418416763
  0
ARC
  5
F7
330
1F
100
AcDbEntity
  8
0
  6
SLD-実線
 62
     7
370
    15
100
AcDbCircle
 10
340.1143001965
 20
234.3197435659
 30
0.0
 40
4.306633002324414
100
AcDbArc
 50
48.1501124614
 51
53.7042969279
  0
ARC
  5
F8
330
1F
100
AcDbEntity
  8
0
  6
SLD-実線
 62
     7
370
    15
100
AcDbCircle
 10
339.6920477565
 20
233.8462474923
 30
0.0
 40
4.9410571583218
100
AcDbArc
 50
43.098338269
 51
48.1660433366
  0
ARC
  5
F9
330
1F
100
AcDbEntity
  8
0
  6
SLD-実線
 62
     7
370
    15
100
AcDbCircle
 10
339.3033640776
 20
233.4807879791
 30
0.0
 40
5.474568332292948
100
AcDbArc
 50
38.3790296158
 51
43.1117644288
  0
ARC
  5
FA
330
1F
100
AcDbEntity
  8
0
  6
SLD-実線
 62
     7
370
    15
100
AcDbCircle
 10
339.0066315086
 20
233.2442440564
 30
0.0
 40
5.854044146563141
100
AcDbArc
 50
33.8649285281
 51
38.3907944138
  0
ARC
  5
FB
330
1F
100
AcDbEntity
  8
0
  6
SLD-実線
 62
     7
370
    15
100
AcDbCircle
 10
338.8524255183
 20
233.1393958612
 30
0.0
 40
6.040515029180978
100
AcDbArc
 50
29.4435000945
 51
33.8756638801
  0
ARC
  5
FC
330
1F
100
AcDbEntity
  8
0
  6
SLD-実線
 62
     7
370
    15
100
AcDbCircle
 10
338.8760280653
 20
233.1514609158
 30
0.0
 40
6.014030307451392
100
AcDbArc
 50
25.0087640943
 51
29.4539364181
  0
ARC
  5
FD
330
1F
100
AcDbEntity
  8
0
  6
SLD-実線
 62
     7
370
    15
100
AcDbCircle
 10
339.090973207
 20
233.2505186657
 30
0.0
 40
5.777360507583373
100
AcDbArc
 50
20.4538180703
 51
25.0196645251
  0
ARC
  5
FE
330
1F
100
AcDbEntity
  8
0
  6
SLD-実線
 62
     7
370
    15
100
AcDbCircle
 10
339.4864917232
 20
233.3968192134
 30
0.0
 40
5.355652848162222
100
AcDbArc
 50
15.6634037789
 51
20.4659919893
  0
ARC
  5
FF
330
1F
100
AcDbEntity
  8
0
  6
SLD-実線
 62
     7
370
    15
100
AcDbCircle
 10
340.0295661361
 20
233.547875995
 30
0.0
 40
4.791962839238516
100
AcDbArc
 50
10.5050764212
 51
15.6774530588
  0
ARC
  5
100
330
1F
100
AcDbEntity
  8
0
  6
SLD-実線
 62
     7
370
    15
100
AcDbCircle
 10
340.6689214493
 20
233.6651981888
 30
0.0
 40
4.141933600845894
100
AcDbArc
 50
4.8213110019
 51
10.5218590336
  0
ARC
  5
101
330
1F
100
AcDbEntity
  8
0
  6
SLD-実線
 62
     7
370
    15
100
AcDbCircle
 10
341.3430502423
 20
233.7208509597
 30
0.0
 40
3.465512778543221
100
AcDbArc
 50
358.4206940193
 51
4.8412110691
  0
ARC
  5
102
330
1F
100
AcDbEntity
  8
0
  6
SLD-実線
 62
     7
370
    15
100
AcDbCircle
 10
341.9887608821
 20
233.701926741
 30
0.0
 40
2.819526081828131
100
AcDbArc
 50
351.0757214387
 51
358.4434710517
  0
ARC
  5
103
330
1F
100
AcDbEntity
  8
0
  6
SLD-実線
 62
     7
370
    15
100
AcDbCircle
 10
342.5508693366
 20
233.6127606809
 30
0.0
 40
2.250390320899922
100
AcDbArc
 50
342.5346000023
 51
351.0983125966
  0
ARC
  5
104
330
1F
100
AcDbEntity
  8
0
  6
SLD-実線
 62
     7
370
    15
100
AcDbCircle
 10
342.989854202
 20
233.4741592039
 30
0.0
 40
1.790044997942408
100
AcDbArc
 50
332.5726644003
 51
342.5493005885
  0
ARC
  5
105
330
1F
100
AcDbEntity
  8
0
  6
SLD-実線
 62
     7
370
    15
100
AcDbCircle
 10
343.2872346621
 20
233.3200705457
 30
0.0
 40
1.455114561332848
100
AcDbArc
 50
321.1087362324
 51
332.5643193122
  0
ARC
  5
106
330
1F
100
AcDbEntity
  8
0
  6
SLD-実線
 62
     7
370
    15
100
AcDbCircle
 10
343.4478855039
 20
233.1918026599
 30
0.0
 40
1.249541914251571
100
AcDbArc
 50
308.380232438
 51
321.061605983
  0
ARC
  5
107
330
1F
100
AcDbEntity
  8
0
  6
SLD-実線
 62
     7
370
    15
100
AcDbCircle
 10
343.4979198297
 20
233.1313912237
 30
0.0
 40
1.171120997879098
100
AcDbArc
 50
295.0542912492
 51
308.2963670646
  0
ARC
  5
108
330
1F
100
AcDbEntity
  8
0
  6
SLD-実線
 62
     7
370
    15
100
AcDbCircle
 10
343.4799106539
 20
233.1743820623
 30
0.0
 40
1.21769463361905
100
AcDbArc
 50
282.0634521583
 51
294.9653151832
  0
ARC
  5
109
330
1F
100
AcDbEntity
  8
0
  6
SLD-実線
 62
     7
370
    15
100
AcDbCircle
 10
343.4451325583
 20
233.3438058026
 30
0.0
 40
1.390646091798546
100
AcDbArc
 50
270.1984006553
 51
282.0058286397
  0
ARC
  5
10A
330
1F
100
AcDbEntity
  8
0
  6
SLD-実線
 62
     7
370
    15
100
AcDbCircle
 10
343.444583583
 20
233.6459250708
 30
0.0
 40
1.692765522729385
100
AcDbArc
 50
259.8259472838
 51
270.1815721229
  0
ARC
  5
10B
330
1F
100
AcDbEntity
  8
0
  6
SLD-実線
 62
     7
370
    15
100
AcDbCircle
 10
341.5110107219
 20
236.9002674931
 30
0.0
 40
1.606403114571233
100
AcDbArc
 50
147.0231297204
 51
157.7470552996
  0
ARC
  5
10C
330
1F
100
AcDbEntity
  8
0
  6
SLD-実線
 62
     7
370
    15
100
AcDbCircle
 10
341.2840122096
 20
237.0468258715
 30
0.0
 40
1.336204600523259
100
AcDbArc
 50
134.8706555821
 51
146.9970171411
  0
ARC
  5
10D
330
1F
100
AcDbEntity
  8
0
  6
SLD-実線
 62
     7
370
    15
100
AcDbCircle
 10
341.183142147
 20
237.1461538704
 30
0.0
 40
1.194646847948109
100
AcDbArc
 50
121.735633249
 51
134.8030326279
  0
ARC
  5
10E
330
1F
100
AcDbEntity
  8
0
  6
SLD-実線
 62
     7
370
    15
100
AcDbCircle
 10
341.173198392
 20
237.1586407991
 30
0.0
 40
1.178798004515977
100
AcDbArc
 50
108.4594154435
 51
121.6438240524
  0
ARC
  5
10F
330
1F
100
AcDbEntity
  8
0
  6
SLD-実線
 62
     7
370
    15
100
AcDbCircle
 10
341.2061921271
 20
237.0543610121
 30
0.0
 40
1.288160457704562
100
AcDbArc
 50
95.9563753654
 51
108.3828114942
  0
ARC
  5
110
330
1F
100
AcDbEntity
  8
0
  6
SLD-実線
 62
     7
370
    15
100
AcDbCircle
 10
341.2298552532
 20
236.8182224658
 30
0.0
 40
1.525479996872719
100
AcDbArc
 50
84.8197101972
 51
95.9199801676
  0
ARC
  5
111
330
1F
100
AcDbEntity
  8
0
  6
SLD-実線
 62
     7
370
    15
100
AcDbCircle
 10
341.1967218131
 20
236.4531118302
 30
0.0
 40
1.892090962741624
100
AcDbArc
 50
75.2045008849
 51
84.8187328795
  0
ARC
  5
112
330
1F
100
AcDbEntity
  8
0
  6
SLD-実線
 62
     7
370
    15
100
AcDbCircle
 10
341.0725087769
 20
235.9799642998
 30
0.0
 40
2.381270926479385
100
AcDbArc
 50
66.9753971017
 51
75.2221384068
  0
ARC
  5
113
330
1F
100
AcDbEntity
  8
0
  6
SLD-実線
 62
     7
370
    15
100
AcDbCircle
 10
340.8422483641
 20
235.435068889
 30
0.0
 40
2.97281948893782
100
AcDbArc
 50
59.8865051373
 51
66.998636414
  0
ARC
  5
114
330
1F
100
AcDbEntity
  8
0
  6
SLD-実線
 62
     7
370
    15
100
AcDbCircle
 10
340.5132059834
 20
234.8649256643
 30
0.0
 40
3.63109795754468
100
AcDbArc
 50
53.6851272736
 51
59.9088565163
  0
LINE
  5
115
330
1F
100
AcDbEntity
  8
0
  6
SLD-実線
 62
     7
370
    15
100
AcDbLine
 10
344.1127527981
 20
236.1087019632
 30
0.0
 11
347.2947344935
 21
237.9451673935
 31
0.0
  0
LINE
  5
116
330
1F
100
AcDbEntity
  8
0
  6
SLD-実線
 62
     7
370
    15
100
AcDbLine
 10
347.5406753487
 20
237.7933677574
 30
0.0
 11
347.2947344935
 21
237.9451673935
 31
0.0
  0
LINE
  5
117
330
1F
100
AcDbEntity
  8
0
  6
SLD-実線
 62
     7
370
    15
100
AcDbLine
 10
344.5354786093
 20
236.0589329142
 30
0.0
 11
347.5406753487
 21
237.7933677574
 31
0.0
  0
ARC
  5
118
330
1F
100
AcDbEntity
  8
0
  6
SLD-実線
 62
     7
370
    15
100
AcDbCircle
 10
344.368060448
 20
236.4570730681
 30
0.0
 40
0.4319078870395212
100
AcDbArc
 50
233.7637590713
 51
292.8067812516
  0
ARC
  5
119
330
1F
100
AcDbEntity
  8
0
  6
SLD-実線
 62
     7
370
    15
100
AcDbCircle
 10
344.8414231117
 20
235.6410204265
 30
0.0
 40
0.517931352452522
100
AcDbArc
 50
126.2070343047
 51
174.1362825103
  0
ARC
  5
11A
330
1F
100
AcDbEntity
  8
0
  6
SLD-実線
 62
     7
370
    15
100
AcDbCircle
 10
344.0899336867
 20
236.9347669388
 30
0.0
 40
0.4827070326269856
100
AcDbArc
 50
242.568674811
 51
294.3849457668
  0
ARC
  5
11B
330
1F
100
AcDbEntity
  8
0
  6
SLD-実線
 62
     7
370
    15
100
AcDbCircle
 10
344.576059211
 20
236.1306210469
 30
0.0
 40
0.4638246204010543
100
AcDbArc
 50
128.1999339642
 51
182.7086507446
  0
LINE
  5
11C
330
1F
100
AcDbEntity
  8
0
  6
SLD-実線
 62
     7
370
    15
100
AcDbLine
 10
343.8675577446
 20
236.5063337237
 30
0.0
 11
347.0495394401
 21
238.3427991541
 31
0.0
  0
LINE
  5
11D
330
1F
100
AcDbEntity
  8
0
  6
SLD-実線
 62
     7
370
    15
100
AcDbLine
 10
347.2944233313
 20
238.2295559959
 30
0.0
 11
347.0495394401
 21
238.3427991541
 31
0.0
  0
LINE
  5
11E
330
1F
100
AcDbEntity
  8
0
  6
SLD-実線
 62
     7
370
    15
100
AcDbLine
 10
344.2892265919
 20
236.4951211526
 30
0.0
 11
347.2944233313
 21
238.2295559959
 31
0.0
  0
LINE
  5
11F
330
1F
100
AcDbEntity
  8
0
  6
SLD-実線
 62
     7
370
    15
100
AcDbLine
 10
347.2947344935
 20
237.9451673935
 30
0.0
 11
347.2944233313
 21
238.2295559959
 31
0.0
  0
LINE
  5
120
330
1F
100
AcDbEntity
  8
0
  6
SLD-実線
 62
     7
370
    15
100
AcDbLine
 10
347.5081834212
 20
237.5303990815
 30
0.0
 11
347.5406753487
 21
237.7933677574
 31
0.0
  0
LINE
  5
121
330
1F
100
AcDbEntity
  8
0
  6
SLD-実線
 62
     7
370
    15
100
AcDbLine
 10
344.3262017257
 20
235.6939336512
 30
0.0
 11
347.5081834212
 21
237.5303990815
 31
0.0
  0
ARC
  5
122
330
1F
100
AcDbEntity
  8
0
  6
SLD-実線
 62
     7
370
    15
100
AcDbCircle
 10
343.7664529585
 20
237.4140601131
 30
0.0
 40
0.5611630284267656
100
AcDbArc
 50
252.2089769722
 51
295.8618403635
  0
ARC
  5
123
330
1F
100
AcDbEntity
  8
0
  6
SLD-実線
 62
     7
370
    15
100
AcDbCircle
 10
344.2866990624
 20
236.5838245079
 30
0.0
 40
0.42624437344069
100
AcDbArc
 50
130.2603274607
 51
190.4745617489
  0
ARC
  5
124
330
1F
100
AcDbEntity
  8
0
  6
SLD-実線
 62
     7
370
    15
100
AcDbCircle
 10
344.6024479418
 20
235.9771167267
 30
0.0
 40
0.3956066558479954
100
AcDbArc
 50
225.7104247257
 51
291.2134537016
  0
ARC
  5
125
330
1F
100
AcDbEntity
  8
0
  6
SLD-実線
 62
     7
370
    15
100
AcDbCircle
 10
345.0870848735
 20
235.1094681031
 30
0.0
 40
0.6045369741657203
100
AcDbArc
 50
124.393774536
 51
164.6566263422
  0
LINE
  5
126
330
1F
100
AcDbEntity
  8
0
  6
SLD-実線
 62
     7
370
    15
100
AcDbLine
 10
347.7507923704
 20
237.3427516713
 30
0.0
 11
347.5081834212
 21
237.5303990815
 31
0.0
  0
LINE
  5
127
330
1F
100
AcDbEntity
  8
0
  6
SLD-実線
 62
     7
370
    15
100
AcDbLine
 10
344.745595631
 20
235.6083168281
 30
0.0
 11
347.7507923704
 21
237.3427516713
 31
0.0
  0
LINE
  5
128
330
1F
100
AcDbEntity
  8
0
  6
SLD-実線
 62
     7
370
    15
100
AcDbLine
 10
344.011233717
 20
236.9090984069
 30
0.0
 11
347.0164304564
 21
238.6435332502
 31
0.0
  0
LINE
  5
129
330
1F
100
AcDbEntity
  8
0
  6
SLD-実線
 62
     7
370
    15
100
AcDbLine
 10
347.0495394401
 20
238.3427991541
 30
0.0
 11
347.0164304564
 21
238.6435332502
 31
0.0
  0
LINE
  5
12A
330
1F
100
AcDbEntity
  8
0
  6
SLD-実線
 62
     7
370
    15
100
AcDbLine
 10
343.5949917704
 20
236.8797334289
 30
0.0
 11
346.7769734658
 21
238.7161988593
 31
0.0
  0
LINE
  5
12B
330
1F
100
AcDbEntity
  8
0
  6
SLD-実線
 62
     7
370
    15
100
AcDbLine
 10
347.0164304564
 20
238.6435332502
 30
0.0
 11
346.7769734658
 21
238.7161988593
 31
0.0
  0
LINE
  5
12C
330
1F
100
AcDbEntity
  8
0
  6
SLD-実線
 62
     7
370
    15
100
AcDbLine
 10
347.6860768723
 20
237.1058959253
 30
0.0
 11
347.7507923704
 21
237.3427516713
 31
0.0
  0
LINE
  5
12D
330
1F
100
AcDbEntity
  8
0
  6
SLD-実線
 62
     7
370
    15
100
AcDbLine
 10
344.5040951769
 20
235.2694304949
 30
0.0
 11
347.6860768723
 21
237.1058959253
 31
0.0
  0
ARC
  5
12E
330
1F
100
AcDbEntity
  8
0
  6
SLD-実線
 62
     7
370
    15
100
AcDbCircle
 10
343.3883004073
 20
237.9135005574
 30
0.0
 40
0.6968900021488531
100
AcDbArc
 50
262.7139964968
 51
297.1643010383
  0
ARC
  5
12F
330
1F
100
AcDbEntity
  8
0
  6
SLD-実線
 62
     7
370
    15
100
AcDbCircle
 10
343.9736452831
 20
236.9996054164
 30
0.0
 40
0.397174742530548
100
AcDbArc
 50
132.2767128354
 51
197.5664510597
  0
LINE
  5
130
330
1F
100
AcDbEntity
  8
0
  6
SLD-実線
 62
     7
370
    15
100
AcDbLine
 10
343.7064611297
 20
237.2934768241
 30
0.0
 11
346.7116578691
 21
239.0279116674
 31
0.0
  0
LINE
  5
131
330
1F
100
AcDbEntity
  8
0
  6
SLD-実線
 62
     7
370
    15
100
AcDbLine
 10
346.7769734658
 20
238.7161988593
 30
0.0
 11
346.7116578691
 21
239.0279116674
 31
0.0
  0
ARC
  5
132
330
1F
100
AcDbEntity
  8
0
  6
SLD-実線
 62
     7
370
    15
100
AcDbCircle
 10
344.7921505447
 20
235.4968696306
 30
0.0
 40
0.3670210557942847
100
AcDbArc
 50
218.2934718421
 51
289.6927816959
  0
ARC
  5
133
330
1F
100
AcDbEntity
  8
0
  6
SLD-実線
 62
     7
370
    15
100
AcDbCircle
 10
345.3287877357
 20
234.5118411122
 30
0.0
 40
0.7612239764606639
100
AcDbArc
 50
122.8535984634
 51
154.2319027551
  0
LINE
  5
134
330
1F
100
AcDbEntity
  8
0
  6
SLD-実線
 62
     7
370
    15
100
AcDbLine
 10
347.9210248086
 20
236.8857493765
 30
0.0
 11
347.6860768723
 21
237.1058959253
 31
0.0
  0
LINE
  5
135
330
1F
100
AcDbEntity
  8
0
  6
SLD-実線
 62
     7
370
    15
100
AcDbLine
 10
344.9158280692
 20
235.1513145332
 30
0.0
 11
347.9210248086
 21
236.8857493765
 31
0.0
  0
LINE
  5
136
330
1F
100
AcDbEntity
  8
0
  6
SLD-実線
 62
     7
370
    15
100
AcDbLine
 10
343.2999192144
 20
237.2222376263
 30
0.0
 11
346.4819009099
 21
239.0587030567
 31
0.0
  0
LINE
  5
137
330
1F
100
AcDbEntity
  8
0
  6
SLD-実線
 62
     7
370
    15
100
AcDbLine
 10
346.7116578691
 20
239.0279116674
 30
0.0
 11
346.4819009099
 21
239.0587030567
 31
0.0
  0
LINE
  5
138
330
1F
100
AcDbEntity
  8
0
  6
SLD-実線
 62
     7
370
    15
100
AcDbLine
 10
347.825240827
 20
236.6792332341
 30
0.0
 11
347.9210248086
 21
236.8857493765
 31
0.0
  0
LINE
  5
139
330
1F
100
AcDbEntity
  8
0
  6
SLD-実線
 62
     7
370
    15
100
AcDbLine
 10
344.6432591316
 20
234.8427678038
 30
0.0
 11
347.825240827
 21
236.6792332341
 31
0.0
  0
ARC
  5
13A
330
1F
100
AcDbEntity
  8
0
  6
SLD-実線
 62
     7
370
    15
100
AcDbCircle
 10
342.9191460665
 20
238.4996430396
 30
0.0
 40
0.9743165816196492
100
AcDbArc
 50
274.0291374129
 51
298.252536055
  0
ARC
  5
13B
330
1F
100
AcDbEntity
  8
0
  6
SLD-実線
 62
     7
370
    15
100
AcDbCircle
 10
343.6395502452
 20
237.3743653628
 30
0.0
 40
0.3721452475684788
100
AcDbArc
 50
134.1476894016
 51
204.1285908187
  0
LINE
  5
13C
330
1F
100
AcDbEntity
  8
0
  6
SLD-実線
 62
     7
370
    15
100
AcDbLine
 10
343.3803472552
 20
237.6413969999
 30
0.0
 11
346.3855439946
 21
239.3758318431
 31
0.0
  0
LINE
  5
13D
330
1F
100
AcDbEntity
  8
0
  6
SLD-実線
 62
     7
370
    15
100
AcDbLine
 10
346.4819009099
 20
239.0587030567
 30
0.0
 11
346.3855439946
 21
239.3758318431
 31
0.0
  0
LINE
  5
13E
330
1F
100
AcDbEntity
  8
0
  6
SLD-実線
 62
     7
370
    15
100
AcDbLine
 10
348.0483346329
 20
236.4305161486
 30
0.0
 11
347.825240827
 21
236.6792332341
 31
0.0
  0
LINE
  5
13F
330
1F
100
AcDbEntity
  8
0
  6
SLD-実線
 62
     7
370
    15
100
AcDbLine
 10
345.0431378935
 20
234.6960813053
 30
0.0
 11
348.0483346329
 21
236.4305161486
 31
0.0
  0
LWPOLYLINE
  5
140
330
1F
100
AcDbEntity
  8
0
  6
SLD-実線
 62
     7
370
    15
100
AcDbPolyline
 90
        6
 70
   128
 43
0.0
 10
344.6432591316
 20
234.8427678038
 10
344.7649163391
 20
234.7394065494
 10
344.8625165864
 20
234.6922818726
 10
344.9427888814
 20
234.6758851417
 10
345.0053170239
 20
234.6810177662
 10
345.0431378935
 20
234.6960813053
  0
ARC
  5
141
330
1F
100
AcDbEntity
  8
0
  6
SLD-実線
 62
     7
370
    15
100
AcDbCircle
 10
345.622279755
 20
233.7558261575
 30
0.0
 40
1.104302965092332
100
AcDbArc
 50
121.6306259818
 51
142.9254445343
  0
LINE
  5
142
330
1F
100
AcDbEntity
  8
0
  6
SLD-実線
 62
     7
370
    15
100
AcDbLine
 10
342.9876052224
 20
237.527734533
 30
0.0
 11
346.1695869178
 21
239.3641999634
 31
0.0
  0
LINE
  5
143
330
1F
100
AcDbEntity
  8
0
  6
SLD-実線
 62
     7
370
    15
100
AcDbLine
 10
346.3855439946
 20
239.3758318431
 30
0.0
 11
346.1695869178
 21
239.3641999634
 31
0.0
  0
LINE
  5
144
330
1F
100
AcDbEntity
  8
0
  6
SLD-実線
 62
     7
370
    15
100
AcDbLine
 10
347.92319142
 20
236.2580247478
 30
0.0
 11
348.0483346329
 21
236.4305161486
 31
0.0
  0
LINE
  5
145
330
1F
100
AcDbEntity
  8
0
  6
SLD-実線
 62
     7
370
    15
100
AcDbLine
 10
344.7412097246
 20
234.4215593174
 30
0.0
 11
347.92319142
 21
236.2580247478
 31
0.0
  0
ARC
  5
146
330
1F
100
AcDbEntity
  8
0
  6
SLD-実線
 62
     7
370
    15
100
AcDbCircle
 10
342.1746913126
 20
239.4965039413
 30
0.0
 40
1.774422633356111
100
AcDbArc
 50
285.9944545377
 51
299.1390221091
  0
ARC
  5
147
330
1F
100
AcDbEntity
  8
0
  6
SLD-実線
 62
     7
370
    15
100
AcDbCircle
 10
343.2884994328
 20
237.7036020203
 30
0.0
 40
0.3485207295729579
100
AcDbArc
 50
135.7834147593
 51
210.3055508722
  0
LINE
  5
148
330
1F
100
AcDbEntity
  8
0
  6
SLD-実線
 62
     7
370
    15
100
AcDbLine
 10
343.0387115689
 20
237.9466508262
 30
0.0
 11
346.0439083083
 21
239.6810856694
 31
0.0
  0
LINE
  5
149
330
1F
100
AcDbEntity
  8
0
  6
SLD-実線
 62
     7
370
    15
100
AcDbLine
 10
346.1695869178
 20
239.3641999634
 30
0.0
 11
346.0439083083
 21
239.6810856694
 31
0.0
  0
LWPOLYLINE
  5
14A
330
1F
100
AcDbEntity
  8
0
  6
SLD-実線
 62
     7
370
    15
100
AcDbPolyline
 90
        6
 70
   128
 43
0.0
 10
344.7412097246
 20
234.4215593174
 10
344.8555821127
 20
234.3071059547
 10
344.9488435396
 20
234.2533656668
 10
345.0264856078
 20
234.2329576162
 10
345.0877160884
 20
234.2361101124
 10
345.1252534546
 20
234.2507406174
  0
ARC
  5
14B
330
1F
100
AcDbEntity
  8
0
  6
SLD-実線
 62
     7
370
    15
100
AcDbCircle
 10
346.2849598067
 20
232.2966942189
 30
0.0
 40
2.272271143773275
100
AcDbArc
 50
120.688693282
 51
130.933756868
  0
LINE
  5
14C
330
1F
100
AcDbEntity
  8
0
  6
SLD-実線
 62
     7
370
    15
100
AcDbLine
 10
348.130450194
 20
235.9851754607
 30
0.0
 11
347.92319142
 21
236.2580247478
 31
0.0
  0
LINE
  5
14D
330
1F
100
AcDbEntity
  8
0
  6
SLD-実線
 62
     7
370
    15
100
AcDbLine
 10
345.1252534546
 20
234.2507406174
 30
0.0
 11
348.130450194
 21
235.9851754607
 31
0.0
  0
LINE
  5
14E
330
1F
100
AcDbEntity
  8
0
  6
SLD-実線
 62
     7
370
    15
100
AcDbLine
 10
342.6636233857
 20
237.7907721014
 30
0.0
 11
345.8456050811
 21
239.6272375317
 31
0.0
  0
LINE
  5
14F
330
1F
100
AcDbEntity
  8
0
  6
SLD-実線
 62
     7
370
    15
100
AcDbLine
 10
346.0439083083
 20
239.6810856694
 30
0.0
 11
345.8456050811
 21
239.6272375317
 31
0.0
  0
LINE
  5
150
330
1F
100
AcDbEntity
  8
0
  6
SLD-実線
 62
     7
370
    15
100
AcDbLine
 10
347.9781812035
 20
235.8497868435
 30
0.0
 11
348.130450194
 21
235.9851754607
 31
0.0
  0
LINE
  5
151
330
1F
100
AcDbEntity
  8
0
  6
SLD-実線
 62
     7
370
    15
100
AcDbLine
 10
344.7961995081
 20
234.0133214131
 30
0.0
 11
347.9781812035
 21
235.8497868435
 31
0.0
  0
ARC
  5
152
330
1F
100
AcDbEntity
  8
0
  6
SLD-実線
 62
     7
370
    15
100
AcDbCircle
 10
335.2290122343
 20
251.1773477913
 30
0.0
 40
14.964774443803
100
AcDbArc
 50
298.3440138127
 51
299.8950615421
  0
LWPOLYLINE
  5
153
330
1F
100
AcDbEntity
  8
0
  6
SLD-実線
 62
     7
370
    15
100
AcDbPolyline
 90
        6
 70
   128
 43
0.0
 10
342.687650629
 20
238.2037905516
 10
342.6457468657
 20
238.1654799845
 10
342.6188925732
 20
238.1113438968
 10
342.6057221769
 20
238.0252749192
 10
342.62153523
 20
237.9031623424
 10
342.6636233857
 20
237.7907721014
  0
LINE
  5
154
330
1F
100
AcDbEntity
  8
0
  6
SLD-実線
 62
     7
370
    15
100
AcDbLine
 10
342.687650629
 20
238.2037905516
 30
0.0
 11
345.6928473684
 21
239.9382253949
 31
0.0
  0
LINE
  5
155
330
1F
100
AcDbEntity
  8
0
  6
SLD-実線
 62
     7
370
    15
100
AcDbLine
 10
345.8456050811
 20
239.6272375317
 30
0.0
 11
345.6928473684
 21
239.9382253949
 31
0.0
  0
LINE
  5
156
330
1F
100
AcDbEntity
  8
0
  6
SLD-実線
 62
     7
370
    15
100
AcDbLine
 10
348.1659062303
 20
235.5576743945
 30
0.0
 11
347.9781812035
 21
235.8497868435
 31
0.0
  0
LINE
  5
157
330
1F
100
AcDbEntity
  8
0
  6
SLD-実線
 62
     7
370
    15
100
AcDbLine
 10
345.1607094909
 20
233.8232395513
 30
0.0
 11
348.1659062303
 21
235.5576743945
 31
0.0
  0
LWPOLYLINE
  5
158
330
1F
100
AcDbEntity
  8
0
  6
SLD-実線
 62
     7
370
    15
100
AcDbPolyline
 90
        6
 70
   128
 43
0.0
 10
344.7961995081
 20
234.0133214131
 10
344.9015847393
 20
233.8900183953
 10
344.9894948335
 20
233.8309953456
 10
345.0638919237
 20
233.8073842105
 10
345.1235214825
 20
233.8089553972
 10
345.1607094909
 20
233.8232395513
  0
ARC
  5
159
330
1F
100
AcDbEntity
  8
0
  6
SLD-実線
 62
     7
370
    15
100
AcDbCircle
 10
336.4030801147
 20
249.0503430002
 30
0.0
 40
17.56589740757758
100
AcDbArc
 50
298.5833370749
 51
299.9046840646
  0
LINE
  5
15A
330
1F
100
AcDbEntity
  8
0
  6
SLD-実線
 62
     7
370
    15
100
AcDbLine
 10
342.3337549843
 20
238.0066566701
 30
0.0
 11
345.5157366797
 21
239.8431221004
 31
0.0
  0
LINE
  5
15B
330
1F
100
AcDbEntity
  8
0
  6
SLD-実線
 62
     7
370
    15
100
AcDbLine
 10
345.6928473684
 20
239.9382253949
 30
0.0
 11
345.5157366797
 21
239.8431221004
 31
0.0
  0
LWPOLYLINE
  5
15C
330
1F
100
AcDbEntity
  8
0
  6
SLD-実線
 62
     7
370
    15
100
AcDbPolyline
 90
        6
 70
   128
 43
0.0
 10
342.3334292105
 20
238.4082277395
 10
342.2923872762
 20
238.3703225528
 10
342.267890326
 20
238.317294323
 10
342.2595074249
 20
238.2334754753
 10
342.2833276383
 20
238.1151271224
 10
342.3337549843
 20
238.0066566701
  0
ARC
  5
15D
330
1F
100
AcDbEntity
  8
0
  6
SLD-実線
 62
     7
370
    15
100
AcDbCircle
 10
343.50713573
 20
236.4263377807
 30
0.0
 40
2.303361630929831
100
AcDbArc
 50
120.6346869422
 51
130.7403917316
  0
LINE
  5
15E
330
1F
100
AcDbEntity
  8
0
  6
SLD-実線
 62
     7
370
    15
100
AcDbLine
 10
342.3334292105
 20
238.4082277395
 30
0.0
 11
345.3386259499
 21
240.1426625828
 31
0.0
  0
LINE
  5
15F
330
1F
100
AcDbEntity
  8
0
  6
SLD-実線
 62
     7
370
    15
100
AcDbLine
 10
345.5157366797
 20
239.8431221004
 30
0.0
 11
345.3386259499
 21
240.1426625828
 31
0.0
  0
LINE
  5
160
330
1F
100
AcDbEntity
  8
0
  6
SLD-実線
 62
     7
370
    15
100
AcDbLine
 10
348.1540698806
 20
235.1556418405
 30
0.0
 11
347.9917337202
 21
235.4571514686
 31
0.0
  0
LINE
  5
161
330
1F
100
AcDbEntity
  8
0
  6
SLD-実線
 62
     7
370
    15
100
AcDbLine
 10
345.1488731412
 20
233.4212069972
 30
0.0
 11
348.1540698806
 21
235.1556418405
 31
0.0
  0
LWPOLYLINE
  5
162
330
1F
100
AcDbEntity
  8
0
  6
SLD-実線
 62
     7
370
    15
100
AcDbPolyline
 90
        6
 70
   128
 43
0.0
 10
344.8072465922
 20
233.6253393518
 10
344.90210927
 20
233.4955782524
 10
344.9837473863
 20
233.4327035018
 10
345.0543423698
 20
233.4067565615
 10
345.1120950768
 20
233.4071750819
 10
345.1488731412
 20
233.4212069972
  0
ARC
  5
163
330
1F
100
AcDbEntity
  8
0
  6
SLD-実線
 62
     7
370
    15
100
AcDbCircle
 10
344.264188143
 20
235.0107089837
 30
0.0
 40
1.819116299413388
100
AcDbArc
 50
286.2803403493
 51
299.0994369766
  0
ARC
  5
164
330
1F
100
AcDbEntity
  8
0
  6
SLD-実線
 62
     7
370
    15
100
AcDbCircle
 10
342.5571771783
 20
237.617479063
 30
0.0
 40
1.100825466055529
100
AcDbArc
 50
121.4773629729
 51
142.8372089495
  0
LWPOLYLINE
  5
165
330
1F
100
AcDbEntity
  8
0
  6
SLD-実線
 62
     7
370
    15
100
AcDbPolyline
 90
        6
 70
   128
 43
0.0
 10
341.9823683324
 20
238.5563142442
 10
341.9420763671
 20
238.5190029679
 10
341.9196308345
 20
238.4676006492
 10
341.9154140917
 20
238.3870830197
 10
341.9462023234
 20
238.2742558137
 10
342.0038866034
 20
238.1715360119
  0
LINE
  5
166
330
1F
100
AcDbEntity
  8
0
  6
SLD-実線
 62
     7
370
    15
100
AcDbLine
 10
341.9823683324
 20
238.5563142442
 30
0.0
 11
344.9875650718
 21
240.2907490874
 31
0.0
  0
LINE
  5
167
330
1F
100
AcDbEntity
  8
0
  6
SLD-実線
 62
     7
370
    15
100
AcDbLine
 10
345.1626540288
 20
240.041101288
 30
0.0
 11
344.9875650718
 21
240.2907490874
 31
0.0
  0
LWPOLYLINE
  5
168
330
1F
100
AcDbEntity
  8
0
  6
SLD-実線
 62
     7
370
    15
100
AcDbPolyline
 90
        6
 70
   128
 43
0.0
 10
344.7741544014
 20
233.2645364475
 10
344.8571471438
 20
233.1308182252
 10
344.9317052481
 20
233.0655934107
 10
344.9980071798
 20
233.0382220175
 10
345.0536413492
 20
233.0379378805
 10
345.0899557982
 20
233.0518171022
  0
ARC
  5
169
330
1F
100
AcDbEntity
  8
0
  6
SLD-実線
 62
     7
370
    15
100
AcDbCircle
 10
344.6207498128
 20
233.9305056126
 30
0.0
 40
0.9961163360570036
100
AcDbArc
 50
274.419735827
 51
298.1015229483
  0
LINE
  5
16A
330
1F
100
AcDbEntity
  8
0
  6
SLD-実線
 62
     7
370
    15
100
AcDbLine
 10
348.0951525376
 20
234.7862519455
 30
0.0
 11
347.977111398
 21
235.0535110488
 31
0.0
  0
LINE
  5
16B
330
1F
100
AcDbEntity
  8
0
  6
SLD-実線
 62
     7
370
    15
100
AcDbLine
 10
345.0899557982
 20
233.0518171022
 30
0.0
 11
348.0951525376
 21
234.7862519455
 31
0.0
  0
ARC
  5
16C
330
1F
100
AcDbEntity
  8
0
  6
SLD-実線
 62
     7
370
    15
100
AcDbCircle
 10
342.0440183084
 20
238.0125812735
 30
0.0
 40
0.7504051708965651
100
AcDbArc
 50
122.5084394015
 51
154.3448696067
  0
LWPOLYLINE
  5
16D
330
1F
100
AcDbEntity
  8
0
  6
SLD-実線
 62
     7
370
    15
100
AcDbPolyline
 90
        6
 70
   128
 43
0.0
 10
341.6407326873
 20
238.6454071803
 10
341.6010654852
 20
238.6088689348
 10
341.5803288036
 20
238.5595803901
 10
341.5795825595
 20
238.4833560477
 10
341.6161752693
 20
238.3777091031
 10
341.6799047191
 20
238.2824675885
  0
LINE
  5
16E
330
1F
100
AcDbEntity
  8
0
  6
SLD-実線
 62
     7
370
    15
100
AcDbLine
 10
341.6407326873
 20
238.6454071803
 30
0.0
 11
344.6459294266
 21
240.3798420235
 31
0.0
  0
LINE
  5
16F
330
1F
100
AcDbEntity
  8
0
  6
SLD-実線
 62
     7
370
    15
100
AcDbLine
 10
344.8062760057
 20
240.1861188646
 30
0.0
 11
344.6459294266
 21
240.3798420235
 31
0.0
  0
LWPOLYLINE
  5
170
330
1F
100
AcDbEntity
  8
0
  6
SLD-実線
 62
     7
370
    15
100
AcDbPolyline
 90
        6
 70
   128
 43
0.0
 10
344.6975129916
 20
232.9373514607
 10
344.7674925652
 20
232.8022613061
 10
344.8342920273
 20
232.7362246589
 10
344.8958896464
 20
232.7083613071
 10
344.9492017878
 20
232.7078349792
 10
344.9850088283
 20
232.7216616614
  0
ARC
  5
171
330
1F
100
AcDbEntity
  8
0
  6
SLD-実線
 62
     7
370
    15
100
AcDbCircle
 10
344.6621878217
 20
233.3605664192
 30
0.0
 40
0.7158300718811206
100
AcDbArc
 50
263.3015384376
 51
296.8062149112
  0
LINE
  5
172
330
1F
100
AcDbEntity
  8
0
  6
SLD-実線
 62
     7
370
    15
100
AcDbLine
 10
344.9850088283
 20
232.7216616614
 30
0.0
 11
347.9902055677
 21
234.4560965047
 31
0.0
  0
LINE
  5
173
330
1F
100
AcDbEntity
  8
0
  6
SLD-実線
 62
     7
370
    15
100
AcDbLine
 10
347.9902055677
 20
234.4560965047
 30
0.0
 11
347.9119961634
 21
234.6805438702
 31
0.0
  0
ARC
  5
174
330
1F
100
AcDbEntity
  8
0
  6
SLD-実線
 62
     7
370
    15
100
AcDbCircle
 10
341.6422520102
 20
238.1836943454
 30
0.0
 40
0.5896286535028386
100
AcDbArc
 50
123.7562095415
 51
165.0738812223
  0
LWPOLYLINE
  5
175
330
1F
100
AcDbEntity
  8
0
  6
SLD-実線
 62
     7
370
    15
100
AcDbPolyline
 90
        6
 70
   128
 43
0.0
 10
341.314618751
 20
238.6739171483
 10
341.2754399214
 20
238.6383165937
 10
341.2560390767
 20
238.5915924986
 10
341.2580057376
 20
238.5205766949
 10
341.2991358346
 20
238.4236410324
 10
341.3675908159
 20
238.3374716671
  0
LINE
  5
176
330
1F
100
AcDbEntity
  8
0
  6
SLD-実線
 62
     7
370
    15
100
AcDbLine
 10
341.314618751
 20
238.6739171483
 30
0.0
 11
344.3198154904
 21
240.4083519916
 31
0.0
  0
LINE
  5
177
330
1F
100
AcDbEntity
  8
0
  6
SLD-実線
 62
     7
370
    15
100
AcDbLine
 10
344.455487554
 20
240.2699294057
 30
0.0
 11
344.3198154904
 21
240.4083519916
 31
0.0
  0
LINE
  5
178
330
1F
100
AcDbEntity
  8
0
  6
SLD-実線
 62
     7
370
    15
100
AcDbLine
 10
344.8359044736
 20
232.4366325824
 30
0.0
 11
347.8411012129
 21
234.1710674257
 31
0.0
  0
LWPOLYLINE
  5
179
330
1F
100
AcDbEntity
  8
0
  6
SLD-実線
 62
     7
370
    15
100
AcDbPolyline
 90
        6
 70
   128
 43
0.0
 10
344.5786904889
 20
232.6496227595
 10
344.6347467853
 20
232.5157698122
 10
344.693246611
 20
232.4504746267
 10
344.7498119622
 20
232.4230609748
 10
344.800640403
 20
232.4227568686
 10
344.8359044736
 20
232.4366325824
  0
LINE
  5
17A
330
1F
100
AcDbEntity
  8
0
  6
SLD-実線
 62
     7
370
    15
100
AcDbLine
 10
347.8411012129
 20
234.1710674257
 30
0.0
 11
347.7968246315
 21
234.3444878326
 31
0.0
  0
ARC
  5
17B
330
1F
100
AcDbEntity
  8
0
  6
SLD-実線
 62
     7
370
    15
100
AcDbCircle
 10
344.588697484
 20
232.9620218738
 30
0.0
 40
0.5806420611799589
100
AcDbArc
 50
253.0900321513
 51
295.1979960198
  0
ARC
  5
17C
330
1F
100
AcDbEntity
  8
0
  6
SLD-実線
 62
     7
370
    15
100
AcDbCircle
 10
341.2980183974
 20
238.232716595
 30
0.0
 40
0.5000121572215543
100
AcDbArc
 50
125.1928695999
 51
174.943408079
  0
LWPOLYLINE
  5
17D
330
1F
100
AcDbEntity
  8
0
  6
SLD-実線
 62
     7
370
    15
100
AcDbPolyline
 90
        6
 70
   128
 43
0.0
 10
341.0098460814
 20
238.6413348443
 10
340.9710105593
 20
238.6068199711
 10
340.9525486756
 20
238.5630654495
 10
340.9564221521
 20
238.4980804964
 10
341.0007416212
 20
238.4112313437
 10
341.072518157
 20
238.3355669419
  0
LINE
  5
17E
330
1F
100
AcDbEntity
  8
0
  6
SLD-実線
 62
     7
370
    15
100
AcDbLine
 10
341.0098460814
 20
238.6413348443
 30
0.0
 11
344.0150428208
 21
240.3757696875
 31
0.0
  0
LINE
  5
17F
330
1F
100
AcDbEntity
  8
0
  6
SLD-実線
 62
     7
370
    15
100
AcDbLine
 10
344.115405827
 20
240.2903777751
 30
0.0
 11
344.0150428208
 21
240.3757696875
 31
0.0
  0
LWPOLYLINE
  5
180
330
1F
100
AcDbEntity
  8
0
  6
SLD-実線
 62
     7
370
    15
100
AcDbPolyline
 90
        6
 70
   128
 43
0.0
 10
344.4198069128
 20
232.406485036
 10
344.4612787532
 20
232.276456055
 10
344.5110859561
 20
232.2134423377
 10
344.5623809756
 20
232.1874120385
 10
344.6106084949
 20
232.1877907777
 10
344.6453042415
 20
232.2018158612
  0
ARC
  5
181
330
1F
100
AcDbEntity
  8
0
  6
SLD-実線
 62
     7
370
    15
100
AcDbCircle
 10
344.4458439877
 20
232.6641875962
 30
0.0
 40
0.5035593452959495
100
AcDbArc
 50
243.8225956301
 51
293.3346451325
  0
LINE
  5
182
330
1F
100
AcDbEntity
  8
0
  6
SLD-実線
 62
     7
370
    15
100
AcDbLine
 10
344.6453042415
 20
232.2018158612
 30
0.0
 11
347.6505009809
 21
233.9362507044
 31
0.0
  0
LINE
  5
183
330
1F
100
AcDbEntity
  8
0
  6
SLD-実線
 62
     7
370
    15
100
AcDbLine
 10
347.6505009809
 20
233.9362507044
 30
0.0
 11
347.6323419454
 21
234.0505828423
 31
0.0
  0
ARC
  5
184
330
1F
100
AcDbEntity
  8
0
  6
SLD-実線
 62
     7
370
    15
100
AcDbCircle
 10
340.9972684874
 20
238.1928394733
 30
0.0
 40
0.4435721075629606
100
AcDbArc
 50
126.7524333948
 51
183.9631461764
  0
LWPOLYLINE
  5
185
330
1F
100
AcDbEntity
  8
0
  6
SLD-実線
 62
     7
370
    15
100
AcDbPolyline
 90
        6
 70
   128
 43
0.0
 10
340.7318532888
 20
238.5482420437
 10
340.6932098148
 20
238.514941601
 10
340.675273285
 20
238.4745084971
 10
340.6802136859
 20
238.416269012
 10
340.7263173991
 20
238.3407019835
 10
340.7999522239
 20
238.2767874949
  0
LINE
  5
186
330
1F
100
AcDbEntity
  8
0
  6
SLD-実線
 62
     7
370
    15
100
AcDbLine
 10
340.7318532888
 20
238.5482420437
 30
0.0
 11
343.7370500282
 21
240.2826768869
 31
0.0
  0
LINE
  5
187
330
1F
100
AcDbEntity
  8
0
  6
SLD-実線
 62
     7
370
    15
100
AcDbLine
 10
343.7901229533
 20
240.2459582272
 30
0.0
 11
343.7370500282
 21
240.2826768869
 31
0.0
  0
LINE
  5
188
330
1F
100
AcDbEntity
  8
0
  6
SLD-実線
 62
     7
370
    15
100
AcDbLine
 10
344.4166090207
 20
232.0214019278
 30
0.0
 11
347.4218057601
 21
233.755836771
 31
0.0
  0
LWPOLYLINE
  5
189
330
1F
100
AcDbEntity
  8
0
  6
SLD-実線
 62
     7
370
    15
100
AcDbPolyline
 90
        6
 70
   128
 43
0.0
 10
344.2236977913
 20
232.2122771165
 10
344.2501849454
 20
232.088590182
 10
344.2910616262
 20
232.0293572973
 10
344.3369417635
 20
232.0056194568
 10
344.3824972384
 20
232.0071294627
 10
344.4166090207
 20
232.0214019278
  0
LINE
  5
18A
330
1F
100
AcDbEntity
  8
0
  6
SLD-実線
 62
     7
370
    15
100
AcDbLine
 10
347.4218057601
 20
233.755836771
 30
0.0
 11
347.4192219607
 21
233.8027689805
 31
0.0
  0
ARC
  5
18B
330
1F
100
AcDbEntity
  8
0
  6
SLD-実線
 62
     7
370
    15
100
AcDbCircle
 10
344.2514964797
 20
232.444537028
 30
0.0
 40
0.4542086131398834
100
AcDbArc
 50
235.4437417119
 51
291.3163432701
  0
ARC
  5
18C
330
1F
100
AcDbEntity
  8
0
  6
SLD-実線
 62
     7
370
    15
100
AcDbCircle
 10
340.7364352413
 20
238.0792632908
 30
0.0
 40
0.4042648193610626
100
AcDbArc
 50
128.3504242702
 51
192.2052712761
  0
LWPOLYLINE
  5
18D
330
1F
100
AcDbEntity
  8
0
  6
SLD-実線
 62
     7
370
    15
100
AcDbPolyline
 90
        6
 70
   128
 43
0.0
 10
340.4856012714
 20
238.39630014
 10
340.4469951698
 20
238.3643208909
 10
340.429160879
 20
238.327502079
 10
340.4343090507
 20
238.2766024104
 10
340.4807603107
 20
238.2133113496
 10
340.5547570881
 20
238.1621820733
  0
LINE
  5
18E
330
1F
100
AcDbEntity
  8
0
  6
SLD-実線
 62
     7
370
    15
100
AcDbLine
 10
340.4856012714
 20
238.39630014
 30
0.0
 11
340.6890230358
 21
238.5137040328
 31
0.0
  0
LWPOLYLINE
  5
18F
330
1F
100
AcDbEntity
  8
0
  6
SLD-実線
 62
     7
370
    15
100
AcDbPolyline
 90
        6
 70
   128
 43
0.0
 10
343.9938624653
 20
232.0704646033
 10
344.0052325655
 20
231.9555244599
 10
344.0370996989
 20
231.9015046067
 10
344.0775173742
 20
231.8809273858
 10
344.1203772618
 20
231.88399713
 10
344.153899976
 20
231.8986103333
  0
ARC
  5
190
330
1F
100
AcDbEntity
  8
0
  6
SLD-実線
 62
     7
370
    15
100
AcDbCircle
 10
344.0156833689
 20
232.2942581309
 30
0.0
 40
0.4190954666595107
100
AcDbArc
 50
227.8432059662
 51
289.2564806828
  0
LINE
  5
191
330
1F
100
AcDbEntity
  8
0
  6
SLD-実線
 62
     7
370
    15
100
AcDbLine
 10
344.153899976
 20
231.8986103333
 30
0.0
 11
344.3179987307
 21
231.9933191403
 31
0.0
  0
ARC
  5
192
330
1F
100
AcDbEntity
  8
0
  6
SLD-実線
 62
     7
370
    15
100
AcDbCircle
 10
340.5154393221
 20
237.9012223526
 30
0.0
 40
0.3740937715910402
100
AcDbArc
 50
129.8985546951
 51
199.7787112257
  0
LWPOLYLINE
  5
193
330
1F
100
AcDbEntity
  8
0
  6
SLD-実線
 62
     7
370
    15
100
AcDbPolyline
 90
        6
 70
   128
 43
0.0
 10
340.2754842497
 20
238.1882201108
 10
340.2367603509
 20
238.1576457163
 10
340.2186034556
 20
238.1246690902
 10
340.2230967048
 20
238.0815727222
 10
340.2684524761
 20
238.0313328579
 10
340.3413082428
 20
237.9937957577
  0
LINE
  5
194
330
1F
100
AcDbEntity
  8
0
  6
SLD-実線
 62
     7
370
    15
100
AcDbLine
 10
340.2754842497
 20
238.1882201108
 30
0.0
 11
340.3724009278
 21
238.2441551054
 31
0.0
  0
LWPOLYLINE
  5
195
330
1F
100
AcDbEntity
  8
0
  6
SLD-実線
 62
     7
370
    15
100
AcDbPolyline
 90
        6
 70
   128
 43
0.0
 10
343.7344025146
 20
231.9835780845
 10
343.7307930322
 20
231.8796334554
 10
343.7537327716
 20
231.832165239
 10
343.7887375403
 20
231.8155606422
 10
343.828926042
 20
231.8205908503
 10
343.8618651212
 20
231.8356323528
  0
ARC
  5
196
330
1F
100
AcDbEntity
  8
0
  6
SLD-実線
 62
     7
370
    15
100
AcDbCircle
 10
343.7457468417
 20
232.2092556112
 30
0.0
 40
0.3912515739226211
100
AcDbArc
 50
220.8843452255
 51
287.2647091619
  0
LINE
  5
197
330
1F
100
AcDbEntity
  8
0
  6
SLD-実線
 62
     7
370
    15
100
AcDbLine
 10
343.8618651212
 20
231.8356323528
 30
0.0
 11
343.9447258254
 21
231.8834550096
 31
0.0
  0
ARC
  5
198
330
1F
100
AcDbEntity
  8
0
  6
SLD-実線
 62
     7
370
    15
100
AcDbCircle
 10
340.4613723755
 20
237.6635263683
 30
0.0
 40
0.4637623212144748
100
AcDbArc
 50
156.8456304745
 51
199.5148240055
  0
LWPOLYLINE
  5
199
330
1F
100
AcDbEntity
  8
0
  6
SLD-実線
 62
     7
370
    15
100
AcDbPolyline
 90
        6
 70
   128
 43
0.0
 10
340.1052519761
 20
237.9277153867
 10
340.066256757
 20
237.8986040297
 10
340.0473583406
 20
237.8696294151
 10
340.0503454985
 20
237.8346604633
 10
340.0931821724
 20
237.7980137298
 10
340.1634146271
 20
237.7746333958
  0
LWPOLYLINE
  5
19A
330
1F
100
AcDbEntity
  8
0
  6
SLD-実線
 62
     7
370
    15
100
AcDbPolyline
 90
        6
 70
   128
 43
0.0
 10
343.449948001
 20
231.9531680481
 10
343.4317644347
 20
231.8622707549
 10
343.4460174782
 20
231.8225770343
 10
343.4757553725
 20
231.8106857937
 10
343.5133447637
 20
231.8180420305
 10
343.5457158483
 20
231.8335916004
  0
ARC
  5
19B
330
1F
100
AcDbEntity
  8
0
  6
SLD-実線
 62
     7
370
    15
100
AcDbCircle
 10
343.4845995428
 20
232.2381712867
 30
0.0
 40
0.4262688074549054
100
AcDbArc
 50
217.3135590504
 51
263.017554643
  0
ARC
  5
19C
330
1F
100
AcDbEntity
  8
0
  6
SLD-実線
 62
     7
370
    15
100
AcDbCircle
 10
340.1435634022
 20
237.4082433536
 30
0.0
 40
0.2605213277295566
100
AcDbArc
 50
158.5650554897
 51
193.7299780714
  0
LWPOLYLINE
  5
19D
330
1F
100
AcDbEntity
  8
0
  6
SLD-実線
 62
     7
370
    15
100
AcDbPolyline
 90
        6
 70
   128
 43
0.0
 10
339.9779419872
 20
237.6194347593
 10
339.9385272752
 20
237.591818813
 10
339.9184815097
 20
237.5669341195
 10
339.9191382432
 20
237.5402716316
 10
339.958077486
 20
237.5175176444
 10
340.024250837
 20
237.5086062237
  0
LWPOLYLINE
  5
19E
330
1F
100
AcDbEntity
  8
0
  6
SLD-実線
 62
     7
370
    15
100
AcDbPolyline
 90
        6
 70
   128
 43
0.0
 10
343.1455751503
 20
231.9797770966
 10
343.1134831239
 20
231.9037463104
 10
343.1194452566
 20
231.8729104302
 10
343.1441564808
 20
231.8663898359
 10
343.1792649702
 20
231.876396135
 10
343.2110938257
 20
231.8925246544
  0
LWPOLYLINE
  5
19F
330
1F
100
AcDbEntity
  8
0
  6
SLD-実線
 62
     7
370
    15
100
AcDbPolyline
 90
        3
 70
   128
 43
0.0
 10
343.0652033327
 20
231.8872428497
 10
343.0106906647
 20
231.9058244853
 10
342.9906534603
 20
231.9194183595
  0
LWPOLYLINE
  5
1A0
330
1F
100
AcDbEntity
  8
0
  6
SLD-実線
 62
     7
370
    15
100
AcDbPolyline
 90
       25
 70
   128
 43
0.0
 10
69.1361815046
 20
77.5227228692
 10
69.5340110407
 20
76.9289692802
 10
69.9998919629
 20
76.427264063
 10
70.5020752129
 20
76.0517976732
 10
71.0063379303
 20
75.8281574216
 10
71.4783152975
 20
75.7715840808
 10
71.8858428893
 20
75.8859329776
 10
72.2011484021
 20
76.1634115094
 10
72.4027443518
 20
76.5851098335
 10
72.4768921828
 20
77.1222900103
 10
72.4185390479
 20
77.7383440115
 10
72.2316612387
 20
78.3912889271
 10
71.9289945121
 20
79.0366275504
 10
71.531164976
 20
79.6303810443
 10
71.0652840846
 20
80.1320862437
 10
70.5631007626
 20
80.5075526751
 10
70.0588381069
 20
80.731192891
 10
69.5868607192
 20
80.7877663389
 10
69.1793330451
 20
80.6734174895
 10
68.8640275323
 20
80.3959390053
 10
68.6624315826
 20
79.9742406098
 10
68.5882837515
 20
79.4370604092
 10
68.6466370511
 20
78.8210063249
 10
68.833514778
 20
78.168061445
 10
69.1361815046
 20
77.5227228692
  0
LWPOLYLINE
  5
1A1
330
1F
100
AcDbEntity
  8
0
  6
SLD-実線
 62
     7
370
    15
100
AcDbPolyline
 90
       14
 70
   128
 43
0.0
 10
72.2607758206
 20
76.1019458462
 10
72.5547025092
 20
76.3674635617
 10
72.7562984588
 20
76.7891618858
 10
72.8304462899
 20
77.3263420627
 10
72.772093155
 20
77.9423960638
 10
72.5852153458
 20
78.5953409794
 10
72.2825486192
 20
79.2406796027
 10
71.8847190831
 20
79.8344330967
 10
71.4188381917
 20
80.336138296
 10
70.9166548697
 20
80.7116047274
 10
70.412392214
 20
80.9352449433
 10
69.9404148263
 20
80.9918183912
 10
69.5328871522
 20
80.8774695418
 10
69.5115084925
 20
80.8655085355
  0
LWPOLYLINE
  5
1A2
330
1F
100
AcDbEntity
  8
0
  6
SLD-実線
 62
     7
370
    15
100
AcDbPolyline
 90
       22
 70
   128
 43
0.0
 10
69.4535466154
 20
77.6947574532
 10
69.8097099993
 20
77.1755321897
 10
70.2301042748
 20
76.7544147796
 10
70.6773755215
 20
76.4688235573
 10
71.1117817721
 20
76.3441344187
 10
71.4947240864
 20
76.3914264993
 10
71.7921764575
 20
76.6064978575
 10
71.9777088603
 20
76.9702382947
 10
72.03483595
 20
77.4503279383
 10
71.9584816656
 20
78.0041088161
 10
71.7554304972
 20
78.5823749218
 10
71.4437242594
 20
79.1337449331
 10
71.0510597702
 20
79.6092269342
 10
70.6123267176
 20
79.9665723688
 10
70.1665085493
 20
80.1740297649
 10
69.7532181169
 20
80.2131654776
 10
69.4091781258
 20
80.0805019624
 10
69.1649580063
 20
79.7878271027
 10
69.0422579112
 20
79.3611463727
 10
69.0519800861
 20
78.8383721602
 10
69.1932608087
 20
78.2659552843
 10
69.4535466154
 20
77.6947574532
  0
LWPOLYLINE
  5
1A3
330
1F
100
AcDbEntity
  8
0
  6
SLD-実線
 62
     7
370
    15
100
AcDbPolyline
 90
       14
 70
   128
 43
0.0
 10
72.7804313163
 20
76.8348368097
 10
72.8415427649
 20
76.8739386203
 10
73.0983476287
 20
77.1627936996
 10
73.2435260704
 20
77.5798834745
 10
73.2663108872
 20
78.0942743364
 10
73.1650124186
 20
78.6678161694
 10
72.9471431755
 20
79.2579720637
 10
72.6288617001
 20
79.8209730527
 10
72.2337736025
 20
80.3150635149
 10
71.7911805736
 20
80.7035992864
 10
71.3339077233
 20
80.9577644374
 10
70.8958689567
 20
81.0587086297
 10
70.5095515864
 20
80.9989454319
 10
70.4060640746
 20
80.9488228832
  0
LWPOLYLINE
  5
1A4
330
1F
100
AcDbEntity
  8
0
  6
SLD-実線
 62
     7
370
    15
100
AcDbPolyline
 90
        7
 70
   128
 43
0.0
 10
73.2375626206
 20
79.7870414304
 10
73.7117375508
 20
78.7303099704
 10
73.8835737096
 20
77.7098162637
 10
73.73027953
 20
76.8828658495
 10
73.2785542175
 20
76.3772946121
 10
72.6005307861
 20
76.2720110618
 10
72.4566253109
 20
76.3284695269
  0
LWPOLYLINE
  5
1A5
330
1F
100
AcDbEntity
  8
0
  6
SLD-実線
 62
     7
370
    15
100
AcDbPolyline
 90
       12
 70
   128
 43
0.0
 10
69.9203728474
 20
80.9212346096
 10
69.9865470215
 20
81.2068718745
 10
70.4824658566
 20
81.7379493333
 10
71.2046830265
 20
81.8687388378
 10
72.0466091206
 20
81.5812692257
 10
72.8834301468
 20
80.9212448696
 10
73.5911167277
 20
79.9910934828
 10
74.0652890237
 20
78.9343605024
 10
74.2371278166
 20
77.913868316
 10
74.0838336371
 20
77.0869179018
 10
73.6321056904
 20
76.5813451441
 10
73.4175777375
 20
76.548033204
  0
LWPOLYLINE
  5
1A6
330
1F
100
AcDbEntity
  8
0
  6
SLD-実線
 62
     7
370
    15
100
AcDbPolyline
 90
       11
 70
   128
 43
0.0
 10
70.8172456006
 20
81.9218951334
 10
70.8360199637
 20
81.9420013856
 10
71.5582371336
 20
82.0727908901
 10
72.4001605935
 20
81.7853197577
 10
73.2369842539
 20
81.1252969219
 10
73.9446708348
 20
80.1951455351
 10
74.4188431308
 20
79.1384125547
 10
74.5906819237
 20
78.1179203683
 10
74.43738511
 20
77.2909684338
 10
73.9856597975
 20
76.7853971965
 10
73.7711318446
 20
76.7520852563
  0
LWPOLYLINE
  5
1A7
330
1F
100
AcDbEntity
  8
0
  6
SLD-実線
 62
     7
370
    15
100
AcDbPolyline
 90
       11
 70
   128
 43
0.0
 10
71.1707970735
 20
82.1259456654
 10
71.1895740707
 20
82.146053438
 10
71.9117886065
 20
82.2768414221
 10
72.7537147006
 20
81.98937181
 10
73.590538361
 20
81.3293489742
 10
74.2982223077
 20
80.3991960671
 10
74.7723972379
 20
79.3424646071
 10
74.9442333966
 20
78.3219709004
 10
74.7909392171
 20
77.4950204861
 10
74.3392139045
 20
76.9894492488
 10
74.1246859517
 20
76.9561373086
  0
LWPOLYLINE
  5
1A8
330
1F
100
AcDbEntity
  8
0
  6
SLD-実線
 62
     7
370
    15
100
AcDbPolyline
 90
        6
 70
   128
 43
0.0
 10
71.5243511806
 20
82.3299977177
 10
71.5431281778
 20
82.3501054903
 10
72.2653427136
 20
82.4808934744
 10
73.1072688077
 20
82.1934238623
 10
73.9440898339
 20
81.5333995062
 10
74.6517764148
 20
80.6032481194
  0
LINE
  5
1A9
330
1F
100
AcDbEntity
  8
0
  6
SLD-実線
 62
     7
370
    15
100
AcDbLine
 10
74.6517764148
 20
80.6032481194
 30
0.0
 11
74.4038679933
 21
80.4649888761
 31
0.0
  0
LWPOLYLINE
  5
1AA
330
1F
100
AcDbEntity
  8
0
  6
SLD-実線
 62
     7
370
    15
100
AcDbPolyline
 90
        5
 70
   128
 43
0.0
 10
72.9896541992
 20
79.6487821871
 10
73.423325514
 20
78.6878708864
 10
73.5817454748
 20
77.7599507735
 10
73.4441656489
 20
77.0082334262
 10
73.0507852395
 20
76.566930546
  0
LWPOLYLINE
  5
1AB
330
1F
100
AcDbEntity
  8
0
  6
SLD-実線
 62
     7
370
    15
100
AcDbPolyline
 90
       10
 70
   128
 43
0.0
 10
70.4875494086
 20
81.4197914819
 10
70.5051569954
 20
81.4386104053
 10
71.1646471784
 20
81.5588244477
 10
71.933120952
 20
81.2982532376
 10
72.6969468058
 20
80.6985062886
 10
73.3432083063
 20
79.8528342394
 10
73.7768769869
 20
78.8919214185
 10
73.9352995818
 20
77.9640028258
 10
73.797719756
 20
77.2122854786
 10
73.4043367124
 20
76.770981078
  0
LWPOLYLINE
  5
1AC
330
1F
100
AcDbEntity
  8
0
  6
SLD-実線
 62
     7
370
    15
100
AcDbPolyline
 90
        5
 70
   128
 43
0.0
 10
70.8411008815
 20
81.6238420139
 10
70.8587111025
 20
81.6426624576
 10
71.5182012855
 20
81.7628765
 10
72.2866724249
 20
81.5023037696
 10
72.9867859909
 20
80.9525855073
  0
ARC
  5
1AD
330
1F
100
AcDbEntity
  8
0
  6
SLD-実線
 62
     7
370
    15
100
AcDbCircle
 10
72.6273414113
 20
78.2422703169
 30
0.0
 40
1.698243813858914
100
AcDbArc
 50
311.7373385353
 51
26.5396733008
  0
ARC
  5
1AE
330
1F
100
AcDbEntity
  8
0
  6
SLD-実線
 62
     7
370
    15
100
AcDbCircle
 10
71.8370462649
 20
80.089928673
 30
0.0
 40
1.843301439620755
100
AcDbArc
 50
35.3587913754
 51
103.5745390603
  0
ARC
  5
1AF
330
1F
100
AcDbEntity
  8
0
  6
SLD-実線
 62
     7
370
    15
100
AcDbCircle
 10
72.9808877034
 20
78.4463238687
 30
0.0
 40
1.698250135336952
100
AcDbArc
 50
311.737501603
 51
26.5395102332
  0
LWPOLYLINE
  5
1B0
330
1F
100
AcDbEntity
  8
0
  6
SLD-実線
 62
     7
370
    15
100
AcDbPolyline
 90
        5
 70
   128
 43
0.0
 10
71.757958773
 20
82.0857902699
 10
72.2253068655
 20
82.1709790844
 10
72.993780639
 20
81.9104078743
 10
73.7576064929
 20
81.3106609253
 10
74.4038679933
 20
80.4649888761
  0
LINE
  5
1B1
330
1F
100
AcDbEntity
  8
0
  6
SLD-実線
 62
     7
370
    15
100
AcDbLine
 10
72.9896541992
 20
79.6487821871
 30
0.0
 11
73.2375626206
 21
79.7870414304
 31
0.0
  0
LINE
  5
1B2
330
1F
100
AcDbEntity
  8
0
  6
SLD-実線
 62
     7
370
    15
100
AcDbLine
 10
73.2375626206
 20
79.7870414304
 30
0.0
 11
73.3259524645
 21
79.8380552037
 31
0.0
  0
LINE
  5
1B3
330
1F
100
AcDbEntity
  8
0
  6
SLD-実線
 62
     7
370
    15
100
AcDbLine
 10
73.2990147014
 20
79.8273281129
 30
0.0
 11
72.9896541992
 21
79.6487821871
 31
0.0
  0
LINE
  5
1B4
330
1F
100
AcDbEntity
  8
0
  6
SLD-実線
 62
     7
370
    15
100
AcDbLine
 10
73.3259524645
 20
79.8380552037
 30
0.0
 11
73.2990147014
 21
79.8273281129
 31
0.0
  0
LWPOLYLINE
  5
1B5
330
1F
100
AcDbEntity
  8
0
  6
SLD-実線
 62
     7
370
    15
100
AcDbPolyline
 90
        5
 70
   128
 43
0.0
 10
73.3259524645
 20
79.8380552037
 10
73.8001247605
 20
78.7813222233
 10
73.9719635534
 20
77.7608300369
 10
73.8186667397
 20
76.9338781024
 10
73.3843607526
 20
76.4478031548
  0
LWPOLYLINE
  5
1B6
330
1F
100
AcDbEntity
  8
0
  6
SLD-実線
 62
     7
370
    15
100
AcDbPolyline
 90
       10
 70
   128
 43
0.0
 10
70.55172951
 20
81.7684815177
 10
70.5708557004
 20
81.7889631065
 10
71.2930702362
 20
81.9197510907
 10
72.1349963303
 20
81.6322814786
 10
72.9718199907
 20
80.9722586428
 10
73.6795039374
 20
80.0421057357
 10
74.1536788676
 20
78.9853742756
 10
74.3255150263
 20
77.9648805689
 10
74.1722208468
 20
77.1379301547
 10
73.7379148596
 20
76.6518552071
  0
LWPOLYLINE
  5
1B7
330
1F
100
AcDbEntity
  8
0
  6
SLD-実線
 62
     7
370
    15
100
AcDbPolyline
 90
       10
 70
   128
 43
0.0
 10
70.9052836171
 20
81.9725335701
 10
70.9244098075
 20
81.9930151589
 10
71.6466243433
 20
82.123803143
 10
72.4885504374
 20
81.8363335309
 10
73.3253714636
 20
81.1763091748
 10
74.0330580445
 20
80.246157788
 10
74.5072329747
 20
79.189426328
 10
74.6790691334
 20
78.1689326213
 10
74.5257749538
 20
77.341982207
 10
74.0914689667
 20
76.8559072594
  0
LWPOLYLINE
  5
1B8
330
1F
100
AcDbEntity
  8
0
  6
SLD-実線
 62
     7
370
    15
100
AcDbPolyline
 90
       10
 70
   128
 43
0.0
 10
71.2588377241
 20
82.1765856224
 10
71.2779612804
 20
82.1970656909
 10
72.0001784504
 20
82.3278551953
 10
72.8421019103
 20
82.0403840629
 10
73.6789255707
 20
81.3803612272
 10
74.3866121516
 20
80.4502098404
 10
74.8607844476
 20
79.39347686
 10
75.0326232405
 20
78.3729846736
 10
74.8793290609
 20
77.5460342594
 10
74.4450230738
 20
77.0599593118
  0
LWPOLYLINE
  5
1B9
330
1F
100
AcDbEntity
  8
0
  6
SLD-実線
 62
     7
370
    15
100
AcDbPolyline
 90
        6
 70
   128
 43
0.0
 10
71.6123891971
 20
82.3806361544
 10
71.6315153875
 20
82.4011177432
 10
72.3537325575
 20
82.5319072477
 10
73.1956560174
 20
82.2444361153
 10
74.0324796778
 20
81.5844132795
 10
74.7401636245
 20
80.6542603724
  0
LINE
  5
1BA
330
1F
100
AcDbEntity
  8
0
  6
SLD-実線
 62
     7
370
    15
100
AcDbLine
 10
74.7401636245
 20
80.6542603724
 30
0.0
 11
74.6517764148
 21
80.6032481194
 31
0.0
  0
LWPOLYLINE
  5
1BB
330
1F
100
AcDbEntity
  8
0
  6
SLD-実線
 62
     7
370
    15
100
AcDbPolyline
 90
       14
 70
   128
 43
0.0
 10
75.0892007748
 20
77.7343577039
 10
75.3831274633
 20
77.9998754194
 10
75.584723413
 20
78.4215737435
 10
75.6588712441
 20
78.9587539204
 10
75.6005181091
 20
79.5748079215
 10
75.4136402999
 20
80.2277528371
 10
75.1109735733
 20
80.8730914604
 10
74.7131440373
 20
81.4668449544
 10
74.2472631459
 20
81.9685501537
 10
73.7450798239
 20
82.3440165851
 10
73.2408171682
 20
82.567656801
 10
72.7688397805
 20
82.6242302489
 10
72.3613121064
 20
82.5098813995
 10
72.3399334467
 20
82.4979203932
  0
LWPOLYLINE
  5
1BC
330
1F
100
AcDbEntity
  8
0
  6
SLD-実線
 62
     7
370
    15
100
AcDbPolyline
 90
        9
 70
   128
 43
0.0
 10
72.9896541992
 20
79.6487821871
 10
72.5918246631
 20
80.242535681
 10
72.1259437717
 20
80.7442408804
 10
71.6237604497
 20
81.1197073117
 10
71.119497794
 20
81.3433475277
 10
70.6475204063
 20
81.3999209755
 10
70.2399927322
 20
81.2855721262
 10
69.9246872194
 20
81.008093642
 10
69.9112550517
 20
80.9895200428
  0
LWPOLYLINE
  5
1BD
330
1F
100
AcDbEntity
  8
0
  6
SLD-実線
 62
     7
370
    15
100
AcDbPolyline
 90
        8
 70
   128
 43
0.0
 10
72.5681335244
 20
76.3860363916
 10
72.9465025764
 20
76.4980876143
 10
73.2618080892
 20
76.775566146
 10
73.4634040388
 20
77.1972644702
 10
73.5375518699
 20
77.734444647
 10
73.479198735
 20
78.3504986482
 10
73.2923209258
 20
79.0034435638
 10
72.9896541992
 20
79.6487821871
  0
ARC
  5
1BE
330
1F
100
AcDbEntity
  8
0
  6
SLD-実線
 62
     7
370
    15
100
AcDbCircle
 10
75.9098142485
 20
80.8929727624
 30
0.0
 40
0.2426712284560941
100
AcDbArc
 50
125.8336061044
 51
176.8294277057
  0
ARC
  5
1BF
330
1F
100
AcDbEntity
  8
0
  6
SLD-実線
 62
     7
370
    15
100
AcDbCircle
 10
70.1049359206
 20
78.0325533483
 30
0.0
 40
6.261089654962722
100
AcDbArc
 50
27.3226093613
 51
29.4257688595
  0
ARC
  5
1C0
330
1F
100
AcDbEntity
  8
0
  6
SLD-実線
 62
     7
370
    15
100
AcDbCircle
 10
75.6814792703
 20
81.3038128733
 30
0.0
 40
0.2308278528635131
100
AcDbArc
 50
237.7484206758
 51
291.9458055344
  0
LWPOLYLINE
  5
1C1
330
1F
100
AcDbEntity
  8
0
  6
SLD-実線
 62
     7
370
    15
100
AcDbPolyline
 90
        7
 70
   128
 43
0.0
 10
76.9725145906
 20
81.9248054204
 10
76.978661445
 20
81.9211251454
 10
77.0221306509
 20
81.8820740594
 10
77.0339811593
 20
81.8529473263
 10
77.030399665
 20
81.8296868748
 10
77.0167039149
 20
81.8119871239
 10
77.0051831726
 20
81.8038919843
  0
LINE
  5
1C2
330
1F
100
AcDbEntity
  8
0
  6
SLD-実線
 62
     7
370
    15
100
AcDbLine
 10
77.0051831726
 20
81.8038919843
 30
0.0
 11
75.767746432
 21
81.0897113215
 31
0.0
  0
LINE
  5
1C3
330
1F
100
AcDbEntity
  8
0
  6
SLD-実線
 62
     7
370
    15
100
AcDbLine
 10
75.4332677251
 20
81.1807965231
 30
0.0
 11
75.5583007964
 21
81.1085987314
 31
0.0
  0
LINE
  5
1C4
330
1F
100
AcDbEntity
  8
0
  6
SLD-実線
 62
     7
370
    15
100
AcDbLine
 10
76.8474815193
 20
81.9970032121
 30
0.0
 11
75.4332677251
 21
81.1807965231
 31
0.0
  0
LINE
  5
1C5
330
1F
100
AcDbEntity
  8
0
  6
SLD-実線
 62
     7
370
    15
100
AcDbLine
 10
76.9725145906
 20
81.9248054204
 30
0.0
 11
76.8474815193
 21
81.9970032121
 31
0.0
  0
LINE
  5
1C6
330
1F
100
AcDbEntity
  8
0
  6
SLD-実線
 62
     7
370
    15
100
AcDbLine
 10
77.0694971232
 20
81.5859517139
 30
0.0
 11
75.655283329
 21
80.7697450249
 31
0.0
  0
LINE
  5
1C7
330
1F
100
AcDbEntity
  8
0
  6
SLD-実線
 62
     7
370
    15
100
AcDbLine
 10
75.6675144761
 20
80.9063945897
 30
0.0
 11
75.655283329
 21
80.7697450249
 31
0.0
  0
LWPOLYLINE
  5
1C8
330
1F
100
AcDbEntity
  8
0
  6
SLD-実線
 62
     7
370
    15
100
AcDbPolyline
 90
        6
 70
   128
 43
0.0
 10
77.0051831726
 20
81.8038919843
 10
77.0284248546
 20
81.81278765
 10
77.048128671
 20
81.8117973766
 10
77.0675201725
 20
81.7977725072
 10
77.0807607038
 20
81.7636191978
 10
77.0817282703
 20
81.7226012787
  0
LINE
  5
1C9
330
1F
100
AcDbEntity
  8
0
  6
SLD-実線
 62
     7
370
    15
100
AcDbLine
 10
77.0694971232
 20
81.5859517139
 30
0.0
 11
77.0817282703
 21
81.7226012787
 31
0.0
  0
ARC
  5
1CA
330
1F
100
AcDbEntity
  8
0
  6
SLD-実線
 62
     7
370
    15
100
AcDbCircle
 10
75.6478501464
 20
81.3472813626
 30
0.0
 40
0.2199208097351261
100
AcDbArc
 50
127.8613702993
 51
185.1130281131
  0
ARC
  5
1CB
330
1F
100
AcDbEntity
  8
0
  6
SLD-実線
 62
     7
370
    15
100
AcDbCircle
 10
70.1299186171
 20
78.0489296068
 30
0.0
 40
6.231244436483971
100
AcDbArc
 50
31.747671522
 51
33.8575152137
  0
ARC
  5
1CC
330
1F
100
AcDbEntity
  8
0
  6
SLD-実線
 62
     7
370
    15
100
AcDbCircle
 10
75.4082706035
 20
81.7568261192
 30
0.0
 40
0.2580675111900614
100
AcDbArc
 50
246.2909626244
 51
293.9118013333
  0
LINE
  5
1CD
330
1F
100
AcDbEntity
  8
0
  6
SLD-実線
 62
     7
370
    15
100
AcDbLine
 10
75.4288044397
 20
81.327681849
 30
0.0
 11
75.4332677251
 21
81.1807965231
 31
0.0
  0
LINE
  5
1CE
330
1F
100
AcDbEntity
  8
0
  6
SLD-実線
 62
     7
370
    15
100
AcDbLine
 10
76.7503098198
 20
82.2350890794
 30
0.0
 11
75.5128730791
 21
81.5209084166
 31
0.0
  0
LWPOLYLINE
  5
1CF
330
1F
100
AcDbEntity
  8
0
  6
SLD-実線
 62
     7
370
    15
100
AcDbPolyline
 90
        6
 70
   128
 43
0.0
 10
76.7503098198
 20
82.2350890794
 10
76.7741334905
 20
82.2436281279
 10
76.7954298321
 20
82.2416611241
 10
76.8180697691
 20
82.2256446904
 10
76.8366947249
 20
82.1881902246
 10
76.8430182339
 20
82.143888538
  0
LINE
  5
1D0
330
1F
100
AcDbEntity
  8
0
  6
SLD-実線
 62
     7
370
    15
100
AcDbLine
 10
76.8474815193
 20
81.9970032121
 30
0.0
 11
76.8430182339
 21
82.143888538
 31
0.0
  0
LWPOLYLINE
  5
1D1
330
1F
100
AcDbEntity
  8
0
  6
SLD-実線
 62
     7
370
    15
100
AcDbPolyline
 90
        7
 70
   128
 43
0.0
 10
76.7187174641
 20
82.3367464061
 10
76.7248085069
 20
82.3340621581
 10
76.7677838044
 20
82.3038476385
 10
76.7793575595
 20
82.2796757521
 10
76.7756127461
 20
82.2593354079
 10
76.7618415926
 20
82.2429850516
 10
76.7503098198
 20
82.2350890794
  0
LINE
  5
1D2
330
1F
100
AcDbEntity
  8
0
  6
SLD-実線
 62
     7
370
    15
100
AcDbLine
 10
75.1805820571
 20
81.5728490074
 30
0.0
 11
75.3045036699
 21
81.5205397171
 31
0.0
  0
LINE
  5
1D3
330
1F
100
AcDbEntity
  8
0
  6
SLD-実線
 62
     7
370
    15
100
AcDbLine
 10
76.5947958513
 20
82.3890556964
 30
0.0
 11
75.1805820571
 21
81.5728490074
 31
0.0
  0
LINE
  5
1D4
330
1F
100
AcDbEntity
  8
0
  6
SLD-実線
 62
     7
370
    15
100
AcDbLine
 10
76.7187174641
 20
82.3367464061
 30
0.0
 11
76.5947958513
 21
82.3890556964
 31
0.0
  0
ARC
  5
1D5
330
1F
100
AcDbEntity
  8
0
  6
SLD-実線
 62
     7
370
    15
100
AcDbCircle
 10
76.1432003758
 20
80.411347492
 30
0.0
 40
0.2782957760479463
100
AcDbArc
 50
124.005249054
 51
167.6215269885
  0
ARC
  5
1D6
330
1F
100
AcDbEntity
  8
0
  6
SLD-実線
 62
     7
370
    15
100
AcDbCircle
 10
70.276169221
 20
78.1151354439
 30
0.0
 40
6.070950603822122
100
AcDbArc
 50
22.8336027551
 51
24.9803928588
  0
ARC
  5
1D7
330
1F
100
AcDbEntity
  8
0
  6
SLD-実線
 62
     7
370
    15
100
AcDbCircle
 10
75.9153933109
 20
80.8413003942
 30
0.0
 40
0.2119154054340111
100
AcDbArc
 50
230.0070571107
 51
289.9095568142
  0
LWPOLYLINE
  5
1D8
330
1F
100
AcDbEntity
  8
0
  6
SLD-実線
 62
     7
370
    15
100
AcDbPolyline
 90
        7
 70
   128
 43
0.0
 10
77.1934105041
 20
81.4951536879
 10
77.1995012177
 20
81.4905421891
 10
77.2424727285
 20
81.4432272161
 10
77.2540446726
 20
81.4094659449
 10
77.2502985422
 20
81.3834750442
 10
77.2365267302
 20
81.364513126
 10
77.2249949573
 20
81.3562315516
  0
LINE
  5
1D9
330
1F
100
AcDbEntity
  8
0
  6
SLD-実線
 62
     7
370
    15
100
AcDbLine
 10
77.2249949573
 20
81.3562315516
 30
0.0
 11
75.9875582167
 21
80.6420508887
 31
0.0
  0
LINE
  5
1DA
330
1F
100
AcDbEntity
  8
0
  6
SLD-実線
 62
     7
370
    15
100
AcDbLine
 10
75.655283329
 20
80.7697450249
 30
0.0
 11
75.77919671
 21
80.6789469989
 31
0.0
  0
LINE
  5
1DB
330
1F
100
AcDbEntity
  8
0
  6
SLD-実線
 62
     7
370
    15
100
AcDbLine
 10
77.1934105041
 20
81.4951536879
 30
0.0
 11
77.0694971232
 21
81.5859517139
 31
0.0
  0
LINE
  5
1DC
330
1F
100
AcDbEntity
  8
0
  6
SLD-実線
 62
     7
370
    15
100
AcDbLine
 10
77.2568803653
 20
81.1632367884
 30
0.0
 11
75.8426665711
 21
80.3470300994
 31
0.0
  0
LINE
  5
1DD
330
1F
100
AcDbEntity
  8
0
  6
SLD-実線
 62
     7
370
    15
100
AcDbLine
 10
75.8713741726
 20
80.4710053011
 30
0.0
 11
75.8426665711
 21
80.3470300994
 31
0.0
  0
LWPOLYLINE
  5
1DE
330
1F
100
AcDbEntity
  8
0
  6
SLD-実線
 62
     7
370
    15
100
AcDbPolyline
 90
        6
 70
   128
 43
0.0
 10
77.2249949573
 20
81.3562315516
 10
77.2476620593
 20
81.3655693042
 10
77.2657940945
 20
81.3657879276
 10
77.2819794721
 20
81.3542295082
 10
77.2899063724
 20
81.3241637926
 10
77.2855879667
 20
81.2872119901
  0
LINE
  5
1DF
330
1F
100
AcDbEntity
  8
0
  6
SLD-実線
 62
     7
370
    15
100
AcDbLine
 10
77.2568803653
 20
81.1632367884
 30
0.0
 11
77.2855879667
 21
81.2872119901
 31
0.0
  0
ARC
  5
1E0
330
1F
100
AcDbEntity
  8
0
  6
SLD-実線
 62
     7
370
    15
100
AcDbCircle
 10
75.3583644265
 20
81.7717747869
 30
0.0
 40
0.203762558081849
100
AcDbArc
 50
129.9641515892
 51
192.5932022275
  0
ARC
  5
1E1
330
1F
100
AcDbEntity
  8
0
  6
SLD-実線
 62
     7
370
    15
100
AcDbCircle
 10
70.3318957814
 20
78.1921662476
 30
0.0
 40
5.983587261933501
100
AcDbArc
 50
36.2147409867
 51
38.3824250236
  0
ARC
  5
1E2
330
1F
100
AcDbEntity
  8
0
  6
SLD-実線
 62
     7
370
    15
100
AcDbCircle
 10
75.0966825551
 20
82.1997783285
 30
0.0
 40
0.3016643025566095
100
AcDbArc
 50
255.7317587799
 51
295.6966372243
  0
LINE
  5
1E3
330
1F
100
AcDbEntity
  8
0
  6
SLD-実線
 62
     7
370
    15
100
AcDbLine
 10
75.1595038584
 20
81.7273489552
 30
0.0
 11
75.1805820571
 21
81.5728490074
 31
0.0
  0
LINE
  5
1E4
330
1F
100
AcDbEntity
  8
0
  6
SLD-実線
 62
     7
370
    15
100
AcDbLine
 10
76.4649228071
 20
82.6421285426
 30
0.0
 11
75.2274860665
 21
81.9279478798
 31
0.0
  0
LWPOLYLINE
  5
1E5
330
1F
100
AcDbEntity
  8
0
  6
SLD-実線
 62
     7
370
    15
100
AcDbPolyline
 90
        6
 70
   128
 43
0.0
 10
76.4649228071
 20
82.6421285426
 10
76.4893258324
 20
82.6504020498
 10
76.512207126
 20
82.6477087265
 10
76.5380801873
 20
82.630210582
 10
76.5620635551
 20
82.5903003105
 10
76.5737176526
 20
82.5435556442
  0
LINE
  5
1E6
330
1F
100
AcDbEntity
  8
0
  6
SLD-実線
 62
     7
370
    15
100
AcDbLine
 10
76.5947958513
 20
82.3890556964
 30
0.0
 11
76.5737176526
 21
82.5435556442
 31
0.0
  0
LWPOLYLINE
  5
1E7
330
1F
100
AcDbEntity
  8
0
  6
SLD-実線
 62
     7
370
    15
100
AcDbPolyline
 90
        7
 70
   128
 43
0.0
 10
76.436547606
 20
82.7236263067
 10
76.442472531
 20
82.7219842555
 10
76.4839713717
 20
82.7010210739
 10
76.4947171717
 20
82.6820369754
 10
76.4904845415
 20
82.6647534438
 10
76.4764880012
 20
82.6498158473
 10
76.4649228071
 20
82.6421285426
  0
LINE
  5
1E8
330
1F
100
AcDbEntity
  8
0
  6
SLD-実線
 62
     7
370
    15
100
AcDbLine
 10
74.9017352146
 20
81.9389064576
 30
0.0
 11
75.0223338118
 21
81.9074196177
 31
0.0
  0
LINE
  5
1E9
330
1F
100
AcDbEntity
  8
0
  6
SLD-実線
 62
     7
370
    15
100
AcDbLine
 10
76.3159490088
 20
82.7551131466
 30
0.0
 11
74.9017352146
 21
81.9389064576
 31
0.0
  0
LINE
  5
1EA
330
1F
100
AcDbEntity
  8
0
  6
SLD-実線
 62
     7
370
    15
100
AcDbLine
 10
76.436547606
 20
82.7236263067
 30
0.0
 11
76.3159490088
 21
82.7551131466
 31
0.0
  0
ARC
  5
1EB
330
1F
100
AcDbEntity
  8
0
  6
SLD-実線
 62
     7
370
    15
100
AcDbCircle
 10
74.8753067154
 20
78.1868683039
 30
0.0
 40
1.379406999507966
100
AcDbArc
 50
276.3061277846
 51
282.0727082214
  0
LINE
  5
1EC
330
1F
100
AcDbEntity
  8
0
  6
SLD-実線
 62
     7
370
    15
100
AcDbLine
 10
75.026821628
 20
76.8158078014
 30
0.0
 11
74.9061560239
 21
76.9232813668
 31
0.0
  0
LINE
  5
1ED
330
1F
100
AcDbEntity
  8
0
  6
SLD-実線
 62
     7
370
    15
100
AcDbLine
 10
74.9061560239
 20
76.9232813668
 30
0.0
 11
74.8690824377
 21
76.8067706426
 31
0.0
  0
ARC
  5
1EE
330
1F
100
AcDbEntity
  8
0
  6
SLD-実線
 62
     7
370
    15
100
AcDbCircle
 10
74.8612187773
 20
78.4652709678
 30
0.0
 40
1.658518967549354
100
AcDbArc
 50
265.1720240884
 51
270.2716617933
  0
LINE
  5
1EF
330
1F
100
AcDbEntity
  8
0
  6
SLD-実線
 62
     7
370
    15
100
AcDbLine
 10
74.7216305357
 20
76.8126366197
 30
0.0
 11
74.6064076373
 21
76.9352059629
 31
0.0
  0
LINE
  5
1F0
330
1F
100
AcDbEntity
  8
0
  6
SLD-実線
 62
     7
370
    15
100
AcDbLine
 10
74.6064076373
 20
76.9352059629
 30
0.0
 11
74.5537489367
 21
76.8346275305
 31
0.0
  0
ARC
  5
1F1
330
1F
100
AcDbEntity
  8
0
  6
SLD-実線
 62
     7
370
    15
100
AcDbCircle
 10
74.9160649192
 20
78.8733759793
 30
0.0
 40
2.070692663948065
100
AcDbArc
 50
255.5246717406
 51
259.9228941505
  0
LINE
  5
1F2
330
1F
100
AcDbEntity
  8
0
  6
SLD-実線
 62
     7
370
    15
100
AcDbLine
 10
74.3984681753
 20
76.8684166981
 30
0.0
 11
74.2907442879
 21
77.0038945201
 31
0.0
  0
LINE
  5
1F3
330
1F
100
AcDbEntity
  8
0
  6
SLD-実線
 62
     7
370
    15
100
AcDbLine
 10
71.2479366723
 20
82.1801520412
 30
0.0
 11
71.2215326595
 21
82.2431853249
 31
0.0
  0
ARC
  5
1F4
330
1F
100
AcDbEntity
  8
0
  6
SLD-実線
 62
     7
370
    15
100
AcDbCircle
 10
73.3670828862
 20
81.7404081521
 30
0.0
 40
2.203672085569718
100
AcDbArc
 50
162.5922411034
 51
166.8115703967
  0
LINE
  5
1F5
330
1F
100
AcDbEntity
  8
0
  6
SLD-実線
 62
     7
370
    15
100
AcDbLine
 10
71.2643393696
 20
82.3996807545
 30
0.0
 11
71.3758047777
 21
82.4007695521
 31
0.0
  0
LINE
  5
1F6
330
1F
100
AcDbEntity
  8
0
  6
SLD-実線
 62
     7
370
    15
100
AcDbLine
 10
71.3758047777
 20
82.4007695521
 30
0.0
 11
71.3232018887
 21
82.5621292466
 31
0.0
  0
ARC
  5
1F7
330
1F
100
AcDbEntity
  8
0
  6
SLD-実線
 62
     7
370
    15
100
AcDbCircle
 10
72.9465948064
 20
81.8914522937
 30
0.0
 40
1.756477196085745
100
AcDbArc
 50
152.6445665976
 51
157.5528721288
  0
LINE
  5
1F8
330
1F
100
AcDbEntity
  8
0
  6
SLD-実線
 62
     7
370
    15
100
AcDbLine
 10
71.3865390531
 20
82.6985695014
 30
0.0
 11
71.5045599425
 21
82.6781328528
 31
0.0
  0
LINE
  5
1F9
330
1F
100
AcDbEntity
  8
0
  6
SLD-実線
 62
     7
370
    15
100
AcDbLine
 10
71.5045599425
 20
82.6781328528
 30
0.0
 11
71.4675451313
 21
82.8374244446
 31
0.0
  0
ARC
  5
1FA
330
1F
100
AcDbEntity
  8
0
  6
SLD-実線
 62
     7
370
    15
100
AcDbCircle
 10
72.6739177983
 20
82.0485121139
 30
0.0
 40
1.441429039940755
100
AcDbArc
 50
141.2174523702
 51
146.8171566454
  0
LINE
  5
1FB
330
1F
100
AcDbEntity
  8
0
  6
SLD-実線
 62
     7
370
    15
100
AcDbLine
 10
71.5502823584
 20
82.9513748252
 30
0.0
 11
71.6727528684
 21
82.9097771496
 31
0.0
  0
LINE
  5
1FC
330
1F
100
AcDbEntity
  8
0
  6
SLD-実線
 62
     7
370
    15
100
AcDbLine
 10
71.6727528684
 20
82.9097771496
 30
0.0
 11
71.6519864905
 21
83.0641583564
 31
0.0
  0
ARC
  5
1FD
330
1F
100
AcDbEntity
  8
0
  6
SLD-実線
 62
     7
370
    15
100
AcDbCircle
 10
72.5381350399
 20
82.1680534152
 30
0.0
 40
1.260263193580694
100
AcDbArc
 50
128.5555149041
 51
134.6799258379
  0
LINE
  5
1FE
330
1F
100
AcDbEntity
  8
0
  6
SLD-実線
 62
     7
370
    15
100
AcDbLine
 10
71.7526474881
 20
83.1535850601
 30
0.0
 11
71.8773819094
 21
83.0915691296
 31
0.0
  0
LINE
  5
1FF
330
1F
100
AcDbEntity
  8
0
  6
SLD-実線
 62
     7
370
    15
100
AcDbLine
 10
71.8773819094
 20
83.0915691296
 30
0.0
 11
71.8732347254
 21
83.2382845683
 31
0.0
  0
ARC
  5
200
330
1F
100
AcDbEntity
  8
0
  6
SLD-実線
 62
     7
370
    15
100
AcDbCircle
 10
72.5075254684
 20
82.207538641
 30
0.0
 40
1.210273486993731
100
AcDbArc
 50
115.3147985322
 51
121.6069199244
  0
LINE
  5
201
330
1F
100
AcDbEntity
  8
0
  6
SLD-実線
 62
     7
370
    15
100
AcDbLine
 10
71.9900229841
 20
83.3015921552
 30
0.0
 11
72.114795601
 21
83.2202643705
 31
0.0
  0
LINE
  5
202
330
1F
100
AcDbEntity
  8
0
  6
SLD-実線
 62
     7
370
    15
100
AcDbLine
 10
72.114795601
 20
83.2202643705
 30
0.0
 11
72.1273415324
 21
83.3566961326
 31
0.0
  0
ARC
  5
203
330
1F
100
AcDbEntity
  8
0
  6
SLD-実線
 62
     7
370
    15
100
AcDbCircle
 10
72.5351122828
 20
82.1325573213
 30
0.0
 40
1.290268504677177
100
AcDbArc
 50
102.3942242085
 51
108.4233419027
  0
LINE
  5
204
330
1F
100
AcDbEntity
  8
0
  6
SLD-実線
 62
     7
370
    15
100
AcDbLine
 10
72.2581730881
 20
83.3927547251
 30
0.0
 11
72.3807572793
 21
83.2935663515
 31
0.0
  0
LINE
  5
205
330
1F
100
AcDbEntity
  8
0
  6
SLD-実線
 62
     7
370
    15
100
AcDbLine
 10
72.3807572793
 20
83.2935663515
 30
0.0
 11
72.4097724211
 21
83.4172798261
 31
0.0
  0
ARC
  5
206
330
1F
100
AcDbEntity
  8
0
  6
SLD-実線
 62
     7
370
    15
100
AcDbCircle
 10
72.5668606956
 20
81.9234346573
 30
0.0
 40
1.502081926656865
100
AcDbArc
 50
90.5549359734
 51
96.0029900764
  0
LINE
  5
207
330
1F
100
AcDbEntity
  8
0
  6
SLD-実線
 62
     7
370
    15
100
AcDbLine
 10
72.5523125688
 20
83.4254461308
 30
0.0
 11
72.6705208141
 21
83.3101671666
 31
0.0
  0
LINE
  5
208
330
1F
100
AcDbEntity
  8
0
  6
SLD-実線
 62
     7
370
    15
100
AcDbLine
 10
72.6705208141
 20
83.3101671666
 30
0.0
 11
72.7154873856
 21
83.4189547736
 31
0.0
  0
ARC
  5
209
330
1F
100
AcDbEntity
  8
0
  6
SLD-実線
 62
     7
370
    15
100
AcDbCircle
 10
72.5514937803
 20
81.5780095508
 30
0.0
 40
1.848235162550212
100
AcDbArc
 50
80.1650293504
 51
84.9094602217
  0
LINE
  5
20A
330
1F
100
AcDbEntity
  8
0
  6
SLD-実線
 62
     7
370
    15
100
AcDbLine
 10
72.8671925178
 20
83.3990827298
 30
0.0
 11
72.9789153653
 21
83.2697702896
 31
0.0
  0
LINE
  5
20B
330
1F
100
AcDbEntity
  8
0
  6
SLD-実線
 62
     7
370
    15
100
AcDbLine
 10
72.9789153653
 20
83.2697702896
 30
0.0
 11
73.0390309866
 21
83.3616908088
 31
0.0
  0
ARC
  5
20C
330
1F
100
AcDbEntity
  8
0
  6
SLD-実線
 62
     7
370
    15
100
AcDbCircle
 10
72.4491464972
 20
81.1130268852
 30
0.0
 40
2.324747976083926
100
AcDbArc
 50
71.2296548129
 51
75.3009880811
  0
LINE
  5
20D
330
1F
100
AcDbEntity
  8
0
  6
SLD-実線
 62
     7
370
    15
100
AcDbLine
 10
73.1971938835
 20
83.3141353015
 30
0.0
 11
73.3004376515
 21
83.1730972162
 31
0.0
  0
LINE
  5
20E
330
1F
100
AcDbEntity
  8
0
  6
SLD-実線
 62
     7
370
    15
100
AcDbLine
 10
73.3004376515
 20
83.1730972162
 30
0.0
 11
73.3746295227
 21
83.2465098147
 31
0.0
  0
ARC
  5
20F
330
1F
100
AcDbEntity
  8
0
  6
SLD-実線
 62
     7
370
    15
100
AcDbCircle
 10
72.2387546148
 20
80.5628439577
 30
0.0
 40
2.914150689006201
100
AcDbArc
 50
63.5574249046
 51
67.0592476087
  0
LINE
  5
210
330
1F
100
AcDbEntity
  8
0
  6
SLD-実線
 62
     7
370
    15
100
AcDbLine
 10
73.5364277756
 20
83.1721194521
 30
0.0
 11
73.6293500932
 21
83.0218720808
 31
0.0
  0
LINE
  5
211
330
1F
100
AcDbEntity
  8
0
  6
SLD-実線
 62
     7
370
    15
100
AcDbLine
 10
73.6293500932
 20
83.0218720808
 30
0.0
 11
73.7162942672
 21
83.0754672104
 31
0.0
  0
ARC
  5
212
330
1F
100
AcDbEntity
  8
0
  6
SLD-実線
 62
     7
370
    15
100
AcDbCircle
 10
71.9221041906
 20
79.9738989053
 30
0.0
 40
3.583133263231603
100
AcDbArc
 50
56.9003761621
 51
59.9515485163
  0
LINE
  5
213
330
1F
100
AcDbEntity
  8
0
  6
SLD-実線
 62
     7
370
    15
100
AcDbLine
 10
73.8788405855
 20
82.9755695506
 30
0.0
 11
73.9597831965
 21
82.8187945102
 31
0.0
  0
LINE
  5
214
330
1F
100
AcDbEntity
  8
0
  6
SLD-実線
 62
     7
370
    15
100
AcDbLine
 10
73.9597831965
 20
82.8187945102
 30
0.0
 11
74.0579281425
 21
82.8516152935
 31
0.0
  0
ARC
  5
215
330
1F
100
AcDbEntity
  8
0
  6
SLD-実線
 62
     7
370
    15
100
AcDbCircle
 10
71.5238725511
 20
79.397947282
 30
0.0
 40
4.283603678373331
100
AcDbArc
 50
51.0225390578
 51
53.7314314381
  0
LINE
  5
216
330
1F
100
AcDbEntity
  8
0
  6
SLD-実線
 62
     7
370
    15
100
AcDbLine
 10
74.2183219258
 20
82.7279927833
 30
0.0
 11
74.2858404362
 21
82.5674878366
 31
0.0
  0
LINE
  5
217
330
1F
100
AcDbEntity
  8
0
  6
SLD-実線
 62
     7
370
    15
100
AcDbLine
 10
74.2858404362
 20
82.5674878366
 30
0.0
 11
74.393434755
 21
82.5789490569
 31
0.0
  0
ARC
  5
218
330
1F
100
AcDbEntity
  8
0
  6
SLD-実線
 62
     7
370
    15
100
AcDbCircle
 10
71.0874638223
 20
78.884050435
 30
0.0
 40
4.957995525823694
100
AcDbArc
 50
45.7224406366
 51
48.1797525421
  0
LINE
  5
219
330
1F
100
AcDbEntity
  8
0
  6
SLD-実線
 62
     7
370
    15
100
AcDbLine
 10
74.5488136395
 20
82.4338077615
 30
0.0
 11
74.6017033246
 21
82.2724367469
 31
0.0
  0
LINE
  5
21A
330
1F
100
AcDbEntity
  8
0
  6
SLD-実線
 62
     7
370
    15
100
AcDbLine
 10
74.6017033246
 20
82.2724367469
 30
0.0
 11
74.7168269474
 21
82.2623336517
 31
0.0
  0
ARC
  5
21B
330
1F
100
AcDbEntity
  8
0
  6
SLD-実線
 62
     7
370
    15
100
AcDbCircle
 10
70.669753773
 20
78.4733121633
 30
0.0
 40
5.54395933597949
100
AcDbArc
 50
40.8329708418
 51
43.1138651424
  0
LINE
  5
21C
330
1F
100
AcDbEntity
  8
0
  6
SLD-実線
 62
     7
370
    15
100
AcDbLine
 10
74.8644182962
 20
82.0982638398
 30
0.0
 11
74.9017352146
 21
81.9389064576
 31
0.0
  0
LINE
  5
21D
330
1F
100
AcDbEntity
  8
0
  6
SLD-実線
 62
     7
370
    15
100
AcDbLine
 10
75.8426665711
 20
80.3470300994
 30
0.0
 11
75.963249034
 21
80.2392520005
 31
0.0
  0
ARC
  5
21E
330
1F
100
AcDbEntity
  8
0
  6
SLD-実線
 62
     7
370
    15
100
AcDbCircle
 10
70.6407395773
 20
78.2583341366
 30
0.0
 40
5.679185020768611
100
AcDbArc
 50
18.1696467694
 51
20.4141304635
  0
LINE
  5
21F
330
1F
100
AcDbEntity
  8
0
  6
SLD-実線
 62
     7
370
    15
100
AcDbLine
 10
76.0367455645
 20
80.0292835672
 30
0.0
 11
75.9920741856
 21
79.9201945853
 31
0.0
  0
LINE
  5
220
330
1F
100
AcDbEntity
  8
0
  6
SLD-実線
 62
     7
370
    15
100
AcDbLine
 10
75.9920741856
 20
79.9201945853
 30
0.0
 11
76.1071736069
 21
79.797360055
 31
0.0
  0
ARC
  5
221
330
1F
100
AcDbEntity
  8
0
  6
SLD-実線
 62
     7
370
    15
100
AcDbCircle
 10
71.1691812627
 20
78.4176789783
 30
0.0
 40
5.127113053612944
100
AcDbArc
 50
13.2074844485
 51
15.6104280245
  0
LINE
  5
222
330
1F
100
AcDbEntity
  8
0
  6
SLD-実線
 62
     7
370
    15
100
AcDbLine
 10
76.1606773847
 20
79.5891117458
 30
0.0
 11
76.1008393966
 21
79.4968560639
 31
0.0
  0
LINE
  5
223
330
1F
100
AcDbEntity
  8
0
  6
SLD-実線
 62
     7
370
    15
100
AcDbLine
 10
76.1008393966
 20
79.4968560639
 30
0.0
 11
76.2084024345
 21
79.3611565852
 31
0.0
  0
ARC
  5
224
330
1F
100
AcDbEntity
  8
0
  6
SLD-実線
 62
     7
370
    15
100
AcDbCircle
 10
71.8110734963
 20
78.5512617657
 30
0.0
 40
4.471289680775979
100
AcDbArc
 50
7.8033532019
 51
10.435717878
  0
LINE
  5
225
330
1F
100
AcDbEntity
  8
0
  6
SLD-実線
 62
     7
370
    15
100
AcDbLine
 10
76.2409585701
 20
79.1583446617
 30
0.0
 11
76.1670214732
 21
79.0845685479
 31
0.0
  0
LINE
  5
226
330
1F
100
AcDbEntity
  8
0
  6
SLD-実線
 62
     7
370
    15
100
AcDbLine
 10
76.1670214732
 20
79.0845685479
 30
0.0
 11
76.2651281413
 21
78.9384260936
 31
0.0
  0
ARC
  5
227
330
1F
100
AcDbEntity
  8
0
  6
SLD-実線
 62
     7
370
    15
100
AcDbCircle
 10
72.5072199341
 20
78.6273462533
 30
0.0
 40
3.770761827625378
100
AcDbArc
 50
1.7829841129
 51
4.7321582452
  0
LINE
  5
228
330
1F
100
AcDbEntity
  8
0
  6
SLD-実線
 62
     7
370
    15
100
AcDbLine
 10
76.2761561277
 20
78.7446694389
 30
0.0
 11
76.1894396454
 21
78.6906893476
 31
0.0
  0
LINE
  5
229
330
1F
100
AcDbEntity
  8
0
  6
SLD-実線
 62
     7
370
    15
100
AcDbLine
 10
76.1894396454
 20
78.6906893476
 30
0.0
 11
76.2763395323
 21
78.5367116134
 31
0.0
  0
ARC
  5
22A
330
1F
100
AcDbEntity
  8
0
  6
SLD-実線
 62
     7
370
    15
100
AcDbCircle
 10
73.1896427055
 20
78.6279579017
 30
0.0
 40
3.08804520456935
100
AcDbArc
 50
354.9376233969
 51
358.3067643336
  0
LINE
  5
22B
330
1F
100
AcDbEntity
  8
0
  6
SLD-実線
 62
     7
370
    15
100
AcDbLine
 10
76.2656421353
 20
78.3554680973
 30
0.0
 11
76.1676935179
 21
78.3222474048
 31
0.0
  0
LINE
  5
22C
330
1F
100
AcDbEntity
  8
0
  6
SLD-実線
 62
     7
370
    15
100
AcDbLine
 10
76.1676935179
 20
78.3222474048
 30
0.0
 11
76.2418357513
 21
78.1631822344
 31
0.0
  0
ARC
  5
22D
330
1F
100
AcDbEntity
  8
0
  6
SLD-実線
 62
     7
370
    15
100
AcDbCircle
 10
73.7996384775
 20
78.5529345155
 30
0.0
 40
2.473102174374603
100
AcDbArc
 50
347.0256430119
 51
350.9325832739
  0
LINE
  5
22E
330
1F
100
AcDbEntity
  8
0
  6
SLD-実線
 62
     7
370
    15
100
AcDbLine
 10
76.2096039489
 20
77.9976861103
 30
0.0
 11
76.1021713028
 21
77.9858174953
 31
0.0
  0
LINE
  5
22F
330
1F
100
AcDbEntity
  8
0
  6
SLD-実線
 62
     7
370
    15
100
AcDbLine
 10
76.1021713028
 20
77.9858174953
 30
0.0
 11
76.1622328669
 21
77.8245033755
 31
0.0
  0
ARC
  5
230
330
1F
100
AcDbEntity
  8
0
  6
SLD-実線
 62
     7
370
    15
100
AcDbCircle
 10
74.2901550426
 20
78.4198063878
 30
0.0
 40
1.964449301083587
100
AcDbArc
 50
337.8047370738
 51
342.3598289549
  0
LINE
  5
231
330
1F
100
AcDbEntity
  8
0
  6
SLD-実線
 62
     7
370
    15
100
AcDbLine
 10
76.1090422269
 20
77.6777076968
 30
0.0
 11
75.9940422459
 21
77.6874032192
 31
0.0
  0
LINE
  5
232
330
1F
100
AcDbEntity
  8
0
  6
SLD-実線
 62
     7
370
    15
100
AcDbLine
 10
75.9940422459
 20
77.6874032192
 30
0.0
 11
76.0389513593
 21
77.5267187667
 31
0.0
  0
ARC
  5
233
330
1F
100
AcDbEntity
  8
0
  6
SLD-実線
 62
     7
370
    15
100
AcDbCircle
 10
74.6371494507
 20
78.2604239285
 30
0.0
 40
1.5822047451469
100
AcDbArc
 50
327.1100370192
 51
332.3723743237
  0
LINE
  5
234
330
1F
100
AcDbEntity
  8
0
  6
SLD-実線
 62
     7
370
    15
100
AcDbLine
 10
75.9657505153
 20
77.4012434663
 30
0.0
 11
75.8452358825
 21
77.4323298038
 31
0.0
  0
LINE
  5
235
330
1F
100
AcDbEntity
  8
0
  6
SLD-実線
 62
     7
370
    15
100
AcDbLine
 10
75.8452358825
 20
77.4323298038
 30
0.0
 11
75.8741910967
 21
77.275142475
 31
0.0
  0
ARC
  5
236
330
1F
100
AcDbEntity
  8
0
  6
SLD-実線
 62
     7
370
    15
100
AcDbCircle
 10
74.8386673142
 20
78.1165469803
 30
0.0
 40
1.3342679811443
100
AcDbArc
 50
315.0090705112
 51
320.904760281
  0
LINE
  5
237
330
1F
100
AcDbEntity
  8
0
  6
SLD-実線
 62
     7
370
    15
100
AcDbLine
 10
75.7822866008
 20
77.1732264157
 30
0.0
 11
75.6584076288
 21
77.2251490711
 31
0.0
  0
LINE
  5
238
330
1F
100
AcDbEntity
  8
0
  6
SLD-実線
 62
     7
370
    15
100
AcDbLine
 10
75.6584076288
 20
77.2251490711
 30
0.0
 11
75.6708921509
 21
77.0742639728
 31
0.0
  0
ARC
  5
239
330
1F
100
AcDbEntity
  8
0
  6
SLD-実線
 62
     7
370
    15
100
AcDbCircle
 10
74.9167894147
 20
78.0320461625
 30
0.0
 40
1.219023239978947
100
AcDbArc
 50
301.9529556904
 51
308.2148658958
  0
LINE
  5
23A
330
1F
100
AcDbEntity
  8
0
  6
SLD-実線
 62
     7
370
    15
100
AcDbLine
 10
75.5619242729
 20
76.99772577
 30
0.0
 11
75.4368915309
 21
77.0695581143
 31
0.0
  0
LINE
  5
23B
330
1F
100
AcDbEntity
  8
0
  6
SLD-実線
 62
     7
370
    15
100
AcDbLine
 10
75.4368915309
 20
77.0695581143
 30
0.0
 11
75.4326827729
 21
76.9276676441
 31
0.0
  0
ARC
  5
23C
330
1F
100
AcDbEntity
  8
0
  6
SLD-実線
 62
     7
370
    15
100
AcDbCircle
 10
74.9117369794
 20
78.0463483258
 30
0.0
 40
1.234030383501339
100
AcDbArc
 50
288.7594464966
 51
294.9703937668
  0
LINE
  5
23D
330
1F
100
AcDbEntity
  8
0
  6
SLD-実線
 62
     7
370
    15
100
AcDbLine
 10
75.3085957008
 20
76.8778731901
 30
0.0
 11
75.1846405023
 21
76.968333516
 31
0.0
  0
LINE
  5
23E
330
1F
100
AcDbEntity
  8
0
  6
SLD-実線
 62
     7
370
    15
100
AcDbLine
 10
75.1846405023
 20
76.968333516
 30
0.0
 11
75.1638135383
 21
76.8379696852
 31
0.0
  0
ARC
  5
23F
330
1F
100
AcDbEntity
  8
0
  6
SLD-実線
 62
     7
370
    15
100
AcDbCircle
 10
76.3514883615
 20
79.8983953323
 30
0.0
 40
0.3408735224337054
100
AcDbArc
 50
122.4903352656
 51
157.419637215
  0
ARC
  5
240
330
1F
100
AcDbEntity
  8
0
  6
SLD-実線
 62
     7
370
    15
100
AcDbCircle
 10
76.107695161
 20
80.3736512109
 30
0.0
 40
0.1973013719046887
100
AcDbArc
 50
222.9365012104
 51
287.9148333252
  0
LWPOLYLINE
  5
241
330
1F
100
AcDbEntity
  8
0
  6
SLD-実線
 62
     7
370
    15
100
AcDbPolyline
 90
        7
 70
   128
 43
0.0
 10
77.3774628281
 20
81.0554586895
 10
77.3833867653
 20
81.0499971222
 10
77.4248786913
 20
80.9951376369
 10
77.4356202107
 20
80.9571462741
 10
77.4313854403
 20
80.9286624985
 10
77.4173877475
 20
80.9085482674
 10
77.4058223888
 20
80.9000966982
  0
LINE
  5
242
330
1F
100
AcDbEntity
  8
0
  6
SLD-実線
 62
     7
370
    15
100
AcDbLine
 10
77.4058223888
 20
80.9000966982
 30
0.0
 11
76.1683856482
 21
80.1859160354
 31
0.0
  0
LINE
  5
243
330
1F
100
AcDbEntity
  8
0
  6
SLD-実線
 62
     7
370
    15
100
AcDbLine
 10
77.3774628281
 20
81.0554586895
 30
0.0
 11
77.2568803653
 21
81.1632367884
 31
0.0
  0
LINE
  5
244
330
1F
100
AcDbEntity
  8
0
  6
SLD-実線
 62
     7
370
    15
100
AcDbLine
 10
77.4062879798
 20
80.7364012743
 30
0.0
 11
75.9920741856
 21
79.9201945853
 31
0.0
  0
LWPOLYLINE
  5
245
330
1F
100
AcDbEntity
  8
0
  6
SLD-実線
 62
     7
370
    15
100
AcDbPolyline
 90
        6
 70
   128
 43
0.0
 10
77.4058223888
 20
80.9000966982
 10
77.4279330207
 20
80.9099535498
 10
77.4445421717
 20
80.9115922345
 10
77.4576211949
 20
80.9029303906
 10
77.4603992649
 20
80.877666007
 10
77.4509593587
 20
80.8454902562
  0
LINE
  5
246
330
1F
100
AcDbEntity
  8
0
  6
SLD-実線
 62
     7
370
    15
100
AcDbLine
 10
77.4062879798
 20
80.7364012743
 30
0.0
 11
77.4509593587
 21
80.8454902562
 31
0.0
  0
ARC
  5
247
330
1F
100
AcDbEntity
  8
0
  6
SLD-実線
 62
     7
370
    15
100
AcDbCircle
 10
75.0444988694
 20
82.1617263218
 30
0.0
 40
0.1909358516979527
100
AcDbArc
 50
132.0240038946
 51
199.4130486223
  0
ARC
  5
248
330
1F
100
AcDbEntity
  8
0
  6
SLD-実線
 62
     7
370
    15
100
AcDbCircle
 10
74.742666559
 20
82.6420440033
 30
0.0
 40
0.3805885397447523
100
AcDbArc
 50
266.106975616
 51
297.2077222336
  0
LINE
  5
249
330
1F
100
AcDbEntity
  8
0
  6
SLD-実線
 62
     7
370
    15
100
AcDbLine
 10
76.1541151533
 20
83.0177464373
 30
0.0
 11
74.9166784127
 21
82.3035657745
 31
0.0
  0
LWPOLYLINE
  5
24A
330
1F
100
AcDbEntity
  8
0
  6
SLD-実線
 62
     7
370
    15
100
AcDbPolyline
 90
        6
 70
   128
 43
0.0
 10
76.1541151533
 20
83.0177464373
 10
76.1790843623
 20
83.0258506096
 10
76.2035147172
 20
83.0226941083
 10
76.232547475
 20
83.004250613
 10
76.2617682472
 20
82.9627736846
 10
76.2786320904
 20
82.9144705288
  0
LINE
  5
24B
330
1F
100
AcDbEntity
  8
0
  6
SLD-実線
 62
     7
370
    15
100
AcDbLine
 10
76.3159490088
 20
82.7551131466
 30
0.0
 11
76.2786320904
 21
82.9144705288
 31
0.0
  0
LWPOLYLINE
  5
24C
330
1F
100
AcDbEntity
  8
0
  6
SLD-実線
 62
     7
370
    15
100
AcDbPolyline
 90
        7
 70
   128
 43
0.0
 10
76.1310407416
 20
83.0785403407
 10
76.1366915474
 20
83.0779691641
 10
76.1757578893
 20
83.0665067743
 10
76.185139679
 20
83.0528504314
 10
76.1801032953
 20
83.0387060406
 10
76.1657351712
 20
83.0252195671
 10
76.1541151533
 20
83.0177464373
  0
LINE
  5
24D
330
1F
100
AcDbEntity
  8
0
  6
SLD-実線
 62
     7
370
    15
100
AcDbLine
 10
76.0159171188
 20
83.0886434359
 30
0.0
 11
74.6017033246
 21
82.2724367469
 31
0.0
  0
LINE
  5
24E
330
1F
100
AcDbEntity
  8
0
  6
SLD-実線
 62
     7
370
    15
100
AcDbLine
 10
76.1310407416
 20
83.0785403407
 30
0.0
 11
76.0159171188
 21
83.0886434359
 31
0.0
  0
ARC
  5
24F
330
1F
100
AcDbEntity
  8
0
  6
SLD-実線
 62
     7
370
    15
100
AcDbCircle
 10
76.5517870408
 20
79.3277605731
 30
0.0
 40
0.4703947262951846
100
AcDbArc
 50
121.3578886592
 51
146.2479688658
  0
ARC
  5
250
330
1F
100
AcDbEntity
  8
0
  6
SLD-実線
 62
     7
370
    15
100
AcDbCircle
 10
76.2558836766
 20
79.9069796194
 30
0.0
 40
0.1847461331758612
100
AcDbArc
 50
216.3952684522
 51
286.0630555084
  0
LWPOLYLINE
  5
251
330
1F
100
AcDbEntity
  8
0
  6
SLD-実線
 62
     7
370
    15
100
AcDbPolyline
 90
        7
 70
   128
 43
0.0
 10
77.5213874011
 20
80.613566744
 10
77.5270370544
 20
80.6073512856
 10
77.566092695
 20
80.5458023349
 10
77.5754683932
 20
80.5040595813
 10
77.570428552
 20
80.4733653802
 10
77.5560587816
 20
80.4522295119
 10
77.5444387638
 20
80.4436270505
  0
LINE
  5
252
330
1F
100
AcDbEntity
  8
0
  6
SLD-実線
 62
     7
370
    15
100
AcDbLine
 10
77.5444387638
 20
80.4436270505
 30
0.0
 11
76.3070020231
 21
79.7294463877
 31
0.0
  0
LINE
  5
253
330
1F
100
AcDbEntity
  8
0
  6
SLD-実線
 62
     7
370
    15
100
AcDbLine
 10
77.5213874011
 20
80.613566744
 30
0.0
 11
77.4062879798
 21
80.7364012743
 31
0.0
  0
LINE
  5
254
330
1F
100
AcDbEntity
  8
0
  6
SLD-実線
 62
     7
370
    15
100
AcDbLine
 10
77.5150531907
 20
80.3130627529
 30
0.0
 11
76.1008393966
 21
79.4968560639
 31
0.0
  0
LWPOLYLINE
  5
255
330
1F
100
AcDbEntity
  8
0
  6
SLD-実線
 62
     7
370
    15
100
AcDbPolyline
 90
        6
 70
   128
 43
0.0
 10
77.5444387638
 20
80.4436270505
 10
77.5660205844
 20
80.4540706991
 10
77.5811829131
 20
80.4573152346
 10
77.5913106691
 20
80.4519289612
 10
77.5891973998
 20
80.4320933529
 10
77.5748911789
 20
80.4053184348
  0
LINE
  5
256
330
1F
100
AcDbEntity
  8
0
  6
SLD-実線
 62
     7
370
    15
100
AcDbLine
 10
77.5150531907
 20
80.3130627529
 30
0.0
 11
77.5748911789
 21
80.4053184348
 31
0.0
  0
ARC
  5
257
330
1F
100
AcDbEntity
  8
0
  6
SLD-実線
 62
     7
370
    15
100
AcDbCircle
 10
74.7106078645
 20
82.5117418094
 30
0.0
 40
0.179585876529967
100
AcDbArc
 50
133.9382283248
 51
205.7194758121
  0
ARC
  5
258
330
1F
100
AcDbEntity
  8
0
  6
SLD-実線
 62
     7
370
    15
100
AcDbCircle
 10
74.3225911265
 20
83.1281418517
 30
0.0
 40
0.553743212610859
100
AcDbArc
 50
277.3503313003
 51
298.4037141878
  0
LINE
  5
259
330
1F
100
AcDbEntity
  8
0
  6
SLD-実線
 62
     7
370
    15
100
AcDbLine
 10
75.8234331202
 20
83.355240162
 30
0.0
 11
74.5859963796
 21
82.6410594991
 31
0.0
  0
LWPOLYLINE
  5
25A
330
1F
100
AcDbEntity
  8
0
  6
SLD-実線
 62
     7
370
    15
100
AcDbPolyline
 90
        6
 70
   128
 43
0.0
 10
75.8234331202
 20
83.355240162
 10
75.8489451344
 20
83.3632740546
 10
75.8748611657
 20
83.3599252092
 10
75.9069242161
 20
83.3410900086
 10
75.9411673781
 20
83.2989637786
 10
75.9630274337
 20
83.2500144505
  0
LINE
  5
25B
330
1F
100
AcDbEntity
  8
0
  6
SLD-実線
 62
     7
370
    15
100
AcDbLine
 10
76.0159171188
 20
83.0886434359
 30
0.0
 11
75.9630274337
 21
83.2500144505
 31
0.0
  0
LWPOLYLINE
  5
25C
330
1F
100
AcDbEntity
  8
0
  6
SLD-実線
 62
     7
370
    15
100
AcDbPolyline
 90
        7
 70
   128
 43
0.0
 10
75.8076485492
 20
83.3951557459
 10
75.8129223383
 20
83.3956642538
 10
75.8486433564
 20
83.3937826612
 10
75.8561492821
 20
83.3854988844
 10
75.8500075314
 20
83.3745205413
 10
75.8351285414
 20
83.3624971267
 10
75.8234331202
 20
83.355240162
  0
LINE
  5
25D
330
1F
100
AcDbEntity
  8
0
  6
SLD-実線
 62
     7
370
    15
100
AcDbLine
 10
75.7000542304
 20
83.3836945256
 30
0.0
 11
74.2858404362
 21
82.5674878366
 31
0.0
  0
LINE
  5
25E
330
1F
100
AcDbEntity
  8
0
  6
SLD-実線
 62
     7
370
    15
100
AcDbLine
 10
75.8076485492
 20
83.3951557459
 30
0.0
 11
75.7000542304
 21
83.3836945256
 31
0.0
  0
LWPOLYLINE
  5
25F
330
1F
100
AcDbEntity
  8
0
  6
SLD-実線
 62
     7
370
    15
100
AcDbPolyline
 90
       17
 70
   128
 43
0.0
 10
70.3393481241
 20
79.0402266237
 10
70.4187870928
 20
78.9309724276
 10
70.5131891393
 20
78.8530179603
 10
70.6081824147
 20
78.8182311508
 10
70.6893050141
 20
78.8319079301
 10
70.7442068408
 20
78.891966088
 10
70.7645294832
 20
78.9892624927
 10
70.7471790991
 20
79.1089843981
 10
70.6947970696
 20
79.2329054234
 10
70.6153580803
 20
79.3421596314
 10
70.5209560338
 20
79.4201140987
 10
70.4259627584
 20
79.4549009082
 10
70.3448401384
 20
79.4412241407
 10
70.2899383477
 20
79.3811659146
 10
70.2696156822
 20
79.2838696183
 10
70.2869660894
 20
79.1641476045
 10
70.3393481241
 20
79.0402266237
  0
LWPOLYLINE
  5
260
330
1F
100
AcDbEntity
  8
0
  6
SLD-実線
 62
     7
370
    15
100
AcDbPolyline
 90
       10
 70
   128
 43
0.0
 10
74.6121440539
 20
79.3642165647
 10
74.6643248981
 20
79.4227524989
 10
74.6846475816
 20
79.5200488056
 10
74.6672971564
 20
79.6397707733
 10
74.6149151269
 20
79.7636917868
 10
74.5354762199
 20
79.8729459473
 10
74.4410741117
 20
79.9509004265
 10
74.3460808774
 20
79.9856872359
 10
74.2649582368
 20
79.9720104804
 10
74.2622372956
 20
79.9704881972
  0
LWPOLYLINE
  5
261
330
1F
100
AcDbEntity
  8
0
  6
SLD-実線
 62
     7
370
    15
100
AcDbPolyline
 90
       17
 70
   128
 43
0.0
 10
71.0774871613
 20
77.7345490771
 10
71.1569261505
 20
77.6252948691
 10
71.2513281765
 20
77.5473404136
 10
71.3463214931
 20
77.5125535567
 10
71.4274440513
 20
77.5262303716
 10
71.4823458368
 20
77.5862885889
 10
71.5026685204
 20
77.6835848956
 10
71.4853180952
 20
77.8033068633
 10
71.4329360656
 20
77.9272278767
 10
71.3534971587
 20
78.0364820373
 10
71.2590950504
 20
78.1144365164
 10
71.1641018161
 20
78.1492233259
 10
71.0829791755
 20
78.1355465703
 10
71.0280773901
 20
78.0754883531
 10
71.0077547065
 20
77.9781920464
 10
71.0251051317
 20
77.8584700786
 10
71.0774871613
 20
77.7345490771
  0
ARC
  5
262
330
1F
100
AcDbEntity
  8
0
  6
SLD-実線
 62
     7
370
    15
100
AcDbCircle
 10
76.8312041357
 20
78.5529009726
 30
0.0
 40
0.8455482768246598
100
AcDbArc
 50
120.5883120297
 51
134.2717661071
  0
ARC
  5
263
330
1F
100
AcDbEntity
  8
0
  6
SLD-実線
 62
     7
370
    15
100
AcDbCircle
 10
76.3577964102
 20
79.4482462055
 30
0.0
 40
0.1729253073820073
100
AcDbArc
 50
210.2401623601
 51
284.4452732449
  0
LWPOLYLINE
  5
264
330
1F
100
AcDbEntity
  8
0
  6
SLD-実線
 62
     7
370
    15
100
AcDbPolyline
 90
        7
 70
   128
 43
0.0
 10
77.6226162287
 20
80.1773632742
 10
77.6278882067
 20
80.1705038883
 10
77.6635954778
 20
80.1032390845
 10
77.6710933363
 20
80.0582911476
 10
77.6649471404
 20
80.025708334
 10
77.6500660101
 20
80.0036995696
 10
77.6383702597
 20
79.9949683607
  0
LINE
  5
265
330
1F
100
AcDbEntity
  8
0
  6
SLD-実線
 62
     7
370
    15
100
AcDbLine
 10
77.6383702597
 20
79.9949683607
 30
0.0
 11
76.400933519
 21
79.2807876979
 31
0.0
  0
LINE
  5
266
330
1F
100
AcDbEntity
  8
0
  6
SLD-実線
 62
     7
370
    15
100
AcDbLine
 10
77.6226162287
 20
80.1773632742
 30
0.0
 11
77.5150531907
 21
80.3130627529
 31
0.0
  0
LINE
  5
267
330
1F
100
AcDbEntity
  8
0
  6
SLD-実線
 62
     7
370
    15
100
AcDbLine
 10
77.5812352674
 20
79.9007752369
 30
0.0
 11
76.1670214732
 21
79.0845685479
 31
0.0
  0
LWPOLYLINE
  5
268
330
1F
100
AcDbEntity
  8
0
  6
SLD-実線
 62
     7
370
    15
100
AcDbPolyline
 90
        5
 70
   128
 43
0.0
 10
77.6383702597
 20
79.9949683607
 10
77.6594604768
 20
80.0060562397
 10
77.6732780577
 20
80.0110635222
 10
77.6806623172
 20
80.0092730777
 10
77.6802033117
 20
80.0083163776
  0
LINE
  5
269
330
1F
100
AcDbEntity
  8
0
  6
SLD-実線
 62
     7
370
    15
100
AcDbLine
 10
77.6740017981
 20
79.9953975043
 30
0.0
 11
77.6551723642
 21
79.9745513507
 31
0.0
  0
LINE
  5
26A
330
1F
100
AcDbEntity
  8
0
  6
SLD-実線
 62
     7
370
    15
100
AcDbLine
 10
77.5812352674
 20
79.9007752369
 30
0.0
 11
77.6551723642
 21
79.9745513507
 31
0.0
  0
ARC
  5
26B
330
1F
100
AcDbEntity
  8
0
  6
SLD-実線
 62
     7
370
    15
100
AcDbCircle
 10
74.3618372165
 20
82.8164782689
 30
0.0
 40
0.168601067131209
100
AcDbArc
 50
135.6172077092
 51
211.6562357423
  0
ARC
  5
26C
330
1F
100
AcDbEntity
  8
0
  6
SLD-実線
 62
     7
370
    15
100
AcDbCircle
 10
73.679046365
 20
83.9355409579
 30
0.0
 40
1.14823614616432
100
AcDbArc
 50
289.26686457
 51
299.3210560288
  0
LINE
  5
26D
330
1F
100
AcDbEntity
  8
0
  6
SLD-実線
 62
     7
370
    15
100
AcDbLine
 10
75.4787776781
 20
83.6485867341
 30
0.0
 11
74.2413409375
 21
82.9344060713
 31
0.0
  0
LWPOLYLINE
  5
26E
330
1F
100
AcDbEntity
  8
0
  6
SLD-実線
 62
     7
370
    15
100
AcDbPolyline
 90
        6
 70
   128
 43
0.0
 10
75.4787776781
 20
83.6485867341
 10
75.504799735
 20
83.6566510158
 10
75.5321113045
 20
83.6533846923
 10
75.5670209958
 20
83.6347182126
 10
75.6059822176
 20
83.5928708945
 10
75.6325357199
 20
83.5441994723
  0
LINE
  5
26F
330
1F
100
AcDbEntity
  8
0
  6
SLD-実線
 62
     7
370
    15
100
AcDbLine
 10
75.7000542304
 20
83.3836945256
 30
0.0
 11
75.6325357199
 21
83.5441994723
 31
0.0
  0
LWPOLYLINE
  5
270
330
1F
100
AcDbEntity
  8
0
  6
SLD-実線
 62
     7
370
    15
100
AcDbPolyline
 90
        3
 70
   128
 43
0.0
 10
75.4721419367
 20
83.6678219825
 10
75.4769425615
 20
83.6693998776
 10
75.5084652761
 20
83.6770087891
  0
LWPOLYLINE
  5
271
330
1F
100
AcDbEntity
  8
0
  6
SLD-実線
 62
     7
370
    15
100
AcDbPolyline
 90
        5
 70
   128
 43
0.0
 10
75.5111625098
 20
83.6754586885
 10
75.5136169051
 20
83.674046664
 10
75.5060879304
 20
83.6662038597
 10
75.4905676827
 20
83.6556301541
 10
75.4787776781
 20
83.6485867341
  0
LINE
  5
272
330
1F
100
AcDbEntity
  8
0
  6
SLD-実線
 62
     7
370
    15
100
AcDbLine
 10
75.3739969907
 20
83.6350011992
 30
0.0
 11
73.9597831965
 21
82.8187945102
 31
0.0
  0
LINE
  5
273
330
1F
100
AcDbEntity
  8
0
  6
SLD-実線
 62
     7
370
    15
100
AcDbLine
 10
75.4721419367
 20
83.6678219825
 30
0.0
 11
75.3739969907
 21
83.6350011992
 31
0.0
  0
ARC
  5
274
330
1F
100
AcDbEntity
  8
0
  6
SLD-実線
 62
     7
370
    15
100
AcDbCircle
 10
79.7558352215
 20
73.1332273591
 30
0.0
 40
6.602760696141599
100
AcDbArc
 50
120.0596441062
 51
121.8032272736
  0
LWPOLYLINE
  5
275
330
1F
100
AcDbEntity
  8
0
  6
SLD-実線
 62
     7
370
    15
100
AcDbPolyline
 90
        6
 70
   128
 43
0.0
 10
76.4485041401
 20
78.8479460686
 10
76.4214155703
 20
78.8393812978
 10
76.3911834383
 20
78.8412757261
 10
76.3503243736
 20
78.8571492261
 10
76.301495274
 20
78.8943626708
 10
76.2651281413
 20
78.9384260936
  0
LWPOLYLINE
  5
276
330
1F
100
AcDbEntity
  8
0
  6
SLD-実線
 62
     7
370
    15
100
AcDbPolyline
 90
        7
 70
   128
 43
0.0
 10
77.6793419355
 20
79.7546327826
 10
77.6841407493
 20
79.7472503209
 10
77.7156465064
 20
79.675345732
 10
77.7207887512
 20
79.6277958239
 10
77.7132540142
 20
79.5936800139
 10
77.6977311323
 20
79.5709626886
 10
77.6859408807
 20
79.5621267315
  0
LINE
  5
277
330
1F
100
AcDbEntity
  8
0
  6
SLD-実線
 62
     7
370
    15
100
AcDbLine
 10
77.6859408807
 20
79.5621267315
 30
0.0
 11
76.4485041401
 21
78.8479460686
 31
0.0
  0
LINE
  5
278
330
1F
100
AcDbEntity
  8
0
  6
SLD-実線
 62
     7
370
    15
100
AcDbLine
 10
77.6793419355
 20
79.7546327826
 30
0.0
 11
77.5812352674
 21
79.9007752369
 31
0.0
  0
LINE
  5
279
330
1F
100
AcDbEntity
  8
0
  6
SLD-実線
 62
     7
370
    15
100
AcDbLine
 10
77.6036534396
 20
79.5068960366
 30
0.0
 11
76.1894396454
 21
78.6906893476
 31
0.0
  0
LWPOLYLINE
  5
27A
330
1F
100
AcDbEntity
  8
0
  6
SLD-実線
 62
     7
370
    15
100
AcDbPolyline
 90
        6
 70
   128
 43
0.0
 10
77.6859408807
 20
79.5621267315
 10
77.7065855925
 20
79.5739047738
 10
77.7191838782
 20
79.5808006189
 10
77.7240814737
 20
79.5828621996
 10
77.7132994538
 20
79.5753711353
 10
77.6903699218
 20
79.5608761279
  0
LINE
  5
27B
330
1F
100
AcDbEntity
  8
0
  6
SLD-実線
 62
     7
370
    15
100
AcDbLine
 10
77.6036534396
 20
79.5068960366
 30
0.0
 11
77.6903699218
 21
79.5608761279
 31
0.0
  0
LWPOLYLINE
  5
27C
330
1F
100
AcDbEntity
  8
0
  6
SLD-実線
 62
     7
370
    15
100
AcDbPolyline
 90
        7
 70
   128
 43
0.0
 10
73.8788405855
 20
82.9755695506
 10
73.8749038888
 20
82.9834856163
 10
73.8510240771
 20
83.0601142296
 10
73.8501557039
 20
83.1103116208
 10
73.8602128309
 20
83.1459900558
 10
73.8769002665
 20
83.1694287946
 10
73.8888625628
 20
83.17837114
  0
LINE
  5
27D
330
1F
100
AcDbEntity
  8
0
  6
SLD-実線
 62
     7
370
    15
100
AcDbLine
 10
75.1262993035
 20
83.8925518028
 30
0.0
 11
73.8888625628
 21
83.17837114
 31
0.0
  0
LWPOLYLINE
  5
27E
330
1F
100
AcDbEntity
  8
0
  6
SLD-実線
 62
     7
370
    15
100
AcDbPolyline
 90
        6
 70
   128
 43
0.0
 10
75.1262993035
 20
83.8925518028
 10
75.1527893386
 20
83.900746046
 10
75.1813815301
 20
83.8978358192
 10
75.2189033383
 20
83.8798947634
 10
75.2621939963
 20
83.8392507418
 10
75.2930543797
 20
83.7917762396
  0
LINE
  5
27F
330
1F
100
AcDbEntity
  8
0
  6
SLD-実線
 62
     7
370
    15
100
AcDbLine
 10
75.3739969907
 20
83.6350011992
 30
0.0
 11
75.2930543797
 21
83.7917762396
 31
0.0
  0
ARC
  5
280
330
1F
100
AcDbEntity
  8
0
  6
SLD-実線
 62
     7
370
    15
100
AcDbCircle
 10
77.8745185564
 20
76.2983386492
 30
0.0
 40
7.951119466715256
100
AcDbArc
 50
120.0840443171
 51
121.5319160692
  0
ARC
  5
281
330
1F
100
AcDbEntity
  8
0
  6
SLD-実線
 62
     7
370
    15
100
AcDbCircle
 10
75.8954863639
 20
79.4142337445
 30
0.0
 40
1.121605987282507
100
AcDbArc
 50
289.2701714304
 51
299.563023236
  0
LWPOLYLINE
  5
282
330
1F
100
AcDbEntity
  8
0
  6
SLD-実線
 62
     7
370
    15
100
AcDbPolyline
 90
        6
 70
   128
 43
0.0
 10
76.4488650225
 20
78.4386456905
 10
76.4221672989
 20
78.4303539847
 10
76.3930039846
 20
78.4329960363
 10
76.35432569
 20
78.450394125
 10
76.3091110119
 20
78.4901345142
 10
76.2763395323
 20
78.5367116134
  0
LWPOLYLINE
  5
283
330
1F
100
AcDbEntity
  8
0
  6
SLD-実線
 62
     7
370
    15
100
AcDbPolyline
 90
        7
 70
   128
 43
0.0
 10
77.6905533265
 20
79.3529183024
 10
77.6947907311
 20
79.3451437673
 10
77.7213175624
 20
79.2697578147
 10
77.7236672492
 20
79.2202560772
 10
77.7144874681
 20
79.1849898469
 10
77.6982042966
 20
79.1617408012
 10
77.6863017631
 20
79.1528263534
  0
LINE
  5
284
330
1F
100
AcDbEntity
  8
0
  6
SLD-実線
 62
     7
370
    15
100
AcDbLine
 10
77.6863017631
 20
79.1528263534
 30
0.0
 11
76.4488650225
 21
78.4386456905
 31
0.0
  0
LINE
  5
285
330
1F
100
AcDbEntity
  8
0
  6
SLD-実線
 62
     7
370
    15
100
AcDbLine
 10
77.6905533265
 20
79.3529183024
 30
0.0
 11
77.6036534396
 21
79.5068960366
 31
0.0
  0
LWPOLYLINE
  5
286
330
1F
100
AcDbEntity
  8
0
  6
SLD-実線
 62
     7
370
    15
100
AcDbPolyline
 90
        7
 70
   128
 43
0.0
 10
73.5364277756
 20
83.1721194521
 10
73.5318912683
 20
83.1797086029
 10
73.5026889764
 20
83.2534371687
 10
73.4988359148
 20
83.302008047
 10
73.5071342753
 20
83.336727901
 10
73.5230088611
 20
83.3597238646
 10
73.5348511789
 20
83.3686008365
  0
LINE
  5
287
330
1F
100
AcDbEntity
  8
0
  6
SLD-実線
 62
     7
370
    15
100
AcDbLine
 10
74.7722879195
 20
84.0827814993
 30
0.0
 11
73.5348511789
 21
83.3686008365
 31
0.0
  0
LWPOLYLINE
  5
288
330
1F
100
AcDbEntity
  8
0
  6
SLD-実線
 62
     7
370
    15
100
AcDbPolyline
 90
        6
 70
   128
 43
0.0
 10
74.7722879195
 20
84.0827814993
 10
74.7991956365
 20
84.0912031824
 10
74.8289306086
 20
84.0889157039
 10
74.8687834585
 20
84.0722452334
 10
74.9159378382
 20
84.0337064566
 10
74.9506415698
 20
83.9883261411
  0
LINE
  5
289
330
1F
100
AcDbEntity
  8
0
  6
SLD-実線
 62
     7
370
    15
100
AcDbLine
 10
75.0404998856
 20
83.8430331158
 30
0.0
 11
74.9506415698
 21
83.9883261411
 31
0.0
  0
ARC
  5
28A
330
1F
100
AcDbEntity
  8
0
  6
SLD-実線
 62
     7
370
    15
100
AcDbCircle
 10
73.9957575905
 20
82.5975712754
 30
0.0
 40
0.8982879852042117
100
AcDbArc
 50
120.8701577308
 51
133.7456027612
  0
ARC
  5
28B
330
1F
100
AcDbEntity
  8
0
  6
SLD-実線
 62
     7
370
    15
100
AcDbCircle
 10
77.5214376727
 20
78.8871095448
 30
0.0
 40
0.1632049019302101
100
AcDbArc
 50
316.3084039445
 51
34.4314887053
  0
LINE
  5
28C
330
1F
100
AcDbEntity
  8
0
  6
SLD-実線
 62
     7
370
    15
100
AcDbLine
 10
77.6394459921
 20
78.7743714565
 30
0.0
 11
76.4020092515
 21
78.0601907937
 31
0.0
  0
LWPOLYLINE
  5
28D
330
1F
100
AcDbEntity
  8
0
  6
SLD-実線
 62
     7
370
    15
100
AcDbPolyline
 90
        6
 70
   128
 43
0.0
 10
76.4020092515
 20
78.0601907937
 10
76.3757563747
 20
78.0520764106
 10
76.3478103799
 20
78.0552036084
 10
76.3116144689
 20
78.0735916895
 10
76.2705143769
 20
78.114972852
 10
76.2418357513
 20
78.1631822344
  0
LINE
  5
28E
330
1F
100
AcDbEntity
  8
0
  6
SLD-実線
 62
     7
370
    15
100
AcDbLine
 10
77.6560495455
 20
78.9793889234
 30
0.0
 11
77.5987584782
 21
79.1023013353
 31
0.0
  0
ARC
  5
28F
330
1F
100
AcDbEntity
  8
0
  6
SLD-実線
 62
     7
370
    15
100
AcDbCircle
 10
76.1432641906
 20
78.529285303
 30
0.0
 40
0.5357225636876369
100
AcDbArc
 50
277.1133277091
 51
298.8804291219
  0
LWPOLYLINE
  5
290
330
1F
100
AcDbEntity
  8
0
  6
SLD-実線
 62
     7
370
    15
100
AcDbPolyline
 90
        7
 70
   128
 43
0.0
 10
73.1971938835
 20
83.3141353015
 10
73.1921406142
 20
83.3212636633
 10
73.1583524859
 20
83.3909003901
 10
73.1519278903
 20
83.437176971
 10
73.1587110017
 20
83.470544814
 10
73.1738852434
 20
83.4929159446
 10
73.1856241594
 20
83.5017008633
  0
LINE
  5
291
330
1F
100
AcDbEntity
  8
0
  6
SLD-実線
 62
     7
370
    15
100
AcDbLine
 10
74.4230609
 20
84.2158815261
 30
0.0
 11
73.1856241594
 21
83.5017008633
 31
0.0
  0
ARC
  5
292
330
1F
100
AcDbEntity
  8
0
  6
SLD-実線
 62
     7
370
    15
100
AcDbCircle
 10
74.4628833751
 20
84.0534382133
 30
0.0
 40
0.167253279229561
100
AcDbArc
 50
27.3744801567
 51
103.7742407096
  0
LINE
  5
293
330
1F
100
AcDbEntity
  8
0
  6
SLD-実線
 62
     7
370
    15
100
AcDbLine
 10
74.6836650744
 20
84.0316333543
 30
0.0
 11
74.6114076776
 21
84.1303419905
 31
0.0
  0
ARC
  5
294
330
1F
100
AcDbEntity
  8
0
  6
SLD-実線
 62
     7
370
    15
100
AcDbCircle
 10
73.4463978757
 20
83.0819179161
 30
0.0
 40
0.4941868612714601
100
AcDbArc
 50
121.8489982645
 51
145.5193594595
  0
LWPOLYLINE
  5
295
330
1F
100
AcDbEntity
  8
0
  6
SLD-実線
 62
     7
370
    15
100
AcDbPolyline
 90
       15
 70
   128
 43
0.0
 10
78.45863239
 20
79.24603485
 10
78.6143969347
 20
79.3559583941
 10
78.8971031772
 20
79.7142308683
 10
79.0635445394
 20
80.202589442
 10
79.1040479901
 20
80.7926525241
 10
79.0162593973
 20
81.4501279426
 10
78.805281164
 20
82.1368053572
 10
78.4833744011
 20
82.8127775651
 10
78.0692468763
 20
83.4387599606
 10
77.586966498
 20
83.9783722042
 10
77.064561579
 20
84.4002541355
 10
76.5323923178
 20
84.6798877215
 10
76.0213865162
 20
84.8010214398
 10
75.5612419796
 20
84.7566155381
 10
75.3344650578
 20
84.6591742978
  0
ARC
  5
296
330
1F
100
AcDbEntity
  8
0
  6
SLD-実線
 62
     7
370
    15
100
AcDbCircle
 10
77.423479064
 20
78.5572290084
 30
0.0
 40
0.1742646621279303
100
AcDbArc
 50
314.7715897675
 51
28.6232131974
  0
LINE
  5
297
330
1F
100
AcDbEntity
  8
0
  6
SLD-実線
 62
     7
370
    15
100
AcDbLine
 10
77.5462105778
 20
78.4335150319
 30
0.0
 11
76.3087738371
 21
77.719334369
 31
0.0
  0
LWPOLYLINE
  5
298
330
1F
100
AcDbEntity
  8
0
  6
SLD-実線
 62
     7
370
    15
100
AcDbPolyline
 90
        6
 70
   128
 43
0.0
 10
76.3087738371
 20
77.719334369
 10
76.283011576
 20
77.7112985455
 10
76.2564086828
 20
77.7146403838
 10
76.2229526461
 20
77.7334660752
 10
76.186393877
 20
77.7755725331
 10
76.1622328669
 20
77.8245033755
  0
LINE
  5
299
330
1F
100
AcDbEntity
  8
0
  6
SLD-実線
 62
     7
370
    15
100
AcDbLine
 10
77.576446661
 20
78.6407100645
 30
0.0
 11
77.5466264486
 21
78.7208011091
 31
0.0
  0
ARC
  5
29A
330
1F
100
AcDbEntity
  8
0
  6
SLD-実線
 62
     7
370
    15
100
AcDbCircle
 10
76.136727534
 20
78.0448549178
 30
0.0
 40
0.3681895681994007
100
AcDbArc
 50
265.6876838013
 51
297.8576477847
  0
LWPOLYLINE
  5
29B
330
1F
100
AcDbEntity
  8
0
  6
SLD-実線
 62
     7
370
    15
100
AcDbPolyline
 90
        7
 70
   128
 43
0.0
 10
72.8671925178
 20
83.3990827298
 10
72.8617147446
 20
83.405624043
 10
72.8241593507
 20
83.4700511641
 10
72.8156222472
 20
83.5134061177
 10
72.8211605654
 20
83.5450529015
 10
72.8357594682
 20
83.5666281806
 10
72.8474134422
 20
83.5752955612
  0
LINE
  5
29C
330
1F
100
AcDbEntity
  8
0
  6
SLD-実線
 62
     7
370
    15
100
AcDbLine
 10
74.0848501828
 20
84.289476224
 30
0.0
 11
72.8474134422
 21
83.5752955612
 31
0.0
  0
ARC
  5
29D
330
1F
100
AcDbEntity
  8
0
  6
SLD-実線
 62
     7
370
    15
100
AcDbCircle
 10
74.1319386572
 20
84.116757252
 30
0.0
 40
0.1790228133905616
100
AcDbArc
 50
33.3936962467
 51
105.2499623011
  0
LINE
  5
29E
330
1F
100
AcDbEntity
  8
0
  6
SLD-実線
 62
     7
370
    15
100
AcDbLine
 10
74.3281975559
 20
84.1611314421
 30
0.0
 11
74.281406312
 21
84.2152894188
 31
0.0
  0
ARC
  5
29F
330
1F
100
AcDbEntity
  8
0
  6
SLD-実線
 62
     7
370
    15
100
AcDbCircle
 10
73.0417213061
 20
83.2774990991
 30
0.0
 40
0.3555816063833796
100
AcDbArc
 50
123.123864139
 51
156.5583494503
  0
LWPOLYLINE
  5
2A0
330
1F
100
AcDbEntity
  8
0
  6
SLD-実線
 62
     7
370
    15
100
AcDbPolyline
 90
        5
 70
   128
 43
0.0
 10
75.1629137195
 20
83.9126490493
 10
75.1636551583
 20
83.9133440195
 10
75.1544817157
 20
83.9085513499
 10
75.1382015076
 20
83.8993867222
 10
75.1262993035
 20
83.8925518028
  0
ARC
  5
2A1
330
1F
100
AcDbEntity
  8
0
  6
SLD-実線
 62
     7
370
    15
100
AcDbCircle
 10
77.2819603976
 20
78.2719679296
 30
0.0
 40
0.1853268435315606
100
AcDbArc
 50
312.9599996427
 51
22.5120518199
  0
LINE
  5
2A2
330
1F
100
AcDbEntity
  8
0
  6
SLD-実線
 62
     7
370
    15
100
AcDbLine
 10
77.408258345
 20
78.1363402502
 30
0.0
 11
76.1708216043
 21
77.4221595874
 31
0.0
  0
LWPOLYLINE
  5
2A3
330
1F
100
AcDbEntity
  8
0
  6
SLD-実線
 62
     7
370
    15
100
AcDbPolyline
 90
        6
 70
   128
 43
0.0
 10
76.1708216043
 20
77.4221595874
 10
76.1455878251
 20
77.4141017277
 10
76.1204304371
 20
77.4173834988
 10
76.0899230335
 20
77.4360865542
 10
76.0582509939
 20
77.477989973
 10
76.0389513593
 20
77.5267187667
  0
LINE
  5
2A4
330
1F
100
AcDbEntity
  8
0
  6
SLD-実線
 62
     7
370
    15
100
AcDbLine
 10
77.4531651535
 20
78.3429254557
 30
0.0
 11
77.4442869857
 21
78.374690656
 31
0.0
  0
ARC
  5
2A5
330
1F
100
AcDbEntity
  8
0
  6
SLD-実線
 62
     7
370
    15
100
AcDbCircle
 10
76.0405010297
 20
77.6841184988
 30
0.0
 40
0.2925848996048763
100
AcDbArc
 50
255.1977835249
 51
296.4496465844
  0
LWPOLYLINE
  5
2A6
330
1F
100
AcDbEntity
  8
0
  6
SLD-実線
 62
     7
370
    15
100
AcDbPolyline
 90
        7
 70
   128
 43
0.0
 10
72.5523125688
 20
83.4254461308
 10
72.546510092
 20
83.4312848036
 10
72.5060732778
 20
83.4894767312
 10
72.4959203736
 20
83.5293355147
 10
72.5005065599
 20
83.5589219664
 10
72.5146654315
 20
83.5795451546
 10
72.5262544154
 20
83.5880718835
  0
LINE
  5
2A7
330
1F
100
AcDbEntity
  8
0
  6
SLD-実線
 62
     7
370
    15
100
AcDbLine
 10
73.763691156
 20
84.3022525464
 30
0.0
 11
72.5262544154
 21
83.5880718835
 31
0.0
  0
ARC
  5
2A8
330
1F
100
AcDbEntity
  8
0
  6
SLD-実線
 62
     7
370
    15
100
AcDbCircle
 10
73.8195630634
 20
84.1195052841
 30
0.0
 40
0.1910974408344418
100
AcDbArc
 50
39.7314316814
 51
107.0001325688
  0
LINE
  5
2A9
330
1F
100
AcDbEntity
  8
0
  6
SLD-実線
 62
     7
370
    15
100
AcDbLine
 10
73.9797105887
 20
84.2287953857
 30
0.0
 11
73.966526363
 21
84.2416528198
 31
0.0
  0
ARC
  5
2AA
330
1F
100
AcDbEntity
  8
0
  6
SLD-実線
 62
     7
370
    15
100
AcDbCircle
 10
77.664557196
 20
79.2162951071
 30
0.0
 40
0.0670903040784539
100
AcDbArc
 50
288.9115989727
 51
325.7204737195
  0
ARC
  5
2AB
330
1F
100
AcDbEntity
  8
0
  6
SLD-実線
 62
     7
370
    15
100
AcDbCircle
 10
72.6905285505
 20
83.3509181749
 30
0.0
 40
0.2884924140689309
100
AcDbArc
 50
124.7099800713
 51
166.7012148392
  0
LWPOLYLINE
  5
2AC
330
1F
100
AcDbEntity
  8
0
  6
SLD-実線
 62
     7
370
    15
100
AcDbPolyline
 90
        5
 70
   128
 43
0.0
 10
74.8125938069
 20
84.0983819775
 10
74.8125088958
 20
84.0991212763
 10
74.8014634169
 20
84.097237802
 10
74.7843178813
 20
84.0894179527
 10
74.7722879195
 20
84.0827814993
  0
ARC
  5
2AD
330
1F
100
AcDbEntity
  8
0
  6
SLD-実線
 62
     7
370
    15
100
AcDbCircle
 10
77.1211679529
 20
78.0254695738
 30
0.0
 40
0.1740138352582664
100
AcDbArc
 50
307.8956250964
 51
14.1565857063
  0
LINE
  5
2AE
330
1F
100
AcDbEntity
  8
0
  6
SLD-実線
 62
     7
370
    15
100
AcDbLine
 10
77.2280515916
 20
77.8881498642
 30
0.0
 11
75.990614851
 21
77.1739692014
 31
0.0
  0
LWPOLYLINE
  5
2AF
330
1F
100
AcDbEntity
  8
0
  6
SLD-実線
 62
     7
370
    15
100
AcDbPolyline
 90
        6
 70
   128
 43
0.0
 10
75.990614851
 20
77.1739692014
 10
75.9659375419
 20
77.1657892533
 10
75.9423020502
 20
77.1687374181
 10
75.9148990255
 20
77.1867600646
 10
75.8883721941
 20
77.2275357343
 10
75.8741910967
 20
77.275142475
  0
ARC
  5
2B0
330
1F
100
AcDbEntity
  8
0
  6
SLD-実線
 62
     7
370
    15
100
AcDbCircle
 10
75.8856356807
 20
77.40219259
 30
0.0
 40
0.2512101536587332
100
AcDbArc
 50
245.7068830275
 51
294.7016866568
  0
LWPOLYLINE
  5
2B1
330
1F
100
AcDbEntity
  8
0
  6
SLD-実線
 62
     7
370
    15
100
AcDbPolyline
 90
        4
 70
   128
 43
0.0
 10
77.6394459921
 20
78.7743714565
 10
77.6593686098
 20
78.787617579
 10
77.6699906035
 20
78.7985307185
 10
77.6703682788
 20
78.8029842578
  0
LWPOLYLINE
  5
2B2
330
1F
100
AcDbEntity
  8
0
  6
SLD-実線
 62
     7
370
    15
100
AcDbPolyline
 90
        7
 70
   128
 43
0.0
 10
72.2581730881
 20
83.3927547251
 10
72.2521515218
 20
83.3977877822
 10
72.2097704784
 20
83.448830758
 10
72.1985273126
 20
83.4846807158
 10
72.2024710887
 20
83.5119048708
 10
72.216333039
 20
83.5314363311
 10
72.2278782297
 20
83.5398018086
  0
LINE
  5
2B3
330
1F
100
AcDbEntity
  8
0
  6
SLD-実線
 62
     7
370
    15
100
AcDbLine
 10
73.4653149704
 20
84.2539824714
 30
0.0
 11
72.2278782297
 21
83.5398018086
 31
0.0
  0
ARC
  5
2B4
330
1F
100
AcDbEntity
  8
0
  6
SLD-実線
 62
     7
370
    15
100
AcDbCircle
 10
73.5311539034
 20
84.0844175044
 30
0.0
 40
0.1818984418213559
100
AcDbArc
 50
53.4561184425
 51
111.2202681942
  0
ARC
  5
2B5
330
1F
100
AcDbEntity
  8
0
  6
SLD-実線
 62
     7
370
    15
100
AcDbCircle
 10
74.4601002774
 20
84.167067594
 30
0.0
 40
0.0612757329675936
100
AcDbArc
 50
86.5903706529
 51
127.1907542914
  0
ARC
  5
2B6
330
1F
100
AcDbEntity
  8
0
  6
SLD-実線
 62
     7
370
    15
100
AcDbCircle
 10
72.376838465
 20
83.3388597682
 30
0.0
 40
0.2501336748123424
100
AcDbArc
 50
126.549890031
 51
175.9109206553
  0
ARC
  5
2B7
330
1F
100
AcDbEntity
  8
0
  6
SLD-実線
 62
     7
370
    15
100
AcDbCircle
 10
76.9155188798
 20
77.8270124925
 30
0.0
 40
0.1629788945453457
100
AcDbArc
 50
304.9170352499
 51
350.6703234733
  0
LINE
  5
2B8
330
1F
100
AcDbEntity
  8
0
  6
SLD-実線
 62
     7
370
    15
100
AcDbLine
 10
77.0088063198
 20
77.6933727768
 30
0.0
 11
75.7713695792
 21
76.979192114
 31
0.0
  0
LWPOLYLINE
  5
2B9
330
1F
100
AcDbEntity
  8
0
  6
SLD-実線
 62
     7
370
    15
100
AcDbPolyline
 90
        6
 70
   128
 43
0.0
 10
75.7713695792
 20
76.979192114
 10
75.7472661917
 20
76.9707926367
 10
75.7252019872
 20
76.9731395893
 10
75.7010037693
 20
76.9899359682
 10
75.6797892518
 20
77.0286789729
 10
75.6708921509
 20
77.0742639728
  0
LWPOLYLINE
  5
2BA
330
1F
100
AcDbEntity
  8
0
  6
SLD-実線
 62
     7
370
    15
100
AcDbPolyline
 90
        4
 70
   128
 43
0.0
 10
77.5462105778
 20
78.4335150319
 10
77.5658691191
 20
78.4475131211
 10
77.575769348
 20
78.4604833207
 10
77.575713701
 20
78.4618330865
  0
ARC
  5
2BB
330
1F
100
AcDbEntity
  8
0
  6
SLD-実線
 62
     7
370
    15
100
AcDbCircle
 10
75.6842412442
 20
77.1872889701
 30
0.0
 40
0.2256006389513506
100
AcDbArc
 50
237.167588545
 51
292.7186346786
  0
LWPOLYLINE
  5
2BC
330
1F
100
AcDbEntity
  8
0
  6
SLD-実線
 62
     7
370
    15
100
AcDbPolyline
 90
        7
 70
   128
 43
0.0
 10
71.9900229841
 20
83.3015921552
 10
71.9838918524
 20
83.3057309065
 10
71.940538468
 20
83.3488385049
 10
71.9287501097
 20
83.3802386104
 10
71.9323725984
 20
83.4048407899
 10
71.946086047
 20
83.4231600673
 10
71.9576092588
 20
83.4313467596
  0
LINE
  5
2BD
330
1F
100
AcDbEntity
  8
0
  6
SLD-実線
 62
     7
370
    15
100
AcDbLine
 10
73.1950459994
 20
84.1455274224
 30
0.0
 11
71.9576092588
 21
83.4313467596
 31
0.0
  0
ARC
  5
2BE
330
1F
100
AcDbEntity
  8
0
  6
SLD-実線
 62
     7
370
    15
100
AcDbCircle
 10
73.2642564219
 20
84.0017353297
 30
0.0
 40
0.1595814791805977
100
AcDbArc
 50
77.6581381722
 51
115.7025757516
  0
ARC
  5
2BF
330
1F
100
AcDbEntity
  8
0
  6
SLD-実線
 62
     7
370
    15
100
AcDbCircle
 10
74.115794189
 20
84.2506837135
 30
0.0
 40
0.0496224786471467
100
AcDbArc
 50
82.383276407
 51
128.5786606881
  0
ARC
  5
2C0
330
1F
100
AcDbEntity
  8
0
  6
SLD-実線
 62
     7
370
    15
100
AcDbCircle
 10
72.0981317819
 20
83.2549654708
 30
0.0
 40
0.2255148299896644
100
AcDbArc
 50
128.5442428949
 51
184.2419338501
  0
LWPOLYLINE
  5
2C1
330
1F
100
AcDbEntity
  8
0
  6
SLD-実線
 62
     7
370
    15
100
AcDbPolyline
 90
       12
 70
   128
 43
0.0
 10
79.2730752918
 20
79.9623487242
 10
79.4170986465
 20
80.4066414943
 10
79.4576020971
 20
80.9967045764
 10
79.3698135044
 20
81.6541799949
 10
79.1588352711
 20
82.3408574095
 10
78.8369285082
 20
83.0168296174
 10
78.4228009833
 20
83.642812013
 10
77.940520605
 20
84.1824242565
 10
77.4181156861
 20
84.6043061879
 10
76.8859464249
 20
84.8839397738
 10
76.3749406232
 20
85.0050734921
 10
76.2598441037
 20
85.0095786487
  0
LINE
  5
2C2
330
1F
100
AcDbEntity
  8
0
  6
SLD-実線
 62
     7
370
    15
100
AcDbLine
 10
75.7338695854
 20
76.9664710729
 30
0.0
 11
75.516997708
 21
76.8413045121
 31
0.0
  0
LWPOLYLINE
  5
2C3
330
1F
100
AcDbEntity
  8
0
  6
SLD-実線
 62
     7
370
    15
100
AcDbPolyline
 90
        6
 70
   128
 43
0.0
 10
75.516997708
 20
76.8413045121
 10
75.4934763092
 20
76.832591389
 10
75.47300463
 20
76.834080163
 10
75.4520548475
 20
76.8491262642
 10
75.436224096
 20
76.8849684503
 10
75.4326827729
 20
76.9276676441
  0
ARC
  5
2C4
330
1F
100
AcDbEntity
  8
0
  6
SLD-実線
 62
     7
370
    15
100
AcDbCircle
 10
75.4437416693
 20
77.035941761
 30
0.0
 40
0.2079665980132846
100
AcDbArc
 50
229.4701144102
 51
290.6249395393
  0
LWPOLYLINE
  5
2C5
330
1F
100
AcDbEntity
  8
0
  6
SLD-実線
 62
     7
370
    15
100
AcDbPolyline
 90
        7
 70
   128
 43
0.0
 10
71.7526474881
 20
83.1535850601
 10
71.7465181674
 20
83.1567570493
 10
71.7031817406
 20
83.1912843373
 10
71.6914028488
 20
83.2178730212
 10
71.6950309352
 20
83.2396400372
 10
71.7087469356
 20
83.2566489237
 10
71.7202706413
 20
83.2646421495
  0
LINE
  5
2C6
330
1F
100
AcDbEntity
  8
0
  6
SLD-実線
 62
     7
370
    15
100
AcDbLine
 10
71.906164585
 20
83.371929945
 30
0.0
 11
71.7202706413
 21
83.2646421495
 31
0.0
  0
ARC
  5
2C7
330
1F
100
AcDbEntity
  8
0
  6
SLD-実線
 62
     7
370
    15
100
AcDbCircle
 10
71.8555534668
 20
83.1066946634
 30
0.0
 40
0.207963581568597
100
AcDbArc
 50
130.5802229274
 51
191.8024136915
  0
LWPOLYLINE
  5
2C8
330
1F
100
AcDbEntity
  8
0
  6
SLD-実線
 62
     7
370
    15
100
AcDbPolyline
 90
       15
 70
   128
 43
0.0
 10
79.1657406042
 20
79.6541389547
 10
79.3215051489
 20
79.7640624987
 10
79.6042113914
 20
80.122334973
 10
79.7706527535
 20
80.6106935466
 10
79.8111562042
 20
81.2007566287
 10
79.7233676115
 20
81.8582320473
 10
79.5123893782
 20
82.5449094619
 10
79.1904826153
 20
83.2208816697
 10
78.7763550904
 20
83.8468640653
 10
78.2940747121
 20
84.3864763088
 10
77.7716697932
 20
84.8083582402
 10
77.2395005319
 20
85.0879918261
 10
76.7284947303
 20
85.2091255444
 10
76.2683501938
 20
85.1647196427
 10
76.041573272
 20
85.0672784024
  0
LINE
  5
2C9
330
1F
100
AcDbEntity
  8
0
  6
SLD-実線
 62
     7
370
    15
100
AcDbLine
 10
75.3735230856
 20
76.8444234858
 30
0.0
 11
75.2320387493
 21
76.7627664817
 31
0.0
  0
LWPOLYLINE
  5
2CA
330
1F
100
AcDbEntity
  8
0
  6
SLD-実線
 62
     7
370
    15
100
AcDbPolyline
 90
        6
 70
   128
 43
0.0
 10
75.2320387493
 20
76.7627664817
 10
75.2090968697
 20
76.7536515827
 10
75.1902104717
 20
76.754040794
 10
75.1724941427
 20
76.7668440574
 10
75.1620232851
 20
76.7989685797
 10
75.1638135383
 20
76.8379696852
  0
LWPOLYLINE
  5
2CB
330
1F
100
AcDbEntity
  8
0
  6
SLD-実線
 62
     7
370
    15
100
AcDbPolyline
 90
       12
 70
   128
 43
0.0
 10
79.980183506
 20
80.3704528288
 10
80.1242068606
 20
80.8147455989
 10
80.1647103113
 20
81.404808681
 10
80.0769217186
 20
82.0622840996
 10
79.8659434853
 20
82.7489615142
 10
79.5440367224
 20
83.424933722
 10
79.1299091975
 20
84.0509161176
 10
78.6476288192
 20
84.5905283612
 10
78.1252239003
 20
85.0124102925
 10
77.593054639
 20
85.2920438785
 10
77.0820488374
 20
85.4131775968
 10
76.9669523178
 20
85.4176827533
  0
LWPOLYLINE
  5
2CC
330
1F
100
AcDbEntity
  8
0
  6
SLD-実線
 62
     7
370
    15
100
AcDbPolyline
 90
        7
 70
   128
 43
0.0
 10
71.5502823584
 20
82.9513748252
 10
71.5442665543
 20
82.9535243283
 10
71.5019359719
 20
82.9789796724
 10
71.4907211236
 20
83.000481166
 10
71.4946816102
 20
83.019250645
 10
71.5085512161
 20
83.0348741296
 10
71.5200976416
 20
83.0426627726
  0
LINE
  5
2CD
330
1F
100
AcDbEntity
  8
0
  6
SLD-実線
 62
     7
370
    15
100
AcDbLine
 10
71.6504604782
 20
83.1179010568
 30
0.0
 11
71.5200976416
 21
83.0426627726
 31
0.0
  0
ARC
  5
2CE
330
1F
100
AcDbEntity
  8
0
  6
SLD-実線
 62
     7
370
    15
100
AcDbCircle
 10
75.1702168466
 20
76.9470909174
 30
0.0
 40
0.1944156507375936
100
AcDbArc
 50
222.4751445425
 51
288.5413094792
  0
ARC
  5
2CF
330
1F
100
AcDbEntity
  8
0
  6
SLD-実線
 62
     7
370
    15
100
AcDbCircle
 10
71.6513018915
 20
82.8997197766
 30
0.0
 40
0.1940290063003482
100
AcDbArc
 50
132.5481423972
 51
198.727159555
  0
LINE
  5
2D0
330
1F
100
AcDbEntity
  8
0
  6
SLD-実線
 62
     7
370
    15
100
AcDbLine
 10
75.0329508664
 20
76.8092584756
 30
0.0
 11
74.9215778192
 21
76.7449800571
 31
0.0
  0
LWPOLYLINE
  5
2D1
330
1F
100
AcDbEntity
  8
0
  6
SLD-実線
 62
     7
370
    15
100
AcDbPolyline
 90
        6
 70
   128
 43
0.0
 10
74.9215778192
 20
76.7449800571
 10
74.8992022878
 20
76.7353819985
 10
74.8818657744
 20
76.734449839
 10
74.8673109529
 20
76.7445574259
 10
74.8620798046
 20
76.7722139582
 10
74.8690824377
 20
76.8067706426
  0
LWPOLYLINE
  5
2D2
330
1F
100
AcDbEntity
  8
0
  6
SLD-実線
 62
     7
370
    15
100
AcDbPolyline
 90
       15
 70
   128
 43
0.0
 10
79.87284355
 20
80.0622400187
 10
80.0286080947
 20
80.1721635628
 10
80.3113143372
 20
80.530436037
 10
80.4777556994
 20
81.0187946107
 10
80.5182591501
 20
81.6088576928
 10
80.4304705573
 20
82.2663331113
 10
80.219492324
 20
82.9530105259
 10
79.8975855611
 20
83.6289827338
 10
79.4834580363
 20
84.2549651293
 10
79.001177658
 20
84.7945773729
 10
78.478772739
 20
85.2164593042
 10
77.9466034778
 20
85.4960928902
 10
77.4355976762
 20
85.6172266085
 10
76.9754531396
 20
85.5728207068
 10
76.7486762178
 20
85.4753794665
  0
LWPOLYLINE
  5
2D3
330
1F
100
AcDbEntity
  8
0
  6
SLD-実線
 62
     7
370
    15
100
AcDbPolyline
 90
        7
 70
   128
 43
0.0
 10
71.3865390531
 20
82.6985695014
 10
71.3807458371
 20
82.6996596175
 10
71.3403923699
 20
82.7157130923
 10
71.3302860166
 20
82.7319426526
 10
71.3348997794
 20
82.7476054584
 10
71.349071328
 20
82.7617931048
 10
71.3606622052
 20
82.7693697563
  0
LINE
  5
2D4
330
1F
100
AcDbEntity
  8
0
  6
SLD-実線
 62
     7
370
    15
100
AcDbLine
 10
71.4688505312
 20
82.8318101283
 30
0.0
 11
71.3606622052
 21
82.7693697563
 31
0.0
  0
ARC
  5
2D5
330
1F
100
AcDbEntity
  8
0
  6
SLD-実線
 62
     7
370
    15
100
AcDbCircle
 10
74.869434114
 20
76.9201614536
 30
0.0
 40
0.1827771530369582
100
AcDbArc
 50
216.0353141486
 51
286.5759260623
  0
ARC
  5
2D6
330
1F
100
AcDbEntity
  8
0
  6
SLD-実線
 62
     7
370
    15
100
AcDbCircle
 10
71.4877153122
 20
82.6393980547
 30
0.0
 40
0.1817557019882395
100
AcDbArc
 50
134.3494169986
 51
205.1585462686
  0
LWPOLYLINE
  5
2D7
330
1F
100
AcDbEntity
  8
0
  6
SLD-実線
 62
     7
370
    15
100
AcDbPolyline
 90
       12
 70
   128
 43
0.0
 10
80.6872864518
 20
80.7785538929
 10
80.8313098065
 20
81.222846663
 10
80.8718132571
 20
81.8129097451
 10
80.7840246644
 20
82.4703851636
 10
80.5730464311
 20
83.1570625782
 10
80.2511396682
 20
83.8330347861
 10
79.8370121433
 20
84.4590171816
 10
79.3547317651
 20
84.9986294252
 10
78.8323268461
 20
85.4205113566
 10
78.3001575849
 20
85.7001449425
 10
77.7891517832
 20
85.8212786608
 10
77.6740552637
 20
85.8257838173
  0
LINE
  5
2D8
330
1F
100
AcDbEntity
  8
0
  6
SLD-実線
 62
     7
370
    15
100
AcDbLine
 10
74.6905953087
 20
76.8456537333
 30
0.0
 11
74.591155088
 21
76.7882622882
 31
0.0
  0
LWPOLYLINE
  5
2D9
330
1F
100
AcDbEntity
  8
0
  6
SLD-実線
 62
     7
370
    15
100
AcDbPolyline
 90
        6
 70
   128
 43
0.0
 10
74.591155088
 20
76.7882622882
 10
74.5693230204
 20
76.778108715
 10
74.5534731712
 20
76.7756566599
 10
74.5419509472
 20
76.7826640097
 10
74.5417461399
 20
76.8051824359
 10
74.5537489367
 20
76.8346275305
  0
LWPOLYLINE
  5
2DA
330
1F
100
AcDbEntity
  8
0
  6
SLD-実線
 62
     7
370
    15
100
AcDbPolyline
 90
        7
 70
   128
 43
0.0
 10
71.2643393696
 20
82.3996807545
 10
71.258874438
 20
82.3996931676
 10
71.2214335485
 20
82.4061828721
 10
71.2129605503
 20
82.4170493938
 10
71.2185367759
 20
82.4295520972
 10
71.2331530066
 20
82.4422792312
 10
71.2448095737
 20
82.4496402851
  0
LINE
  5
2DB
330
1F
100
AcDbEntity
  8
0
  6
SLD-実線
 62
     7
370
    15
100
AcDbLine
 10
71.3416524948
 20
82.5055327113
 30
0.0
 11
71.2448095737
 21
82.4496402851
 31
0.0
  0
ARC
  5
2DC
330
1F
100
AcDbEntity
  8
0
  6
SLD-実線
 62
     7
370
    15
100
AcDbCircle
 10
74.5757665939
 20
76.9944837001
 30
0.0
 40
0.2175491167562778
100
AcDbArc
 50
215.4145068175
 51
256.1608530432
  0
ARC
  5
2DD
330
1F
100
AcDbEntity
  8
0
  6
SLD-実線
 62
     7
370
    15
100
AcDbCircle
 10
71.4192265153
 20
82.337661474
 30
0.0
 40
0.2191086565457556
100
AcDbArc
 50
166.2511501292
 51
205.5427238621
  0
LWPOLYLINE
  5
2DE
330
1F
100
AcDbEntity
  8
0
  6
SLD-実線
 62
     7
370
    15
100
AcDbPolyline
 90
       15
 70
   128
 43
0.0
 10
80.7567314519
 20
80.5723716698
 10
80.9124959966
 20
80.6822952139
 10
81.1952022391
 20
81.0405676881
 10
81.3616436013
 20
81.5289262618
 10
81.402147052
 20
82.1189893439
 10
81.3143584592
 20
82.7764647624
 10
81.1033802259
 20
83.463142177
 10
80.781473463
 20
84.1391143849
 10
80.3673459382
 20
84.7650967804
 10
79.8850655599
 20
85.304709024
 10
79.3626606409
 20
85.7265909554
 10
78.8304913797
 20
86.0062245413
 10
78.3194855781
 20
86.1273582596
 10
77.8593410415
 20
86.0829523579
 10
77.6325641197
 20
85.9855111176
  0
LINE
  5
2DF
330
1F
100
AcDbEntity
  8
0
  6
SLD-実線
 62
     7
370
    15
100
AcDbLine
 10
74.337951804
 20
76.9445254235
 30
0.0
 11
74.2466669985
 21
76.8918408371
 31
0.0
  0
LWPOLYLINE
  5
2E0
330
1F
100
AcDbEntity
  8
0
  6
SLD-実線
 62
     7
370
    15
100
AcDbPolyline
 90
        6
 70
   128
 43
0.0
 10
74.2466669985
 20
76.8918408371
 10
74.2253453853
 20
76.8810694211
 10
74.2108926382
 20
76.8769261274
 10
74.2022202656
 20
76.8804840882
 10
74.2067388687
 20
76.8972851512
 10
74.223440216
 20
76.9210430121
  0
LWPOLYLINE
  5
2E1
330
1F
100
AcDbEntity
  8
0
  6
SLD-実線
 62
     7
370
    15
100
AcDbPolyline
 90
       12
 70
   128
 43
0.0
 10
82.9008626432
 20
82.5582966316
 10
83.0770573788
 20
82.7852370648
 10
83.2298767478
 20
83.2242789756
 10
83.2538607741
 20
83.7657430308
 10
83.1472307291
 20
84.3694712885
 10
82.9178947445
 20
84.9906881194
 10
82.5828617078
 20
85.5833204743
 10
82.1669794088
 20
86.1034157702
 10
81.7010920143
 20
86.5124008804
 10
81.219752161
 20
86.7799431908
 10
80.758658739
 20
86.8862001958
 10
80.4247568194
 20
86.8485617913
  0
LWPOLYLINE
  5
2E2
330
1F
100
AcDbEntity
  8
0
  6
SLD-実線
 62
     7
370
    15
100
AcDbPolyline
 90
       14
 70
   128
 43
0.0
 10
83.6262912363
 20
82.9501479615
 10
83.6906190163
 20
82.9913077821
 10
83.9609400123
 20
83.2953656753
 10
84.1137593813
 20
83.7344075862
 10
84.1377434077
 20
84.2758716413
 10
84.0311133627
 20
84.879599899
 10
83.801777378
 20
85.5008167299
 10
83.4667443413
 20
86.0934490848
 10
83.0508620423
 20
86.6135443807
 10
82.5849746478
 20
87.0225294909
 10
82.1036347946
 20
87.2900718013
 10
81.6425413726
 20
87.3963288064
 10
81.2358914817
 20
87.3334201329
 10
81.1269573129
 20
87.280659534
  0
LWPOLYLINE
  5
2E3
330
1F
100
AcDbEntity
  8
0
  6
SLD-実線
 62
     7
370
    15
100
AcDbPolyline
 90
       14
 70
   128
 43
0.0
 10
83.7115561219
 20
83.006579649
 10
83.8673987041
 20
83.0933353285
 10
84.1377197001
 20
83.3973932218
 10
84.290539069
 20
83.8364351326
 10
84.3145230954
 20
84.3778991878
 10
84.2078930504
 20
84.9816274455
 10
83.9785570657
 20
85.6028442764
 10
83.643524029
 20
86.1954766312
 10
83.22764173
 20
86.7155719272
 10
82.7617543355
 20
87.1245570374
 10
82.2804144823
 20
87.3920993478
 10
81.8193210603
 20
87.4983563528
 10
81.4126711694
 20
87.4354476793
 10
81.2184750786
 20
87.326257113
  0
LWPOLYLINE
  5
2E4
330
1F
100
AcDbEntity
  8
0
  6
SLD-実線
 62
     7
370
    15
100
AcDbPolyline
 90
       14
 70
   128
 43
0.0
 10
84.863727977
 20
83.6643286244
 10
84.928055757
 20
83.7054884449
 10
85.198376753
 20
84.0095463381
 10
85.351196122
 20
84.448588249
 10
85.3751801483
 20
84.9900523041
 10
85.2685501033
 20
85.5937805619
 10
85.0392141187
 20
86.2149973928
 10
84.7041810819
 20
86.8076297476
 10
84.2882987829
 20
87.3277250436
 10
83.8224113885
 20
87.7367101538
 10
83.3410715352
 20
88.0042524642
 10
82.8799781132
 20
88.1105094692
 10
82.4733282223
 20
88.0476007957
 10
82.3643940536
 20
87.9948401968
  0
LWPOLYLINE
  5
2E5
330
1F
100
AcDbEntity
  8
0
  6
SLD-実線
 62
     7
370
    15
100
AcDbPolyline
 90
       14
 70
   128
 43
0.0
 10
84.9489928625
 20
83.7207603118
 10
85.1048354447
 20
83.8075159914
 10
85.3751564407
 20
84.1115738846
 10
85.5279758097
 20
84.5506157955
 10
85.551959836
 20
85.0920798506
 10
85.445329791
 20
85.6958081083
 10
85.2159938064
 20
86.3170249392
 10
84.8809607697
 20
86.9096572941
 10
84.4650784707
 20
87.42975259
 10
83.9991910762
 20
87.8387377002
 10
83.5178512229
 20
88.1062800106
 10
83.0567578009
 20
88.2125370157
 10
82.6501079101
 20
88.1496283422
 10
82.4559117781
 20
88.0404377996
  0
LWPOLYLINE
  5
2E6
330
1F
100
AcDbEntity
  8
0
  6
SLD-実線
 62
     7
370
    15
100
AcDbPolyline
 90
       14
 70
   128
 43
0.0
 10
86.1011647176
 20
84.3785092872
 10
86.1654924976
 20
84.4196691077
 10
86.4358134936
 20
84.723727001
 10
86.5886328626
 20
85.1627689118
 10
86.6126168889
 20
85.704232967
 10
86.5059868439
 20
86.3079612247
 10
86.2766508593
 20
86.9291780556
 10
85.9416178226
 20
87.5218104104
 10
85.5257355236
 20
88.0419057064
 10
85.0598481291
 20
88.4508908166
 10
84.5785082758
 20
88.718433127
 10
84.1174148538
 20
88.824690132
 10
83.710764963
 20
88.7617814585
 10
83.6018307942
 20
88.7090208597
  0
LWPOLYLINE
  5
2E7
330
1F
100
AcDbEntity
  8
0
  6
SLD-実線
 62
     7
370
    15
100
AcDbPolyline
 90
       14
 70
   128
 43
0.0
 10
86.1864296032
 20
84.4349409747
 10
86.3422721853
 20
84.5216966542
 10
86.6125931813
 20
84.8257545474
 10
86.7654125503
 20
85.2647964583
 10
86.7893965767
 20
85.8062605134
 10
86.6827665317
 20
86.4099887712
 10
86.453430547
 20
87.0312056021
 10
86.1183975103
 20
87.6238379569
 10
85.7025152113
 20
88.1439332529
 10
85.2366278168
 20
88.5529183631
 10
84.7552879636
 20
88.8204606735
 10
84.2941945416
 20
88.9267176785
 10
83.8875446507
 20
88.863809005
 10
83.6933485598
 20
88.7546184386
  0
LWPOLYLINE
  5
2E8
330
1F
100
AcDbEntity
  8
0
  6
SLD-実線
 62
     7
370
    15
100
AcDbPolyline
 90
       14
 70
   128
 43
0.0
 10
86.9850526195
 20
84.8886409383
 10
87.0493803995
 20
84.9298007589
 10
87.3197013955
 20
85.2338586521
 10
87.4725207645
 20
85.6729005629
 10
87.4965047908
 20
86.2143646181
 10
87.3898747458
 20
86.8180928758
 10
87.1605387612
 20
87.4393097067
 10
86.8255057245
 20
88.0319420615
 10
86.4096234255
 20
88.5520373575
 10
85.943736031
 20
88.9610224677
 10
85.4623961777
 20
89.2285647781
 10
85.0013027557
 20
89.3348217831
 10
84.5946528649
 20
89.2719131097
 10
84.4857186961
 20
89.2191525108
  0
LWPOLYLINE
  5
2E9
330
1F
100
AcDbEntity
  8
0
  6
SLD-実線
 62
     7
370
    15
100
AcDbPolyline
 90
       16
 70
   128
 43
0.0
 10
87.0256910718
 20
84.5215509351
 10
87.2970831905
 20
84.5914198648
 10
87.6456833965
 20
84.8326931611
 10
87.8880541172
 20
85.2214980656
 10
88.0089658523
 20
85.7334047813
 10
88.0008216324
 20
86.3362480974
 10
87.8641329819
 20
86.9921494285
 10
87.6074886382
 20
87.6598957546
 10
87.2470145454
 20
88.2975303157
 10
86.8053605187
 20
88.8649883416
 10
86.3102772943
 20
89.3266139625
 10
85.7928728273
 20
89.6534019122
 10
85.285657586
 20
89.8248187347
 10
84.8205016917
 20
89.8300936125
 10
84.4266326423
 20
89.6688952007
 10
84.1806431372
 20
89.4278442237
  0
LWPOLYLINE
  5
2EA
330
1F
100
AcDbEntity
  8
0
  6
SLD-実線
 62
     7
370
    15
100
AcDbPolyline
 90
       12
 70
   128
 43
0.0
 10
88.6006606841
 20
85.8665653356
 10
88.7339125555
 20
86.0500638208
 10
88.8867319245
 20
86.4891057316
 10
88.9107159508
 20
87.0305697868
 10
88.8040859058
 20
87.6342980445
 10
88.5747499212
 20
88.2555148754
 10
88.2397168845
 20
88.8481472302
 10
87.8238345855
 20
89.3682425262
 10
87.357947191
 20
89.7772276364
 10
86.8766073377
 20
90.0447699468
 10
86.4155139157
 20
90.1510269518
 10
86.1407100272
 20
90.1288388489
  0
LWPOLYLINE
  5
2EB
330
1F
100
AcDbEntity
  8
0
  6
SLD-実線
 62
     7
370
    15
100
AcDbPolyline
 90
       10
 70
   128
 43
0.0
 10
114.8311794252
 20
105.1444971416
 10
115.0889439428
 20
105.194584749
 10
115.3931746303
 20
105.0888888339
 10
115.6974053177
 20
104.8434141931
 10
115.9553195822
 20
104.4955321255
 10
116.1276523658
 20
104.0982043745
 10
116.188167667
 20
103.7119205461
 10
116.1276523658
 20
103.3954889953
 10
115.9553195822
 20
103.1970833543
 10
115.9551698456
 20
103.1969968424
  0
LINE
  5
2EC
330
1F
100
AcDbEntity
  8
0
  6
SLD-実線
 62
     7
370
    15
100
AcDbLine
 10
117.7764807081
 20
105.8978002568
 30
0.0
 11
121.3473671798
 21
109.3878427837
 31
0.0
  0
ELLIPSE
  5
2ED
330
1F
100
AcDbEntity
  8
0
  6
SLD-実線
 62
     7
370
    15
100
AcDbEllipse
 10
121.4068911329
 20
109.0138759452
 30
0.0
 11
-0.3039174908857377
 21
0.4008670108033812
 31
0.0
210
0.0
220
0.0
230
1.0
 40
0.4744787692
 41
3.867585968574185
 42
5.438382295369074
  0
LINE
  5
2EE
330
1F
100
AcDbEntity
  8
0
  6
SLD-実線
 62
     7
370
    15
100
AcDbLine
 10
121.7604425152
 20
108.8098230376
 30
0.0
 11
118.1300341566
 21
105.2616057728
 31
0.0
  0
ELLIPSE
  5
2EF
330
1F
100
AcDbEntity
  8
0
  6
SLD-実線
 62
     7
370
    15
100
AcDbEllipse
 10
117.776478959
 20
105.4656563427
 30
0.0
 11
-0.2354123793971468
 21
0.4582838595989501
 31
0.0
210
0.0
220
0.0
230
1.0
 40
0.5755867757
 41
3.983760804808012
 42
5.554557131602895
  0
LINE
  5
2F0
330
1F
100
AcDbEntity
  8
0
  6
SLD-実線
 62
     7
370
    15
100
AcDbLine
 10
125.87285277
 20
111.1832808356
 30
0.0
 11
125.87285277
 21
105.4667901533
 31
0.0
  0
LINE
  5
2F1
330
1F
100
AcDbEntity
  8
0
  6
SLD-実線
 62
     7
370
    15
100
AcDbLine
 10
121.7604425152
 20
103.0933323553
 30
0.0
 11
125.87285277
 21
105.4667901533
 31
0.0
  0
LINE
  5
2F2
330
1F
100
AcDbEntity
  8
0
  6
SLD-実線
 62
     7
370
    15
100
AcDbLine
 10
118.1300341566
 20
102.4510042712
 30
0.0
 11
121.7604425152
 21
103.0933323553
 31
0.0
  0
LINE
  5
2F3
330
1F
100
AcDbEntity
  8
0
  6
SLD-実線
 62
     7
370
    15
100
AcDbLine
 10
118.1300341566
 20
105.2616057728
 30
0.0
 11
118.1300341566
 21
102.4510042712
 31
0.0
  0
LINE
  5
2F4
330
1F
100
AcDbEntity
  8
0
  6
SLD-実線
 62
     7
370
    15
100
AcDbLine
 10
125.87285277
 20
111.1832808356
 30
0.0
 11
121.7604425152
 21
108.8098230376
 31
0.0
  0
LINE
  5
2F5
330
1F
100
AcDbEntity
  8
0
  6
SLD-実線
 62
     7
370
    15
100
AcDbLine
 10
117.0870173708
 20
111.8449383965
 30
0.0
 11
115.213775376
 21
107.3768533128
 31
0.0
  0
ELLIPSE
  5
2F6
330
1F
100
AcDbEntity
  8
0
  6
SLD-実線
 62
     7
370
    15
100
AcDbEllipse
 10
116.0844734469
 20
110.8393075096
 30
0.0
 11
1.046151775410308
 21
0.9767003495625631
 31
0.0
210
0.0
220
0.0
230
1.0
 40
0.2737446257
 41
0.0833689026704173
 42
0.1303014725579413
  0
LINE
  5
2F7
330
1F
100
AcDbEntity
  8
0
  6
SLD-実線
 62
     7
370
    15
100
AcDbLine
 10
117.1047266205
 20
111.8364623756
 30
0.0
 11
121.3473671798
 21
109.3878427837
 31
0.0
  0
LINE
  5
2F8
330
1F
100
AcDbEntity
  8
0
  6
SLD-実線
 62
     7
370
    15
100
AcDbLine
 10
115.213775376
 20
107.3768533128
 30
0.0
 11
117.7764807081
 21
105.8978002568
 31
0.0
  0
LINE
  5
2F9
330
1F
100
AcDbEntity
  8
0
  6
SLD-実線
 62
     7
370
    15
100
AcDbLine
 10
114.8773429733
 20
106.4808263532
 30
0.0
 11
114.8773429733
 21
107.1996170018
 31
0.0
  0
ELLIPSE
  5
2FA
330
1F
100
AcDbEntity
  8
0
  6
SLD-実線
 62
     7
370
    15
100
AcDbEllipse
 10
115.2687904201
 20
106.912956721
 30
0.0
 11
-0.3043132334334189
 21
0.4919710811744693
 31
0.0
210
0.0
220
0.0
230
1.0
 40
0.5004835629
 41
5.53367474522546
 42
6.963457605577062
  0
ELLIPSE
  5
2FB
330
1F
100
AcDbEntity
  8
0
  6
SLD-実線
 62
     7
370
    15
100
AcDbEllipse
 10
117.776478959
 20
102.6550548137
 30
0.0
 11
-0.2354123793971468
 21
0.4582838595989358
 31
0.0
210
0.0
220
0.0
230
1.0
 40
0.5755867757
 41
2.412964478013081
 42
3.983760804807987
  0
LINE
  5
2FC
330
1F
100
AcDbEntity
  8
0
  6
SLD-実線
 62
     7
370
    15
100
AcDbLine
 10
117.7764807081
 20
102.2229131316
 30
0.0
 11
117.1431472595
 21
102.5884384851
 31
0.0
  0
LWPOLYLINE
  5
2FD
330
1F
100
AcDbEntity
  8
0
  6
SLD-実線
 62
     7
370
    15
100
AcDbPolyline
 90
       10
 70
   128
 43
0.0
 10
115.7347895843
 20
106.3335540481
 10
115.7941726555
 20
106.3388911879
 10
116.1794539295
 20
106.2692840589
 10
116.5868067189
 20
106.0341823559
 10
116.9720880187
 20
105.6590630018
 10
117.2935466421
 20
105.1845759152
 10
117.5163473956
 20
104.6621392261
 10
117.6163467206
 20
104.1483668641
 10
117.5827077733
 20
103.6989342369
 10
117.4240706575
 20
103.3685626829
  0
LWPOLYLINE
  5
2FE
330
1F
100
AcDbEntity
  8
0
  6
SLD-実線
 62
     7
370
    15
100
AcDbPolyline
 90
        5
 70
   128
 43
0.0
 10
117.0870173708
 20
111.8449383965
 10
117.0358538956
 20
111.8616490384
 10
116.9151412055
 20
111.8729971484
 10
116.8202938388
 20
111.8407611121
 10
116.7637745857
 20
111.7702439495
  0
LINE
  5
2FF
330
1F
100
AcDbEntity
  8
0
  6
SLD-実線
 62
     7
370
    15
100
AcDbLine
 10
121.3473671798
 20
109.3878427837
 30
0.0
 11
125.5192993215
 21
111.7956533524
 31
0.0
  0
ARC
  5
300
330
1F
100
AcDbEntity
  8
0
  6
SLD-実線
 62
     7
370
    15
100
AcDbCircle
 10
125.1053253229
 20
111.1483969944
 30
0.0
 40
0.7683197670837552
100
AcDbArc
 50
2.602281354
 51
57.3977202109
  0
LINE
  5
301
330
1F
100
AcDbEntity
  8
0
  6
SLD-実線
 62
     7
370
    15
100
AcDbLine
 10
121.2766587621
 20
114.2442729443
 30
0.0
 11
117.1047266205
 21
111.8364623756
 31
0.0
  0
LINE
  5
302
330
1F
100
AcDbEntity
  8
0
  6
SLD-実線
 62
     7
370
    15
100
AcDbLine
 10
121.2766587621
 20
114.2442729443
 30
0.0
 11
125.5192993215
 21
111.7956533524
 31
0.0
  0
ELLIPSE
  5
303
330
1F
100
AcDbEntity
  8
0
  6
SLD-実線
 62
     7
370
    15
100
AcDbEllipse
 10
121.4068911329
 20
103.2973850591
 30
0.0
 11
-0.1725686298969009
 21
0.47381044647571
 31
0.0
210
0.0
220
0.0
230
1.0
 40
0.6632734424
 41
3.02541781735595
 42
4.043432058858787
  0
ARC
  5
304
330
1F
100
AcDbEntity
  8
0
  6
SLD-実線
 62
     7
370
    15
100
AcDbCircle
 10
121.1302385916
 20
114.039824323
 30
0.0
 40
0.2514718772385907
100
AcDbArc
 50
54.3908604905
 51
114.307246692
  0
ARC
  5
305
330
1F
100
AcDbEntity
  8
0
  6
SLD-実線
 62
     7
370
    15
100
AcDbCircle
 10
125.6351508106
 20
105.4364046158
 30
0.0
 40
0.2396361875663176
100
AcDbArc
 50
304.0228158898
 51
7.2846356144
  0
LINE
  5
306
330
1F
100
AcDbEntity
  8
0
  6
SLD-実線
 62
     7
370
    15
100
AcDbLine
 10
289.9216207909
 20
211.5766841032
 30
0.0
 11
289.9216207909
 21
210.0779584193
 31
0.0
  0
ARC
  5
307
330
1F
100
AcDbEntity
  8
0
  6
SLD-実線
 62
     7
370
    15
100
AcDbCircle
 10
290.1371893478
 20
211.6116769564
 30
0.0
 40
0.2183902527660802
100
AcDbArc
 50
50.8149444158
 51
189.2202951403
  0
LINE
  5
308
330
1F
100
AcDbEntity
  8
0
  6
SLD-実線
 62
     7
370
    15
100
AcDbLine
 10
294.5178147988
 20
209.3323336836
 30
0.0
 11
290.2751742395
 21
211.7809532755
 31
0.0
  0
ARC
  5
309
330
1F
100
AcDbEntity
  8
0
  6
SLD-実線
 62
     7
370
    15
100
AcDbCircle
 10
294.1038408002
 20
208.6850773256
 30
0.0
 40
0.7683197670834764
100
AcDbArc
 50
2.602281354
 51
57.3977202109
  0
LINE
  5
30A
330
1F
100
AcDbEntity
  8
0
  6
SLD-実線
 62
     7
370
    15
100
AcDbLine
 10
294.8713682474
 20
203.0034704845
 30
0.0
 11
294.8713682474
 21
208.7199611668
 31
0.0
  0
ARC
  5
30B
330
1F
100
AcDbEntity
  8
0
  6
SLD-実線
 62
     7
370
    15
100
AcDbCircle
 10
294.6557997632
 20
202.9684775054
 30
0.0
 40
0.2183902011441771
100
AcDbArc
 50
230.8149087579
 51
9.2203307982
  0
LINE
  5
30C
330
1F
100
AcDbEntity
  8
0
  6
SLD-実線
 62
     7
370
    15
100
AcDbLine
 10
293.5714059161
 20
203.3454166467
 30
0.0
 11
294.5178147988
 21
202.7992013123
 31
0.0
  0
LINE
  5
30D
330
1F
100
AcDbEntity
  8
0
  6
SLD-実線
 62
     7
370
    15
100
AcDbLine
 10
294.3410382392
 20
204.5345101462
 30
0.0
 11
294.3410382392
 21
208.6177179258
 31
0.0
  0
LINE
  5
30E
330
1F
100
AcDbEntity
  8
0
  6
SLD-実線
 62
     7
370
    15
100
AcDbLine
 10
294.3410382392
 20
208.6177179258
 30
0.0
 11
290.4519507991
 21
210.8622860355
 31
0.0
  0
LINE
  5
30F
330
1F
100
AcDbEntity
  8
0
  6
SLD-実線
 62
     7
370
    15
100
AcDbLine
 10
290.4519507991
 20
210.8622860355
 30
0.0
 11
290.4519507991
 21
210.3840359939
 31
0.0
  0
LINE
  5
310
330
1F
100
AcDbEntity
  8
0
  6
SLD-実線
 62
     7
370
    15
100
AcDbLine
 10
294.5178147988
 20
209.3323336836
 30
0.0
 11
298.6897416721
 21
211.7401412117
 31
0.0
  0
ELLIPSE
  5
311
330
1F
100
AcDbEntity
  8
0
  6
SLD-実線
 62
     7
370
    15
100
AcDbEllipse
 10
298.6302259967
 20
211.2974712242
 30
0.0
 11
-0.1725686298968867
 21
0.47381044647571
 31
0.0
210
0.0
220
0.0
230
1.0
 40
0.6632734424
 41
4.043432058858897
 42
5.614228385653804
  0
LINE
  5
312
330
1F
100
AcDbEntity
  8
0
  6
SLD-実線
 62
     7
370
    15
100
AcDbLine
 10
298.9837837706
 20
211.0934220055
 30
0.0
 11
294.8713682474
 21
208.7199611668
 31
0.0
  0
LINE
  5
313
330
1F
100
AcDbEntity
  8
0
  6
SLD-実線
 62
     7
370
    15
100
AcDbLine
 10
302.6141868607
 20
211.735747144
 30
0.0
 11
298.9837837706
 21
211.0934220055
 31
0.0
  0
LINE
  5
314
330
1F
100
AcDbEntity
  8
0
  6
SLD-実線
 62
     7
370
    15
100
AcDbLine
 10
302.6141868607
 20
208.9251456424
 30
0.0
 11
302.6141868607
 21
211.735747144
 31
0.0
  0
LINE
  5
315
330
1F
100
AcDbEntity
  8
0
  6
SLD-実線
 62
     7
370
    15
100
AcDbLine
 10
298.9837837706
 20
205.3769313232
 30
0.0
 11
302.6141868607
 21
208.9251456424
 31
0.0
  0
LINE
  5
316
330
1F
100
AcDbEntity
  8
0
  6
SLD-実線
 62
     7
370
    15
100
AcDbLine
 10
294.8713682474
 20
203.0034704845
 30
0.0
 11
298.9837837706
 21
205.3769313232
 31
0.0
  0
LINE
  5
317
330
1F
100
AcDbEntity
  8
0
  6
SLD-実線
 62
     7
370
    15
100
AcDbLine
 10
294.4471011128
 20
214.1887608036
 30
0.0
 11
290.2751742395
 21
211.7809532755
 31
0.0
  0
LINE
  5
318
330
1F
100
AcDbEntity
  8
0
  6
SLD-実線
 62
     7
370
    15
100
AcDbLine
 10
298.6897416721
 20
211.7401412117
 30
0.0
 11
294.4471011128
 21
214.1887608036
 31
0.0
  0
LINE
  5
319
330
1F
100
AcDbEntity
  8
0
  6
SLD-実線
 62
     7
370
    15
100
AcDbLine
 10
298.6897416721
 20
211.7401412117
 30
0.0
 11
302.2606334122
 21
212.3719416281
 31
0.0
  0
ELLIPSE
  5
31A
330
1F
100
AcDbEntity
  8
0
  6
SLD-実線
 62
     7
370
    15
100
AcDbEllipse
 10
302.2606381706
 20
211.9398014697
 30
0.0
 11
-0.2354123793971893
 21
0.4582838595989641
 31
0.0
210
0.0
220
0.0
230
1.0
 40
0.5755867757
 41
3.983760804808009
 42
5.554557131602757
  0
ELLIPSE
  5
31B
330
1F
100
AcDbEntity
  8
0
  6
SLD-実線
 62
     7
370
    15
100
AcDbEllipse
 10
295.4673623085
 20
214.3692789911
 30
0.0
 11
1.079479869027864
 21
0.1096308168292239
 31
0.0
210
0.0
220
0.0
230
1.0
 40
0.2310429179
 41
3.404784239397792
 42
3.451716809285273
  0
LINE
  5
31C
330
1F
100
AcDbEntity
  8
0
  6
SLD-実線
 62
     7
370
    15
100
AcDbLine
 10
299.6979280801
 20
213.850994684
 30
0.0
 11
294.4316519879
 21
214.1985412446
 31
0.0
  0
LINE
  5
31D
330
1F
100
AcDbEntity
  8
0
  6
SLD-実線
 62
     7
370
    15
100
AcDbLine
 10
302.2606334122
 20
212.3719416281
 30
0.0
 11
299.6979280801
 21
213.850994684
 31
0.0
  0
LWPOLYLINE
  5
31E
330
1F
100
AcDbEntity
  8
0
  6
SLD-実線
 62
     7
370
    15
100
AcDbPolyline
 90
        4
 70
   128
 43
0.0
 10
294.2227794506
 20
214.2233039409
 10
294.2376411538
 20
214.2356199808
 10
294.3309643192
 20
214.2445044055
 10
294.4316519879
 20
214.1985412446
  0
ELLIPSE
  5
31F
330
1F
100
AcDbEntity
  8
0
  6
SLD-実線
 62
     7
370
    15
100
AcDbEllipse
 10
298.6302259967
 20
205.5809803381
 30
0.0
 11
-0.3039174908856808
 21
0.4008670108034096
 31
0.0
210
0.0
220
0.0
230
1.0
 40
0.4744787692
 41
3.081921399539187
 42
3.867585968574295
  0
ELLIPSE
  5
320
330
1F
100
AcDbEntity
  8
0
  6
SLD-実線
 62
     7
370
    15
100
AcDbEllipse
 10
299.7529496317
 20
213.387101848
 30
0.0
 11
-0.3043132334334473
 21
0.4919710811744835
 31
0.0
210
0.0
220
0.0
230
1.0
 40
0.5004835629
 41
5.533674745225571
 42
5.940121381508177
  0
ELLIPSE
  5
321
330
1F
100
AcDbEntity
  8
0
  6
SLD-実線
 62
     7
370
    15
100
AcDbEllipse
 10
302.2606381706
 20
209.1291999407
 30
0.0
 11
-0.2354123793971326
 21
0.4582838595989642
 31
0.0
210
0.0
220
0.0
230
1.0
 40
0.5755867757
 41
3.317438743874574
 42
3.983760804808006
  0
LWPOLYLINE
  5
322
330
1F
100
AcDbEntity
  8
0
  6
SLD-実線
 62
     7
370
    15
100
AcDbPolyline
 90
        3
 70
   128
 43
0.0
 10
301.4329569762
 20
212.9718421005
 10
301.0311599358
 20
213.1263031491
 10
300.937530825
 20
213.1382378414
  0
LWPOLYLINE
  5
323
330
1F
100
AcDbEntity
  8
0
  6
SLD-実線
 62
     7
370
    15
100
AcDbPolyline
 90
        3
 70
   128
 43
0.0
 10
301.8920667129
 20
212.6048678209
 10
301.834753996
 20
212.6625127026
 10
301.4329569762
 20
212.9718421005
  0
LWPOLYLINE
  5
324
330
1F
100
AcDbEntity
  8
0
  6
SLD-実線
 62
     7
370
    15
100
AcDbPolyline
 90
        3
 70
   128
 43
0.0
 10
330.3129469534
 20
229.1288016741
 10
330.0087162659
 20
229.2344975891
 10
329.7509517483
 20
229.1844099817
  0
LWPOLYLINE
  5
325
330
1F
100
AcDbEntity
  8
0
  6
SLD-実線
 62
     7
370
    15
100
AcDbPolyline
 90
        8
 70
   128
 43
0.0
 10
330.8749421687
 20
227.2369096826
 10
330.8750919053
 20
227.2369961944
 10
331.0474246889
 20
227.4354018354
 10
331.1079399901
 20
227.7518333863
 10
331.0474246889
 20
228.1381172147
 10
330.8750919053
 20
228.5354449656
 10
330.6171776408
 20
228.8833270332
 10
330.3129469534
 20
229.1288016741
  0
LINE
  5
326
330
1F
100
AcDbEntity
  8
0
  6
SLD-実線
 62
     7
370
    15
100
AcDbLine
 10
125.8728524407
 20
110.6562286617
 30
0.0
 11
294.3410341233
 21
207.8868293941
 31
0.0
  0
LWPOLYLINE
  5
327
330
1F
100
AcDbEntity
  8
0
  6
SLD-実線
 62
     8
370
    15
100
AcDbPolyline
 90
       14
 70
   128
 43
0.0
 10
330.4409752497
 20
231.5597104783
 10
330.7468197417
 20
231.558047501
 10
331.2485255366
 20
231.4172608223
 10
331.7665045837
 20
231.1183117067
 10
332.2682104609
 20
230.6799841652
 10
332.7221190131
 20
230.1298198347
 10
333.0997095008
 20
229.5023876076
 10
333.3772565411
 20
228.8371114394
 10
333.5373208875
 20
228.1757929129
 10
333.569844919
 20
227.5599853969
 10
333.4727853367
 20
227.0283820374
 10
333.252240592
 20
226.6143855329
 10
332.9220684369
 20
226.3440087375
 10
332.686839796
 20
226.259778596
  0
ARC
  5
328
330
1F
100
AcDbEntity
  8
0
  6
SLD-実線
 62
     8
370
    15
100
AcDbCircle
 10
331.8241743013
 20
230.8716405717
 30
0.0
 40
0.9481436022964678
100
AcDbArc
 50
82.9769354203
 51
125.1851439438
  0
LWPOLYLINE
  5
329
330
1F
100
AcDbEntity
  8
0
  6
SLD-実線
 62
     8
370
    15
100
AcDbPolyline
 90
        3
 70
   128
 43
0.0
 10
334.1584518356
 20
227.6575656645
 10
333.9027610644
 20
227.3982371418
 10
333.7706893048
 20
227.3272663329
  0
ARC
  5
32A
330
1F
100
AcDbEntity
  8
0
  6
SLD-実線
 62
     8
370
    15
100
AcDbCircle
 10
341.7482866496
 20
236.7975198397
 30
0.0
 40
1.864924483413311
100
AcDbArc
 50
157.5860788664
 51
161.1515208892
  0
LWPOLYLINE
  5
32B
330
1F
100
AcDbEntity
  8
0
  6
SLD-実線
 62
     8
370
    15
100
AcDbPolyline
 90
       17
 70
   128
 43
0.0
 10
86.5023892153
 20
84.6100740522
 10
86.6569731543
 20
84.6098248888
 10
87.0540985416
 20
84.7212550869
 10
87.3613558174
 20
84.9916509304
 10
87.5578060649
 20
85.402585319
 10
87.6300612391
 20
85.9260539299
 10
87.5731974025
 20
86.526383166
 10
87.3910897604
 20
87.1626615682
 10
87.0961487487
 20
87.7915277686
 10
86.7084738043
 20
88.370125635
 10
86.2544844981
 20
88.8590248631
 10
85.7651195803
 20
89.2249073742
 10
85.2737282593
 20
89.4428391504
 10
84.8137981614
 20
89.4979684653
 10
84.4166727328
 20
89.3865382909
 10
84.1094153748
 20
89.1161426375
 10
84.0030552507
 20
88.9405856485
  0
LINE
  5
32C
330
1F
100
AcDbEntity
  8
0
  6
SLD-実線
 62
     8
370
    15
100
AcDbLine
 10
115.3931746303
 20
102.5578721641
 30
0.0
 11
115.1430676991
 21
102.7282960535
 31
0.0
  0
LWPOLYLINE
  5
32D
330
1F
100
AcDbEntity
  8
0
  6
SLD-実線
 62
     8
370
    15
100
AcDbPolyline
 90
       19
 70
   128
 43
0.0
 10
114.0190773096
 20
104.6757962636
 10
114.0005370591
 20
104.8539707578
 10
114.03164629
 20
105.3154449291
 10
114.183733234
 20
105.6752076325
 10
114.4432844137
 20
105.9012924935
 10
114.7872374976
 20
105.9736107382
 10
115.1850307314
 20
105.8857366365
 10
115.601318488
 20
105.6454781601
 10
115.9991117218
 20
105.2741833588
 10
116.3430649085
 20
104.8048433188
 10
116.6026160676
 20
104.2791610398
 10
116.7547029705
 20
103.7438458638
 10
116.7858122838
 20
103.2464625589
 10
116.6931794376
 20
102.8312061185
 10
116.4850355799
 20
102.534973669
 10
116.1798751099
 20
102.3840868386
 10
115.8048127745
 20
102.3919526598
 10
115.3931746303
 20
102.5578721641
 10
115.3931746303
 20
102.5578721641
  0
LWPOLYLINE
  5
32E
330
1F
100
AcDbEntity
  8
0
  6
SLD-実線
 62
     8
370
    15
100
AcDbPolyline
 90
       12
 70
   128
 43
0.0
 10
117.3984139281
 20
103.1378894125
 10
117.575259141
 20
103.2651855176
 10
117.765940374
 20
103.5873384668
 10
117.8316446766
 20
104.0285190276
 10
117.765940374
 20
104.5455414347
 10
117.575259141
 20
105.0877959426
 10
117.2782662692
 20
105.6022027648
 10
116.9040332883
 20
106.0384083464
 10
116.4891928891
 20
106.3537137521
 10
116.0743524692
 20
106.5172546404
 10
115.7001195192
 20
106.5130225707
 10
115.4898694201
 20
106.4153184187
  0
ARC
  5
32F
330
1F
100
AcDbEntity
  8
0
  6
SLD-実線
 62
     8
370
    15
100
AcDbCircle
 10
300.956187248
 20
212.4156611317
 30
0.0
 40
0.9907382221760465
100
AcDbArc
 50
53.9633897822
 51
110.7553259562
  0
LWPOLYLINE
  5
330
330
1F
100
AcDbEntity
  8
0
  6
SLD-実線
 62
     8
370
    15
100
AcDbPolyline
 90
        9
 70
   128
 43
0.0
 10
302.6182644037
 20
209.9574246643
 10
302.7484820313
 20
210.0994774367
 10
302.9005689341
 20
210.4592402114
 10
302.9316782474
 20
210.9207143352
 10
302.8390454013
 20
211.4428960144
 10
302.6309015435
 20
211.9793868809
 10
302.3257410735
 20
212.4825174587
 10
301.9506787382
 20
212.9075824832
 10
301.5390405939
 20
213.2168129289
  0
ARC
  5
331
330
1F
100
AcDbEntity
  8
0
  6
SLD-実線
 62
     8
370
    15
100
AcDbCircle
 10
300.9726354451
 20
212.3723394015
 30
0.0
 40
0.9665693993975024
100
AcDbArc
 50
54.1266637167
 51
106.7989508616
  0
LWPOLYLINE
  5
332
330
1F
100
AcDbEntity
  8
0
  6
SLD-実線
 62
     8
370
    15
100
AcDbPolyline
 90
        8
 70
   128
 43
0.0
 10
302.6290582775
 20
210.0677580018
 10
302.8167938409
 20
210.3870100903
 10
302.8825500039
 20
210.8285381458
 10
302.8167938409
 20
211.3459679101
 10
302.6259624597
 20
211.8886495195
 10
302.32873564
 20
212.4034616465
 10
301.9542077959
 20
212.840010814
 10
301.5390405939
 20
213.155564536
  0
LINE
  5
333
330
1F
100
AcDbEntity
  8
0
  6
SLD-実線
 62
     8
370
    15
100
AcDbLine
 10
125.3429034829
 20
111.8974639199
 30
0.0
 11
293.6339314244
 21
209.0258212228
 31
0.0
  0
LINE
  5
334
330
1F
100
AcDbEntity
  8
0
  6
SLD-実線
 62
     8
370
    15
100
AcDbLine
 10
122.8680297546
 20
113.3258253881
 30
0.0
 11
291.1590576962
 21
210.454182691
 31
0.0
  0
LINE
  5
335
330
1F
100
AcDbEntity
  8
0
  6
SLD-実線
 62
     8
370
    15
100
AcDbLine
 10
125.8728565566
 20
110.5704756945
 30
0.0
 11
294.3410382392
 21
207.8010764269
 31
0.0
  0
LINE
  5
336
330
1F
100
AcDbEntity
  8
0
  6
SLD-実線
 62
     8
370
    15
100
AcDbLine
 10
125.8728565566
 20
106.6097640352
 30
0.0
 11
294.3410382392
 21
203.8403647676
 31
0.0
  0
ENDSEC
  0
SECTION
  2
OBJECTS
  0
DICTIONARY
  5
C
330
0
100
AcDbDictionary
281
     1
  3
ACAD_DETAILVIEWSTYLE
350
33E
  3
ACAD_GROUP
350
D
  3
ACAD_LAYOUT
350
1A
  3
ACAD_MATERIAL
350
43
  3
ACAD_MLEADERSTYLE
350
6B
  3
ACAD_MLINESTYLE
350
17
  3
ACAD_PLOTSETTINGS
350
19
  3
ACAD_PLOTSTYLENAME
350
E
  3
ACAD_SCALELIST
350
47
  3
ACAD_SECTIONVIEWSTYLE
350
33F
  3
ACAD_TABLESTYLE
350
69
  3
ACAD_VISUALSTYLE
350
2A
  3
ACDB_RECOMPOSE_DATA
350
33B
  3
AcDbVariableDictionary
350
337
  0
SUN
  5
6D
330
29
100
AcDbSun
 90
        1
290
     0
 63
     7
421
 16777215
 40
1.0
291
     1
 91
  2455826
 92
 54000000
292
     0
 70
     2
 71
   256
280
     1
  0
DICTIONARY
  5
33E
102
{ACAD_REACTORS
330
C
102
}
330
C
100
AcDbDictionary
281
     1
  0
DICTIONARY
  5
D
102
{ACAD_REACTORS
330
C
102
}
330
C
100
AcDbDictionary
281
     1
  0
DICTIONARY
  5
1A
102
{ACAD_REACTORS
330
C
102
}
330
C
100
AcDbDictionary
281
     1
  3
Layout1
350
1E
  3
Layout2
350
26
  3
Model
350
22
  0
DICTIONARY
  5
43
102
{ACAD_REACTORS
330
C
102
}
330
C
100
AcDbDictionary
281
     1
  3
ByBlock
350
45
  3
ByLayer
350
44
  3
Global
350
46
  0
DICTIONARY
  5
6B
102
{ACAD_REACTORS
330
C
102
}
330
C
100
AcDbDictionary
281
     1
  3
Standard
350
6C
  0
DICTIONARY
  5
17
102
{ACAD_REACTORS
330
C
102
}
330
C
100
AcDbDictionary
281
     1
  3
Standard
350
18
  0
DICTIONARY
  5
19
102
{ACAD_REACTORS
330
C
102
}
330
C
100
AcDbDictionary
281
     1
  0
ACDBDICTIONARYWDFLT
  5
E
102
{ACAD_REACTORS
330
C
102
}
330
C
100
AcDbDictionary
281
     1
  3
Normal
350
F
100
AcDbDictionaryWithDefault
340
F
  0
DICTIONARY
  5
47
102
{ACAD_REACTORS
330
C
102
}
330
C
100
AcDbDictionary
281
     1
  3
A0
350
48
  3
A1
350
49
  3
A2
350
4A
  3
A3
350
4B
  3
A4
350
4C
  3
A5
350
4D
  3
A6
350
4E
  3
A7
350
4F
  3
A8
350
50
  3
A9
350
51
  3
B0
350
52
  3
B1
350
53
  3
B2
350
54
  3
B3
350
55
  3
B4
350
56
  3
B5
350
57
  3
B6
350
58
  3
B7
350
59
  3
B8
350
5A
  3
B9
350
5B
  3
C0
350
5C
  3
C1
350
5D
  3
C2
350
5E
  3
C3
350
5F
  3
C4
350
60
  3
C5
350
61
  3
C6
350
62
  3
C7
350
63
  3
C8
350
64
  3
C9
350
65
  3
D0
350
66
  3
D1
350
67
  3
D2
350
68
  0
DICTIONARY
  5
33F
102
{ACAD_REACTORS
330
C
102
}
330
C
100
AcDbDictionary
281
     1
  0
DICTIONARY
  5
69
102
{ACAD_REACTORS
330
C
102
}
330
C
100
AcDbDictionary
281
     1
  3
Standard
350
6A
  0
DICTIONARY
  5
2A
102
{ACAD_REACTORS
330
C
102
}
330
C
100
AcDbDictionary
281
     1
  3
2dWireframe
350
2F
  3
Basic
350
32
  3
Brighten
350
36
  3
ColorChange
350
3A
  3
Conceptual
350
34
  3
Dim
350
35
  3
EdgeColorOff
350
3D
  3
Facepattern
350
39
  3
Flat
350
2B
  3
FlatWithEdges
350
2C
  3
Gouraud
350
2D
  3
GouraudWithEdges
350
2E
  3
Hidden
350
31
  3
JitterOff
350
3B
  3
Linepattern
350
38
  3
OverhangOff
350
3C
  3
Realistic
350
33
  3
Shaded
350
42
  3
Shaded with edges
350
41
  3
Shades of Gray
350
3E
  3
Sketchy
350
3F
  3
Thicken
350
37
  3
Wireframe
350
30
  3
X-Ray
350
40
  0
XRECORD
  5
33B
102
{ACAD_REACTORS
330
C
102
}
330
C
100
AcDbXrecord
280
     1
 90
        1
330
6A
  0
DICTIONARY
  5
337
102
{ACAD_REACTORS
330
C
102
}
330
C
100
AcDbDictionary
281
     1
  3
CANNOSCALE
350
338
  3
CMLEADERSTYLE
350
33D
  3
CTABLESTYLE
350
33C
  0
LAYOUT
  5
1E
102
{ACAD_REACTORS
330
1A
102
}
330
1A
100
AcDbPlotSettings
  1

  2
none_device
  4

  6

 40
0.0
 41
0.0
 42
0.0
 43
0.0
 44
0.0
 45
0.0
 46
0.0
 47
0.0
 48
0.0
 49
0.0
140
0.0
141
0.0
142
1.0
143
1.0
 70
   688
 72
     1
 73
     0
 74
     5
  7

 75
    16
 76
     0
 77
     2
 78
   300
147
1.0
148
0.0
149
0.0
100
AcDbLayout
  1
Layout1
 70
     1
 71
     1
 10
0.0
 20
0.0
 11
420.0
 21
297.0
 12
0.0
 22
0.0
 32
0.0
 14
1.0000000000E+20
 24
1.0000000000E+20
 34
1.0000000000E+20
 15
-1.0000000000E+20
 25
-1.0000000000E+20
 35
-1.0000000000E+20
146
0.0
 13
0.0
 23
0.0
 33
0.0
 16
1.0
 26
0.0
 36
0.0
 17
0.0
 27
1.0
 37
0.0
 76
     0
330
1B
  0
LAYOUT
  5
26
102
{ACAD_REACTORS
330
1A
102
}
330
1A
100
AcDbPlotSettings
  1

  2
none_device
  4

  6

 40
0.0
 41
0.0
 42
0.0
 43
0.0
 44
0.0
 45
0.0
 46
0.0
 47
0.0
 48
0.0
 49
0.0
140
0.0
141
0.0
142
1.0
143
1.0
 70
   688
 72
     1
 73
     0
 74
     5
  7

 75
    16
 76
     0
 77
     2
 78
   300
147
1.0
148
0.0
149
0.0
100
AcDbLayout
  1
Layout2
 70
     1
 71
     2
 10
0.0
 20
0.0
 11
0.0
 21
0.0
 12
0.0
 22
0.0
 32
0.0
 14
0.0
 24
0.0
 34
0.0
 15
0.0
 25
0.0
 35
0.0
146
0.0
 13
0.0
 23
0.0
 33
0.0
 16
1.0
 26
0.0
 36
0.0
 17
0.0
 27
1.0
 37
0.0
 76
     0
330
23
  0
LAYOUT
  5
22
102
{ACAD_REACTORS
330
1A
102
}
330
1A
100
AcDbPlotSettings
  1

  2
none_device
  4
Letter_(8.50_x_11.00_Inches)
  6

 40
6.35
 41
6.35
 42
6.35000508
 43
6.35000508
 44
215.9
 45
279.4
 46
0.0
 47
0.0
 48
0.0
 49
0.0
140
0.0
141
0.0
142
1.0
143
1.0
 70
  1712
 72
     1
 73
     0
 74
     0
  7

 75
     0
 76
     0
 77
     2
 78
   300
147
1.0
148
0.0
149
0.0
100
AcDbLayout
  1
Model
 70
     1
 71
     0
 10
0.0
 20
0.0
 11
420.0
 21
297.0
 12
0.0
 22
0.0
 32
0.0
 14
0.0
 24
0.0
 34
0.0
 15
420.0
 25
297.0
 35
0.0
146
0.0
 13
0.0
 23
0.0
 33
0.0
 16
1.0
 26
0.0
 36
0.0
 17
0.0
 27
1.0
 37
0.0
 76
     0
330
1F
331
29
  0
MATERIAL
  5
45
102
{ACAD_REACTORS
330
43
102
}
330
43
100
AcDbMaterial
  1
ByBlock
 72
     1
 94
      127
  0
MATERIAL
  5
44
102
{ACAD_REACTORS
330
43
102
}
330
43
100
AcDbMaterial
  1
ByLayer
 72
     1
 94
      127
  0
MATERIAL
  5
46
102
{ACAD_REACTORS
330
43
102
}
330
43
100
AcDbMaterial
  1
Global
 72
     1
 94
      127
  0
MLEADERSTYLE
  5
6C
102
{ACAD_REACTORS
330
6B
102
}
330
6B
100
AcDbMLeaderStyle
179
     2
170
     2
171
     1
172
     0
 90
        2
 40
0.0
 41
0.0
173
     1
 91
-1056964608
340
14
 92
       -2
290
     1
 42
2.0
291
     1
 43
8.0
  3
Standard
341
0
 44
4.0
300

342
11
174
     1
178
     6
175
     1
176
     0
 93
-1056964608
 45
4.0
292
     0
297
     0
 46
4.0
343
0
 94
-1056964608
 47
1.0
 49
1.0
140
1.0
293
     1
141
0.0
294
     1
177
     0
142
1.0
295
     0
296
     0
143
3.75
271
     0
272
     9
273
     9
298
     0
  0
MLINESTYLE
  5
18
102
{ACAD_REACTORS
330
17
102
}
330
17
100
AcDbMlineStyle
  2
Standard
 70
     0
  3

 62
   256
 51
90.0
 52
90.0
 71
     2
 49
0.5
 62
   256
  6
BYLAYER
 49
-0.5
 62
   256
  6
BYLAYER
  0
ACDBPLACEHOLDER
  5
F
102
{ACAD_REACTORS
330
E
102
}
330
E
  0
SCALE
  5
48
102
{ACAD_REACTORS
330
47
102
}
330
47
100
AcDbScale
 70
     0
300
1:1
140
1.0
141
1.0
290
     1
  0
SCALE
  5
49
102
{ACAD_REACTORS
330
47
102
}
330
47
100
AcDbScale
 70
     0
300
1:2
140
1.0
141
2.0
290
     0
  0
SCALE
  5
4A
102
{ACAD_REACTORS
330
47
102
}
330
47
100
AcDbScale
 70
     0
300
1:4
140
1.0
141
4.0
290
     0
  0
SCALE
  5
4B
102
{ACAD_REACTORS
330
47
102
}
330
47
100
AcDbScale
 70
     0
300
1:5
140
1.0
141
5.0
290
     0
  0
SCALE
  5
4C
102
{ACAD_REACTORS
330
47
102
}
330
47
100
AcDbScale
 70
     0
300
1:8
140
1.0
141
8.0
290
     0
  0
SCALE
  5
4D
102
{ACAD_REACTORS
330
47
102
}
330
47
100
AcDbScale
 70
     0
300
1:10
140
1.0
141
10.0
290
     0
  0
SCALE
  5
4E
102
{ACAD_REACTORS
330
47
102
}
330
47
100
AcDbScale
 70
     0
300
1:16
140
1.0
141
16.0
290
     0
  0
SCALE
  5
4F
102
{ACAD_REACTORS
330
47
102
}
330
47
100
AcDbScale
 70
     0
300
1:20
140
1.0
141
20.0
290
     0
  0
SCALE
  5
50
102
{ACAD_REACTORS
330
47
102
}
330
47
100
AcDbScale
 70
     0
300
1:30
140
1.0
141
30.0
290
     0
  0
SCALE
  5
51
102
{ACAD_REACTORS
330
47
102
}
330
47
100
AcDbScale
 70
     0
300
1:40
140
1.0
141
40.0
290
     0
  0
SCALE
  5
52
102
{ACAD_REACTORS
330
47
102
}
330
47
100
AcDbScale
 70
     0
300
1:50
140
1.0
141
50.0
290
     0
  0
SCALE
  5
53
102
{ACAD_REACTORS
330
47
102
}
330
47
100
AcDbScale
 70
     0
300
1:100
140
1.0
141
100.0
290
     0
  0
SCALE
  5
54
102
{ACAD_REACTORS
330
47
102
}
330
47
100
AcDbScale
 70
     0
300
2:1
140
2.0
141
1.0
290
     0
  0
SCALE
  5
55
102
{ACAD_REACTORS
330
47
102
}
330
47
100
AcDbScale
 70
     0
300
4:1
140
4.0
141
1.0
290
     0
  0
SCALE
  5
56
102
{ACAD_REACTORS
330
47
102
}
330
47
100
AcDbScale
 70
     0
300
8:1
140
8.0
141
1.0
290
     0
  0
SCALE
  5
57
102
{ACAD_REACTORS
330
47
102
}
330
47
100
AcDbScale
 70
     0
300
10:1
140
10.0
141
1.0
290
     0
  0
SCALE
  5
58
102
{ACAD_REACTORS
330
47
102
}
330
47
100
AcDbScale
 70
     0
300
100:1
140
100.0
141
1.0
290
     0
  0
SCALE
  5
59
102
{ACAD_REACTORS
330
47
102
}
330
47
100
AcDbScale
 70
     0
300
1/128" = 1'-0"
140
0.0078125
141
12.0
290
     0
  0
SCALE
  5
5A
102
{ACAD_REACTORS
330
47
102
}
330
47
100
AcDbScale
 70
     0
300
1/64" = 1'-0"
140
0.015625
141
12.0
290
     0
  0
SCALE
  5
5B
102
{ACAD_REACTORS
330
47
102
}
330
47
100
AcDbScale
 70
     0
300
1/32" = 1'-0"
140
0.03125
141
12.0
290
     0
  0
SCALE
  5
5C
102
{ACAD_REACTORS
330
47
102
}
330
47
100
AcDbScale
 70
     0
300
1/16" = 1'-0"
140
0.0625
141
12.0
290
     0
  0
SCALE
  5
5D
102
{ACAD_REACTORS
330
47
102
}
330
47
100
AcDbScale
 70
     0
300
3/32" = 1'-0"
140
0.09375
141
12.0
290
     0
  0
SCALE
  5
5E
102
{ACAD_REACTORS
330
47
102
}
330
47
100
AcDbScale
 70
     0
300
1/8" = 1'-0"
140
0.125
141
12.0
290
     0
  0
SCALE
  5
5F
102
{ACAD_REACTORS
330
47
102
}
330
47
100
AcDbScale
 70
     0
300
3/16" = 1'-0"
140
0.1875
141
12.0
290
     0
  0
SCALE
  5
60
102
{ACAD_REACTORS
330
47
102
}
330
47
100
AcDbScale
 70
     0
300
1/4" = 1'-0"
140
0.25
141
12.0
290
     0
  0
SCALE
  5
61
102
{ACAD_REACTORS
330
47
102
}
330
47
100
AcDbScale
 70
     0
300
3/8" = 1'-0"
140
0.375
141
12.0
290
     0
  0
SCALE
  5
62
102
{ACAD_REACTORS
330
47
102
}
330
47
100
AcDbScale
 70
     0
300
1/2" = 1'-0"
140
0.5
141
12.0
290
     0
  0
SCALE
  5
63
102
{ACAD_REACTORS
330
47
102
}
330
47
100
AcDbScale
 70
     0
300
3/4" = 1'-0"
140
0.75
141
12.0
290
     0
  0
SCALE
  5
64
102
{ACAD_REACTORS
330
47
102
}
330
47
100
AcDbScale
 70
     0
300
1" = 1'-0"
140
1.0
141
12.0
290
     0
  0
SCALE
  5
65
102
{ACAD_REACTORS
330
47
102
}
330
47
100
AcDbScale
 70
     0
300
1-1/2" = 1'-0"
140
1.5
141
12.0
290
     0
  0
SCALE
  5
66
102
{ACAD_REACTORS
330
47
102
}
330
47
100
AcDbScale
 70
     0
300
3" = 1'-0"
140
3.0
141
12.0
290
     0
  0
SCALE
  5
67
102
{ACAD_REACTORS
330
47
102
}
330
47
100
AcDbScale
 70
     0
300
6" = 1'-0"
140
6.0
141
12.0
290
     0
  0
SCALE
  5
68
102
{ACAD_REACTORS
330
47
102
}
330
47
100
AcDbScale
 70
     0
300
1'-0" = 1'-0"
140
12.0
141
12.0
290
     0
  0
TABLESTYLE
  5
6A
102
{ACAD_REACTORS
330
69
102
}
102
{ACAD_XDICTIONARY
360
339
102
}
330
69
100
AcDbTableStyle
  3
Standard
 70
     0
 71
     0
 40
0.06
 41
0.06
280
     0
281
     0
  7
Standard
140
4.5
170
     2
 62
     0
 63
   257
283
     0
 90
        4
 91
        0
  1

274
    -2
284
     1
 64
     0
275
    -2
285
     1
 65
     0
276
    -2
286
     1
 66
     0
277
    -2
287
     1
 67
     0
278
    -2
288
     1
 68
     0
279
    -2
289
     1
 69
     0
  7
Standard
140
6.0
170
     5
 62
     0
 63
   257
283
     0
 90
        4
 91
        0
  1

274
    -2
284
     1
 64
     0
275
    -2
285
     1
 65
     0
276
    -2
286
     1
 66
     0
277
    -2
287
     1
 67
     0
278
    -2
288
     1
 68
     0
279
    -2
289
     1
 69
     0
  7
Standard
140
4.5
170
     5
 62
     0
 63
   257
283
     0
 90
        4
 91
        0
  1

274
    -2
284
     1
 64
     0
275
    -2
285
     1
 65
     0
276
    -2
286
     1
 66
     0
277
    -2
287
     1
 67
     0
278
    -2
288
     1
 68
     0
279
    -2
289
     1
 69
     0
  0
VISUALSTYLE
  5
2F
102
{ACAD_REACTORS
330
2A
102
}
330
2A
100
AcDbVisualStyle
  2
2dWireframe
 70
     4
177
     3
291
     0
 70
    58
 90
        0
176
     1
 90
        2
176
     1
 90
        0
176
     1
 90
        0
176
     1
 40
0.6
176
     1
 40
30.0
176
     1
 62
     7
420
 16777215
176
     1
 90
        1
176
     1
 90
        4
176
     1
 62
     7
176
     1
 62
   257
176
     1
 90
        1
176
     1
 90
        1
176
     1
 40
1.0
176
     1
 90
        0
176
     1
 62
   257
176
     1
 40
1.0
176
     1
 90
        1
176
     1
 90
        6
176
     1
 90
        2
176
     1
 62
     7
176
     1
 90
        5
176
     1
 90
        0
176
     1
 90
        0
176
     1
290
     0
176
     1
 90
        1
176
     1
 40
0.0
176
     1
 90
        0
176
     1
290
     1
176
     1
290
     1
176
     1
290
     0
176
     1
290
     0
176
     1
290
     0
176
     1
290
     0
176
     1
290
     0
176
     1
290
     0
176
     1
290
     0
176
     1
 90
       50
176
     1
 40
0.0
176
     1
 40
1.0
176
     1
 90
        0
176
     1
 62
    18
420
        0
176
     1
 90
       50
176
     1
 90
        3
176
     1
 62
     5
420
      255
176
     1
290
     0
176
     1
 90
       50
176
     1
 90
       50
176
     1
 90
       50
176
     1
290
     0
176
     1
 90
       50
176
     1
 62
   256
176
     0
 40
1.0
176
     0
 90
        2
176
     1
  1
strokes_ogs.tif
176
     1
290
     0
176
     1
 40
1.0
176
     1
 40
1.0
176
     1
  0
VISUALSTYLE
  5
32
102
{ACAD_REACTORS
330
2A
102
}
330
2A
100
AcDbVisualStyle
  2
Basic
 70
     7
177
     3
291
     1
 70
    58
 90
        1
176
     1
 90
        0
176
     1
 90
        1
176
     1
 90
        0
176
     1
 40
0.6
176
     1
 40
30.0
176
     1
 62
     7
420
 16777215
176
     1
 90
        0
176
     1
 90
        4
176
     1
 62
     7
176
     1
 62
   257
176
     1
 90
        1
176
     1
 90
        1
176
     1
 40
1.0
176
     1
 90
        8
176
     1
 62
     7
176
     1
 40
1.0
176
     1
 90
        1
176
     1
 90
        6
176
     1
 90
        2
176
     1
 62
     7
176
     1
 90
        5
176
     1
 90
        0
176
     1
 90
        0
176
     1
290
     0
176
     1
 90
        1
176
     1
 40
0.0
176
     1
 90
        0
176
     1
290
     0
176
     1
290
     1
176
     1
290
     1
176
     1
290
     0
176
     1
290
     0
176
     1
290
     0
176
     1
290
     0
176
     1
290
     0
176
     1
290
     0
176
     1
 90
       50
176
     1
 40
0.0
176
     1
 40
1.0
176
     1
 90
        0
176
     1
 62
    18
420
        0
176
     1
 90
       50
176
     1
 90
        3
176
     1
 62
     5
420
      255
176
     1
290
     0
176
     1
 90
       50
176
     1
 90
       50
176
     1
 90
       50
176
     1
290
     0
176
     1
 90
       50
176
     1
 62
   256
176
     0
 40
1.0
176
     0
 90
        2
176
     1
  1
strokes_ogs.tif
176
     1
290
     0
176
     1
 40
1.0
176
     1
 40
1.0
176
     1
  0
VISUALSTYLE
  5
36
102
{ACAD_REACTORS
330
2A
102
}
330
2A
100
AcDbVisualStyle
  2
Brighten
 70
    12
177
     3
291
     1
 70
    58
 90
        2
176
     1
 90
        2
176
     1
 90
        0
176
     1
 90
        0
176
     1
 40
0.6
176
     1
 40
30.0
176
     1
 62
     7
420
 16777215
176
     1
 90
        1
176
     1
 90
        4
176
     1
 62
     7
176
     1
 62
   257
176
     1
 90
        1
176
     1
 90
        1
176
     1
 40
1.0
176
     1
 90
        8
176
     1
 62
     7
176
     1
 40
1.0
176
     1
 90
        1
176
     1
 90
        6
176
     1
 90
        2
176
     1
 62
     7
176
     1
 90
        5
176
     1
 90
        0
176
     1
 90
        0
176
     1
290
     0
176
     1
 90
        1
176
     1
 40
50.0
176
     1
 90
        0
176
     1
290
     0
176
     1
290
     1
176
     1
290
     1
176
     1
290
     0
176
     1
290
     0
176
     1
290
     0
176
     1
290
     0
176
     1
290
     0
176
     1
290
     0
176
     1
 90
       50
176
     1
 40
0.0
176
     1
 40
1.0
176
     1
 90
        0
176
     1
 62
    18
420
        0
176
     1
 90
       50
176
     1
 90
        3
176
     1
 62
     5
420
      255
176
     1
290
     0
176
     1
 90
       50
176
     1
 90
       50
176
     1
 90
       50
176
     1
290
     0
176
     1
 90
       50
176
     1
 62
   256
176
     0
 40
1.0
176
     0
 90
        2
176
     1
  1
strokes_ogs.tif
176
     1
290
     0
176
     1
 40
1.0
176
     1
 40
1.0
176
     1
  0
VISUALSTYLE
  5
3A
102
{ACAD_REACTORS
330
2A
102
}
330
2A
100
AcDbVisualStyle
  2
ColorChange
 70
    16
177
     3
291
     1
 70
    58
 90
        2
176
     1
 90
        2
176
     1
 90
        3
176
     1
 90
        0
176
     1
 40
0.6
176
     1
 40
30.0
176
     1
 62
     8
420
  8421504
176
     1
 90
        1
176
     1
 90
        4
176
     1
 62
     7
176
     1
 62
   257
176
     1
 90
        1
176
     1
 90
        1
176
     1
 40
1.0
176
     1
 90
        8
176
     1
 62
     8
420
  8421504
176
     1
 40
1.0
176
     1
 90
        1
176
     1
 90
        6
176
     1
 90
        2
176
     1
 62
     7
176
     1
 90
        5
176
     1
 90
        0
176
     1
 90
        0
176
     1
290
     0
176
     1
 90
        1
176
     1
 40
0.0
176
     1
 90
        0
176
     1
290
     0
176
     1
290
     1
176
     1
290
     1
176
     1
290
     0
176
     1
290
     0
176
     1
290
     0
176
     1
290
     0
176
     1
290
     0
176
     1
290
     0
176
     1
 90
       50
176
     1
 40
0.0
176
     1
 40
1.0
176
     1
 90
        0
176
     1
 62
    18
420
        0
176
     1
 90
       50
176
     1
 90
        3
176
     1
 62
     5
420
      255
176
     1
290
     0
176
     1
 90
       50
176
     1
 90
       50
176
     1
 90
       50
176
     1
290
     0
176
     1
 90
       50
176
     1
 62
   256
176
     0
 40
1.0
176
     0
 90
        2
176
     1
  1
strokes_ogs.tif
176
     1
290
     0
176
     1
 40
1.0
176
     1
 40
1.0
176
     1
  0
VISUALSTYLE
  5
34
102
{ACAD_REACTORS
330
2A
102
}
330
2A
100
AcDbVisualStyle
  2
Conceptual
 70
     9
177
     3
291
     0
 70
    58
 90
        3
176
     1
 90
        2
176
     1
 90
        0
176
     1
 90
        0
176
     1
 40
0.6
176
     1
 40
30.0
176
     1
 62
     7
420
 16777215
176
     1
 90
        2
176
     1
 90
        2
176
     1
 62
     7
176
     1
 62
   257
176
     1
 90
        1
176
     1
 90
        1
176
     1
 40
179.0
176
     1
 90
        8
176
     1
 62
     7
176
     1
 40
1.0
176
     1
 90
        1
176
     1
 90
        6
176
     1
 90
        2
176
     1
 62
     7
176
     1
 90
        3
176
     1
 90
        0
176
     1
 90
        0
176
     1
290
     0
176
     1
 90
        1
176
     1
 40
0.0
176
     1
 90
        0
176
     1
290
     0
176
     1
290
     1
176
     1
290
     1
176
     1
290
     0
176
     1
290
     0
176
     1
290
     0
176
     1
290
     0
176
     1
290
     0
176
     1
290
     0
176
     1
 90
       50
176
     1
 40
0.0
176
     1
 40
1.0
176
     1
 90
        0
176
     1
 62
    18
420
        0
176
     1
 90
       50
176
     1
 90
        3
176
     1
 62
     5
420
      255
176
     1
290
     0
176
     1
 90
       50
176
     1
 90
       50
176
     1
 90
       50
176
     1
290
     0
176
     1
 90
       50
176
     1
 62
   256
176
     0
 40
1.0
176
     0
 90
        2
176
     1
  1
strokes_ogs.tif
176
     1
290
     0
176
     1
 40
1.0
176
     1
 40
1.0
176
     1
  0
VISUALSTYLE
  5
35
102
{ACAD_REACTORS
330
2A
102
}
330
2A
100
AcDbVisualStyle
  2
Dim
 70
    11
177
     3
291
     1
 70
    58
 90
        2
176
     1
 90
        2
176
     1
 90
        0
176
     1
 90
        0
176
     1
 40
0.6
176
     1
 40
30.0
176
     1
 62
     7
420
 16777215
176
     1
 90
        1
176
     1
 90
        4
176
     1
 62
     7
176
     1
 62
   257
176
     1
 90
        1
176
     1
 90
        1
176
     1
 40
1.0
176
     1
 90
        8
176
     1
 62
     7
176
     1
 40
1.0
176
     1
 90
        1
176
     1
 90
        6
176
     1
 90
        2
176
     1
 62
     7
176
     1
 90
        5
176
     1
 90
        0
176
     1
 90
        0
176
     1
290
     0
176
     1
 90
        1
176
     1
 40
-50.0
176
     1
 90
        0
176
     1
290
     0
176
     1
290
     1
176
     1
290
     1
176
     1
290
     0
176
     1
290
     0
176
     1
290
     0
176
     1
290
     0
176
     1
290
     0
176
     1
290
     0
176
     1
 90
       50
176
     1
 40
0.0
176
     1
 40
1.0
176
     1
 90
        0
176
     1
 62
    18
420
        0
176
     1
 90
       50
176
     1
 90
        3
176
     1
 62
     5
420
      255
176
     1
290
     0
176
     1
 90
       50
176
     1
 90
       50
176
     1
 90
       50
176
     1
290
     0
176
     1
 90
       50
176
     1
 62
   256
176
     0
 40
1.0
176
     0
 90
        2
176
     1
  1
strokes_ogs.tif
176
     1
290
     0
176
     1
 40
1.0
176
     1
 40
1.0
176
     1
  0
VISUALSTYLE
  5
3D
102
{ACAD_REACTORS
330
2A
102
}
330
2A
100
AcDbVisualStyle
  2
EdgeColorOff
 70
    22
177
     3
291
     1
 70
    58
 90
        2
176
     0
 90
        2
176
     0
 90
        0
176
     0
 90
        0
176
     0
 40
0.6
176
     0
 40
30.0
176
     0
 62
     7
420
 16777215
176
     0
 90
        1
176
     0
 90
        4
176
     0
 62
     7
176
     0
 62
   257
176
     0
 90
        1
176
     0
 90
        1
176
     0
 40
1.0
176
     0
 90
        8
176
     2
 62
     7
176
     0
 40
1.0
176
     0
 90
        1
176
     0
 90
        6
176
     0
 90
        2
176
     0
 62
     7
176
     0
 90
        5
176
     0
 90
        0
176
     0
 90
        0
176
     0
290
     0
176
     0
 90
        1
176
     0
 40
0.0
176
     0
 90
        0
176
     0
290
     0
176
     0
290
     1
176
     0
290
     1
176
     0
290
     0
176
     0
290
     0
176
     0
290
     0
176
     0
290
     0
176
     0
290
     0
176
     0
290
     0
176
     0
 90
       50
176
     0
 40
0.0
176
     0
 40
1.0
176
     0
 90
        0
176
     0
 62
    18
420
        0
176
     0
 90
       50
176
     0
 90
        3
176
     0
 62
     5
420
      255
176
     0
290
     0
176
     0
 90
       50
176
     0
 90
       50
176
     0
 90
       50
176
     0
290
     0
176
     0
 90
       50
176
     0
 62
   256
176
     0
 40
1.0
176
     0
 90
        2
176
     0
  1
strokes_ogs.tif
176
     0
290
     0
176
     0
 40
1.0
176
     0
 40
1.0
176
     0
  0
VISUALSTYLE
  5
39
102
{ACAD_REACTORS
330
2A
102
}
330
2A
100
AcDbVisualStyle
  2
Facepattern
 70
    15
177
     3
291
     1
 70
    58
 90
        2
176
     1
 90
        2
176
     1
 90
        0
176
     1
 90
        0
176
     1
 40
0.6
176
     1
 40
30.0
176
     1
 62
     7
420
 16777215
176
     1
 90
        1
176
     1
 90
        4
176
     1
 62
     7
176
     1
 62
   257
176
     1
 90
        1
176
     1
 90
        1
176
     1
 40
1.0
176
     1
 90
        8
176
     1
 62
     7
176
     1
 40
1.0
176
     1
 90
        1
176
     1
 90
        6
176
     1
 90
        2
176
     1
 62
     7
176
     1
 90
        5
176
     1
 90
        0
176
     1
 90
        0
176
     1
290
     0
176
     1
 90
        1
176
     1
 40
0.0
176
     1
 90
        0
176
     1
290
     0
176
     1
290
     1
176
     1
290
     1
176
     1
290
     0
176
     1
290
     0
176
     1
290
     0
176
     1
290
     0
176
     1
290
     0
176
     1
290
     0
176
     1
 90
       50
176
     1
 40
0.0
176
     1
 40
1.0
176
     1
 90
        0
176
     1
 62
    18
420
        0
176
     1
 90
       50
176
     1
 90
        3
176
     1
 62
     5
420
      255
176
     1
290
     0
176
     1
 90
       50
176
     1
 90
       50
176
     1
 90
       50
176
     1
290
     0
176
     1
 90
       50
176
     1
 62
   256
176
     0
 40
1.0
176
     0
 90
        2
176
     1
  1
strokes_ogs.tif
176
     1
290
     0
176
     1
 40
1.0
176
     1
 40
1.0
176
     1
  0
VISUALSTYLE
  5
2B
102
{ACAD_REACTORS
330
2A
102
}
330
2A
100
AcDbVisualStyle
  2
Flat
 70
     0
177
     3
291
     1
 70
    58
 90
        2
176
     1
 90
        1
176
     1
 90
        1
176
     1
 90
        2
176
     1
 40
0.6
176
     1
 40
30.0
176
     1
 62
     7
420
 16777215
176
     1
 90
        0
176
     1
 90
        0
176
     1
 62
     7
176
     1
 62
   257
176
     1
 90
        1
176
     1
 90
        1
176
     1
 40
1.0
176
     1
 90
        8
176
     1
 62
     7
176
     1
 40
1.0
176
     1
 90
        1
176
     1
 90
        6
176
     1
 90
        2
176
     1
 62
     7
176
     1
 90
        5
176
     1
 90
        0
176
     1
 90
        0
176
     1
290
     0
176
     1
 90
       13
176
     1
 40
0.0
176
     1
 90
        0
176
     1
290
     0
176
     1
290
     1
176
     1
290
     1
176
     1
290
     0
176
     1
290
     0
176
     1
290
     0
176
     1
290
     0
176
     1
290
     0
176
     1
290
     0
176
     1
 90
       50
176
     1
 40
0.0
176
     1
 40
1.0
176
     1
 90
        0
176
     1
 62
    18
420
        0
176
     1
 90
       50
176
     1
 90
        3
176
     1
 62
     5
420
      255
176
     1
290
     0
176
     1
 90
       50
176
     1
 90
       50
176
     1
 90
       50
176
     1
290
     0
176
     1
 90
       50
176
     1
 62
   256
176
     0
 40
1.0
176
     0
 90
        2
176
     1
  1
strokes_ogs.tif
176
     1
290
     0
176
     1
 40
1.0
176
     1
 40
1.0
176
     1
  0
VISUALSTYLE
  5
2C
102
{ACAD_REACTORS
330
2A
102
}
330
2A
100
AcDbVisualStyle
  2
FlatWithEdges
 70
     1
177
     3
291
     1
 70
    58
 90
        2
176
     1
 90
        1
176
     1
 90
        1
176
     1
 90
        2
176
     1
 40
0.6
176
     1
 40
30.0
176
     1
 62
     7
420
 16777215
176
     1
 90
        1
176
     1
 90
        0
176
     1
 62
     7
176
     1
 62
   257
176
     1
 90
        1
176
     1
 90
        1
176
     1
 40
1.0
176
     1
 90
        0
176
     1
 62
   257
176
     1
 40
1.0
176
     1
 90
        1
176
     1
 90
        6
176
     1
 90
        2
176
     1
 62
     7
176
     1
 90
        5
176
     1
 90
        0
176
     1
 90
        0
176
     1
290
     0
176
     1
 90
       13
176
     1
 40
0.0
176
     1
 90
        0
176
     1
290
     0
176
     1
290
     1
176
     1
290
     1
176
     1
290
     0
176
     1
290
     0
176
     1
290
     0
176
     1
290
     0
176
     1
290
     0
176
     1
290
     0
176
     1
 90
       50
176
     1
 40
0.0
176
     1
 40
1.0
176
     1
 90
        0
176
     1
 62
    18
420
        0
176
     1
 90
       50
176
     1
 90
        3
176
     1
 62
     5
420
      255
176
     1
290
     0
176
     1
 90
       50
176
     1
 90
       50
176
     1
 90
       50
176
     1
290
     0
176
     1
 90
       50
176
     1
 62
   256
176
     0
 40
1.0
176
     0
 90
        2
176
     1
  1
strokes_ogs.tif
176
     1
290
     0
176
     1
 40
1.0
176
     1
 40
1.0
176
     1
  0
VISUALSTYLE
  5
2D
102
{ACAD_REACTORS
330
2A
102
}
330
2A
100
AcDbVisualStyle
  2
Gouraud
 70
     2
177
     3
291
     1
 70
    58
 90
        2
176
     1
 90
        2
176
     1
 90
        1
176
     1
 90
        2
176
     1
 40
0.6
176
     1
 40
30.0
176
     1
 62
     7
420
 16777215
176
     1
 90
        0
176
     1
 90
        0
176
     1
 62
     7
176
     1
 62
   257
176
     1
 90
        1
176
     1
 90
        1
176
     1
 40
1.0
176
     1
 90
        0
176
     1
 62
     7
176
     1
 40
1.0
176
     1
 90
        1
176
     1
 90
        6
176
     1
 90
        2
176
     1
 62
     7
176
     1
 90
        5
176
     1
 90
        0
176
     1
 90
        0
176
     1
290
     0
176
     1
 90
       13
176
     1
 40
0.0
176
     1
 90
        0
176
     1
290
     0
176
     1
290
     1
176
     1
290
     1
176
     1
290
     0
176
     1
290
     0
176
     1
290
     0
176
     1
290
     0
176
     1
290
     0
176
     1
290
     0
176
     1
 90
       50
176
     1
 40
0.0
176
     1
 40
1.0
176
     1
 90
        0
176
     1
 62
    18
420
        0
176
     1
 90
       50
176
     1
 90
        3
176
     1
 62
     5
420
      255
176
     1
290
     0
176
     1
 90
       50
176
     1
 90
       50
176
     1
 90
       50
176
     1
290
     0
176
     1
 90
       50
176
     1
 62
   256
176
     0
 40
1.0
176
     0
 90
        2
176
     1
  1
strokes_ogs.tif
176
     1
290
     0
176
     1
 40
1.0
176
     1
 40
1.0
176
     1
  0
VISUALSTYLE
  5
2E
102
{ACAD_REACTORS
330
2A
102
}
330
2A
100
AcDbVisualStyle
  2
GouraudWithEdges
 70
     3
177
     3
291
     1
 70
    58
 90
        2
176
     1
 90
        2
176
     1
 90
        1
176
     1
 90
        2
176
     1
 40
0.6
176
     1
 40
30.0
176
     1
 62
     7
420
 16777215
176
     1
 90
        1
176
     1
 90
        0
176
     1
 62
     7
176
     1
 62
   257
176
     1
 90
        1
176
     1
 90
        1
176
     1
 40
1.0
176
     1
 90
        0
176
     1
 62
   257
176
     1
 40
1.0
176
     1
 90
        1
176
     1
 90
        6
176
     1
 90
        2
176
     1
 62
     7
176
     1
 90
        5
176
     1
 90
        0
176
     1
 90
        0
176
     1
290
     0
176
     1
 90
       13
176
     1
 40
0.0
176
     1
 90
        0
176
     1
290
     0
176
     1
290
     1
176
     1
290
     1
176
     1
290
     0
176
     1
290
     0
176
     1
290
     0
176
     1
290
     0
176
     1
290
     0
176
     1
290
     0
176
     1
 90
       50
176
     1
 40
0.0
176
     1
 40
1.0
176
     1
 90
        0
176
     1
 62
    18
420
        0
176
     1
 90
       50
176
     1
 90
        3
176
     1
 62
     5
420
      255
176
     1
290
     0
176
     1
 90
       50
176
     1
 90
       50
176
     1
 90
       50
176
     1
290
     0
176
     1
 90
       50
176
     1
 62
   256
176
     0
 40
1.0
176
     0
 90
        2
176
     1
  1
strokes_ogs.tif
176
     1
290
     0
176
     1
 40
1.0
176
     1
 40
1.0
176
     1
  0
VISUALSTYLE
  5
31
102
{ACAD_REACTORS
330
2A
102
}
330
2A
100
AcDbVisualStyle
  2
Hidden
 70
     6
177
     3
291
     0
 70
    58
 90
        1
176
     1
 90
        2
176
     1
 90
        2
176
     1
 90
        0
176
     1
 40
0.6
176
     1
 40
30.0
176
     1
 62
     7
420
 16777215
176
     1
 90
        2
176
     1
 90
        2
176
     1
 62
     7
176
     1
 62
   257
176
     1
 90
        2
176
     1
 90
        1
176
     1
 40
40.0
176
     1
 90
        0
176
     1
 62
   257
176
     1
 40
1.0
176
     1
 90
        1
176
     1
 90
        6
176
     1
 90
        2
176
     1
 62
     7
176
     1
 90
        3
176
     1
 90
        0
176
     1
 90
        0
176
     1
290
     0
176
     1
 90
        1
176
     1
 40
0.0
176
     1
 90
        0
176
     1
290
     0
176
     1
290
     1
176
     1
290
     1
176
     1
290
     0
176
     1
290
     0
176
     1
290
     0
176
     1
290
     0
176
     1
290
     0
176
     1
290
     0
176
     1
 90
       50
176
     1
 40
0.0
176
     1
 40
1.0
176
     1
 90
        0
176
     1
 62
    18
420
        0
176
     1
 90
       50
176
     1
 90
        3
176
     1
 62
     5
420
      255
176
     1
290
     0
176
     1
 90
       50
176
     1
 90
       50
176
     1
 90
       50
176
     1
290
     0
176
     1
 90
       50
176
     1
 62
   256
176
     0
 40
1.0
176
     0
 90
        2
176
     1
  1
strokes_ogs.tif
176
     1
290
     0
176
     1
 40
1.0
176
     1
 40
1.0
176
     1
  0
VISUALSTYLE
  5
3B
102
{ACAD_REACTORS
330
2A
102
}
330
2A
100
AcDbVisualStyle
  2
JitterOff
 70
    20
177
     3
291
     1
 70
    58
 90
        2
176
     0
 90
        2
176
     0
 90
        0
176
     0
 90
        0
176
     0
 40
0.6
176
     0
 40
30.0
176
     0
 62
     7
420
 16777215
176
     0
 90
        1
176
     0
 90
        4
176
     0
 62
     7
176
     0
 62
   257
176
     0
 90
        1
176
     0
 90
        1
176
     0
 40
1.0
176
     0
 90
       10
176
     2
 62
     7
176
     0
 40
1.0
176
     0
 90
        1
176
     0
 90
        6
176
     0
 90
        2
176
     0
 62
     7
176
     0
 90
        5
176
     0
 90
        0
176
     0
 90
        0
176
     0
290
     0
176
     0
 90
        1
176
     0
 40
0.0
176
     0
 90
        0
176
     0
290
     0
176
     0
290
     1
176
     0
290
     1
176
     0
290
     0
176
     0
290
     0
176
     0
290
     0
176
     0
290
     0
176
     0
290
     0
176
     0
290
     0
176
     0
 90
       50
176
     0
 40
0.0
176
     0
 40
1.0
176
     0
 90
        0
176
     0
 62
    18
420
        0
176
     0
 90
       50
176
     0
 90
        3
176
     0
 62
     5
420
      255
176
     0
290
     0
176
     0
 90
       50
176
     0
 90
       50
176
     0
 90
       50
176
     0
290
     0
176
     0
 90
       50
176
     0
 62
   256
176
     0
 40
1.0
176
     0
 90
        2
176
     0
  1
strokes_ogs.tif
176
     0
290
     0
176
     0
 40
1.0
176
     0
 40
1.0
176
     0
  0
VISUALSTYLE
  5
38
102
{ACAD_REACTORS
330
2A
102
}
330
2A
100
AcDbVisualStyle
  2
Linepattern
 70
    14
177
     3
291
     1
 70
    58
 90
        2
176
     1
 90
        2
176
     1
 90
        0
176
     1
 90
        0
176
     1
 40
0.6
176
     1
 40
30.0
176
     1
 62
     7
420
 16777215
176
     1
 90
        1
176
     1
 90
        4
176
     1
 62
     7
176
     1
 62
   257
176
     1
 90
        7
176
     1
 90
        7
176
     1
 40
1.0
176
     1
 90
        8
176
     1
 62
     7
176
     1
 40
1.0
176
     1
 90
        1
176
     1
 90
        6
176
     1
 90
        2
176
     1
 62
     7
176
     1
 90
        5
176
     1
 90
        0
176
     1
 90
        0
176
     1
290
     0
176
     1
 90
        1
176
     1
 40
0.0
176
     1
 90
        0
176
     1
290
     0
176
     1
290
     1
176
     1
290
     1
176
     1
290
     0
176
     1
290
     0
176
     1
290
     0
176
     1
290
     0
176
     1
290
     0
176
     1
290
     0
176
     1
 90
       50
176
     1
 40
0.0
176
     1
 40
1.0
176
     1
 90
        0
176
     1
 62
    18
420
        0
176
     1
 90
       50
176
     1
 90
        3
176
     1
 62
     5
420
      255
176
     1
290
     0
176
     1
 90
       50
176
     1
 90
       50
176
     1
 90
       50
176
     1
290
     0
176
     1
 90
       50
176
     1
 62
   256
176
     0
 40
1.0
176
     0
 90
        2
176
     1
  1
strokes_ogs.tif
176
     1
290
     0
176
     1
 40
1.0
176
     1
 40
1.0
176
     1
  0
VISUALSTYLE
  5
3C
102
{ACAD_REACTORS
330
2A
102
}
330
2A
100
AcDbVisualStyle
  2
OverhangOff
 70
    21
177
     3
291
     1
 70
    58
 90
        2
176
     0
 90
        2
176
     0
 90
        0
176
     0
 90
        0
176
     0
 40
0.6
176
     0
 40
30.0
176
     0
 62
     7
420
 16777215
176
     0
 90
        1
176
     0
 90
        4
176
     0
 62
     7
176
     0
 62
   257
176
     0
 90
        1
176
     0
 90
        1
176
     0
 40
1.0
176
     0
 90
        9
176
     2
 62
     7
176
     0
 40
1.0
176
     0
 90
        1
176
     0
 90
        6
176
     0
 90
        2
176
     0
 62
     7
176
     0
 90
        5
176
     0
 90
        0
176
     0
 90
        0
176
     0
290
     0
176
     0
 90
        1
176
     0
 40
0.0
176
     0
 90
        0
176
     0
290
     0
176
     0
290
     1
176
     0
290
     1
176
     0
290
     0
176
     0
290
     0
176
     0
290
     0
176
     0
290
     0
176
     0
290
     0
176
     0
290
     0
176
     0
 90
       50
176
     0
 40
0.0
176
     0
 40
1.0
176
     0
 90
        0
176
     0
 62
    18
420
        0
176
     0
 90
       50
176
     0
 90
        3
176
     0
 62
     5
420
      255
176
     0
290
     0
176
     0
 90
       50
176
     0
 90
       50
176
     0
 90
       50
176
     0
290
     0
176
     0
 90
       50
176
     0
 62
   256
176
     0
 40
1.0
176
     0
 90
        2
176
     0
  1
strokes_ogs.tif
176
     0
290
     0
176
     0
 40
1.0
176
     0
 40
1.0
176
     0
  0
VISUALSTYLE
  5
33
102
{ACAD_REACTORS
330
2A
102
}
330
2A
100
AcDbVisualStyle
  2
Realistic
 70
     8
177
     3
291
     0
 70
    58
 90
        2
176
     1
 90
        3
176
     1
 90
        0
176
     1
 90
        2
176
     1
 40
0.6
176
     1
 40
30.0
176
     1
 62
     7
420
 16777215
176
     1
 90
        0
176
     1
 90
        0
176
     1
 62
     7
176
     1
 62
   257
176
     1
 90
        1
176
     1
 90
        1
176
     1
 40
1.0
176
     1
 90
        8
176
     1
 62
   257
176
     1
 40
1.0
176
     1
 90
        1
176
     1
 90
        6
176
     1
 90
        2
176
     1
 62
     7
176
     1
 90
        3
176
     1
 90
        0
176
     1
 90
        0
176
     1
290
     0
176
     1
 90
       13
176
     1
 40
0.0
176
     1
 90
        0
176
     1
290
     0
176
     1
290
     1
176
     1
290
     1
176
     1
290
     0
176
     1
290
     0
176
     1
290
     0
176
     1
290
     0
176
     1
290
     0
176
     1
290
     0
176
     1
 90
       50
176
     1
 40
0.0
176
     1
 40
1.0
176
     1
 90
        0
176
     1
 62
    18
420
        0
176
     1
 90
       50
176
     1
 90
        3
176
     1
 62
     5
420
      255
176
     1
290
     0
176
     1
 90
       50
176
     1
 90
       50
176
     1
 90
       50
176
     1
290
     0
176
     1
 90
       50
176
     1
 62
   256
176
     0
 40
1.0
176
     0
 90
        2
176
     1
  1
strokes_ogs.tif
176
     1
290
     0
176
     1
 40
1.0
176
     1
 40
1.0
176
     1
  0
VISUALSTYLE
  5
42
102
{ACAD_REACTORS
330
2A
102
}
330
2A
100
AcDbVisualStyle
  2
Shaded
 70
    27
177
     3
291
     0
 70
    58
 90
        2
176
     1
 90
        2
176
     1
 90
        1
176
     1
 90
        2
176
     1
 40
0.6
176
     1
 40
30.0
176
     1
 62
     7
420
 16777215
176
     1
 90
        0
176
     1
 90
        4
176
     1
 62
     7
176
     1
 62
   257
176
     1
 90
        1
176
     1
 90
        1
176
     1
 40
1.0
176
     1
 90
        8
176
     1
 62
   257
176
     1
 40
1.0
176
     1
 90
        1
176
     1
 90
        6
176
     1
 90
        2
176
     1
 62
     8
420
  7895160
176
     1
 90
        3
176
     1
 90
        0
176
     1
 90
        0
176
     1
290
     0
176
     1
 90
        5
176
     1
 40
0.0
176
     1
 90
        0
176
     1
290
     0
176
     1
290
     1
176
     1
290
     1
176
     1
290
     0
176
     1
290
     0
176
     1
290
     0
176
     1
290
     0
176
     1
290
     0
176
     1
290
     0
176
     1
 90
       50
176
     1
 40
0.0
176
     1
 40
1.0
176
     1
 90
        0
176
     1
 62
    18
420
        0
176
     1
 90
       50
176
     1
 90
        3
176
     1
 62
     5
420
      255
176
     1
290
     0
176
     1
 90
       50
176
     1
 90
       50
176
     1
 90
       50
176
     1
290
     0
176
     1
 90
       50
176
     1
 62
   256
176
     0
 40
1.0
176
     0
 90
        2
176
     1
  1
strokes_ogs.tif
176
     1
290
     0
176
     1
 40
1.0
176
     1
 40
1.0
176
     1
  0
VISUALSTYLE
  5
41
102
{ACAD_REACTORS
330
2A
102
}
330
2A
100
AcDbVisualStyle
  2
Shaded with edges
 70
    26
177
     3
291
     0
 70
    58
 90
        2
176
     1
 90
        2
176
     1
 90
        1
176
     1
 90
        2
176
     1
 40
0.6
176
     1
 40
30.0
176
     1
 62
     7
420
 16777215
176
     1
 90
        1
176
     1
 90
       10
176
     1
 62
     7
176
     1
 62
   257
176
     1
 90
        2
176
     1
 90
        1
176
     1
 40
1.0
176
     1
 90
        8
176
     1
 62
   257
176
     1
 40
1.0
176
     1
 90
        1
176
     1
 90
        6
176
     1
 90
        2
176
     1
 62
     7
176
     1
 90
        3
176
     1
 90
        0
176
     1
 90
        0
176
     1
290
     0
176
     1
 90
        5
176
     1
 40
0.0
176
     1
 90
        0
176
     1
290
     0
176
     1
290
     1
176
     1
290
     1
176
     1
290
     0
176
     1
290
     0
176
     1
290
     0
176
     1
290
     0
176
     1
290
     0
176
     1
290
     0
176
     1
 90
       50
176
     1
 40
0.0
176
     1
 40
1.0
176
     1
 90
        0
176
     1
 62
    18
420
        0
176
     1
 90
       50
176
     1
 90
        3
176
     1
 62
     5
420
      255
176
     1
290
     0
176
     1
 90
       50
176
     1
 90
       50
176
     1
 90
       50
176
     1
290
     0
176
     1
 90
       50
176
     1
 62
   256
176
     0
 40
1.0
176
     0
 90
        2
176
     1
  1
strokes_ogs.tif
176
     1
290
     0
176
     1
 40
1.0
176
     1
 40
1.0
176
     1
  0
VISUALSTYLE
  5
3E
102
{ACAD_REACTORS
330
2A
102
}
330
2A
100
AcDbVisualStyle
  2
Shades of Gray
 70
    23
177
     3
291
     0
 70
    58
 90
        2
176
     1
 90
        2
176
     1
 90
        3
176
     1
 90
        0
176
     1
 40
0.6
176
     1
 40
30.0
176
     1
 62
     7
420
 16777215
176
     1
 90
        2
176
     1
 90
        2
176
     1
 62
     7
176
     1
 62
     7
176
     1
 90
        1
176
     1
 90
        1
176
     1
 40
40.0
176
     1
 90
        8
176
     1
 62
     7
176
     1
 40
1.0
176
     1
 90
        1
176
     1
 90
        6
176
     1
 90
        2
176
     1
 62
     7
176
     1
 90
        3
176
     1
 90
        0
176
     1
 90
        0
176
     1
290
     0
176
     1
 90
        1
176
     1
 40
0.0
176
     1
 90
        0
176
     1
290
     0
176
     1
290
     1
176
     1
290
     1
176
     1
290
     0
176
     1
290
     0
176
     1
290
     0
176
     1
290
     0
176
     1
290
     0
176
     1
290
     0
176
     1
 90
       50
176
     1
 40
0.0
176
     1
 40
1.0
176
     1
 90
        0
176
     1
 62
    18
420
        0
176
     1
 90
       50
176
     1
 90
        3
176
     1
 62
     5
420
      255
176
     1
290
     0
176
     1
 90
       50
176
     1
 90
       50
176
     1
 90
       50
176
     1
290
     0
176
     1
 90
       50
176
     1
 62
   256
176
     0
 40
1.0
176
     0
 90
        2
176
     1
  1
strokes_ogs.tif
176
     1
290
     0
176
     1
 40
1.0
176
     1
 40
1.0
176
     1
  0
VISUALSTYLE
  5
3F
102
{ACAD_REACTORS
330
2A
102
}
330
2A
100
AcDbVisualStyle
  2
Sketchy
 70
    24
177
     3
291
     0
 70
    58
 90
        1
176
     1
 90
        2
176
     1
 90
        2
176
     1
 90
        0
176
     1
 40
0.6
176
     1
 40
30.0
176
     1
 62
     7
420
 16777215
176
     1
 90
        2
176
     1
 90
        2
176
     1
 62
     7
176
     1
 62
     7
176
     1
 90
        1
176
     1
 90
        1
176
     1
 40
40.0
176
     1
 90
       11
176
     1
 62
     7
176
     1
 40
1.0
176
     1
 90
        1
176
     1
 90
        6
176
     1
 90
        2
176
     1
 62
     7
176
     1
 90
        6
176
     1
 90
        0
176
     1
 90
        0
176
     1
290
     0
176
     1
 90
        1
176
     1
 40
0.0
176
     1
 90
        0
176
     1
290
     0
176
     1
290
     1
176
     1
290
     1
176
     1
290
     0
176
     1
290
     0
176
     1
290
     0
176
     1
290
     0
176
     1
290
     0
176
     1
290
     0
176
     1
 90
       50
176
     1
 40
0.0
176
     1
 40
1.0
176
     1
 90
        0
176
     1
 62
    18
420
        0
176
     1
 90
       50
176
     1
 90
        3
176
     1
 62
     5
420
      255
176
     1
290
     0
176
     1
 90
       50
176
     1
 90
       50
176
     1
 90
       50
176
     1
290
     0
176
     1
 90
       50
176
     1
 62
   256
176
     0
 40
1.0
176
     0
 90
        2
176
     1
  1
strokes_ogs.tif
176
     1
290
     0
176
     1
 40
1.0
176
     1
 40
1.0
176
     1
  0
VISUALSTYLE
  5
37
102
{ACAD_REACTORS
330
2A
102
}
330
2A
100
AcDbVisualStyle
  2
Thicken
 70
    13
177
     3
291
     1
 70
    58
 90
        2
176
     1
 90
        2
176
     1
 90
        0
176
     1
 90
        0
176
     1
 40
0.6
176
     1
 40
30.0
176
     1
 62
     7
420
 16777215
176
     1
 90
        1
176
     1
 90
        4
176
     1
 62
     7
176
     1
 62
   257
176
     1
 90
        1
176
     1
 90
        1
176
     1
 40
1.0
176
     1
 90
       12
176
     1
 62
     7
176
     1
 40
1.0
176
     1
 90
        1
176
     1
 90
        6
176
     1
 90
        2
176
     1
 62
     7
176
     1
 90
        5
176
     1
 90
        0
176
     1
 90
        0
176
     1
290
     0
176
     1
 90
        1
176
     1
 40
0.0
176
     1
 90
        0
176
     1
290
     0
176
     1
290
     1
176
     1
290
     1
176
     1
290
     0
176
     1
290
     0
176
     1
290
     0
176
     1
290
     0
176
     1
290
     0
176
     1
290
     0
176
     1
 90
       50
176
     1
 40
0.0
176
     1
 40
1.0
176
     1
 90
        0
176
     1
 62
    18
420
        0
176
     1
 90
       50
176
     1
 90
        3
176
     1
 62
     5
420
      255
176
     1
290
     0
176
     1
 90
       50
176
     1
 90
       50
176
     1
 90
       50
176
     1
290
     0
176
     1
 90
       50
176
     1
 62
   256
176
     0
 40
1.0
176
     0
 90
        2
176
     1
  1
strokes_ogs.tif
176
     1
290
     0
176
     1
 40
1.0
176
     1
 40
1.0
176
     1
  0
VISUALSTYLE
  5
30
102
{ACAD_REACTORS
330
2A
102
}
330
2A
100
AcDbVisualStyle
  2
Wireframe
 70
     5
177
     3
291
     0
 70
    58
 90
        0
176
     1
 90
        2
176
     1
 90
        0
176
     1
 90
        0
176
     1
 40
0.6
176
     1
 40
30.0
176
     1
 62
     7
420
 16777215
176
     1
 90
        1
176
     1
 90
        4
176
     1
 62
     7
176
     1
 62
   257
176
     1
 90
        1
176
     1
 90
        1
176
     1
 40
1.0
176
     1
 90
        0
176
     1
 62
   257
176
     1
 40
1.0
176
     1
 90
        1
176
     1
 90
        6
176
     1
 90
        2
176
     1
 62
     7
176
     1
 90
        3
176
     1
 90
        0
176
     1
 90
        0
176
     1
290
     0
176
     1
 90
        1
176
     1
 40
0.0
176
     1
 90
        0
176
     1
290
     0
176
     1
290
     1
176
     1
290
     1
176
     1
290
     0
176
     1
290
     0
176
     1
290
     0
176
     1
290
     0
176
     1
290
     0
176
     1
290
     0
176
     1
 90
       50
176
     1
 40
0.0
176
     1
 40
1.0
176
     1
 90
        0
176
     1
 62
    18
420
        0
176
     1
 90
       50
176
     1
 90
        3
176
     1
 62
     5
420
      255
176
     1
290
     0
176
     1
 90
       50
176
     1
 90
       50
176
     1
 90
       50
176
     1
290
     0
176
     1
 90
       50
176
     1
 62
   256
176
     0
 40
1.0
176
     0
 90
        2
176
     1
  1
strokes_ogs.tif
176
     1
290
     0
176
     1
 40
1.0
176
     1
 40
1.0
176
     1
  0
VISUALSTYLE
  5
40
102
{ACAD_REACTORS
330
2A
102
}
330
2A
100
AcDbVisualStyle
  2
X-Ray
 70
    25
177
     3
291
     0
 70
    58
 90
        2
176
     1
 90
        2
176
     1
 90
        1
176
     1
 90
        1
176
     1
 40
0.5
176
     1
 40
30.0
176
     1
 62
     7
420
 16777215
176
     1
 90
        1
176
     1
 90
        0
176
     1
 62
     7
176
     1
 62
   257
176
     1
 90
        1
176
     1
 90
        1
176
     1
 40
1.0
176
     1
 90
        8
176
     1
 62
     7
176
     1
 40
1.0
176
     1
 90
        1
176
     1
 90
        6
176
     1
 90
        2
176
     1
 62
     7
176
     1
 90
        3
176
     1
 90
        0
176
     1
 90
        0
176
     1
290
     0
176
     1
 90
       13
176
     1
 40
0.0
176
     1
 90
        0
176
     1
290
     0
176
     1
290
     1
176
     1
290
     1
176
     1
290
     0
176
     1
290
     0
176
     1
290
     0
176
     1
290
     0
176
     1
290
     0
176
     1
290
     0
176
     1
 90
       50
176
     1
 40
0.0
176
     1
 40
1.0
176
     1
 90
        0
176
     1
 62
    18
420
        0
176
     1
 90
       50
176
     1
 90
        3
176
     1
 62
     5
420
      255
176
     1
290
     0
176
     1
 90
       50
176
     1
 90
       50
176
     1
 90
       50
176
     1
290
     0
176
     1
 90
       50
176
     1
 62
   256
176
     0
 40
1.0
176
     0
 90
        2
176
     1
  1
strokes_ogs.tif
176
     1
290
     0
176
     1
 40
1.0
176
     1
 40
1.0
176
     1
  0
DICTIONARYVAR
  5
338
102
{ACAD_REACTORS
330
337
102
}
330
337
100
DictionaryVariables
280
     0
  1
1:1
  0
DICTIONARYVAR
  5
33D
102
{ACAD_REACTORS
330
337
102
}
330
337
100
DictionaryVariables
280
     0
  1
Standard
  0
DICTIONARYVAR
  5
33C
102
{ACAD_REACTORS
330
337
102
}
330
337
100
DictionaryVariables
280
     0
  1
Standard
  0
DICTIONARY
  5
339
330
6A
100
AcDbDictionary
280
     1
281
     1
  3
ACAD_ROUNDTRIP_2008_TABLESTYLE_CELLSTYLEMAP
360
33A
  0
CELLSTYLEMAP
  5
33A
102
{ACAD_REACTORS
330
339
102
}
330
339
100
AcDbCellStyleMap
 90
        3
300
CELLSTYLE
  1
TABLEFORMAT_BEGIN
 90
        5
170
     1
 91
        0
 92
    32768
 62
   257
 93
        1
300
CONTENTFORMAT
  1
CONTENTFORMAT_BEGIN
 90
        0
 91
        0
 92
        4
 93
        0
300

 40
0.0
140
1.0
 94
        5
 62
     0
340
11
144
6.0
309
CONTENTFORMAT_END
171
     1
301
MARGIN
  1
CELLMARGIN_BEGIN
 40
1.5
 40
1.5
 40
1.5
 40
1.5
 40
1.5
 40
1.5
309
CELLMARGIN_END
 94
        6
 95
        1
302
GRIDFORMAT
  1
GRIDFORMAT_BEGIN
 90
        0
 91
        1
 62
     0
 92
       -2
340
14
 93
        0
 40
0.045
309
GRIDFORMAT_END
 95
        2
302
GRIDFORMAT
  1
GRIDFORMAT_BEGIN
 90
        0
 91
        1
 62
     0
 92
       -2
340
14
 93
        0
 40
0.045
309
GRIDFORMAT_END
 95
        4
302
GRIDFORMAT
  1
GRIDFORMAT_BEGIN
 90
        0
 91
        1
 62
     0
 92
       -2
340
14
 93
        0
 40
0.045
309
GRIDFORMAT_END
 95
        8
302
GRIDFORMAT
  1
GRIDFORMAT_BEGIN
 90
        0
 91
        1
 62
     0
 92
       -2
340
14
 93
        0
 40
0.045
309
GRIDFORMAT_END
 95
       16
302
GRIDFORMAT
  1
GRIDFORMAT_BEGIN
 90
        0
 91
        1
 62
     0
 92
       -2
340
14
 93
        0
 40
0.045
309
GRIDFORMAT_END
 95
       32
302
GRIDFORMAT
  1
GRIDFORMAT_BEGIN
 90
        0
 91
        1
 62
     0
 92
       -2
340
14
 93
        0
 40
0.045
309
GRIDFORMAT_END
309
TABLEFORMAT_END
  1
CELLSTYLE_BEGIN
 90
        1
 91
        1
300
_TITLE
309
CELLSTYLE_END
300
CELLSTYLE
  1
TABLEFORMAT_BEGIN
 90
        5
170
     1
 91
        0
 92
        0
 62
   257
 93
        1
300
CONTENTFORMAT
  1
CONTENTFORMAT_BEGIN
 90
        0
 91
        0
 92
        4
 93
        0
300

 40
0.0
140
1.0
 94
        5
 62
     0
340
11
144
4.5
309
CONTENTFORMAT_END
171
     1
301
MARGIN
  1
CELLMARGIN_BEGIN
 40
1.5
 40
1.5
 40
1.5
 40
1.5
 40
1.5
 40
1.5
309
CELLMARGIN_END
 94
        6
 95
        1
302
GRIDFORMAT
  1
GRIDFORMAT_BEGIN
 90
        0
 91
        1
 62
     0
 92
       -2
340
14
 93
        0
 40
0.045
309
GRIDFORMAT_END
 95
        2
302
GRIDFORMAT
  1
GRIDFORMAT_BEGIN
 90
        0
 91
        1
 62
     0
 92
       -2
340
14
 93
        0
 40
0.045
309
GRIDFORMAT_END
 95
        4
302
GRIDFORMAT
  1
GRIDFORMAT_BEGIN
 90
        0
 91
        1
 62
     0
 92
       -2
340
14
 93
        0
 40
0.045
309
GRIDFORMAT_END
 95
        8
302
GRIDFORMAT
  1
GRIDFORMAT_BEGIN
 90
        0
 91
        1
 62
     0
 92
       -2
340
14
 93
        0
 40
0.045
309
GRIDFORMAT_END
 95
       16
302
GRIDFORMAT
  1
GRIDFORMAT_BEGIN
 90
        0
 91
        1
 62
     0
 92
       -2
340
14
 93
        0
 40
0.045
309
GRIDFORMAT_END
 95
       32
302
GRIDFORMAT
  1
GRIDFORMAT_BEGIN
 90
        0
 91
        1
 62
     0
 92
       -2
340
14
 93
        0
 40
0.045
309
GRIDFORMAT_END
309
TABLEFORMAT_END
  1
CELLSTYLE_BEGIN
 90
        2
 91
        1
300
_HEADER
309
CELLSTYLE_END
300
CELLSTYLE
  1
TABLEFORMAT_BEGIN
 90
        5
170
     1
 91
        0
 92
        0
 62
   257
 93
        1
300
CONTENTFORMAT
  1
CONTENTFORMAT_BEGIN
 90
        0
 91
        0
 92
        4
 93
        0
300

 40
0.0
140
1.0
 94
        2
 62
     0
340
11
144
4.5
309
CONTENTFORMAT_END
171
     1
301
MARGIN
  1
CELLMARGIN_BEGIN
 40
1.5
 40
1.5
 40
1.5
 40
1.5
 40
1.5
 40
1.5
309
CELLMARGIN_END
 94
        6
 95
        1
302
GRIDFORMAT
  1
GRIDFORMAT_BEGIN
 90
        0
 91
        1
 62
     0
 92
       -2
340
14
 93
        0
 40
0.045
309
GRIDFORMAT_END
 95
        2
302
GRIDFORMAT
  1
GRIDFORMAT_BEGIN
 90
        0
 91
        1
 62
     0
 92
       -2
340
14
 93
        0
 40
0.045
309
GRIDFORMAT_END
 95
        4
302
GRIDFORMAT
  1
GRIDFORMAT_BEGIN
 90
        0
 91
        1
 62
     0
 92
       -2
340
14
 93
        0
 40
0.045
309
GRIDFORMAT_END
 95
        8
302
GRIDFORMAT
  1
GRIDFORMAT_BEGIN
 90
        0
 91
        1
 62
     0
 92
       -2
340
14
 93
        0
 40
0.045
309
GRIDFORMAT_END
 95
       16
302
GRIDFORMAT
  1
GRIDFORMAT_BEGIN
 90
        0
 91
        1
 62
     0
 92
       -2
340
14
 93
        0
 40
0.045
309
GRIDFORMAT_END
 95
       32
302
GRIDFORMAT
  1
GRIDFORMAT_BEGIN
 90
        0
 91
        1
 62
     0
 92
       -2
340
14
 93
        0
 40
0.045
309
GRIDFORMAT_END
309
TABLEFORMAT_END
  1
CELLSTYLE_BEGIN
 90
        3
 91
        2
300
_DATA
309
CELLSTYLE_END
  0
ENDSEC
  0
EOF
