  0
SECTION
  2
HEADER
  9
$ACADVER
  1
AC1009
  9
$INSBASE
 10
0
 20
0
 30
0
  9
$EXTMIN
 10
0
 20
0
  9
$EXTMAX
 10
420
 20
297
  9
$LIMMIN
 10
0
 20
0
  9
$LIMMAX
 10
420
 20
297
  9
$LTSCALE
 40
1
  0
ENDSEC
  0
SECTION
  2
TABLES
  0
TABLE
  2
LTYPE
 70
     9
  0
LTYPE
  2
CONTINUOUS
 70
    64
  3
実線
 72
    65
 73
     0
 40
0.0
  0
LTYPE
  2
DASHED1
 70
    64
  3
--  --  --  --  --  --  --  --  
 72
    65
 73
     2
 40
2.5
 49
1.25
 49
-1.25
  0
LTYPE
  2
DASHED2
 70
    64
  3
----    ----    ----    ----    
 72
    65
 73
     2
 40
5.0
 49
2.5
 49
-2.5
  0
LTYPE
  2
DASHED3
 70
    64
  3
------  ------  ------  ------  
 72
    65
 73
     2
 40
5.0
 49
3.75
 49
-1.25
  0
LTYPE
  2
CENTER1
 70
    64
  3
----- - ----- - ----- - ----- - 
 72
    65
 73
     4
 40
10.0
 49
6.25
 49
-1.25
 49
1.25
 49
-1.25
  0
LTYPE
  2
CENTER2
 70
    64
  3
----------  --  ----------  --  
 72
    65
 73
     4
 40
20.0
 49
12.5
 49
-2.5
 49
2.5
 49
-2.5
  0
LTYPE
  2
PHANTOM1
 70
    64
  3
--- - - --- - - --- - - --- - - 
 72
    65
 73
     6
 40
10.0
 49
3.25
 49
-1.25
 49
1.25
 49
-1.25
 49
1.25
 49
-1.25
  0
LTYPE
  2
PHANTOM2
 70
    64
  3
--------  -  -  --------  -  -  
 72
    65
 73
     6
 40
20.0
 49
10.0
 49
-2.5
 49
1.25
 49
-2.5
 49
1.25
 49
-2.5
  0
LTYPE
  2
DOT
 70
    64
  3
-   -   -   -   -   -   -   -   
 72
    65
 73
     2
 40
2.5
 49
0.625
 49
-1.875
  0
LTYPE
  2
DUMMY
 70
    64
  3
ダミー
 72
    65
 73
     0
 40
0.0
  0
LTYPE
  2
RAND1
 70
    64
  3
ランダム線1
 72
    65
 73
     4
 40
10.0
 49
1.0
 49
-2.0
 49
3.0
 49
-4.0
  0
LTYPE
  2
RAND2
 70
    64
  3
ランダム線2
 72
    65
 73
     4
 40
14.0
 49
2.0
 49
-3.0
 49
4.0
 49
-5.0
  0
LTYPE
  2
RAND3
 70
    64
  3
ランダム線3
 72
    65
 73
     4
 40
18.0
 49
3.0
 49
-4.0
 49
5.0
 49
-6.0
  0
LTYPE
  2
RAND4
 70
    64
  3
ランダム線4
 72
    65
 73
     4
 40
22.0
 49
4.0
 49
-5.0
 49
6.0
 49
-7.0
  0
LTYPE
  2
RAND5
 70
    64
  3
ランダム線5
 72
    65
 73
     4
 40
26.0
 49
5.0
 49
-6.0
 49
7.0
 49
-8.0
  0
LTYPE
  2
LONG1
 70
    64
  3
----------  --  ----------  --  
 72
    65
 73
     4
 40
40.0
 49
32.5
 49
-2.5
 49
2.5
 49
-2.5
  0
LTYPE
  2
LONG2
 70
    64
  3
--------  -  -  --------  -  -  
 72
    65
 73
     6
 40
40.0
 49
30.0
 49
-2.5
 49
1.25
 49
-2.5
 49
1.25
 49
-2.5
  0
LTYPE
  2
LONG3
 70
    64
  3
+++++++++++++++..+++++++++++++++
 72
    65
 73
     2
 40
40.0
 49
37.5
 49
-2.5
  0
LTYPE
  2
LONG4
 70
    64
  3
+++++++++++++++..+++++++++++++++
 72
    65
 73
     2
 40
80.0
 49
75.0
 49
-5.0
  0
LTYPE
  2
LONG5
 70
    64
  3
----------  --  ----------  --  
 72
    65
 73
     4
 40
60.0
 49
37.5
 49
-7.5
 49
7.5
 49
-7.5
  0
LTYPE
  2
dashed
 70
   64
  3
-------   -------------   ------
 72
   65
 73
    2
 40
7.5
 49
6
 49
-1.5
  0
LTYPE
  2
dashed_spaced
 70
   64
  3
----        --------        ----
 72
   65
 73
    2
 40
12
 49
6
 49
-6
  0
LTYPE
  2
long_dashed_dotted
 70
   64
  3
------------- --- --------------
 72
   65
 73
    4
 40
15.25
 49
12
 49
-1.5
 49
0.25
 49
-1.5
  0
LTYPE
  2
long_dashed_double-dotted
 70
   64
  3
----------- --- --- ------------
 72
   65
 73
    6
 40
17
 49
12
 49
-1.5
 49
0.25
 49
-1.5
 49
0.25
 49
-1.5
  0
LTYPE
  2
long_dashed_triplicate-dotted
 70
   64
  3
--------- --- --- --- ----------
 72
   65
 73
    8
 40
18.75
 49
12
 49
-1.5
 49
0.25
 49
-1.5
 49
0.25
 49
-1.5
 49
0.25
 49
-1.5
  0
LTYPE
  2
dotted
 70
   64
  3
   -       -       -       -    
 72
   65
 73
    2
 40
1.75
 49
0.25
 49
-1.5
  0
LTYPE
  2
chain
 70
   64
  3
-------------- -- --------------
 72
   65
 73
    4
 40
18.5
 49
12
 49
-1.5
 49
3.5
 49
-1.5
  0
LTYPE
  2
chain_double_dash
 70
   64
  3
------------ -- -- -------------
 72
   65
 73
    6
 40
23.5
 49
12
 49
-1.5
 49
3.5
 49
-1.5
 49
3.5
 49
-1.5
  0
LTYPE
  2
dashed_dotted
 70
   64
  3
-----------     -     ----------
 72
   65
 73
    4
 40
9.25
 49
6
 49
-1.5
 49
0.25
 49
-1.5
  0
LTYPE
  2
double-dashed_dotted
 70
   64
  3
------   -----------   -   -----
 72
   65
 73
    6
 40
16.75
 49
6
 49
-1.5
 49
6
 49
-1.5
 49
0.25
 49
-1.5
  0
LTYPE
  2
dashed_double-dotted
 70
   64
  3
---------    -    -    ---------
 72
   65
 73
    6
 40
11
 49
6
 49
-1.5
 49
0.25
 49
-1.5
 49
0.25
 49
-1.5
  0
LTYPE
  2
double-dashed_double-dotted
 70
   64
  3
-----   ---------   -   -   ----
 72
   65
 73
    8
 40
18.5
 49
6
 49
-1.5
 49
6
 49
-1.5
 49
0.25
 49
-1.5
 49
0.25
 49
-1.5
  0
LTYPE
  2
dashed_triplicate-dotted
 70
   64
  3
-------    -    -    -    ------
 72
   65
 73
    8
 40
12.75
 49
6
 49
-1.5
 49
0.25
 49
-1.5
 49
0.25
 49
-1.5
 49
0.25
 49
-1.5
  0
LTYPE
  2
double-dashed_triplicate-dotted
 70
   64
  3
-----  ---------  -  -  -  -----
 72
   65
 73
   10
 40
20.25
 49
6
 49
-1.5
 49
6
 49
-1.5
 49
0.25
 49
-1.5
 49
0.25
 49
-1.5
 49
0.25
 49
-1.5
  0
LTYPE
  2
undefined
 70
   64
  3
--------------------------------
 72
   65
 73
    0
 40
0
  0
ENDTAB
  0
TABLE
  2
STYLE
  5
3
100
AcDbSymbolTable
 70
     1
  0
STYLE
  5
10
100
AcDbSymbolTableRecord
100
AcDbTextStyleTableRecord
  2
STANDARD
 70
     0
 40
0.0
 41
1.0
 50
0.0
 71
     0
 42
0.2
  3
txt
  4
bigfont.shx
  0
STYLE
  5
26
100
AcDbSymbolTableRecord
100
AcDbTextStyleTableRecord
  2
TATEGAKI
 70
    68
 40
0.0
 41
1.0
 50
0.0
 71
     0
 42
1.0
  3
txt
  4
bigfont.shx
  0
ENDTAB
  0
TABLE
  2
LAYER
 70
    2
  0
LAYER
  2
_0-0_
 70
   64
 62
    7
  6
CONTINUOUS
  0
LAYER
  2
ADD_LINE
 70
   64
 62
    7
  6
CONTINUOUS
  0
ENDTAB
  0
ENDSEC
  0
SECTION
  2
BLOCKS
  0
ENDSEC
  0
SECTION
  2
ENTITIES
  0
LINE
  8
_0-0_
  6
CONTINUOUS
 62
  250
 10
151.77721309737899
 20
139.17141900385491
 11
268.39107799606001
 21
172.66865716303488
  0
LINE
  8
_0-0_
  6
CONTINUOUS
 62
  250
 10
152.85133647994701
 20
138.2476662191259
 11
267.50830936507901
 21
171.12403855646789
  0
LINE
  8
_0-0_
  6
CONTINUOUS
 62
  250
 10
151.64832401351597
 20
132.14684472406992
 11
267.706673622891
 21
165.0510166677349
  0
LINE
  8
_0-0_
  6
CONTINUOUS
 62
  250
 10
151.51943492965393
 20
131.99363694513889
 11
267.63605403976101
 21
164.91588101709988
  0
LINE
  8
_0-0_
  6
CONTINUOUS
 62
  250
 10
151.43803882674894
 20
131.75226197565692
 11
267.64773655013698
 21
164.70085130060792
  0
LINE
  8
_0-0_
  6
CONTINUOUS
 62
  250
 10
151.56292247848199
 20
131.1568592580669
 11
267.70595836715393
 21
164.0860174688209
  0
LINE
  8
_0-0_
  6
CONTINUOUS
 62
  250
 10
151.57369899825702
 20
131.0590599569189
 11
267.66819286422401
 21
163.97295937861088
  0
LINE
  8
_0-0_
  6
CONTINUOUS
 62
  250
 10
151.54117870406799
 20
130.1151846441139
 11
267.70366954879501
 21
163.0498980077619
  0
LINE
  8
_0-0_
  6
CONTINUOUS
 62
  250
 10
151.48147869186096
 20
129.9862955602519
 11
267.57730770187101
 21
162.90434346521991
  0
LINE
  8
_0-0_
  6
CONTINUOUS
 62
  250
 10
152.85133647994701
 20
138.2476662191259
 11
267.44159984664594
 21
170.73935017908693
  0
LINE
  8
_0-0_
  6
CONTINUOUS
 62
  250
 10
146.78458499984401
 20
142.41434083307888
 11
262.62211132125594
 21
175.85876927698789
  0
LINE
  8
_0-0_
  6
CONTINUOUS
 62
  250
 10
152.36720371322301
 20
135.5390642675269
 11
268.29361248092403
 21
168.40988145197491
  0
LINE
  8
_0-0_
  6
CONTINUOUS
 62
  250
 10
152.36720371322301
 20
135.28281197870891
 11
267.96163845138199
 21
168.12170491541491
  0
LINE
  8
_0-0_
  6
CONTINUOUS
 62
  250
 10
266.80259037093793
 20
167.61380181635491
 11
267.57339763717403
 21
167.84714207972189
  0
LINE
  8
_0-0_
  6
CONTINUOUS
 62
  250
 10
267.57339763717403
 20
167.84714207972189
 11
266.80259037093793
 21
167.61380181635491
  0
LINE
  8
_0-0_
  6
CONTINUOUS
 62
  250
 10
267.83346462325699
 20
165.54127679194093
 11
267.81677532271999
 21
165.18436417902589
  0
LINE
  8
_0-0_
  6
CONTINUOUS
 62
  250
 10
267.81677532271999
 20
165.18436417902589
 11
267.81710910873102
 21
165.17957196558589
  0
LINE
  8
_0-0_
  6
CONTINUOUS
 62
  250
 10
267.81710910873102
 20
165.17957196558589
 11
267.81710910873102
 21
165.16645894373588
  0
LINE
  8
_0-0_
  6
CONTINUOUS
 62
  250
 10
267.81710910873102
 20
165.16645894373588
 11
267.81558322982494
 21
165.14700398768088
  0
LINE
  8
_0-0_
  6
CONTINUOUS
 62
  250
 10
267.81558322982494
 20
165.14700398768088
 11
267.81100559310602
 21
165.12313828791292
  0
LINE
  8
_0-0_
  6
CONTINUOUS
 62
  250
 10
267.81100559310602
 20
165.12313828791292
 11
267.80218410567898
 21
165.09681687677991
  0
LINE
  8
_0-0_
  6
CONTINUOUS
 62
  250
 10
267.80218410567898
 20
165.09681687677991
 11
267.78768825606994
 21
165.07004247034689
  0
LINE
  8
_0-0_
  6
CONTINUOUS
 62
  250
 10
267.78768825606994
 20
165.07004247034689
 11
267.76618290023498
 21
165.04469857538891
  0
LINE
  8
_0-0_
  6
CONTINUOUS
 62
  250
 10
267.76618290023498
 20
165.04469857538891
 11
267.73623752669994
 21
165.02274022425289
  0
LINE
  8
_0-0_
  6
CONTINUOUS
 62
  250
 10
267.73623752669994
 20
165.02274022425289
 11
267.69666004256896
 21
165.0061224492899
  0
LINE
  8
_0-0_
  6
CONTINUOUS
 62
  250
 10
267.69666004256896
 20
165.0061224492899
 11
267.64597225265197
 21
164.99684796656291
  0
LINE
  8
_0-0_
  6
CONTINUOUS
 62
  250
 10
267.64597225265197
 20
164.99684796656291
 11
267.63619709090898
 21
164.73990426386487
  0
LINE
  8
_0-0_
  6
CONTINUOUS
 62
  250
 10
267.63619709090898
 20
164.73990426386487
 11
267.73208904342403
 21
164.20100674952189
  0
LINE
  8
_0-0_
  6
CONTINUOUS
 62
  250
 10
267.73208904342403
 20
164.20100674952189
 11
267.73208904342403
 21
164.03017983759588
  0
LINE
  8
_0-0_
  6
CONTINUOUS
 62
  250
 10
267.73208904342403
 20
164.03017983759588
 11
267.70571994857494
 21
163.1218288930759
  0
LINE
  8
_0-0_
  6
CONTINUOUS
 62
  250
 10
267.70571994857494
 20
163.1218288930759
 11
267.70657825545993
 21
163.11815724695794
  0
LINE
  8
_0-0_
  6
CONTINUOUS
 62
  250
 10
267.70657825545993
 20
163.11815724695794
 11
267.70824718551296
 21
163.1079290899149
  0
LINE
  8
_0-0_
  6
CONTINUOUS
 62
  250
 10
267.70824718551296
 20
163.1079290899149
 11
267.70953464583994
 21
163.09231267298389
  0
LINE
  8
_0-0_
  6
CONTINUOUS
 62
  250
 10
267.70953464583994
 20
163.09231267298389
 11
267.70901012496597
 21
163.07254777277589
  0
LINE
  8
_0-0_
  6
CONTINUOUS
 62
  250
 10
267.70901012496597
 20
163.07254777277589
 11
267.70538616256403
 21
163.04977879847189
  0
LINE
  8
_0-0_
  6
CONTINUOUS
 62
  250
 10
267.70538616256403
 20
163.04977879847189
 11
267.69732761458994
 21
163.02524552668191
  0
LINE
  8
_0-0_
  6
CONTINUOUS
 62
  250
 10
267.69732761458994
 20
163.02524552668191
 11
267.6834993370029
 21
163.00006852472893
  0
LINE
  8
_0-0_
  6
CONTINUOUS
 62
  250
 10
267.6834993370029
 20
163.00006852472893
 11
267.66266155318903
 21
162.9755114110819
  0
LINE
  8
_0-0_
  6
CONTINUOUS
 62
  250
 10
267.66266155318903
 20
162.9755114110819
 11
267.63347911910699
 21
162.95274243677787
  0
LINE
  8
_0-0_
  6
CONTINUOUS
 62
  250
 10
267.63347911910699
 20
162.95274243677787
 11
267.59456920699796
 21
162.93292985285393
  0
LINE
  8
_0-0_
  6
CONTINUOUS
 62
  250
 10
266.92203807906799
 20
165.53989396418191
 11
266.905301094815
 21
165.1829575094099
  0
LINE
  8
_0-0_
  6
CONTINUOUS
 62
  250
 10
266.905301094815
 20
165.1829575094099
 11
266.90563488082597
 21
165.1781652959699
  0
LINE
  8
_0-0_
  6
CONTINUOUS
 62
  250
 10
266.90563488082597
 20
165.1781652959699
 11
266.90563488082597
 21
165.16507611597692
  0
LINE
  8
_0-0_
  6
CONTINUOUS
 62
  250
 10
266.90563488082597
 20
165.16507611597692
 11
266.90410900192001
 21
165.14562115992192
  0
LINE
  8
_0-0_
  6
CONTINUOUS
 62
  250
 10
266.90410900192001
 20
165.14562115992192
 11
266.89953136520097
 21
165.12175546015391
  0
LINE
  8
_0-0_
  6
CONTINUOUS
 62
  250
 10
266.89953136520097
 20
165.12175546015391
 11
266.89075756148998
 21
165.09543404902092
  0
LINE
  8
_0-0_
  6
CONTINUOUS
 62
  250
 10
266.89075756148998
 20
165.09543404902092
 11
266.87626171188094
 21
165.06863580072991
  0
LINE
  8
_0-0_
  6
CONTINUOUS
 62
  250
 10
266.87626171188094
 20
165.06863580072991
 11
266.85470867232999
 21
165.04329190577189
  0
LINE
  8
_0-0_
  6
CONTINUOUS
 62
  250
 10
266.85470867232999
 20
165.04329190577189
 11
266.82476329879501
 21
165.0213335546369
  0
LINE
  8
_0-0_
  6
CONTINUOUS
 62
  250
 10
266.82476329879501
 20
165.0213335546369
 11
266.78518581466398
 21
165.00471577967289
  0
LINE
  8
_0-0_
  6
CONTINUOUS
 62
  250
 10
266.78518581466398
 20
165.00471577967289
 11
266.73449802474698
 21
164.9954412969459
  0
LINE
  8
_0-0_
  6
CONTINUOUS
 62
  250
 10
266.73449802474698
 20
164.9954412969459
 11
266.72477054671901
 21
164.73990426386487
  0
LINE
  8
_0-0_
  6
CONTINUOUS
 62
  250
 10
266.72477054671901
 20
164.73990426386487
 11
266.82061481551796
 21
164.19960007990491
  0
LINE
  8
_0-0_
  6
CONTINUOUS
 62
  250
 10
266.82061481551796
 20
164.19960007990491
 11
266.82061481551796
 21
164.02877316797893
  0
LINE
  8
_0-0_
  6
CONTINUOUS
 62
  250
 10
266.82061481551796
 20
164.02877316797893
 11
266.79424572067001
 21
163.12042222345991
  0
LINE
  8
_0-0_
  6
CONTINUOUS
 62
  250
 10
266.79424572067001
 20
163.12042222345991
 11
266.79510402755398
 21
163.11677441919988
  0
LINE
  8
_0-0_
  6
CONTINUOUS
 62
  250
 10
266.79510402755398
 20
163.11677441919988
 11
266.79672527389198
 21
163.10652242029789
  0
LINE
  8
_0-0_
  6
CONTINUOUS
 62
  250
 10
266.79672527389198
 20
163.10652242029789
 11
266.79782199935602
 21
163.09095368708293
  0
LINE
  8
_0-0_
  6
CONTINUOUS
 62
  250
 10
266.79782199935602
 20
163.09095368708293
 11
266.79715442733493
 21
163.07121262873292
  0
LINE
  8
_0-0_
  6
CONTINUOUS
 62
  250
 10
266.79715442733493
 20
163.07121262873292
 11
266.79333973006896
 21
163.04853902186088
  0
LINE
  8
_0-0_
  6
CONTINUOUS
 62
  250
 10
266.79333973006896
 20
163.04853902186088
 11
266.78528118209499
 21
163.02412495936088
  0
LINE
  8
_0-0_
  6
CONTINUOUS
 62
  250
 10
266.78528118209499
 20
163.02412495936088
 11
266.77145290450699
 21
162.99916253412891
  0
LINE
  8
_0-0_
  6
CONTINUOUS
 62
  250
 10
266.77145290450699
 20
162.99916253412891
 11
266.75071048812595
 21
162.97484383905987
  0
LINE
  8
_0-0_
  6
CONTINUOUS
 62
  250
 10
266.75071048812595
 20
162.97484383905987
 11
266.72171878890697
 21
162.95236096705091
  0
LINE
  8
_0-0_
  6
CONTINUOUS
 62
  250
 10
266.72171878890697
 20
162.95236096705091
 11
266.683142662808
 21
162.93292985285393
  0
LINE
  8
_0-0_
  6
CONTINUOUS
 62
  250
 10
145.65872478561096
 20
133.4354494603979
 11
145.57399082259801
 21
133.0979679616799
  0
LINE
  8
_0-0_
  6
CONTINUOUS
 62
  250
 10
145.57399082259801
 20
133.0979679616799
 11
145.56154537276899
 21
132.9476927312719
  0
LINE
  8
_0-0_
  6
CONTINUOUS
 62
  250
 10
145.56154537276899
 20
132.9476927312719
 11
145.56516933517196
 21
132.82216534937493
  0
LINE
  8
_0-0_
  6
CONTINUOUS
 62
  250
 10
145.56516933517196
 20
132.82216534937493
 11
145.58147716598199
 21
132.71926389063489
  0
LINE
  8
_0-0_
  6
CONTINUOUS
 62
  250
 10
145.58147716598199
 20
132.71926389063489
 11
145.606844902799
 21
132.6368902715559
  0
LINE
  8
_0-0_
  6
CONTINUOUS
 62
  250
 10
145.606844902799
 20
132.6368902715559
 11
145.63788700179794
 21
132.57294640863992
  0
LINE
  8
_0-0_
  6
CONTINUOUS
 62
  250
 10
145.63788700179794
 20
132.57294640863992
 11
145.67112255172398
 21
132.5253580602519
  0
LINE
  8
_0-0_
  6
CONTINUOUS
 62
  250
 10
145.67112255172398
 20
132.5253580602519
 11
145.70302295760797
 21
132.49200330103488
  0
LINE
  8
_0-0_
  6
CONTINUOUS
 62
  250
 10
145.70302295760797
 20
132.49200330103488
 11
145.73010730819396
 21
132.47076020563793
  0
LINE
  8
_0-0_
  6
CONTINUOUS
 62
  250
 10
145.73010730819396
 20
132.47076020563793
 11
145.74894237594299
 21
132.45955453241987
  0
LINE
  8
_0-0_
  6
CONTINUOUS
 62
  250
 10
145.74894237594299
 20
132.45955453241987
 11
145.75595188216894
 21
132.45628819788593
  0
LINE
  8
_0-0_
  6
CONTINUOUS
 62
  250
 10
145.75595188216894
 20
132.45628819788593
 11
149.43236637191495
 21
130.78266129816691
  0
LINE
  8
_0-0_
  6
CONTINUOUS
 62
  250
 10
149.43236637191495
 20
130.78266129816691
 11
149.50360584334996
 21
130.74739919031791
  0
LINE
  8
_0-0_
  6
CONTINUOUS
 62
  250
 10
149.50360584334996
 20
130.74739919031791
 11
149.56011104659694
 21
130.73664651239991
  0
LINE
  8
_0-0_
  6
CONTINUOUS
 62
  250
 10
149.56011104659694
 20
130.73664651239991
 11
149.60364627914097
 21
130.7454918416849
  0
LINE
  8
_0-0_
  6
CONTINUOUS
 62
  250
 10
149.60364627914097
 20
130.7454918416849
 11
149.63578510360395
 21
130.7690714391579
  0
LINE
  8
_0-0_
  6
CONTINUOUS
 62
  250
 10
149.63578510360395
 20
130.7690714391579
 11
149.65838718490295
 21
130.80247388208988
  0
LINE
  8
_0-0_
  6
CONTINUOUS
 62
  250
 10
149.65838718490295
 20
130.80247388208988
 11
149.67302608565998
 21
130.8407877477519
  0
LINE
  8
_0-0_
  6
CONTINUOUS
 62
  250
 10
149.67302608565998
 20
130.8407877477519
 11
149.681513787076
 21
130.8791016134129
  0
LINE
  8
_0-0_
  6
CONTINUOUS
 62
  250
 10
149.681513787076
 20
130.8791016134129
 11
149.68537616805699
 21
130.91255174006091
  0
LINE
  8
_0-0_
  6
CONTINUOUS
 62
  250
 10
149.68537616805699
 20
130.91255174006091
 11
149.68647289352094
 21
130.93620286310792
  0
LINE
  8
_0-0_
  6
CONTINUOUS
 62
  250
 10
149.68647289352094
 20
130.93620286310792
 11
149.68647289352094
 21
130.94516740168191
  0
LINE
  8
_0-0_
  6
CONTINUOUS
 62
  250
 10
149.68647289352094
 20
130.94516740168191
 11
149.68585300521494
 21
131.23451218927991
  0
LINE
  8
_0-0_
  6
CONTINUOUS
 62
  250
 10
149.68585300521494
 20
131.23451218927991
 11
149.67912960128498
 21
131.48904786432888
  0
LINE
  8
_0-0_
  6
CONTINUOUS
 62
  250
 10
149.67912960128498
 20
131.48904786432888
 11
149.66768550948802
 21
131.70979962671888
  0
LINE
  8
_0-0_
  6
CONTINUOUS
 62
  250
 10
149.66768550948802
 20
131.70979962671888
 11
149.65304660873102
 21
131.89776883448292
  0
LINE
  8
_0-0_
  6
CONTINUOUS
 62
  250
 10
149.65304660873102
 20
131.89776883448292
 11
149.63669109420499
 21
132.05405221308391
  0
LINE
  8
_0-0_
  6
CONTINUOUS
 62
  250
 10
149.63669109420499
 20
132.05405221308391
 11
149.62000179366797
 21
132.1796034368389
  0
LINE
  8
_0-0_
  6
CONTINUOUS
 62
  250
 10
149.62000179366797
 20
132.1796034368389
 11
149.60445690231001
 21
132.27544770563793
  0
LINE
  8
_0-0_
  6
CONTINUOUS
 62
  250
 10
149.60445690231001
 20
132.27544770563793
 11
149.59158229903898
 21
132.34265790308589
  0
LINE
  8
_0-0_
  6
CONTINUOUS
 62
  250
 10
149.59158229903898
 20
132.34265790308589
 11
149.58280849532795
 21
132.3822115453589
  0
LINE
  8
_0-0_
  6
CONTINUOUS
 62
  250
 10
149.58280849532795
 20
132.3822115453589
 11
149.57956600265197
 21
132.39518151606188
  0
LINE
  8
_0-0_
  6
CONTINUOUS
 62
  250
 10
149.57956600265197
 20
132.39518151606188
 11
149.50064945296901
 21
132.66354546869891
  0
LINE
  8
_0-0_
  6
CONTINUOUS
 62
  250
 10
149.50064945296901
 20
132.66354546869891
 11
149.39951229171493
 21
132.91610226954089
  0
LINE
  8
_0-0_
  6
CONTINUOUS
 62
  250
 10
149.39951229171493
 20
132.91610226954089
 11
149.27963543014195
 21
133.15278039301492
  0
LINE
  8
_0-0_
  6
CONTINUOUS
 62
  250
 10
149.27963543014195
 20
133.15278039301492
 11
149.14445209579199
 21
133.37355599726391
  0
LINE
  8
_0-0_
  6
CONTINUOUS
 62
  250
 10
149.14445209579199
 20
133.37355599726391
 11
148.99744319991797
 21
133.57833371485393
  0
LINE
  8
_0-0_
  6
CONTINUOUS
 62
  250
 10
148.99744319991797
 20
133.57833371485393
 11
148.84204197005894
 21
133.76708970392889
  0
LINE
  8
_0-0_
  6
CONTINUOUS
 62
  250
 10
148.84204197005894
 20
133.76708970392889
 11
148.68177700118696
 21
133.93970475519788
  0
LINE
  8
_0-0_
  6
CONTINUOUS
 62
  250
 10
148.68177700118696
 20
133.93970475519788
 11
148.51998615340901
 21
134.09620271051989
  0
LINE
  8
_0-0_
  6
CONTINUOUS
 62
  250
 10
148.51998615340901
 20
134.09620271051989
 11
148.36024570541096
 21
134.23646436060591
  0
LINE
  8
_0-0_
  6
CONTINUOUS
 62
  250
 10
148.36024570541096
 20
134.23646436060591
 11
148.20598888473199
 21
134.36046586359691
  0
LINE
  8
_0-0_
  6
CONTINUOUS
 62
  250
 10
148.20598888473199
 20
134.36046586359691
 11
148.20102977828694
 21
134.36459050501492
  0
LINE
  8
_0-0_
  6
CONTINUOUS
 62
  250
 10
148.20102977828694
 20
134.36459050501492
 11
148.196070671841
 21
134.3686436208599
  0
LINE
  8
_0-0_
  6
CONTINUOUS
 62
  250
 10
148.196070671841
 20
134.3686436208599
 11
148.19120693282795
 21
134.3726252111309
  0
LINE
  8
_0-0_
  6
CONTINUOUS
 62
  250
 10
148.19120693282795
 20
134.3726252111309
 11
148.18634319381403
 21
134.37653527582791
  0
LINE
  8
_0-0_
  6
CONTINUOUS
 62
  250
 10
148.18634319381403
 20
134.37653527582791
 11
148.18147945479998
 21
134.38042149866692
  0
LINE
  8
_0-0_
  6
CONTINUOUS
 62
  250
 10
148.18147945479998
 20
134.38042149866692
 11
148.17656803207092
 21
134.38426003779088
  0
LINE
  8
_0-0_
  6
CONTINUOUS
 62
  250
 10
148.17656803207092
 20
134.38426003779088
 11
148.17156124190998
 21
134.38805089319891
  0
LINE
  8
_0-0_
  6
CONTINUOUS
 62
  250
 10
148.17156124190998
 20
134.38805089319891
 11
148.16645908431695
 21
134.39181790674792
  0
LINE
  8
_0-0_
  6
CONTINUOUS
 62
  250
 10
148.16645908431695
 20
134.39181790674792
 11
148.16130924300799
 21
134.39558492029789
  0
LINE
  8
_0-0_
  6
CONTINUOUS
 62
  250
 10
148.16130924300799
 20
134.39558492029789
 11
148.155968666837
 21
134.39935193384787
  0
LINE
  8
_0-0_
  6
CONTINUOUS
 62
  250
 10
148.155968666837
 20
134.39935193384787
 11
148.06007671432201
 21
134.47016225184092
  0
LINE
  8
_0-0_
  6
CONTINUOUS
 62
  250
 10
148.06007671432201
 20
134.47016225184092
 11
147.96985912398998
 21
134.53351006830789
  0
LINE
  8
_0-0_
  6
CONTINUOUS
 62
  250
 10
147.96985912398998
 20
134.53351006830789
 11
147.88631725387296
 21
134.58937154139193
  0
LINE
  8
_0-0_
  6
CONTINUOUS
 62
  250
 10
147.88631725387296
 20
134.58937154139193
 11
147.81050014571795
 21
134.63777051294988
  0
LINE
  8
_0-0_
  6
CONTINUOUS
 62
  250
 10
147.81050014571795
 20
134.63777051294988
 11
147.74345684127496
 21
134.67868314112292
  0
LINE
  8
_0-0_
  6
CONTINUOUS
 62
  250
 10
147.74345684127496
 20
134.67868314112292
 11
147.686284066007
 21
134.71215710962892
  0
LINE
  8
_0-0_
  6
CONTINUOUS
 62
  250
 10
147.686284066007
 20
134.71215710962892
 11
147.63993549422895
 21
134.7381447347509
  0
LINE
  8
_0-0_
  6
CONTINUOUS
 62
  250
 10
147.63993549422895
 20
134.7381447347509
 11
147.60555553512296
 21
134.75674138392091
  0
LINE
  8
_0-0_
  6
CONTINUOUS
 62
  250
 10
147.60555553512296
 20
134.75674138392091
 11
147.58419323043501
 21
134.7678755315649
  0
LINE
  8
_0-0_
  6
CONTINUOUS
 62
  250
 10
147.58419323043501
 20
134.7678755315649
 11
147.57680225448297
 21
134.77157101954089
  0
LINE
  8
_0-0_
  6
CONTINUOUS
 62
  250
 10
147.57680225448297
 20
134.77157101954089
 11
147.43203449325293
 21
134.89540562952689
  0
LINE
  8
_0-0_
  6
CONTINUOUS
 62
  250
 10
147.43203449325293
 20
134.89540562952689
 11
147.31425571517596
 21
135.02410397852589
  0
LINE
  8
_0-0_
  6
CONTINUOUS
 62
  250
 10
147.31425571517596
 20
135.02410397852589
 11
147.22070026473693
 21
135.15346989954591
  0
LINE
  8
_0-0_
  6
CONTINUOUS
 62
  250
 10
147.22070026473693
 20
135.15346989954591
 11
147.14860248641699
 21
135.2792595418799
  0
LINE
  8
_0-0_
  6
CONTINUOUS
 62
  250
 10
147.14860248641699
 20
135.2792595418799
 11
147.09514904098199
 21
135.39727673853488
  0
LINE
  8
_0-0_
  6
CONTINUOUS
 62
  250
 10
147.09514904098199
 20
135.39727673853488
 11
147.05766964034694
 21
135.50327763880389
  0
LINE
  8
_0-0_
  6
CONTINUOUS
 62
  250
 10
147.05766964034694
 20
135.50327763880389
 11
147.03335094527893
 21
135.59306607569388
  0
LINE
  8
_0-0_
  6
CONTINUOUS
 62
  250
 10
147.03335094527893
 20
135.59306607569388
 11
147.01933193282795
 21
135.66242204035393
  0
LINE
  8
_0-0_
  6
CONTINUOUS
 62
  250
 10
147.01933193282795
 20
135.66242204035393
 11
147.01298999862394
 21
135.7071255239359
  0
LINE
  8
_0-0_
  6
CONTINUOUS
 62
  250
 10
147.01298999862394
 20
135.7071255239359
 11
147.01151180343297
 21
135.7229565175879
  0
LINE
  8
_0-0_
  6
CONTINUOUS
 62
  250
 10
147.01151180343297
 20
135.7229565175879
 11
147.01151180343297
 21
136.85906873072287
  0
LINE
  8
_0-0_
  6
CONTINUOUS
 62
  250
 10
147.01151180343297
 20
136.85906873072287
 11
147.01017665939
 21
136.8851278814189
  0
LINE
  8
_0-0_
  6
CONTINUOUS
 62
  250
 10
147.01017665939
 20
136.8851278814189
 11
147.00979518966398
 21
136.95567593897488
  0
LINE
  8
_0-0_
  6
CONTINUOUS
 62
  250
 10
147.00979518966398
 20
136.95567593897488
 11
147.01580333785699
 21
137.05917344416292
  0
LINE
  8
_0-0_
  6
CONTINUOUS
 62
  250
 10
147.01580333785699
 20
137.05917344416292
 11
147.03339862899495
 21
137.1840332540379
  0
LINE
  8
_0-0_
  6
CONTINUOUS
 62
  250
 10
147.03339862899495
 20
137.1840332540379
 11
147.06806469039594
 21
137.3187635930889
  0
LINE
  8
_0-0_
  6
CONTINUOUS
 62
  250
 10
147.06806469039594
 20
137.3187635930889
 11
147.12523746566495
 21
137.45187268580091
  0
LINE
  8
_0-0_
  6
CONTINUOUS
 62
  250
 10
147.12523746566495
 20
137.45187268580091
 11
147.21006679610895
 21
137.57172570551492
  0
LINE
  8
_0-0_
  6
CONTINUOUS
 62
  250
 10
147.21006679610895
 20
137.57172570551492
 11
147.32813167647993
 21
137.6668785604349
  0
LINE
  8
_0-0_
  6
CONTINUOUS
 62
  250
 10
147.32813167647993
 20
137.6668785604349
 11
147.48467731551793
 21
137.72576794947287
  0
LINE
  8
_0-0_
  6
CONTINUOUS
 62
  250
 10
147.48467731551793
 20
137.72576794947287
 11
147.68513965682698
 21
137.73685441340089
  0
LINE
  8
_0-0_
  6
CONTINUOUS
 62
  250
 10
147.68513965682698
 20
137.73685441340089
 11
147.77449894027399
 21
137.72669778193088
  0
LINE
  8
_0-0_
  6
CONTINUOUS
 62
  250
 10
147.77449894027399
 20
137.72669778193088
 11
147.864811898038
 21
137.70996079767889
  0
LINE
  8
_0-0_
  6
CONTINUOUS
 62
  250
 10
147.864811898038
 20
137.70996079767889
 11
147.95574474410699
 21
137.68726334894788
  0
LINE
  8
_0-0_
  6
CONTINUOUS
 62
  250
 10
147.95574474410699
 20
137.68726334894788
 11
148.04686832503995
 21
137.65915379847189
  0
LINE
  8
_0-0_
  6
CONTINUOUS
 62
  250
 10
148.04686832503995
 20
137.65915379847189
 11
148.13789653854101
 21
137.62625203455588
  0
LINE
  8
_0-0_
  6
CONTINUOUS
 62
  250
 10
148.13789653854101
 20
137.62625203455588
 11
148.22844791488299
 21
137.5891541036479
  0
LINE
  8
_0-0_
  6
CONTINUOUS
 62
  250
 10
148.22844791488299
 20
137.5891541036479
 11
148.31809330062597
 21
137.54840836847893
  0
LINE
  8
_0-0_
  6
CONTINUOUS
 62
  250
 10
148.31809330062597
 20
137.54840836847893
 11
148.406498909757
 21
137.5046824010719
  0
LINE
  8
_0-0_
  6
CONTINUOUS
 62
  250
 10
148.406498909757
 20
137.5046824010719
 11
148.49328327254901
 21
137.45847688044191
  0
LINE
  8
_0-0_
  6
CONTINUOUS
 62
  250
 10
148.49328327254901
 20
137.45847688044191
 11
148.57816028670996
 21
137.41045937861088
  0
LINE
  8
_0-0_
  6
CONTINUOUS
 62
  250
 10
148.57816028670996
 20
137.41045937861088
 11
148.70261478500097
 21
137.33426080072991
  0
LINE
  8
_0-0_
  6
CONTINUOUS
 62
  250
 10
148.70261478500097
 20
137.33426080072991
 11
148.81991672591894
 21
137.2571085485329
  0
LINE
  8
_0-0_
  6
CONTINUOUS
 62
  250
 10
148.81991672591894
 20
137.2571085485329
 11
148.92877864913601
 21
137.18110070551492
  0
LINE
  8
_0-0_
  6
CONTINUOUS
 62
  250
 10
148.92877864913601
 20
137.18110070551492
 11
149.02767467574796
 21
137.10838303888889
  0
LINE
  8
_0-0_
  6
CONTINUOUS
 62
  250
 10
149.02767467574796
 20
137.10838303888889
 11
149.11531734542498
 21
137.04100594843487
  0
LINE
  8
_0-0_
  6
CONTINUOUS
 62
  250
 10
149.11531734542498
 20
137.04100594843487
 11
149.19018077926296
 21
136.98116288508089
  0
LINE
  8
_0-0_
  6
CONTINUOUS
 62
  250
 10
149.19018077926296
 20
136.98116288508089
 11
149.25083446578694
 21
136.93090424860591
  0
LINE
  8
_0-0_
  6
CONTINUOUS
 62
  250
 10
149.25083446578694
 20
136.93090424860591
 11
149.29594326095295
 21
136.89239964808087
  0
LINE
  8
_0-0_
  6
CONTINUOUS
 62
  250
 10
149.29594326095295
 20
136.89239964808087
 11
149.32407665328694
 21
136.86774716700191
  0
LINE
  8
_0-0_
  6
CONTINUOUS
 62
  250
 10
149.32407665328694
 20
136.86774716700191
 11
149.33370876388202
 21
136.85906873072287
  0
LINE
  8
_0-0_
  6
CONTINUOUS
 62
  250
 10
149.33370876388202
 20
136.85906873072287
 11
149.42049312667498
 21
136.7641781362409
  0
LINE
  8
_0-0_
  6
CONTINUOUS
 62
  250
 10
149.42049312667498
 20
136.7641781362409
 11
149.49683475570401
 21
136.64778218592289
  0
LINE
  8
_0-0_
  6
CONTINUOUS
 62
  250
 10
149.49683475570401
 20
136.64778218592289
 11
149.56297206954696
 21
136.51729569758089
  0
LINE
  8
_0-0_
  6
CONTINUOUS
 62
  250
 10
149.56297206954696
 20
136.51729569758089
 11
149.61933422164594
 21
136.38015733088187
  0
LINE
  8
_0-0_
  6
CONTINUOUS
 62
  250
 10
149.61933422164594
 20
136.38015733088187
 11
149.66620731429794
 21
136.24378190363586
  0
LINE
  8
_0-0_
  6
CONTINUOUS
 62
  250
 10
149.66620731429794
 20
136.24378190363586
 11
149.70382976607999
 21
136.11556039179487
  0
LINE
  8
_0-0_
  6
CONTINUOUS
 62
  250
 10
149.70382976607999
 20
136.11556039179487
 11
149.73258304671901
 21
136.0029076131689
  0
LINE
  8
_0-0_
  6
CONTINUOUS
 62
  250
 10
149.73258304671901
 20
136.0029076131689
 11
149.75275325851101
 21
135.91328606928488
  0
LINE
  8
_0-0_
  6
CONTINUOUS
 62
  250
 10
149.75275325851101
 20
135.91328606928488
 11
149.76457882003498
 21
135.85406289423588
  0
LINE
  8
_0-0_
  6
CONTINUOUS
 62
  250
 10
149.76457882003498
 20
135.85406289423588
 11
149.76848888473199
 21
135.83267674769093
  0
LINE
  8
_0-0_
  6
CONTINUOUS
 62
  250
 10
149.76848888473199
 20
135.83267674769093
 11
149.81426525192001
 21
135.24933801020291
  0
LINE
  8
_0-0_
  6
CONTINUOUS
 62
  250
 10
149.81426525192001
 20
135.24933801020291
 11
150.857346535489
 21
134.72295747126293
  0
LINE
  8
_0-0_
  6
CONTINUOUS
 62
  250
 10
150.857346535489
 20
134.72295747126293
 11
150.92968273238796
 21
134.71725926722189
  0
LINE
  8
_0-0_
  6
CONTINUOUS
 62
  250
 10
150.92968273238796
 20
134.71725926722189
 11
150.98699855880398
 21
134.76730332697491
  0
LINE
  8
_0-0_
  6
CONTINUOUS
 62
  250
 10
150.98699855880398
 20
134.76730332697491
 11
151.03105831222194
 21
134.86011967981992
  0
LINE
  8
_0-0_
  6
CONTINUOUS
 62
  250
 10
151.03105831222194
 20
134.86011967981992
 11
151.06357860641194
 21
134.98271451319388
  0
LINE
  8
_0-0_
  6
CONTINUOUS
 62
  250
 10
151.06357860641194
 20
134.98271451319388
 11
151.08637142257396
 21
135.12207017267889
  0
LINE
  8
_0-0_
  6
CONTINUOUS
 62
  250
 10
151.08637142257396
 20
135.12207017267889
 11
151.10101032333097
 21
135.26526437128689
  0
LINE
  8
_0-0_
  6
CONTINUOUS
 62
  250
 10
151.10101032333097
 20
135.26526437128689
 11
151.10945034103099
 21
135.39923177088389
  0
LINE
  8
_0-0_
  6
CONTINUOUS
 62
  250
 10
151.10945034103099
 20
135.39923177088389
 11
151.11331272201198
 21
135.51100240076693
  0
LINE
  8
_0-0_
  6
CONTINUOUS
 62
  250
 10
151.11331272201198
 20
135.51100240076693
 11
151.11431408004501
 21
135.58760629023189
  0
LINE
  8
_0-0_
  6
CONTINUOUS
 62
  250
 10
151.11431408004501
 20
135.58760629023189
 11
151.11431408004501
 21
135.61602578486088
  0
LINE
  8
_0-0_
  6
CONTINUOUS
 62
  250
 10
151.11431408004501
 20
135.61602578486088
 11
151.19480419234898
 21
135.66878781641589
  0
LINE
  8
_0-0_
  6
CONTINUOUS
 62
  250
 10
151.19480419234898
 20
135.66878781641589
 11
151.47818851546901
 21
135.98686204279591
  0
LINE
  8
_0-0_
  6
CONTINUOUS
 62
  250
 10
151.47818851546901
 20
135.98686204279591
 11
151.50608348922398
 21
136.0055540593969
  0
LINE
  8
_0-0_
  6
CONTINUOUS
 62
  250
 10
151.50608348922398
 20
136.0055540593969
 11
151.52925777511302
 21
136.03261456812493
  0
LINE
  8
_0-0_
  6
CONTINUOUS
 62
  250
 10
151.52925777511302
 20
136.03261456812493
 11
151.54804515914594
 21
136.06556401575688
  0
LINE
  8
_0-0_
  6
CONTINUOUS
 62
  250
 10
151.54804515914594
 20
136.06556401575688
 11
151.56301784591398
 21
136.10197053278591
  0
LINE
  8
_0-0_
  6
CONTINUOUS
 62
  250
 10
151.56301784591398
 20
136.10197053278591
 11
151.57450962142596
 21
136.13944993342091
  0
LINE
  8
_0-0_
  6
CONTINUOUS
 62
  250
 10
151.57450962142596
 20
136.13944993342091
 11
151.58294963912695
 21
136.17552266443889
  0
LINE
  8
_0-0_
  6
CONTINUOUS
 62
  250
 10
151.58294963912695
 20
136.17552266443889
 11
151.58881473617294
 21
136.20782838190692
  0
LINE
  8
_0-0_
  6
CONTINUOUS
 62
  250
 10
151.58881473617294
 20
136.20782838190692
 11
151.59239101485895
 21
136.23391137446089
  0
LINE
  8
_0-0_
  6
CONTINUOUS
 62
  250
 10
151.59239101485895
 20
136.23391137446089
 11
151.59429836349202
 21
136.2513397725929
  0
LINE
  8
_0-0_
  6
CONTINUOUS
 62
  250
 10
151.59429836349202
 20
136.2513397725929
 11
151.59482288436595
 21
136.25768170679692
  0
LINE
  8
_0-0_
  6
CONTINUOUS
 62
  250
 10
151.59482288436595
 20
136.25768170679692
 11
151.59482288436595
 21
138.62851605738291
  0
LINE
  8
_0-0_
  6
CONTINUOUS
 62
  250
 10
151.59482288436595
 20
138.62851605738291
 11
151.59434604720801
 21
138.63390431727092
  0
LINE
  8
_0-0_
  6
CONTINUOUS
 62
  250
 10
151.59434604720801
 20
138.63390431727092
 11
151.59386921004901
 21
138.6393164190159
  0
LINE
  8
_0-0_
  6
CONTINUOUS
 62
  250
 10
151.59386921004901
 20
138.6393164190159
 11
151.59334468917498
 21
138.64468083704591
  0
LINE
  8
_0-0_
  6
CONTINUOUS
 62
  250
 10
151.59334468917498
 20
138.64468083704591
 11
151.59277248458594
 21
138.6499975713599
  0
LINE
  8
_0-0_
  6
CONTINUOUS
 62
  250
 10
151.59277248458594
 20
138.6499975713599
 11
151.592247963712
 21
138.65524278009991
  0
LINE
  8
_0-0_
  6
CONTINUOUS
 62
  250
 10
151.592247963712
 20
138.65524278009991
 11
151.59172344283797
 21
138.6603926214089
  0
LINE
  8
_0-0_
  6
CONTINUOUS
 62
  250
 10
151.59172344283797
 20
138.6603926214089
 11
151.59129428939497
 21
138.66547093714391
  0
LINE
  8
_0-0_
  6
CONTINUOUS
 62
  250
 10
151.59129428939497
 20
138.66547093714391
 11
151.59096050338397
 21
138.67043004358891
  0
LINE
  8
_0-0_
  6
CONTINUOUS
 62
  250
 10
151.59096050338397
 20
138.67043004358891
 11
151.59076976852094
 21
138.6752460988869
  0
LINE
  8
_0-0_
  6
CONTINUOUS
 62
  250
 10
151.59076976852094
 20
138.6752460988869
 11
151.59067440108993
 21
138.67989526117992
  0
LINE
  8
_0-0_
  6
CONTINUOUS
 62
  250
 10
151.59067440108993
 20
138.67989526117992
 11
151.55858326034198
 21
138.85081754053689
  0
LINE
  8
_0-0_
  6
CONTINUOUS
 62
  250
 10
151.55858326034198
 20
138.85081754053689
 11
151.50598812179297
 21
139.00145039881389
  0
LINE
  8
_0-0_
  6
CONTINUOUS
 62
  250
 10
151.50598812179297
 20
139.00145039881389
 11
151.43856334762296
 21
139.1323421987409
  0
LINE
  8
_0-0_
  6
CONTINUOUS
 62
  250
 10
151.43856334762296
 20
139.1323421987409
 11
151.36188793258398
 21
139.2440174611919
  0
LINE
  8
_0-0_
  6
CONTINUOUS
 62
  250
 10
151.36188793258398
 20
139.2440174611919
 11
151.28163623885797
 21
139.33702454889888
  0
LINE
  8
_0-0_
  6
CONTINUOUS
 62
  250
 10
151.28163623885797
 20
139.33702454889888
 11
151.20333957748102
 21
139.41188798273691
  0
LINE
  8
_0-0_
  6
CONTINUOUS
 62
  250
 10
151.20333957748102
 20
139.41188798273691
 11
151.13271999435094
 21
139.46917996729488
  0
LINE
  8
_0-0_
  6
CONTINUOUS
 62
  250
 10
151.13271999435094
 20
139.46917996729488
 11
151.07530880050399
 21
139.5094488653059
  0
LINE
  8
_0-0_
  6
CONTINUOUS
 62
  250
 10
151.07530880050399
 20
139.5094488653059
 11
151.03673267440502
 21
139.5331953557839
  0
LINE
  8
_0-0_
  6
CONTINUOUS
 62
  250
 10
151.03673267440502
 20
139.5331953557839
 11
151.02261829452203
 21
139.54101548517889
  0
LINE
  8
_0-0_
  6
CONTINUOUS
 62
  250
 10
151.02261829452203
 20
139.54101548517889
 11
145.86705494003002
 21
141.9173811467999
  0
LINE
  8
_0-0_
  6
CONTINUOUS
 62
  250
 10
145.86705494003002
 20
141.9173811467999
 11
145.86405086593297
 21
141.91914544428488
  0
LINE
  8
_0-0_
  6
CONTINUOUS
 62
  250
 10
145.86405086593297
 20
141.91914544428488
 11
145.85542011336995
 21
141.92396149958293
  0
LINE
  8
_0-0_
  6
CONTINUOUS
 62
  250
 10
145.85542011336995
 20
141.92396149958293
 11
145.84168720321395
 21
141.93111405695589
  0
LINE
  8
_0-0_
  6
CONTINUOUS
 62
  250
 10
145.84168720321395
 20
141.93111405695589
 11
145.82337665633895
 21
141.93991170252491
  0
LINE
  8
_0-0_
  6
CONTINUOUS
 62
  250
 10
145.82337665633895
 20
141.93991170252491
 11
145.80106067733496
 21
141.9496868642679
  0
LINE
  8
_0-0_
  6
CONTINUOUS
 62
  250
 10
145.80106067733496
 20
141.9496868642679
 11
145.775263787076
 21
141.95970044458988
  0
LINE
  8
_0-0_
  6
CONTINUOUS
 62
  250
 10
145.775263787076
 20
141.95970044458988
 11
145.74646282271999
 21
141.96926102961191
  0
LINE
  8
_0-0_
  6
CONTINUOUS
 62
  250
 10
145.74646282271999
 20
141.96926102961191
 11
145.71522998885797
 21
141.97765336359691
  0
LINE
  8
_0-0_
  6
CONTINUOUS
 62
  250
 10
145.71522998885797
 20
141.97765336359691
 11
145.68213749007901
 21
141.98423371637989
  0
LINE
  8
_0-0_
  6
CONTINUOUS
 62
  250
 10
145.68213749007901
 20
141.98423371637989
 11
145.64761447982494
 21
141.98823914850888
  0
LINE
  8
_0-0_
  6
CONTINUOUS
 62
  250
 10
145.64761447982494
 20
141.98823914850888
 11
145.64217853622097
 21
141.98897824610393
  0
LINE
  8
_0-0_
  6
CONTINUOUS
 62
  250
 10
145.64217853622097
 20
141.98897824610393
 11
145.63679027633398
 21
141.98957429255191
  0
LINE
  8
_0-0_
  6
CONTINUOUS
 62
  250
 10
145.63679027633398
 20
141.98957429255191
 11
145.63135433272993
 21
141.99000344599392
  0
LINE
  8
_0-0_
  6
CONTINUOUS
 62
  250
 10
145.63135433272993
 20
141.99000344599392
 11
145.62587070541096
 21
141.99024186457288
  0
LINE
  8
_0-0_
  6
CONTINUOUS
 62
  250
 10
145.62587070541096
 20
141.99024186457288
 11
145.620387078091
 21
141.99031339014689
  0
LINE
  8
_0-0_
  6
CONTINUOUS
 62
  250
 10
145.620387078091
 20
141.99031339014689
 11
145.61480808333994
 21
141.99024186457288
  0
LINE
  8
_0-0_
  6
CONTINUOUS
 62
  250
 10
145.61480808333994
 20
141.99024186457288
 11
145.60922908858993
 21
141.99000344599392
  0
LINE
  8
_0-0_
  6
CONTINUOUS
 62
  250
 10
145.60922908858993
 20
141.99000344599392
 11
145.60360241012296
 21
141.98957429255191
  0
LINE
  8
_0-0_
  6
CONTINUOUS
 62
  250
 10
145.60360241012296
 20
141.98957429255191
 11
145.59788036422398
 21
141.98897824610393
  0
LINE
  8
_0-0_
  6
CONTINUOUS
 62
  250
 10
145.59788036422398
 20
141.98897824610393
 11
145.59206295089399
 21
141.98823914850888
  0
LINE
  8
_0-0_
  6
CONTINUOUS
 62
  250
 10
145.59206295089399
 20
141.98823914850888
 11
145.55572795943903
 21
141.9825409444679
  0
LINE
  8
_0-0_
  6
CONTINUOUS
 62
  250
 10
145.55572795943903
 20
141.9825409444679
 11
145.51967907027893
 21
141.97159753168688
  0
LINE
  8
_0-0_
  6
CONTINUOUS
 62
  250
 10
145.51967907027893
 20
141.97159753168688
 11
145.48434543685602
 21
141.95471749628689
  0
LINE
  8
_0-0_
  6
CONTINUOUS
 62
  250
 10
145.48434543685602
 20
141.95471749628689
 11
145.45044231490795
 21
141.93116174067191
  0
LINE
  8
_0-0_
  6
CONTINUOUS
 62
  250
 10
145.45044231490795
 20
141.93116174067191
 11
145.41844654159198
 21
141.90021500910393
  0
LINE
  8
_0-0_
  6
CONTINUOUS
 62
  250
 10
145.41844654159198
 20
141.90021500910393
 11
145.3889303215
 21
141.86111436213187
  0
LINE
  8
_0-0_
  6
CONTINUOUS
 62
  250
 10
145.3889303215
 20
141.86111436213187
 11
145.36251354293501
 21
141.81321606958988
  0
LINE
  8
_0-0_
  6
CONTINUOUS
 62
  250
 10
145.36251354293501
 20
141.81321606958988
 11
145.33972072677301
 21
141.75568566645291
  0
LINE
  8
_0-0_
  6
CONTINUOUS
 62
  250
 10
145.33972072677301
 20
141.75568566645291
 11
145.32117176131896
 21
141.68790326441388
  0
LINE
  8
_0-0_
  6
CONTINUOUS
 62
  250
 10
145.32117176131896
 20
141.68790326441388
 11
145.30734348373102
 21
141.6090582403059
  0
LINE
  8
_0-0_
  6
CONTINUOUS
 62
  250
 10
145.30734348373102
 20
141.6090582403059
 11
145.25732326583594
 21
139.0340660604349
  0
LINE
  8
_0-0_
  6
CONTINUOUS
 62
  250
 10
145.25732326583594
 20
139.0340660604349
 11
145.25913524703694
 21
139.0261028798929
  0
LINE
  8
_0-0_
  6
CONTINUOUS
 62
  250
 10
145.25913524703694
 20
139.0261028798929
 11
145.26452350692401
 21
139.00378690088888
  0
LINE
  8
_0-0_
  6
CONTINUOUS
 62
  250
 10
145.26452350692401
 20
139.00378690088888
 11
145.27358341292995
 21
138.9695499929299
  0
LINE
  8
_0-0_
  6
CONTINUOUS
 62
  250
 10
145.27358341292995
 20
138.9695499929299
 11
145.28626728133895
 21
138.92575249994891
  0
LINE
  8
_0-0_
  6
CONTINUOUS
 62
  250
 10
145.28626728133895
 20
138.92575249994891
 11
145.30262279586498
 21
138.8748739751689
  0
LINE
  8
_0-0_
  6
CONTINUOUS
 62
  250
 10
145.30262279586498
 20
138.8748739751689
 11
145.32274532394098
 21
138.8192747625219
  0
LINE
  8
_0-0_
  6
CONTINUOUS
 62
  250
 10
145.32274532394098
 20
138.8192747625219
 11
145.34653949813494
 21
138.76136288965893
  0
LINE
  8
_0-0_
  6
CONTINUOUS
 62
  250
 10
145.34653949813494
 20
138.76136288965893
 11
145.37410068587997
 21
138.70357022608391
  0
LINE
  8
_0-0_
  6
CONTINUOUS
 62
  250
 10
145.37410068587997
 20
138.70357022608391
 11
145.40547657088894
 21
138.64830479944891
  0
LINE
  8
_0-0_
  6
CONTINUOUS
 62
  250
 10
145.40547657088894
 20
138.64830479944891
 11
145.44066715316495
 21
138.59795079554192
  0
LINE
  8
_0-0_
  6
CONTINUOUS
 62
  250
 10
145.44066715316495
 20
138.59795079554192
 11
145.60870456771494
 21
138.32016930903089
  0
LINE
  8
_0-0_
  6
CONTINUOUS
 62
  250
 10
145.60870456771494
 20
138.32016930903089
 11
145.61147022323297
 21
138.31675992334988
  0
LINE
  8
_0-0_
  6
CONTINUOUS
 62
  250
 10
145.61147022323297
 20
138.31675992334988
 11
145.61881351546901
 21
138.30581651056889
  0
LINE
  8
_0-0_
  6
CONTINUOUS
 62
  250
 10
145.61881351546901
 20
138.30581651056889
 11
145.62944698409694
 21
138.28636155451389
  0
LINE
  8
_0-0_
  6
CONTINUOUS
 62
  250
 10
145.62944698409694
 20
138.28636155451389
 11
145.64213085250594
 21
138.25734601343791
  0
LINE
  8
_0-0_
  6
CONTINUOUS
 62
  250
 10
145.64213085250594
 20
138.25734601343791
 11
145.65543460921901
 21
138.21774468744891
  0
LINE
  8
_0-0_
  6
CONTINUOUS
 62
  250
 10
145.65543460921901
 20
138.21774468744891
 11
145.66811847762793
 21
138.16658006037389
  0
LINE
  8
_0-0_
  6
CONTINUOUS
 62
  250
 10
145.66811847762793
 20
138.16658006037389
 11
145.67889499740295
 21
138.10280309046391
  0
LINE
  8
_0-0_
  6
CONTINUOUS
 62
  250
 10
145.67889499740295
 20
138.10280309046391
 11
145.68638134078694
 21
138.02543626154591
  0
LINE
  8
_0-0_
  6
CONTINUOUS
 62
  250
 10
145.68638134078694
 20
138.02543626154591
 11
145.68938541488299
 21
137.93338284815491
  0
LINE
  8
_0-0_
  6
CONTINUOUS
 62
  250
 10
145.68938541488299
 20
137.93338284815491
 11
145.68647670821795
 21
137.8257368596899
  0
LINE
  8
_0-0_
  6
CONTINUOUS
 62
  250
 10
145.68647670821795
 20
137.8257368596899
 11
145.67827510909694
 21
137.65772328699688
  0
LINE
  8
_0-0_
  6
CONTINUOUS
 62
  250
 10
145.67827510909694
 20
137.65772328699688
 11
145.67035961227094
 21
137.40340218866987
  0
LINE
  8
_0-0_
  6
CONTINUOUS
 62
  250
 10
145.67035961227094
 20
137.40340218866987
 11
145.66282558517196
 21
137.0872114690649
  0
LINE
  8
_0-0_
  6
CONTINUOUS
 62
  250
 10
145.66282558517196
 20
137.0872114690649
 11
145.65591144637793
 21
136.73373208368889
  0
LINE
  8
_0-0_
  6
CONTINUOUS
 62
  250
 10
145.65591144637793
 20
136.73373208368889
 11
145.64971256332092
 21
136.36737809504191
  0
LINE
  8
_0-0_
  6
CONTINUOUS
 62
  250
 10
145.64971256332092
 20
136.36737809504191
 11
145.64432430343297
 21
136.01273045862789
  0
LINE
  8
_0-0_
  6
CONTINUOUS
 62
  250
 10
145.64432430343297
 20
136.01273045862789
 11
145.63984203414594
 21
135.69422707880588
  0
LINE
  8
_0-0_
  6
CONTINUOUS
 62
  250
 10
145.63984203414594
 20
135.69422707880588
 11
145.63655185775497
 21
135.43640122736591
  0
LINE
  8
_0-0_
  6
CONTINUOUS
 62
  250
 10
145.63655185775497
 20
135.43640122736591
 11
145.63445377425799
 21
135.2637384923809
  0
LINE
  8
_0-0_
  6
CONTINUOUS
 62
  250
 10
145.63445377425799
 20
135.2637384923809
 11
145.63373851852094
 21
135.20072446192393
  0
LINE
  8
_0-0_
  6
CONTINUOUS
 62
  250
 10
145.63373851852094
 20
135.20072446192393
 11
145.64356136397993
 21
135.18527493799792
  0
LINE
  8
_0-0_
  6
CONTINUOUS
 62
  250
 10
145.64356136397993
 20
135.18527493799792
 11
145.66978740768093
 21
135.14095292414288
  0
LINE
  8
_0-0_
  6
CONTINUOUS
 62
  250
 10
145.66978740768093
 20
135.14095292414288
 11
145.70760059432698
 21
135.07083402002991
  0
LINE
  8
_0-0_
  6
CONTINUOUS
 62
  250
 10
145.70760059432698
 20
135.07083402002991
 11
145.75213718490295
 21
134.97792229975391
  0
LINE
  8
_0-0_
  6
CONTINUOUS
 62
  250
 10
145.75213718490295
 20
134.97792229975391
 11
145.79862880782795
 21
134.86531720484388
  0
LINE
  8
_0-0_
  6
CONTINUOUS
 62
  250
 10
145.79862880782795
 20
134.86531720484388
 11
145.84221172408797
 21
134.7360228093969
  0
LINE
  8
_0-0_
  6
CONTINUOUS
 62
  250
 10
145.84221172408797
 20
134.7360228093969
 11
145.87802219466894
 21
134.5931385549419
  0
LINE
  8
_0-0_
  6
CONTINUOUS
 62
  250
 10
145.87802219466894
 20
134.5931385549419
 11
145.90124416427301
 21
134.43966851557391
  0
LINE
  8
_0-0_
  6
CONTINUOUS
 62
  250
 10
145.90124416427301
 20
134.43966851557391
 11
145.90710926131896
 21
134.27868829096488
  0
LINE
  8
_0-0_
  6
CONTINUOUS
 62
  250
 10
145.90710926131896
 20
134.27868829096488
 11
145.89065837936096
 21
134.11324963892591
  0
LINE
  8
_0-0_
  6
CONTINUOUS
 62
  250
 10
145.89065837936096
 20
134.11324963892591
 11
145.86052227096297
 21
133.9592550786839
  0
LINE
  8
_0-0_
  6
CONTINUOUS
 62
  250
 10
145.86052227096297
 20
133.9592550786839
 11
145.82919406966894
 21
133.8294123205059
  0
LINE
  8
_0-0_
  6
CONTINUOUS
 62
  250
 10
145.82919406966894
 20
133.8294123205059
 11
145.79767513351101
 21
133.72183785761487
  0
LINE
  8
_0-0_
  6
CONTINUOUS
 62
  250
 10
145.79767513351101
 20
133.72183785761487
 11
145.767014504239
 21
133.63464818323789
  0
LINE
  8
_0-0_
  6
CONTINUOUS
 62
  250
 10
145.767014504239
 20
133.63464818323789
 11
145.73826122359898
 21
133.56600747431389
  0
LINE
  8
_0-0_
  6
CONTINUOUS
 62
  250
 10
145.73826122359898
 20
133.56600747431389
 11
145.71232128219299
 21
133.51403222406992
  0
LINE
  8
_0-0_
  6
CONTINUOUS
 62
  250
 10
145.71232128219299
 20
133.51403222406992
 11
145.690434456632
 21
133.47683892572991
  0
LINE
  8
_0-0_
  6
CONTINUOUS
 62
  250
 10
145.690434456632
 20
133.47683892572991
 11
145.673506737515
 21
133.45259175623588
  0
LINE
  8
_0-0_
  6
CONTINUOUS
 62
  250
 10
145.673506737515
 20
133.45259175623588
 11
145.66258716659198
 21
133.4394310506689
  0
LINE
  8
_0-0_
  6
CONTINUOUS
 62
  250
 10
145.66258716659198
 20
133.4394310506689
 11
145.65872478561096
 21
133.4354494603979
  0
LINE
  8
_0-0_
  6
CONTINUOUS
 62
  250
 10
145.734684944913
 20
133.5601662191259
 11
145.73883342818903
 21
133.73795495356188
  0
LINE
  8
_0-0_
  6
CONTINUOUS
 62
  250
 10
145.73883342818903
 20
133.73795495356188
 11
145.761101723477
 21
134.95880112970991
  0
LINE
  8
_0-0_
  6
CONTINUOUS
 62
  250
 10
148.52189350204199
 20
137.44197831476788
 11
148.51779270248102
 21
137.4387119802349
  0
LINE
  8
_0-0_
  6
CONTINUOUS
 62
  250
 10
148.51779270248102
 20
137.4387119802349
 11
148.50649166183194
 21
137.42919907892889
  0
LINE
  8
_0-0_
  6
CONTINUOUS
 62
  250
 10
148.50649166183194
 20
137.42919907892889
 11
148.48942089156799
 21
137.41405949915588
  0
LINE
  8
_0-0_
  6
CONTINUOUS
 62
  250
 10
148.48942089156799
 20
137.41405949915588
 11
148.46796321944896
 21
137.39377007807391
  0
LINE
  8
_0-0_
  6
CONTINUOUS
 62
  250
 10
148.46796321944896
 20
137.39377007807391
 11
148.44364452438094
 21
137.36890302027388
  0
LINE
  8
_0-0_
  6
CONTINUOUS
 62
  250
 10
148.44364452438094
 20
137.36890302027388
 11
148.41779995040599
 21
137.33998284662891
  0
LINE
  8
_0-0_
  6
CONTINUOUS
 62
  250
 10
148.41779995040599
 20
137.33998284662891
 11
148.39200306014703
 21
137.30758176172893
  0
LINE
  8
_0-0_
  6
CONTINUOUS
 62
  250
 10
148.39200306014703
 20
137.30758176172893
 11
148.36758899764703
 21
137.27222428644788
  0
LINE
  8
_0-0_
  6
CONTINUOUS
 62
  250
 10
148.36758899764703
 20
137.27222428644788
 11
148.34603595809597
 21
137.23443494165988
  0
LINE
  8
_0-0_
  6
CONTINUOUS
 62
  250
 10
148.34603595809597
 20
137.23443494165988
 11
148.32882213668501
 21
137.19478593195589
  0
LINE
  8
_0-0_
  6
CONTINUOUS
 62
  250
 10
148.32882213668501
 20
137.19478593195589
 11
148.31671047286702
 21
137.13530049646991
  0
LINE
  8
_0-0_
  6
CONTINUOUS
 62
  250
 10
148.31671047286702
 20
137.13530049646991
 11
148.30965328292498
 21
137.04162583674091
  0
LINE
  8
_0-0_
  6
CONTINUOUS
 62
  250
 10
148.30965328292498
 20
137.04162583674091
 11
148.30679225997594
 21
136.92329869593289
  0
LINE
  8
_0-0_
  6
CONTINUOUS
 62
  250
 10
148.30679225997594
 20
136.92329869593289
 11
148.30726909713397
 21
136.78978429163593
  0
LINE
  8
_0-0_
  6
CONTINUOUS
 62
  250
 10
148.30726909713397
 20
136.78978429163593
 11
148.31013012008398
 21
136.65066705072991
  0
LINE
  8
_0-0_
  6
CONTINUOUS
 62
  250
 10
148.31013012008398
 20
136.65066705072991
 11
148.31442165450702
 21
136.51545987452189
  0
LINE
  8
_0-0_
  6
CONTINUOUS
 62
  250
 10
148.31442165450702
 20
136.51545987452189
 11
148.31938076095295
 21
136.3936995061749
  0
LINE
  8
_0-0_
  6
CONTINUOUS
 62
  250
 10
148.31938076095295
 20
136.3936995061749
 11
148.32405376510297
 21
136.29492268885289
  0
LINE
  8
_0-0_
  6
CONTINUOUS
 62
  250
 10
148.32405376510297
 20
136.29492268885289
 11
148.32748699264195
 21
136.22869000757791
  0
LINE
  8
_0-0_
  6
CONTINUOUS
 62
  250
 10
148.32748699264195
 20
136.22869000757791
 11
148.32882213668501
 21
136.2044905217999
  0
LINE
  8
_0-0_
  6
CONTINUOUS
 62
  250
 10
148.32882213668501
 20
136.2044905217999
 11
148.33072948531799
 21
136.19209275568591
  0
LINE
  8
_0-0_
  6
CONTINUOUS
 62
  250
 10
148.33072948531799
 20
136.19209275568591
 11
148.336785317227
 21
136.1574743780009
  0
LINE
  8
_0-0_
  6
CONTINUOUS
 62
  250
 10
148.336785317227
 20
136.1574743780009
 11
148.34727573470801
 21
136.10433087671888
  0
LINE
  8
_0-0_
  6
CONTINUOUS
 62
  250
 10
148.34727573470801
 20
136.10433087671888
 11
148.36277294234898
 21
136.0364054235329
  0
LINE
  8
_0-0_
  6
CONTINUOUS
 62
  250
 10
148.36277294234898
 20
136.0364054235329
 11
148.38370609359401
 21
135.95744119013489
  0
LINE
  8
_0-0_
  6
CONTINUOUS
 62
  250
 10
148.38370609359401
 20
135.95744119013489
 11
148.41045665817001
 21
135.87118134821591
  0
LINE
  8
_0-0_
  6
CONTINUOUS
 62
  250
 10
148.41045665817001
 20
135.87118134821591
 11
148.44345378951695
 21
135.7813929113259
  0
LINE
  8
_0-0_
  6
CONTINUOUS
 62
  250
 10
148.44345378951695
 20
135.7813929113259
 11
148.48317432479598
 21
135.6917713674419
  0
LINE
  8
_0-0_
  6
CONTINUOUS
 62
  250
 10
148.48317432479598
 20
135.6917713674419
 11
148.52999973373102
 21
135.60610757197088
  0
LINE
  8
_0-0_
  6
CONTINUOUS
 62
  250
 10
148.52999973373102
 20
135.60610757197088
 11
148.58440685348199
 21
135.52809701288891
  0
LINE
  8
_0-0_
  6
CONTINUOUS
 62
  250
 10
148.58440685348199
 20
135.52809701288891
 11
148.61468601302795
 21
135.49324021662389
  0
LINE
  8
_0-0_
  6
CONTINUOUS
 62
  250
 10
148.61468601302795
 20
135.49324021662389
 11
148.65164089278898
 21
135.45487866724591
  0
LINE
  8
_0-0_
  6
CONTINUOUS
 62
  250
 10
148.65164089278898
 20
135.45487866724591
 11
148.69460392074299
 21
135.41341767634091
  0
LINE
  8
_0-0_
  6
CONTINUOUS
 62
  250
 10
148.69460392074299
 20
135.41341767634091
 11
148.74285984115295
 21
135.3693102392069
  0
LINE
  8
_0-0_
  6
CONTINUOUS
 62
  250
 10
148.74285984115295
 20
135.3693102392069
 11
148.79569339828197
 21
135.32308087671888
  0
LINE
  8
_0-0_
  6
CONTINUOUS
 62
  250
 10
148.79569339828197
 20
135.32308087671888
 11
148.85243702010797
 21
135.27508721674593
  0
LINE
  8
_0-0_
  6
CONTINUOUS
 62
  250
 10
148.85243702010797
 20
135.27508721674593
 11
148.91228008346297
 21
135.22587762201891
  0
LINE
  8
_0-0_
  6
CONTINUOUS
 62
  250
 10
148.91228008346297
 20
135.22587762201891
 11
148.97465038375594
 21
135.17588124598188
  0
LINE
  8
_0-0_
  6
CONTINUOUS
 62
  250
 10
148.97465038375594
 20
135.17588124598188
 11
149.03873729781799
 21
135.12552724207592
  0
LINE
  8
_0-0_
  6
CONTINUOUS
 62
  250
 10
149.03873729781799
 20
135.12552724207592
 11
149.10387325362899
 21
135.0753401311749
  0
LINE
  8
_0-0_
  6
CONTINUOUS
 62
  250
 10
149.10387325362899
 20
135.0753401311749
 11
149.18417263106994
 21
135.01621232355691
  0
LINE
  8
_0-0_
  6
CONTINUOUS
 62
  250
 10
149.18417263106994
 20
135.01621232355691
 11
149.26442432479598
 21
134.95863423670389
  0
LINE
  8
_0-0_
  6
CONTINUOUS
 62
  250
 10
149.26442432479598
 20
134.95863423670389
 11
149.34324550704696
 21
134.9034403356419
  0
LINE
  8
_0-0_
  6
CONTINUOUS
 62
  250
 10
149.34324550704696
 20
134.9034403356419
 11
149.41953945235895
 21
134.8514889272559
  0
LINE
  8
_0-0_
  6
CONTINUOUS
 62
  250
 10
149.41953945235895
 20
134.8514889272559
 11
149.49206638412198
 21
134.80361447657287
  0
LINE
  8
_0-0_
  6
CONTINUOUS
 62
  250
 10
149.49206638412198
 20
134.80361447657287
 11
149.55953884200702
 21
134.76072297419191
  0
LINE
  8
_0-0_
  6
CONTINUOUS
 62
  250
 10
149.55953884200702
 20
134.76072297419191
 11
149.62086010055194
 21
134.7236250432839
  0
LINE
  8
_0-0_
  6
CONTINUOUS
 62
  250
 10
149.62086010055194
 20
134.7236250432839
 11
149.67469501571395
 21
134.69325051630588
  0
LINE
  8
_0-0_
  6
CONTINUOUS
 62
  250
 10
149.67469501571395
 20
134.69325051630588
 11
149.71989917831098
 21
134.6703623327129
  0
LINE
  8
_0-0_
  6
CONTINUOUS
 62
  250
 10
149.71989917831098
 20
134.6703623327129
 11
149.75523281173395
 21
134.65589032496089
  0
LINE
  8
_0-0_
  6
CONTINUOUS
 62
  250
 10
149.75523281173395
 20
134.65589032496089
 11
149.82995319442401
 21
134.61864934290588
  0
LINE
  8
_0-0_
  6
CONTINUOUS
 62
  250
 10
149.82995319442401
 20
134.61864934290588
 11
149.938481331632
 21
134.53944669092792
  0
LINE
  8
_0-0_
  6
CONTINUOUS
 62
  250
 10
149.938481331632
 20
134.53944669092792
 11
150.07232952193903
 21
134.41334710444093
  0
LINE
  8
_0-0_
  6
CONTINUOUS
 62
  250
 10
150.07232952193903
 20
134.41334710444093
 11
150.22310543136302
 21
134.23541531885792
  0
LINE
  8
_0-0_
  6
CONTINUOUS
 62
  250
 10
150.22310543136302
 20
134.23541531885792
 11
150.38232135848693
 21
134.00066838587389
  0
LINE
  8
_0-0_
  6
CONTINUOUS
 62
  250
 10
150.38232135848693
 20
134.00066838587389
 11
150.54153728561096
 21
133.7041710409039
  0
LINE
  8
_0-0_
  6
CONTINUOUS
 62
  250
 10
150.54153728561096
 20
133.7041710409039
 11
150.69231319503498
 21
133.34098801935792
  0
LINE
  8
_0-0_
  6
CONTINUOUS
 62
  250
 10
150.69231319503498
 20
133.34098801935792
 11
150.82616138534198
 21
132.9061363729349
  0
LINE
  8
_0-0_
  6
CONTINUOUS
 62
  250
 10
150.82616138534198
 20
132.9061363729349
 11
150.93464183883398
 21
132.39470467890391
  0
LINE
  8
_0-0_
  6
CONTINUOUS
 62
  250
 10
150.93464183883398
 20
132.39470467890391
 11
151.00940990523998
 21
131.8017099889629
  0
LINE
  8
_0-0_
  6
CONTINUOUS
 62
  250
 10
151.00940990523998
 20
131.8017099889629
 11
151.00940990523998
 21
131.20032296503689
  0
LINE
  8
_0-0_
  6
CONTINUOUS
 62
  250
 10
151.00940990523998
 20
131.20032296503689
 11
149.60803318099698
 21
130.73643193567889
  0
LINE
  8
_0-0_
  6
CONTINUOUS
 62
  250
 10
151.00940990523998
 20
131.38061509455389
 11
149.68723583297398
 21
130.94588265741987
  0
LINE
  8
_0-0_
  6
CONTINUOUS
 62
  250
 10
149.68723583297398
 20
130.94588265741987
 11
151.00940990523998
 21
131.38061509455389
  0
LINE
  8
_0-0_
  6
CONTINUOUS
 62
  250
 10
149.68842792586995
 20
131.01838574732488
 11
151.00926685409198
 21
131.46561131800289
  0
LINE
  8
_0-0_
  6
CONTINUOUS
 62
  250
 10
146.81705761031799
 20
142.44283185328192
 11
152.41150188521999
 21
139.89141927088389
  0
LINE
  8
_0-0_
  6
CONTINUOUS
 62
  250
 10
152.41150188521999
 20
139.89141927088389
 11
152.42280292586995
 21
139.88822446192393
  0
LINE
  8
_0-0_
  6
CONTINUOUS
 62
  250
 10
152.42280292586995
 20
139.88822446192393
 11
152.45365429000594
 21
139.87639890040089
  0
LINE
  8
_0-0_
  6
CONTINUOUS
 62
  250
 10
152.45365429000594
 20
139.87639890040089
 11
152.49947834090901
 21
139.85248551691691
  0
LINE
  8
_0-0_
  6
CONTINUOUS
 62
  250
 10
152.49947834090901
 20
139.85248551691691
 11
152.55564975814497
 21
139.81317029322287
  0
LINE
  8
_0-0_
  6
CONTINUOUS
 62
  250
 10
152.55564975814497
 20
139.81317029322287
 11
152.61759090499601
 21
139.75497231806389
  0
LINE
  8
_0-0_
  6
CONTINUOUS
 62
  250
 10
152.61759090499601
 20
139.75497231806389
 11
152.68058109359401
 21
139.67452988947491
  0
LINE
  8
_0-0_
  6
CONTINUOUS
 62
  250
 10
152.68058109359401
 20
139.67452988947491
 11
152.74013805465393
 21
139.56845746363291
  0
LINE
  8
_0-0_
  6
CONTINUOUS
 62
  250
 10
152.74013805465393
 20
139.56845746363291
 11
152.79158878402399
 21
139.43329797113992
  0
LINE
  8
_0-0_
  6
CONTINUOUS
 62
  250
 10
152.79158878402399
 20
139.43329797113992
 11
152.83030796126997
 21
139.26571355188992
  0
LINE
  8
_0-0_
  6
CONTINUOUS
 62
  250
 10
152.83030796126997
 20
139.26571355188992
 11
152.85176563338894
 21
139.06227097834289
  0
LINE
  8
_0-0_
  6
CONTINUOUS
 62
  250
 10
152.85176563338894
 20
139.06227097834289
 11
152.85176563338894
 21
136.6122816594949
  0
LINE
  8
_0-0_
  6
CONTINUOUS
 62
  250
 10
152.85133647994701
 20
136.61197171534189
 11
152.849858284757
 21
136.6048668416849
  0
LINE
  8
_0-0_
  6
CONTINUOUS
 62
  250
 10
152.849858284757
 20
136.6048668416849
 11
152.84542369918501
 21
136.58524499262492
  0
LINE
  8
_0-0_
  6
CONTINUOUS
 62
  250
 10
152.84542369918501
 20
136.58524499262492
 11
152.83779430465393
 21
136.5555380376689
  0
LINE
  8
_0-0_
  6
CONTINUOUS
 62
  250
 10
152.83779430465393
 20
136.5555380376689
 11
152.82711315231001
 21
136.51820168818088
  0
LINE
  8
_0-0_
  6
CONTINUOUS
 62
  250
 10
152.82711315231001
 20
136.51820168818088
 11
152.81314182357494
 21
136.47571549738586
  0
LINE
  8
_0-0_
  6
CONTINUOUS
 62
  250
 10
152.81314182357494
 20
136.47571549738586
 11
152.79583263473199
 21
136.4304874929299
  0
LINE
  8
_0-0_
  6
CONTINUOUS
 62
  250
 10
152.79583263473199
 20
136.4304874929299
 11
152.77513790206598
 21
136.38502106989489
  0
LINE
  8
_0-0_
  6
CONTINUOUS
 62
  250
 10
152.77513790206598
 20
136.38502106989489
 11
152.75086689071395
 21
136.34177193964592
  0
LINE
  8
_0-0_
  6
CONTINUOUS
 62
  250
 10
152.75086689071395
 20
136.34177193964592
 11
152.72306728439
 21
136.30317197168989
  0
LINE
  8
_0-0_
  6
CONTINUOUS
 62
  250
 10
152.72306728439
 20
136.30317197168989
 11
152.69164371566495
 21
136.27170071924792
  0
LINE
  8
_0-0_
  6
CONTINUOUS
 62
  250
 10
152.69164371566495
 20
136.27170071924792
 11
152.65621471481001
 21
136.24349580134091
  0
LINE
  8
_0-0_
  6
CONTINUOUS
 62
  250
 10
152.65621471481001
 20
136.24349580134091
 11
152.61620807723693
 21
136.21517167414288
  0
LINE
  8
_0-0_
  6
CONTINUOUS
 62
  250
 10
152.61620807723693
 20
136.21517167414288
 11
152.57367420272496
 21
136.1874674352519
  0
LINE
  8
_0-0_
  6
CONTINUOUS
 62
  250
 10
152.57367420272496
 20
136.1874674352519
 11
152.53042507247594
 21
136.16109834040287
  0
LINE
  8
_0-0_
  6
CONTINUOUS
 62
  250
 10
152.53042507247594
 20
136.16109834040287
 11
152.48846340255398
 21
136.13677964533491
  0
LINE
  8
_0-0_
  6
CONTINUOUS
 62
  250
 10
152.48846340255398
 20
136.13677964533491
 11
152.44983959273998
 21
136.11529813135792
  0
LINE
  8
_0-0_
  6
CONTINUOUS
 62
  250
 10
152.44983959273998
 20
136.11529813135792
 11
152.41631794051793
 21
136.09729752863586
  0
LINE
  8
_0-0_
  6
CONTINUOUS
 62
  250
 10
152.41631794051793
 20
136.09729752863586
 11
152.38999652938494
 21
136.08356461847893
  0
LINE
  8
_0-0_
  6
CONTINUOUS
 62
  250
 10
152.38999652938494
 20
136.08356461847893
 11
152.37278270797398
 21
136.07479081476788
  0
LINE
  8
_0-0_
  6
CONTINUOUS
 62
  250
 10
152.37278270797398
 20
136.07479081476788
 11
152.36663150863299
 21
136.07169137323987
  0
LINE
  8
_0-0_
  6
CONTINUOUS
 62
  250
 10
152.36663150863299
 20
136.07169137323987
 11
152.36663150863299
 21
135.34530148829089
  0
LINE
  8
_0-0_
  6
CONTINUOUS
 62
  250
 10
152.36663150863299
 20
135.34530148829089
 11
152.36515331344299
 21
135.3369806798809
  0
LINE
  8
_0-0_
  6
CONTINUOUS
 62
  250
 10
152.36515331344299
 20
135.3369806798809
 11
152.360957146451
 21
135.31397328699688
  0
LINE
  8
_0-0_
  6
CONTINUOUS
 62
  250
 10
152.360957146451
 20
135.31397328699688
 11
152.35375690536193
 21
135.27930722559589
  0
LINE
  8
_0-0_
  6
CONTINUOUS
 62
  250
 10
152.35375690536193
 20
135.27930722559589
 11
152.34369564132396
 21
135.23596272791491
  0
LINE
  8
_0-0_
  6
CONTINUOUS
 62
  250
 10
152.34369564132396
 20
135.23596272791491
 11
152.33067798690502
 21
135.18696770990988
  0
LINE
  8
_0-0_
  6
CONTINUOUS
 62
  250
 10
152.33067798690502
 20
135.18696770990988
 11
152.31470394210493
 21
135.13530240381888
  0
LINE
  8
_0-0_
  6
CONTINUOUS
 62
  250
 10
152.31470394210493
 20
135.13530240381888
 11
152.29572582320898
 21
135.08397088373789
  0
LINE
  8
_0-0_
  6
CONTINUOUS
 62
  250
 10
152.29572582320898
 20
135.08397088373789
 11
152.27379131393093
 21
135.03597722376492
  0
LINE
  8
_0-0_
  6
CONTINUOUS
 62
  250
 10
152.27379131393093
 20
135.03597722376492
 11
152.248805046841
 21
134.99430165613791
  0
LINE
  8
_0-0_
  6
CONTINUOUS
 62
  250
 10
152.248805046841
 20
134.99430165613791
 11
152.22076702193903
 21
134.96197209681188
  0
LINE
  8
_0-0_
  6
CONTINUOUS
 62
  250
 10
152.22076702193903
 20
134.96197209681188
 11
152.16221141891194
 21
134.93314729059787
  0
LINE
  8
_0-0_
  6
CONTINUOUS
 62
  250
 10
152.16221141891194
 20
134.93314729059787
 11
152.05573368148498
 21
134.90098462427787
  0
LINE
  8
_0-0_
  6
CONTINUOUS
 62
  250
 10
152.05573368148498
 20
134.90098462427787
 11
151.91416072921493
 21
134.8669861348979
  0
LINE
  8
_0-0_
  6
CONTINUOUS
 62
  250
 10
151.91416072921493
 20
134.8669861348979
 11
151.75017643050799
 21
134.83265385950688
  0
LINE
  8
_0-0_
  6
CONTINUOUS
 62
  250
 10
151.75017643050799
 20
134.83265385950688
 11
151.57651233749095
 21
134.79948983515391
  0
LINE
  8
_0-0_
  6
CONTINUOUS
 62
  250
 10
151.57651233749095
 20
134.79948983515391
 11
151.40585231856994
 21
134.7689960988869
  0
LINE
  8
_0-0_
  6
CONTINUOUS
 62
  250
 10
151.40585231856994
 20
134.7689960988869
 11
151.25102329330096
 21
134.74265084589592
  0
LINE
  8
_0-0_
  6
CONTINUOUS
 62
  250
 10
151.25102329330096
 20
134.74265084589592
 11
151.12461376266194
 21
134.7219799550879
  0
LINE
  8
_0-0_
  6
CONTINUOUS
 62
  250
 10
151.12461376266194
 20
134.7219799550879
 11
151.03949832992294
 21
134.70848546351093
  0
LINE
  8
_0-0_
  6
CONTINUOUS
 62
  250
 10
151.03949832992294
 20
134.70848546351093
 11
151.00826549606001
 21
134.70364556635491
  0
LINE
  8
_0-0_
  6
CONTINUOUS
 62
  250
 10
152.017205239102
 20
134.89211545313489
 11
152.017205239102
 21
133.31433282221488
  0
LINE
  8
_0-0_
  6
CONTINUOUS
 62
  250
 10
152.017205239102
 20
133.31433282221488
 11
152.01658535079696
 21
133.30794320429487
  0
LINE
  8
_0-0_
  6
CONTINUOUS
 62
  250
 10
152.01658535079696
 20
133.30794320429487
 11
152.01386737899495
 21
133.29072938288388
  0
LINE
  8
_0-0_
  6
CONTINUOUS
 62
  250
 10
152.01386737899495
 20
133.29072938288388
 11
152.00747776107494
 21
133.26581464136791
  0
LINE
  8
_0-0_
  6
CONTINUOUS
 62
  250
 10
152.00747776107494
 20
133.26581464136791
 11
151.99593830184597
 21
133.2362030538429
  0
LINE
  8
_0-0_
  6
CONTINUOUS
 62
  250
 10
151.99593830184597
 20
133.2362030538429
 11
151.97777080611897
 21
133.20497021998091
  0
LINE
  8
_0-0_
  6
CONTINUOUS
 62
  250
 10
151.97777080611897
 20
133.20497021998091
 11
151.95149707870198
 21
133.1751440557349
  0
LINE
  8
_0-0_
  6
CONTINUOUS
 62
  250
 10
151.95149707870198
 20
133.1751440557349
 11
151.91559124068903
 21
133.1497763189189
  0
LINE
  8
_0-0_
  6
CONTINUOUS
 62
  250
 10
151.91559124068903
 20
133.1497763189189
 11
151.86857509689
 21
133.13194260920187
  0
LINE
  8
_0-0_
  6
CONTINUOUS
 62
  250
 10
151.86857509689
 20
133.13194260920187
 11
151.80897045211498
 21
133.12467084253888
  0
LINE
  8
_0-0_
  6
CONTINUOUS
 62
  250
 10
151.80897045211498
 20
133.12467084253888
 11
151.73525142745694
 21
133.13098893488586
  0
LINE
  8
_0-0_
  6
CONTINUOUS
 62
  250
 10
151.73525142745694
 20
133.13098893488586
 11
151.66291523055699
 21
133.14007268274889
  0
LINE
  8
_0-0_
  6
CONTINUOUS
 62
  250
 10
151.66291523055699
 20
133.14007268274889
 11
151.608078957364
 21
133.13842759455389
  0
LINE
  8
_0-0_
  6
CONTINUOUS
 62
  250
 10
151.608078957364
 20
133.13842759455389
 11
151.56878757552795
 21
133.12772260035192
  0
LINE
  8
_0-0_
  6
CONTINUOUS
 62
  250
 10
151.56878757552795
 20
133.12772260035192
 11
151.54322910384801
 21
133.10962663019788
  0
LINE
  8
_0-0_
  6
CONTINUOUS
 62
  250
 10
151.54322910384801
 20
133.10962663019788
 11
151.52949619369195
 21
133.0858801397199
  0
LINE
  8
_0-0_
  6
CONTINUOUS
 62
  250
 10
151.52949619369195
 20
133.0858801397199
 11
151.52572918014195
 21
133.05812821711191
  0
LINE
  8
_0-0_
  6
CONTINUOUS
 62
  250
 10
151.52572918014195
 20
133.05812821711191
 11
151.53006839828197
 21
133.0280159505719
  0
LINE
  8
_0-0_
  6
CONTINUOUS
 62
  250
 10
151.53006839828197
 20
133.0280159505719
 11
151.54055881576198
 21
132.99730763758294
  0
LINE
  8
_0-0_
  6
CONTINUOUS
 62
  250
 10
151.54055881576198
 20
132.99730763758294
 11
151.55543613509801
 21
132.9676722082009
  0
LINE
  8
_0-0_
  6
CONTINUOUS
 62
  250
 10
151.55543613509801
 20
132.9676722082009
 11
151.57274532394098
 21
132.94073090876293
  0
LINE
  8
_0-0_
  6
CONTINUOUS
 62
  250
 10
151.57274532394098
 20
132.94073090876293
 11
151.59978199081098
 21
132.8912828954569
  0
LINE
  8
_0-0_
  6
CONTINUOUS
 62
  250
 10
151.59978199081098
 20
132.8912828954569
 11
151.63978862838397
 21
132.80156598414089
  0
LINE
  8
_0-0_
  6
CONTINUOUS
 62
  250
 10
151.63978862838397
 20
132.80156598414089
 11
151.683800698087
 21
132.68187985743191
  0
LINE
  8
_0-0_
  6
CONTINUOUS
 62
  250
 10
151.683800698087
 20
132.68187985743191
 11
151.72271061019592
 21
132.54264340723691
  0
LINE
  8
_0-0_
  6
CONTINUOUS
 62
  250
 10
151.72271061019592
 20
132.54264340723691
 11
151.74741077499095
 21
132.39420399988791
  0
LINE
  8
_0-0_
  6
CONTINUOUS
 62
  250
 10
151.74741077499095
 20
132.39420399988791
 11
151.74884128646494
 21
132.24693284357687
  0
LINE
  8
_0-0_
  6
CONTINUOUS
 62
  250
 10
151.74884128646494
 20
132.24693284357687
 11
151.717942238614
 21
132.1111773046369
  0
LINE
  8
_0-0_
  6
CONTINUOUS
 62
  250
 10
151.717942238614
 20
132.1111773046369
 11
151.64570140914594
 21
131.99735627497287
  0
LINE
  8
_0-0_
  6
CONTINUOUS
 62
  250
 10
151.64570140914594
 20
131.99735627497287
 11
151.52301120833994
 21
131.91579327906291
  0
LINE
  8
_0-0_
  6
CONTINUOUS
 62
  250
 10
151.52301120833994
 20
131.91579327906291
 11
151.34081173019098
 21
131.87683568323789
  0
LINE
  8
_0-0_
  6
CONTINUOUS
 62
  250
 10
151.34081173019098
 20
131.87683568323789
 11
151.32130909042098
 21
131.87869534815491
  0
LINE
  8
_0-0_
  6
CONTINUOUS
 62
  250
 10
151.32130909042098
 20
131.87869534815491
 11
151.27000141219798
 21
131.88899503077189
  0
LINE
  8
_0-0_
  6
CONTINUOUS
 62
  250
 10
151.27000141219798
 20
131.88899503077189
 11
151.19771289901394
 21
131.91488728846193
  0
LINE
  8
_0-0_
  6
CONTINUOUS
 62
  250
 10
151.19771289901394
 20
131.91488728846193
 11
151.11512470321395
 21
131.96350083674091
  0
LINE
  8
_0-0_
  6
CONTINUOUS
 62
  250
 10
151.11512470321395
 20
131.96350083674091
 11
151.03315639571795
 21
132.04194054926492
  0
LINE
  8
_0-0_
  6
CONTINUOUS
 62
  250
 10
151.03315639571795
 20
132.04194054926492
 11
150.96248912887296
 21
132.1573351415509
  0
LINE
  8
_0-0_
  6
CONTINUOUS
 62
  250
 10
150.96248912887296
 20
132.1573351415509
 11
150.91399478988299
 21
132.31681332911191
  0
LINE
  8
_0-0_
  6
CONTINUOUS
 62
  250
 10
150.91399478988299
 20
132.31681332911191
 11
150.89830684737899
 21
132.5275038274639
  0
LINE
  8
_0-0_
  6
CONTINUOUS
 62
  250
 10
150.89830684737899
 20
132.5275038274639
 11
150.92634487228099
 21
132.79651151026388
  0
LINE
  8
_0-0_
  6
CONTINUOUS
 62
  250
 10
150.92634487228099
 20
132.79651151026388
 11
151.00883770064996
 21
133.13098893488586
  0
LINE
  8
_0-0_
  6
CONTINUOUS
 62
  250
 10
151.00883770064996
 20
133.13098893488586
 11
151.01017284469299
 21
133.13795075739489
  0
LINE
  8
_0-0_
  6
CONTINUOUS
 62
  250
 10
151.01017284469299
 20
133.13795075739489
 11
151.01360607223199
 21
133.15750108088187
  0
LINE
  8
_0-0_
  6
CONTINUOUS
 62
  250
 10
151.01360607223199
 20
133.15750108088187
 11
151.01827907638202
 21
133.18768487299593
  0
LINE
  8
_0-0_
  6
CONTINUOUS
 62
  250
 10
151.01827907638202
 20
133.18768487299593
 11
151.02323818282795
 21
133.22652325953192
  0
LINE
  8
_0-0_
  6
CONTINUOUS
 62
  250
 10
151.02323818282795
 20
133.22652325953192
 11
151.02762508468297
 21
133.27196584070794
  0
LINE
  8
_0-0_
  6
CONTINUOUS
 62
  250
 10
151.02762508468297
 20
133.27196584070794
 11
151.03043842391699
 21
133.32210526789288
  0
LINE
  8
_0-0_
  6
CONTINUOUS
 62
  250
 10
151.03043842391699
 20
133.32210526789288
 11
151.03086757735895
 21
133.37491498316388
  0
LINE
  8
_0-0_
  6
CONTINUOUS
 62
  250
 10
151.03086757735895
 20
133.37491498316388
 11
151.02805423812597
 21
133.42841611231489
  0
LINE
  8
_0-0_
  6
CONTINUOUS
 62
  250
 10
151.02805423812597
 20
133.42841611231489
 11
151.02099704818394
 21
133.48065362299593
  0
LINE
  8
_0-0_
  6
CONTINUOUS
 62
  250
 10
151.02099704818394
 20
133.48065362299593
 11
151.00883770064996
 21
133.52962479914288
  0
LINE
  8
_0-0_
  6
CONTINUOUS
 62
  250
 10
151.00883770064996
 20
133.52962479914288
 11
151.00364017562597
 21
133.54793534601788
  0
LINE
  8
_0-0_
  6
CONTINUOUS
 62
  250
 10
151.00364017562597
 20
133.54793534601788
 11
150.99720287398998
 21
133.56526837671888
  0
LINE
  8
_0-0_
  6
CONTINUOUS
 62
  250
 10
150.99720287398998
 20
133.56526837671888
 11
150.98943042831098
 21
133.58150468195589
  0
LINE
  8
_0-0_
  6
CONTINUOUS
 62
  250
 10
150.98943042831098
 20
133.58150468195589
 11
150.98041820602094
 21
133.59652505243889
  0
LINE
  8
_0-0_
  6
CONTINUOUS
 62
  250
 10
150.98041820602094
 20
133.59652505243889
 11
150.97011852340393
 21
133.6101625951639
  0
LINE
  8
_0-0_
  6
CONTINUOUS
 62
  250
 10
150.97011852340393
 20
133.6101625951639
 11
150.95857906417498
 21
133.62232194269788
  0
LINE
  8
_0-0_
  6
CONTINUOUS
 62
  250
 10
150.95857906417498
 20
133.62232194269788
 11
150.94570446090393
 21
133.63281236017889
  0
LINE
  8
_0-0_
  6
CONTINUOUS
 62
  250
 10
150.94570446090393
 20
133.63281236017889
 11
150.93149471358993
 21
133.64158616388889
  0
LINE
  8
_0-0_
  6
CONTINUOUS
 62
  250
 10
150.93149471358993
 20
133.64158616388889
 11
150.91594982223199
 21
133.6484287771099
  0
LINE
  8
_0-0_
  6
CONTINUOUS
 62
  250
 10
150.91594982223199
 20
133.6484287771099
 11
150.89916515426296
 21
133.6532209905499
  0
LINE
  8
_0-0_
  6
CONTINUOUS
 62
  250
 10
150.89916515426296
 20
133.6532209905499
 11
150.83808231429794
 21
133.66871819819093
  0
LINE
  8
_0-0_
  6
CONTINUOUS
 62
  250
 10
150.83808231429794
 20
133.66871819819093
 11
150.77966976241797
 21
133.6840961965429
  0
LINE
  8
_0-0_
  6
CONTINUOUS
 62
  250
 10
150.77966976241797
 20
133.6840961965429
 11
150.72478580550799
 21
133.69899735773691
  0
LINE
  8
_0-0_
  6
CONTINUOUS
 62
  250
 10
150.72478580550799
 20
133.69899735773691
 11
150.67428875045499
 21
133.7130878957619
  0
LINE
  8
_0-0_
  6
CONTINUOUS
 62
  250
 10
150.67428875045499
 20
133.7130878957619
 11
150.62913227157298
 21
133.72596249903393
  0
LINE
  8
_0-0_
  6
CONTINUOUS
 62
  250
 10
150.62913227157298
 20
133.72596249903393
 11
150.59022235946395
 21
133.73733506525687
  0
LINE
  8
_0-0_
  6
CONTINUOUS
 62
  250
 10
150.59022235946395
 20
133.73733506525687
 11
150.55841732101101
 21
133.7467764409889
  0
LINE
  8
_0-0_
  6
CONTINUOUS
 62
  250
 10
150.55841732101101
 20
133.7467764409889
 11
150.53452777938494
 21
133.75397668207791
  0
LINE
  8
_0-0_
  6
CONTINUOUS
 62
  250
 10
150.53452777938494
 20
133.75397668207791
 11
150.51960277633398
 21
133.75855431879691
  0
LINE
  8
_0-0_
  6
CONTINUOUS
 62
  250
 10
150.51960277633398
 20
133.75855431879691
 11
150.51440525130894
 21
133.76017556513489
  0
LINE
  8
_0-0_
  6
CONTINUOUS
 62
  250
 10
149.65857791976597
 20
131.38061509455389
 11
151.009934426114
 21
131.8028305562849
  0
LINE
  8
_0-0_
  6
CONTINUOUS
 62
  250
 10
145.53798961715393
 20
142.0209978612769
 11
146.88939380721698
 21
142.44323716486591
  0
LINE
  8
_0-0_
  6
CONTINUOUS
 62
  250
 10
147.88035678939497
 20
133.15878854120891
 11
147.86609935836498
 21
132.92284951532991
  0
LINE
  8
_0-0_
  6
CONTINUOUS
 62
  250
 10
147.86609935836498
 20
132.92284951532991
 11
147.82466220931695
 21
132.71385178888889
  0
LINE
  8
_0-0_
  6
CONTINUOUS
 62
  250
 10
147.82466220931695
 20
132.71385178888889
 11
147.75847721175799
 21
132.53365502680492
  0
LINE
  8
_0-0_
  6
CONTINUOUS
 62
  250
 10
147.75847721175799
 20
132.53365502680492
 11
147.66964244918501
 21
132.38423810328192
  0
LINE
  8
_0-0_
  6
CONTINUOUS
 62
  250
 10
147.66964244918501
 20
132.38423810328192
 11
147.56039905624095
 21
132.26746068323789
  0
LINE
  8
_0-0_
  6
CONTINUOUS
 62
  250
 10
147.56039905624095
 20
132.26746068323789
 11
147.43308353500097
 21
132.18530164087892
  0
LINE
  8
_0-0_
  6
CONTINUOUS
 62
  250
 10
147.43308353500097
 20
132.18530164087892
 11
147.28984165267596
 21
132.13959679926492
  0
LINE
  8
_0-0_
  6
CONTINUOUS
 62
  250
 10
147.28984165267596
 20
132.13959679926492
 11
147.13296222762793
 21
132.13232503260289
  0
LINE
  8
_0-0_
  6
CONTINUOUS
 62
  250
 10
147.13296222762793
 20
132.13232503260289
 11
146.96473407821395
 21
132.16541753138188
  0
LINE
  8
_0-0_
  6
CONTINUOUS
 62
  250
 10
146.96473407821395
 20
132.16541753138188
 11
146.78730297164594
 21
132.24073396051989
  0
LINE
  8
_0-0_
  6
CONTINUOUS
 62
  250
 10
146.78730297164594
 20
132.24073396051989
 11
146.60991954879501
 21
132.35388741816189
  0
LINE
  8
_0-0_
  6
CONTINUOUS
 62
  250
 10
146.60991954879501
 20
132.35388741816189
 11
146.44164371566495
 21
132.4996565374249
  0
LINE
  8
_0-0_
  6
CONTINUOUS
 62
  250
 10
146.44164371566495
 20
132.4996565374249
 11
146.28481197433194
 21
132.67379746759991
  0
LINE
  8
_0-0_
  6
CONTINUOUS
 62
  250
 10
146.28481197433194
 20
132.67379746759991
 11
146.14157009200702
 21
132.8719471486919
  0
LINE
  8
_0-0_
  6
CONTINUOUS
 62
  250
 10
146.14157009200702
 20
132.8719471486919
 11
146.01420688705096
 21
133.0898617299909
  0
LINE
  8
_0-0_
  6
CONTINUOUS
 62
  250
 10
146.01420688705096
 20
133.0898617299909
 11
145.90501117782298
 21
133.32322583521488
  0
LINE
  8
_0-0_
  6
CONTINUOUS
 62
  250
 10
145.90501117782298
 20
133.32322583521488
 11
145.81612873153401
 21
133.5677717717999
  0
LINE
  8
_0-0_
  6
CONTINUOUS
 62
  250
 10
145.81612873153401
 20
133.5677717717999
 11
145.74994373397496
 21
133.81916032160393
  0
LINE
  8
_0-0_
  6
CONTINUOUS
 62
  250
 10
145.74994373397496
 20
133.81916032160393
 11
145.70850658492694
 21
134.07317147577891
  0
LINE
  8
_0-0_
  6
CONTINUOUS
 62
  250
 10
145.70850658492694
 20
134.07317147577891
 11
145.69424915389703
 21
134.3254421743259
  0
LINE
  8
_0-0_
  6
CONTINUOUS
 62
  250
 10
145.69424915389703
 20
134.3254421743259
 11
145.70850658492694
 21
134.56026063288388
  0
LINE
  8
_0-0_
  6
CONTINUOUS
 62
  250
 10
145.70850658492694
 20
134.56026063288388
 11
145.74994373397496
 21
134.76837621058087
  0
LINE
  8
_0-0_
  6
CONTINUOUS
 62
  250
 10
145.74994373397496
 20
134.76837621058087
 11
145.81612873153401
 21
134.94792924250288
  0
LINE
  8
_0-0_
  6
CONTINUOUS
 62
  250
 10
145.81612873153401
 20
134.94792924250288
 11
145.90501117782298
 21
135.09691701258294
  0
LINE
  8
_0-0_
  6
CONTINUOUS
 62
  250
 10
145.90501117782298
 20
135.09691701258294
 11
146.01420688705096
 21
135.21345601404789
  0
LINE
  8
_0-0_
  6
CONTINUOUS
 62
  250
 10
146.01420688705096
 20
135.21345601404789
 11
146.14157009200702
 21
135.29563889826389
  0
LINE
  8
_0-0_
  6
CONTINUOUS
 62
  250
 10
146.14157009200702
 20
135.29563889826389
 11
146.28481197433194
 21
135.34153447474188
  0
LINE
  8
_0-0_
  6
CONTINUOUS
 62
  250
 10
146.28481197433194
 20
135.34153447474188
 11
146.44164371566495
 21
135.3491877111309
  0
LINE
  8
_0-0_
  6
CONTINUOUS
 62
  250
 10
146.44164371566495
 20
135.3491877111309
 11
146.60991954879501
 21
135.31669125879893
  0
LINE
  8
_0-0_
  6
CONTINUOUS
 62
  250
 10
146.60991954879501
 20
135.31669125879893
 11
146.78730297164594
 21
135.2421139272559
  0
LINE
  8
_0-0_
  6
CONTINUOUS
 62
  250
 10
146.78730297164594
 20
135.2421139272559
 11
146.96473407821395
 21
135.12862668360393
  0
LINE
  8
_0-0_
  6
CONTINUOUS
 62
  250
 10
146.96473407821395
 20
135.12862668360393
 11
147.13296222762793
 21
134.9826429876199
  0
LINE
  8
_0-0_
  6
CONTINUOUS
 62
  250
 10
147.13296222762793
 20
134.9826429876199
 11
147.28984165267596
 21
134.80850205744389
  0
LINE
  8
_0-0_
  6
CONTINUOUS
 62
  250
 10
147.28984165267596
 20
134.80850205744389
 11
147.43308353500097
 21
134.61037621821089
  0
LINE
  8
_0-0_
  6
CONTINUOUS
 62
  250
 10
147.43308353500097
 20
134.61037621821089
 11
147.56039905624095
 21
134.39265237177491
  0
LINE
  8
_0-0_
  6
CONTINUOUS
 62
  250
 10
147.56039905624095
 20
134.39265237177491
 11
147.66964244918501
 21
134.15952668512989
  0
LINE
  8
_0-0_
  6
CONTINUOUS
 62
  250
 10
147.66964244918501
 20
134.15952668512989
 11
147.75847721175799
 21
133.91529069269788
  0
LINE
  8
_0-0_
  6
CONTINUOUS
 62
  250
 10
147.75847721175799
 20
133.91529069269788
 11
147.82466220931695
 21
133.6642597707619
  0
LINE
  8
_0-0_
  6
CONTINUOUS
 62
  250
 10
147.82466220931695
 20
133.6642597707619
 11
147.86609935836498
 21
133.41065392817191
  0
LINE
  8
_0-0_
  6
CONTINUOUS
 62
  250
 10
147.86609935836498
 20
133.41065392817191
 11
147.88035678939497
 21
133.15878854120891
  0
LINE
  8
_0-0_
  6
CONTINUOUS
 62
  250
 10
146.91743183211995
 20
135.12683854426086
 11
146.93054485396999
 21
135.06899819697088
  0
LINE
  8
_0-0_
  6
CONTINUOUS
 62
  250
 10
146.93054485396999
 20
135.06899819697088
 11
146.94222736434597
 21
134.9724148305759
  0
LINE
  8
_0-0_
  6
CONTINUOUS
 62
  250
 10
146.94222736434597
 20
134.9724148305759
 11
146.95267009811096
 21
134.84769807184787
  0
LINE
  8
_0-0_
  6
CONTINUOUS
 62
  250
 10
146.95267009811096
 20
134.84769807184787
 11
146.961682320401
 21
134.70538602198292
  0
LINE
  8
_0-0_
  6
CONTINUOUS
 62
  250
 10
146.961682320401
 20
134.70538602198292
 11
146.96931171493199
 21
134.5560167821759
  0
LINE
  8
_0-0_
  6
CONTINUOUS
 62
  250
 10
146.96931171493199
 20
134.5560167821759
 11
146.97565364913601
 21
134.41015229548091
  0
LINE
  8
_0-0_
  6
CONTINUOUS
 62
  250
 10
146.97565364913601
 20
134.41015229548091
 11
146.98056507186595
 21
134.27833066309589
  0
LINE
  8
_0-0_
  6
CONTINUOUS
 62
  250
 10
146.98056507186595
 20
134.27833066309589
 11
146.98404598312101
 21
134.17111382807391
  0
LINE
  8
_0-0_
  6
CONTINUOUS
 62
  250
 10
146.98404598312101
 20
134.17111382807391
 11
146.98614406661702
 21
134.09903989161191
  0
LINE
  8
_0-0_
  6
CONTINUOUS
 62
  250
 10
146.98614406661702
 20
134.09903989161191
 11
146.98685932235395
 21
134.07267079676291
  0
LINE
  8
_0-0_
  6
CONTINUOUS
 62
  250
 10
146.98685932235395
 20
134.07267079676291
 11
147.79104518966398
 21
133.38101849878888
  0
LINE
  8
_0-0_
  6
CONTINUOUS
 62
  250
 10
147.79104518966398
 20
133.38101849878888
 11
147.75633144454696
 21
133.14908490503888
  0
LINE
  8
_0-0_
  6
CONTINUOUS
 62
  250
 10
147.75633144454696
 20
133.14908490503888
 11
146.97574901656799
 21
133.2657431157939
  0
LINE
  8
_0-0_
  6
CONTINUOUS
 62
  250
 10
146.97574901656799
 20
133.2657431157939
 11
146.84800434188494
 21
132.22685799921689
  0
LINE
  8
_0-0_
  6
CONTINUOUS
 62
  250
 10
146.560662270352
 20
132.42767796839391
 11
146.54726314620694
 21
132.48322949732488
  0
LINE
  8
_0-0_
  6
CONTINUOUS
 62
  250
 10
146.54726314620694
 20
132.48322949732488
 11
146.53543758468297
 21
132.5763557943219
  0
LINE
  8
_0-0_
  6
CONTINUOUS
 62
  250
 10
146.53543758468297
 20
132.5763557943219
 11
146.52513790206598
 21
132.69687638605691
  0
LINE
  8
_0-0_
  6
CONTINUOUS
 62
  250
 10
146.52513790206598
 20
132.69687638605691
 11
146.516268730924
 21
132.8345154317729
  0
LINE
  8
_0-0_
  6
CONTINUOUS
 62
  250
 10
146.516268730924
 20
132.8345154317729
 11
146.50887775497097
 21
132.97906861628192
  0
LINE
  8
_0-0_
  6
CONTINUOUS
 62
  250
 10
146.50887775497097
 20
132.97906861628192
 11
146.50291729049397
 21
133.12028394068392
  0
LINE
  8
_0-0_
  6
CONTINUOUS
 62
  250
 10
146.50291729049397
 20
133.12028394068392
 11
146.49833965377496
 21
133.24790940607687
  0
LINE
  8
_0-0_
  6
CONTINUOUS
 62
  250
 10
146.49833965377496
 20
133.24790940607687
 11
146.49509716109898
 21
133.35176453913388
  0
LINE
  8
_0-0_
  6
CONTINUOUS
 62
  250
 10
146.49509716109898
 20
133.35176453913388
 11
146.493189812466
 21
133.4215734990949
  0
LINE
  8
_0-0_
  6
CONTINUOUS
 62
  250
 10
146.493189812466
 20
133.4215734990949
 11
146.49256992416096
 21
133.44710812891589
  0
LINE
  8
_0-0_
  6
CONTINUOUS
 62
  250
 10
146.49256992416096
 20
133.44710812891589
 11
145.71203517989801
 21
134.12071214045187
  0
LINE
  8
_0-0_
  6
CONTINUOUS
 62
  250
 10
145.71203517989801
 20
134.12071214045187
 11
145.745366097257
 21
134.34434876764888
  0
LINE
  8
_0-0_
  6
CONTINUOUS
 62
  250
 10
145.745366097257
 20
134.34434876764888
 11
146.50234508590393
 21
134.23460469568889
  0
LINE
  8
_0-0_
  6
CONTINUOUS
 62
  250
 10
146.50234508590393
 20
134.23460469568889
 11
146.62870693282795
 21
135.24156556452388
  0
LINE
  8
_0-0_
  6
CONTINUOUS
 62
  250
 10
146.49147319869701
 20
133.4476803335059
 11
147.25260067062101
 21
133.7587927373759
  0
LINE
  8
_0-0_
  6
CONTINUOUS
 62
  250
 10
147.00693416671493
 20
133.29170689905789
 11
147.33328151778898
 21
133.7694738897199
  0
LINE
  8
_0-0_
  6
CONTINUOUS
 62
  250
 10
146.52818965987899
 20
134.2315529378759
 11
147.00040149764703
 21
134.31211457575489
  0
LINE
  8
_0-0_
  6
CONTINUOUS
 62
  250
 10
146.50234508590393
 20
134.21531663263889
 11
147.20925617294
 21
133.8291977437849
  0
LINE
  8
_0-0_
  6
CONTINUOUS
 62
  250
 10
151.48147869186096
 20
129.9862955602519
 11
150.13427066878995
 21
130.73628888453192
  0
LINE
  8
_0-0_
  6
CONTINUOUS
 62
  250
 10
151.77721309737899
 20
131.0590599569189
 11
151.51886272506403
 21
131.59099564875288
  0
LINE
  8
_0-0_
  6
CONTINUOUS
 62
  250
 10
266.77011776046493
 20
168.14001546228991
 11
266.84207248763698
 21
168.13429341639193
  0
LINE
  8
_0-0_
  6
CONTINUOUS
 62
  250
 10
266.84207248763698
 20
168.13429341639193
 11
266.89914989547401
 21
168.18436131800289
  0
LINE
  8
_0-0_
  6
CONTINUOUS
 62
  250
 10
266.89914989547401
 20
168.18436131800289
 11
266.94297123031293
 21
168.2771776708469
  0
LINE
  8
_0-0_
  6
CONTINUOUS
 62
  250
 10
266.94297123031293
 20
168.2771776708469
 11
266.97525310592403
 21
168.39977250422191
  0
LINE
  8
_0-0_
  6
CONTINUOUS
 62
  250
 10
266.97525310592403
 20
168.39977250422191
 11
266.99790287093793
 21
168.53917584742192
  0
LINE
  8
_0-0_
  6
CONTINUOUS
 62
  250
 10
266.99790287093793
 20
168.53917584742192
 11
267.01254177169494
 21
168.68234620417289
  0
LINE
  8
_0-0_
  6
CONTINUOUS
 62
  250
 10
267.01254177169494
 20
168.68234620417289
 11
267.02083873824796
 21
168.81628976191189
  0
LINE
  8
_0-0_
  6
CONTINUOUS
 62
  250
 10
267.02083873824796
 20
168.81628976191189
 11
267.02465343551296
 21
168.92806039179487
  0
LINE
  8
_0-0_
  6
CONTINUOUS
 62
  250
 10
267.02465343551296
 20
168.92806039179487
 11
267.02579784469299
 21
169.00468812311789
  0
LINE
  8
_0-0_
  6
CONTINUOUS
 62
  250
 10
267.02579784469299
 20
169.00468812311789
 11
267.02570247726101
 21
169.03308377588888
  0
LINE
  8
_0-0_
  6
CONTINUOUS
 62
  250
 10
267.02570247726101
 20
169.03308377588888
 11
267.10757541732494
 21
169.0872524770609
  0
LINE
  8
_0-0_
  6
CONTINUOUS
 62
  250
 10
267.10757541732494
 20
169.0872524770609
 11
267.39095974044494
 21
169.40392003382391
  0
LINE
  8
_0-0_
  6
CONTINUOUS
 62
  250
 10
267.39095974044494
 20
169.40392003382391
 11
267.41852092818903
 21
169.4223021062719
  0
LINE
  8
_0-0_
  6
CONTINUOUS
 62
  250
 10
267.41852092818903
 20
169.4223021062719
 11
267.44150447921493
 21
169.44914803827891
  0
LINE
  8
_0-0_
  6
CONTINUOUS
 62
  250
 10
267.44150447921493
 20
169.44914803827891
 11
267.46024417953197
 21
169.48200211847893
  0
LINE
  8
_0-0_
  6
CONTINUOUS
 62
  250
 10
267.46024417953197
 20
169.48200211847893
 11
267.47521686629898
 21
169.51843247736591
  0
LINE
  8
_0-0_
  6
CONTINUOUS
 62
  250
 10
267.47521686629898
 20
169.51843247736591
 11
267.48675632552795
 21
169.55600724543191
  0
LINE
  8
_0-0_
  6
CONTINUOUS
 62
  250
 10
267.48675632552795
 20
169.55600724543191
 11
267.49533939437595
 21
169.59224686945589
  0
LINE
  8
_0-0_
  6
CONTINUOUS
 62
  250
 10
267.49533939437595
 20
169.59224686945589
 11
267.50134754256896
 21
169.6246717962139
  0
LINE
  8
_0-0_
  6
CONTINUOUS
 62
  250
 10
267.50134754256896
 20
169.6246717962139
 11
267.50506687240295
 21
169.65085015619891
  0
LINE
  8
_0-0_
  6
CONTINUOUS
 62
  250
 10
267.50506687240295
 20
169.65085015619891
 11
267.50702190475192
 21
169.66835007990491
  0
LINE
  8
_0-0_
  6
CONTINUOUS
 62
  250
 10
267.50702190475192
 20
169.66835007990491
 11
267.50759410934097
 21
169.67476353968289
  0
LINE
  8
_0-0_
  6
CONTINUOUS
 62
  250
 10
267.50759410934097
 20
169.67476353968289
 11
267.50759410934097
 21
172.04695687616987
  0
LINE
  8
_0-0_
  6
CONTINUOUS
 62
  250
 10
267.50759410934097
 20
172.04695687616987
 11
267.50721263961498
 21
172.05160603846193
  0
LINE
  8
_0-0_
  6
CONTINUOUS
 62
  250
 10
267.50721263961498
 20
172.05160603846193
 11
267.50668811874095
 21
172.05644593561789
  0
LINE
  8
_0-0_
  6
CONTINUOUS
 62
  250
 10
267.50668811874095
 20
172.05644593561789
 11
267.50606823043501
 21
172.06140504206292
  0
LINE
  8
_0-0_
  6
CONTINUOUS
 62
  250
 10
267.50606823043501
 20
172.06140504206292
 11
267.50549602584499
 21
172.0664595159399
  0
LINE
  8
_0-0_
  6
CONTINUOUS
 62
  250
 10
267.50549602584499
 20
172.0664595159399
 11
267.50482845382396
 21
172.07160935724889
  0
LINE
  8
_0-0_
  6
CONTINUOUS
 62
  250
 10
267.50482845382396
 20
172.07160935724889
 11
267.50420856551796
 21
172.07687840784689
  0
LINE
  8
_0-0_
  6
CONTINUOUS
 62
  250
 10
267.50420856551796
 20
172.07687840784689
 11
267.503636360928
 21
172.08217130030292
  0
LINE
  8
_0-0_
  6
CONTINUOUS
 62
  250
 10
267.503636360928
 20
172.08217130030292
 11
267.50301647262296
 21
172.08755956019093
  0
LINE
  8
_0-0_
  6
CONTINUOUS
 62
  250
 10
267.50301647262296
 20
172.08755956019093
 11
267.50253963546493
 21
172.09294782007791
  0
LINE
  8
_0-0_
  6
CONTINUOUS
 62
  250
 10
267.50253963546493
 20
172.09294782007791
 11
267.50201511458994
 21
172.09835992182391
  0
LINE
  8
_0-0_
  6
CONTINUOUS
 62
  250
 10
267.50201511458994
 20
172.09835992182391
 11
267.46997165755897
 21
172.26897225702891
  0
LINE
  8
_0-0_
  6
CONTINUOUS
 62
  250
 10
267.46997165755897
 20
172.26897225702891
 11
267.41751957015697
 21
172.41939053858391
  0
LINE
  8
_0-0_
  6
CONTINUOUS
 62
  250
 10
267.41751957015697
 20
172.41939053858391
 11
267.35028553084999
 21
172.55018697107889
  0
LINE
  8
_0-0_
  6
CONTINUOUS
 62
  250
 10
267.35028553084999
 20
172.55018697107889
 11
267.27380085067398
 21
172.66188607538891
  0
LINE
  8
_0-0_
  6
CONTINUOUS
 62
  250
 10
267.27380085067398
 20
172.66188607538891
 11
267.19369220809597
 21
172.75496468866987
  0
LINE
  8
_0-0_
  6
CONTINUOUS
 62
  250
 10
267.19369220809597
 20
172.75496468866987
 11
267.11563396529903
 21
172.82994733179692
  0
LINE
  8
_0-0_
  6
CONTINUOUS
 62
  250
 10
267.11563396529903
 20
172.82994733179692
 11
267.04520511703197
 21
172.88740620936088
  0
LINE
  8
_0-0_
  6
CONTINUOUS
 62
  250
 10
267.04520511703197
 20
172.88740620936088
 11
266.98798465804794
 21
172.92777047480291
  0
LINE
  8
_0-0_
  6
CONTINUOUS
 62
  250
 10
266.98798465804794
 20
172.92777047480291
 11
266.94950389938094
 21
172.95163617457089
  0
LINE
  8
_0-0_
  6
CONTINUOUS
 62
  250
 10
266.94950389938094
 20
172.95163617457089
 11
266.93538951949796
 21
172.95948014582288
  0
LINE
  8
_0-0_
  6
CONTINUOUS
 62
  250
 10
266.93538951949796
 20
172.95948014582288
 11
261.77982616500594
 21
175.33584580744389
  0
LINE
  8
_0-0_
  6
CONTINUOUS
 62
  250
 10
261.77982616500594
 20
175.33584580744389
 11
261.77682209090898
 21
175.3375862630719
  0
LINE
  8
_0-0_
  6
CONTINUOUS
 62
  250
 10
261.77682209090898
 20
175.3375862630719
 11
261.76819133834499
 21
175.34242616022692
  0
LINE
  8
_0-0_
  6
CONTINUOUS
 62
  250
 10
261.76819133834499
 20
175.34242616022692
 11
261.75445842818903
 21
175.34955487574291
  0
LINE
  8
_0-0_
  6
CONTINUOUS
 62
  250
 10
261.75445842818903
 20
175.34955487574291
 11
261.73614788131403
 21
175.35832867945291
  0
LINE
  8
_0-0_
  6
CONTINUOUS
 62
  250
 10
261.73614788131403
 20
175.35832867945291
 11
261.71383190231001
 21
175.36798463190692
  0
LINE
  8
_0-0_
  6
CONTINUOUS
 62
  250
 10
261.71383190231001
 20
175.36798463190692
 11
261.68798732833591
 21
175.3778551610819
  0
LINE
  8
_0-0_
  6
CONTINUOUS
 62
  250
 10
261.68798732833591
 20
175.3778551610819
 11
261.65928173141191
 21
175.3872250112409
  0
LINE
  8
_0-0_
  6
CONTINUOUS
 62
  250
 10
261.65928173141191
 20
175.3872250112409
 11
261.62804889754898
 21
175.39540276850391
  0
LINE
  8
_0-0_
  6
CONTINUOUS
 62
  250
 10
261.62804889754898
 20
175.39540276850391
 11
261.59490871505398
 21
175.40167317713389
  0
LINE
  8
_0-0_
  6
CONTINUOUS
 62
  250
 10
261.59490871505398
 20
175.40167317713389
 11
261.560433388516
 21
175.40527329767889
  0
LINE
  8
_0-0_
  6
CONTINUOUS
 62
  250
 10
261.560433388516
 20
175.40527329767889
 11
261.554329872891
 21
175.40603623713187
  0
LINE
  8
_0-0_
  6
CONTINUOUS
 62
  250
 10
261.554329872891
 20
175.40603623713187
 11
261.54846477584499
 21
175.40663228357889
  0
LINE
  8
_0-0_
  6
CONTINUOUS
 62
  250
 10
261.54846477584499
 20
175.40663228357889
 11
261.54288578109401
 21
175.40706143702189
  0
LINE
  8
_0-0_
  6
CONTINUOUS
 62
  250
 10
261.54288578109401
 20
175.40706143702189
 11
261.53744983749095
 21
175.40732369745891
  0
LINE
  8
_0-0_
  6
CONTINUOUS
 62
  250
 10
261.53744983749095
 20
175.40732369745891
 11
261.53210926131896
 21
175.4073713811749
  0
LINE
  8
_0-0_
  6
CONTINUOUS
 62
  250
 10
261.53210926131896
 20
175.4073713811749
 11
261.52676868514703
 21
175.40732369745891
  0
LINE
  8
_0-0_
  6
CONTINUOUS
 62
  250
 10
261.52676868514703
 20
175.40732369745891
 11
261.52152347640697
 21
175.40706143702189
  0
LINE
  8
_0-0_
  6
CONTINUOUS
 62
  250
 10
261.52152347640697
 20
175.40706143702189
 11
261.516087532803
 21
175.40663228357889
  0
LINE
  8
_0-0_
  6
CONTINUOUS
 62
  250
 10
261.516087532803
 20
175.40663228357889
 11
261.51055622176796
 21
175.40603623713187
  0
LINE
  8
_0-0_
  6
CONTINUOUS
 62
  250
 10
261.51055622176796
 20
175.40603623713187
 11
261.50478649215393
 21
175.40527329767889
  0
LINE
  8
_0-0_
  6
CONTINUOUS
 62
  250
 10
261.50478649215393
 20
175.40527329767889
 11
261.48642826156293
 21
175.4034136327619
  0
LINE
  8
_0-0_
  6
CONTINUOUS
 62
  250
 10
261.48642826156293
 20
175.4034136327619
 11
261.46811771468793
 21
175.40019498194388
  0
LINE
  8
_0-0_
  6
CONTINUOUS
 62
  250
 10
261.46811771468793
 20
175.40019498194388
 11
261.44980716781293
 21
175.39561734522488
  0
LINE
  8
_0-0_
  6
CONTINUOUS
 62
  250
 10
261.44980716781293
 20
175.39561734522488
 11
261.43173503951698
 21
175.38960919703192
  0
LINE
  8
_0-0_
  6
CONTINUOUS
 62
  250
 10
261.43173503951698
 20
175.38960919703192
 11
261.41385364608493
 21
175.38200364435792
  0
LINE
  8
_0-0_
  6
CONTINUOUS
 62
  250
 10
261.41385364608493
 20
175.38200364435792
 11
261.396306038663
 21
175.3728960546369
  0
LINE
  8
_0-0_
  6
CONTINUOUS
 62
  250
 10
261.396306038663
 20
175.3728960546369
 11
261.379187584683
 21
175.36209569300289
  0
LINE
  8
_0-0_
  6
CONTINUOUS
 62
  250
 10
261.379187584683
 20
175.36209569300289
 11
261.36254596786193
 21
175.34962640131593
  0
LINE
  8
_0-0_
  6
CONTINUOUS
 62
  250
 10
261.36254596786193
 20
175.34962640131593
 11
261.34652423934597
 21
175.33534512842792
  0
LINE
  8
_0-0_
  6
CONTINUOUS
 62
  250
 10
261.34652423934597
 20
175.33534512842792
 11
261.33121776656799
 21
175.31920419062291
  0
LINE
  8
_0-0_
  6
CONTINUOUS
 62
  250
 10
262.72959041671493
 20
175.8603428396099
 11
268.32403469161699
 21
173.30893025721193
  0
LINE
  8
_0-0_
  6
CONTINUOUS
 62
  250
 10
268.32403469161699
 20
173.30893025721193
 11
268.335335732266
 21
173.3057592901099
  0
LINE
  8
_0-0_
  6
CONTINUOUS
 62
  250
 10
268.335335732266
 20
173.3057592901099
 11
268.36609172896999
 21
173.29388604487093
  0
LINE
  8
_0-0_
  6
CONTINUOUS
 62
  250
 10
268.36609172896999
 20
173.29388604487093
 11
268.41177272872596
 21
173.2699965032449
  0
LINE
  8
_0-0_
  6
CONTINUOUS
 62
  250
 10
268.41177272872596
 20
173.2699965032449
 11
268.46775341109901
 21
173.2305620702619
  0
LINE
  8
_0-0_
  6
CONTINUOUS
 62
  250
 10
268.46775341109901
 20
173.2305620702619
 11
268.52945613937101
 21
173.1723402532449
  0
LINE
  8
_0-0_
  6
CONTINUOUS
 62
  250
 10
268.52945613937101
 20
173.1723402532449
 11
268.59225559310602
 21
173.09175477350888
  0
LINE
  8
_0-0_
  6
CONTINUOUS
 62
  250
 10
268.59225559310602
 20
173.09175477350888
 11
268.65162181930191
 21
172.98549161280292
  0
LINE
  8
_0-0_
  6
CONTINUOUS
 62
  250
 10
268.65162181930191
 20
172.98549161280292
 11
268.70288181380897
 21
172.85011754358891
  0
LINE
  8
_0-0_
  6
CONTINUOUS
 62
  250
 10
268.70288181380897
 20
172.85011754358891
 11
268.74155330733993
 21
172.6822231801859
  0
LINE
  8
_0-0_
  6
CONTINUOUS
 62
  250
 10
268.74155330733993
 20
172.6822231801859
 11
268.76291561202697
 21
172.47839913691189
  0
LINE
  8
_0-0_
  6
CONTINUOUS
 62
  250
 10
268.76291561202697
 20
172.47839913691189
 11
268.76291561202697
 21
170.02979264582288
  0
LINE
  8
_0-0_
  6
CONTINUOUS
 62
  250
 10
268.762581826016
 20
170.0293634923809
 11
268.76110363082597
 21
170.02228246058087
  0
LINE
  8
_0-0_
  6
CONTINUOUS
 62
  250
 10
268.76110363082597
 20
170.02228246058087
 11
268.75662136153898
 21
170.00266061152092
  0
LINE
  8
_0-0_
  6
CONTINUOUS
 62
  250
 10
268.75662136153898
 20
170.00266061152092
 11
268.74908733443903
 21
169.9729536565649
  0
LINE
  8
_0-0_
  6
CONTINUOUS
 62
  250
 10
268.74908733443903
 20
169.9729536565649
 11
268.73840618209499
 21
169.93559346521991
  0
LINE
  8
_0-0_
  6
CONTINUOUS
 62
  250
 10
268.73840618209499
 20
169.93559346521991
 11
268.72457790450699
 21
169.89308343256593
  0
LINE
  8
_0-0_
  6
CONTINUOUS
 62
  250
 10
268.72457790450699
 20
169.89308343256593
 11
268.70736408309597
 21
169.84785542811088
  0
LINE
  8
_0-0_
  6
CONTINUOUS
 62
  250
 10
268.70736408309597
 20
169.84785542811088
 11
268.68686008529392
 21
169.8023890050759
  0
LINE
  8
_0-0_
  6
CONTINUOUS
 62
  250
 10
268.68686008529392
 20
169.8023890050759
 11
268.66287517623596
 21
169.75913987482687
  0
LINE
  8
_0-0_
  6
CONTINUOUS
 62
  250
 10
268.66287517623596
 20
169.75913987482687
 11
268.63531398849199
 21
169.7205399068699
  0
LINE
  8
_0-0_
  6
CONTINUOUS
 62
  250
 10
268.63531398849199
 20
169.7205399068699
 11
268.60422420577697
 21
169.68909249628689
  0
LINE
  8
_0-0_
  6
CONTINUOUS
 62
  250
 10
268.60422420577697
 20
169.68909249628689
 11
268.56879520492294
 21
169.66086373652092
  0
LINE
  8
_0-0_
  6
CONTINUOUS
 62
  250
 10
268.56879520492294
 20
169.66086373652092
 11
268.52869319991794
 21
169.63253960932391
  0
LINE
  8
_0-0_
  6
CONTINUOUS
 62
  250
 10
268.52869319991794
 20
169.63253960932391
 11
268.48596859054294
 21
169.60483537043191
  0
LINE
  8
_0-0_
  6
CONTINUOUS
 62
  250
 10
268.48596859054294
 20
169.60483537043191
 11
268.44257640914594
 21
169.57846627558391
  0
LINE
  8
_0-0_
  6
CONTINUOUS
 62
  250
 10
268.44257640914594
 20
169.57846627558391
 11
268.40042400436096
 21
169.55417142237292
  0
LINE
  8
_0-0_
  6
CONTINUOUS
 62
  250
 10
268.40042400436096
 20
169.55417142237292
 11
268.36151409225192
 21
169.53268990839592
  0
LINE
  8
_0-0_
  6
CONTINUOUS
 62
  250
 10
268.36151409225192
 20
169.53268990839592
 11
268.32784938888199
 21
169.51466546381593
  0
LINE
  8
_0-0_
  6
CONTINUOUS
 62
  250
 10
268.32784938888199
 20
169.51466546381593
 11
268.30143261031799
 21
169.50093255365988
  0
LINE
  8
_0-0_
  6
CONTINUOUS
 62
  250
 10
268.30143261031799
 20
169.50093255365988
 11
268.28402805404392
 21
169.49215874994891
  0
LINE
  8
_0-0_
  6
CONTINUOUS
 62
  250
 10
268.28402805404392
 20
169.49215874994891
 11
268.27782917098693
 21
169.48905930842091
  0
LINE
  8
_0-0_
  6
CONTINUOUS
 62
  250
 10
268.27782917098693
 20
169.48905930842091
 11
268.27782917098693
 21
168.7613104375709
  0
LINE
  8
_0-0_
  6
CONTINUOUS
 62
  250
 10
268.27782917098693
 20
168.7613104375709
 11
268.27649402694396
 21
168.75301347101788
  0
LINE
  8
_0-0_
  6
CONTINUOUS
 62
  250
 10
268.27649402694396
 20
168.75301347101788
 11
268.27225017623596
 21
168.7301252874249
  0
LINE
  8
_0-0_
  6
CONTINUOUS
 62
  250
 10
268.27225017623596
 20
168.7301252874249
 11
268.26519298629501
 21
168.69560227717091
  0
LINE
  8
_0-0_
  6
CONTINUOUS
 62
  250
 10
268.26519298629501
 20
168.69560227717091
 11
268.25527477340393
 21
168.65247235621089
  0
LINE
  8
_0-0_
  6
CONTINUOUS
 62
  250
 10
268.25527477340393
 20
168.65247235621089
 11
268.24240017013199
 21
168.60366807306889
  0
LINE
  8
_0-0_
  6
CONTINUOUS
 62
  250
 10
268.24240017013199
 20
168.60366807306889
 11
268.22656917647993
 21
168.55221734369891
  0
LINE
  8
_0-0_
  6
CONTINUOUS
 62
  250
 10
268.22656917647993
 20
168.55221734369891
 11
268.20759105758395
 21
168.50105271662389
  0
LINE
  8
_0-0_
  6
CONTINUOUS
 62
  250
 10
268.20759105758395
 20
168.50105271662389
 11
268.18560886458994
 21
168.45320210779789
  0
LINE
  8
_0-0_
  6
CONTINUOUS
 62
  250
 10
268.18560886458994
 20
168.45320210779789
 11
268.16043186263698
 21
168.41166959131888
  0
LINE
  8
_0-0_
  6
CONTINUOUS
 62
  250
 10
268.16043186263698
 20
168.41166959131888
 11
268.13206005172401
 21
168.37936387384991
  0
LINE
  8
_0-0_
  6
CONTINUOUS
 62
  250
 10
268.13206005172401
 20
168.37936387384991
 11
268.07379055099199
 21
168.3505629094949
  0
LINE
  8
_0-0_
  6
CONTINUOUS
 62
  250
 10
268.07379055099199
 20
168.3505629094949
 11
267.96764659957597
 21
168.31832871759991
  0
LINE
  8
_0-0_
  6
CONTINUOUS
 62
  250
 10
267.96764659957597
 20
168.31832871759991
 11
267.82635974959999
 21
168.28435407007791
  0
LINE
  8
_0-0_
  6
CONTINUOUS
 62
  250
 10
267.82635974959999
 20
168.28435407007791
 11
267.66247081832597
 21
168.25002179468791
  0
LINE
  8
_0-0_
  6
CONTINUOUS
 62
  250
 10
267.66247081832597
 20
168.25002179468791
 11
267.48894977645597
 21
168.21685777033491
  0
LINE
  8
_0-0_
  6
CONTINUOUS
 62
  250
 10
267.48894977645597
 20
168.21685777033491
 11
267.31838512496597
 21
168.18634019220991
  0
LINE
  8
_0-0_
  6
CONTINUOUS
 62
  250
 10
267.31838512496597
 20
168.18634019220991
 11
267.16360378341398
 21
168.16001878107687
  0
LINE
  8
_0-0_
  6
CONTINUOUS
 62
  250
 10
267.16360378341398
 20
168.16001878107687
 11
267.03728962020597
 21
168.13934789026891
  0
LINE
  8
_0-0_
  6
CONTINUOUS
 62
  250
 10
267.03728962020597
 20
168.13934789026891
 11
266.95212650375095
 21
168.1258772405499
  0
LINE
  8
_0-0_
  6
CONTINUOUS
 62
  250
 10
266.95212650375095
 20
168.1258772405499
 11
266.92089366988796
 21
168.12103734339391
  0
LINE
  8
_0-0_
  6
CONTINUOUS
 62
  250
 10
267.96097087936096
 20
168.12098965967792
 11
267.81238842086498
 21
165.54182515467289
  0
LINE
  8
_0-0_
  6
CONTINUOUS
 62
  250
 10
266.9938020713779
 20
167.7304600271099
 11
266.84655475692398
 21
164.82907281244891
  0
LINE
  8
_0-0_
  6
CONTINUOUS
 62
  250
 10
281.84842395858493
 20
170.25447831476788
 11
280.56649494247097
 21
171.3016842397559
  0
LINE
  8
_0-0_
  6
CONTINUOUS
 62
  250
 10
280.24257946090393
 20
174.69380841578192
 11
279.97736263351101
 21
172.75351033533693
  0
LINE
  8
_0-0_
  6
CONTINUOUS
 62
  250
 10
281.63689899520597
 20
173.06352601374289
 11
280.69528865890197
 21
173.8107298406469
  0
LINE
  8
_0-0_
  6
CONTINUOUS
 62
  250
 10
280.75799274520597
 20
174.3100498708599
 11
280.26356029586498
 21
174.70308289850888
  0
LINE
  8
_0-0_
  6
CONTINUOUS
 62
  250
 10
282.24453258590393
 20
173.13130841578192
 11
281.70432376937595
 21
173.56046185816388
  0
LINE
  8
_0-0_
  6
CONTINUOUS
 62
  250
 10
281.41440677718793
 20
174.57588658655789
 11
280.91024684981994
 21
174.97447476709988
  0
LINE
  8
_0-0_
  6
CONTINUOUS
 62
  250
 10
287.94125843124095
 20
174.8593662771099
 11
285.83850193099698
 21
176.4746283086649
  0
LINE
  8
_0-0_
  6
CONTINUOUS
 62
  250
 10
286.45595836715393
 20
174.94476781214391
 11
285.41569042281799
 21
175.74058518732687
  0
LINE
  8
_0-0_
  6
CONTINUOUS
 62
  250
 10
286.53592395858493
 20
175.19975648249289
 11
285.43872165755897
 21
176.05947003687493
  0
LINE
  8
_0-0_
  6
CONTINUOUS
 62
  250
 10
280.74039745406799
 20
174.26253304804487
 11
280.68203258590393
 21
173.8389347585549
  0
LINE
  8
_0-0_
  6
CONTINUOUS
 62
  250
 10
281.42661380843793
 20
174.5121334585059
 11
281.36829662398998
 21
174.0913008245339
  0
LINE
  8
_0-0_
  6
CONTINUOUS
 62
  250
 10
281.71428966598199
 20
173.56532559717792
 11
281.65039348678295
 21
173.10281739557888
  0
LINE
  8
_0-0_
  6
CONTINUOUS
 62
  250
 10
282.22283649520597
 20
173.15169320429487
 11
281.83535862044994
 21
170.3252886327619
  0
LINE
  8
_0-0_
  6
CONTINUOUS
 62
  250
 10
285.41302013473199
 20
176.07866273249289
 11
285.36996173934597
 21
175.76476083124791
  0
LINE
  8
_0-0_
  6
CONTINUOUS
 62
  250
 10
286.49524974898998
 20
175.22421822870891
 11
286.45633983688094
 21
174.94505391443889
  0
LINE
  8
_0-0_
  6
CONTINUOUS
 62
  250
 10
282.50774669723199
 20
172.03949437464391
 11
282.38968181686096
 21
171.1866949590559
  0
LINE
  8
_0-0_
  6
CONTINUOUS
 62
  250
 10
285.35045909957597
 20
173.15710530603991
 11
285.20883846358993
 21
172.12654099787389
  0
LINE
  8
_0-0_
  6
CONTINUOUS
 62
  250
 10
281.27884197311096
 20
174.63823304499289
 11
285.79553890304294
 21
176.44797311152092
  0
LINE
  8
_0-0_
  6
CONTINUOUS
 62
  250
 10
280.80014514999095
 20
174.28155885065692
 11
281.40844631271091
 21
174.52739224756888
  0
LINE
  8
_0-0_
  6
CONTINUOUS
 62
  250
 10
280.73901462630897
 20
173.8379572423809
 11
281.34598064498596
 21
174.0823839696759
  0
LINE
  8
_0-0_
  6
CONTINUOUS
 62
  250
 10
280.26432323531799
 20
174.71283421839391
 11
280.90323734359401
 21
174.97256741846689
  0
LINE
  8
_0-0_
  6
CONTINUOUS
 62
  250
 10
282.88349437789594
 20
173.45822797144589
 11
282.37933445052795
 21
173.85545716608692
  0
LINE
  8
_0-0_
  6
CONTINUOUS
 62
  250
 10
282.898324013516
 20
173.3930681737769
 11
282.84000682906799
 21
172.97361836756389
  0
LINE
  8
_0-0_
  6
CONTINUOUS
 62
  250
 10
282.26894664840393
 20
173.1611345800269
 11
282.87729549483993
 21
173.40973363245587
  0
LINE
  8
_0-0_
  6
CONTINUOUS
 62
  250
 10
281.73193264083591
 20
173.59517560328192
 11
282.37499523238796
 21
173.85350213373789
  0
LINE
  8
_0-0_
  6
CONTINUOUS
 62
  250
 10
282.886116982266
 20
172.89393887842792
 11
287.90692615584999
 21
174.83976826990789
  0
LINE
  8
_0-0_
  6
CONTINUOUS
 62
  250
 10
286.51165294723199
 20
174.90268693293191
 11
287.35889720992691
 21
175.23323045099889
  0
LINE
  8
_0-0_
  6
CONTINUOUS
 62
  250
 10
282.568734169766
 20
172.05310807551086
 11
285.29514598922401
 21
173.15307603205389
  0
LINE
  8
_0-0_
  6
CONTINUOUS
 62
  250
 10
281.88251781539594
 20
170.28032288874289
 11
283.77694416122097
 21
171.05535016382791
  0
LINE
  8
_0-0_
  6
CONTINUOUS
 62
  250
 10
284.59109592513698
 20
171.39116273249289
 11
287.59106922225703
 21
172.62309537256888
  0
LINE
  8
_0-0_
  6
CONTINUOUS
 62
  250
 10
282.51580524520597
 20
172.02723965967792
 11
284.25192165450699
 21
171.89808831537891
  0
LINE
  8
_0-0_
  6
CONTINUOUS
 62
  250
 10
284.26694202499095
 20
171.89572797144589
 11
285.26419925765697
 21
173.10265050257391
  0
LINE
  8
_0-0_
  6
CONTINUOUS
 62
  250
 10
282.3990755088779
 20
171.17687211359691
 11
284.13519191817898
 21
171.04490743006389
  0
LINE
  8
_0-0_
  6
CONTINUOUS
 62
  250
 10
284.21520519332597
 20
171.04528889978991
 11
285.21246242599199
 21
172.09945664728792
  0
LINE
  8
_0-0_
  6
CONTINUOUS
 62
  250
 10
287.39456462936096
 20
175.24448380793191
 11
286.53067874984401
 21
175.19865975702891
  0
LINE
  8
_0-0_
  6
CONTINUOUS
 62
  250
 10
286.28505992965393
 20
176.13838658655789
 11
285.41983890609401
 21
176.09256253565491
  0
LINE
  8
_0-0_
  6
CONTINUOUS
 62
  250
 10
267.65445995406799
 20
167.48767838801086
 11
272.84750270919494
 21
169.05017838801086
  0
LINE
  8
_0-0_
  6
CONTINUOUS
 62
  250
 10
272.84750270919494
 20
169.05017838801086
 11
272.92422580794994
 21
169.08865914667791
  0
LINE
  8
_0-0_
  6
CONTINUOUS
 62
  250
 10
272.92422580794994
 20
169.08865914667791
 11
273.01663684920993
 21
169.13541303003888
  0
LINE
  8
_0-0_
  6
CONTINUOUS
 62
  250
 10
273.01663684920993
 20
169.13541303003888
 11
273.120491982266
 21
169.1885565313209
  0
LINE
  8
_0-0_
  6
CONTINUOUS
 62
  250
 10
273.120491982266
 20
169.1885565313209
 11
273.23169040755897
 21
169.24637303675289
  0
LINE
  8
_0-0_
  6
CONTINUOUS
 62
  250
 10
273.23169040755897
 20
169.24637303675289
 11
273.34613132552795
 21
169.30693135584491
  0
LINE
  8
_0-0_
  6
CONTINUOUS
 62
  250
 10
273.34613132552795
 20
169.30693135584491
 11
273.45957088546493
 21
169.36844334925289
  0
LINE
  8
_0-0_
  6
CONTINUOUS
 62
  250
 10
273.45957088546493
 20
169.36844334925289
 11
273.56771755294494
 21
169.42914471949291
  0
LINE
  8
_0-0_
  6
CONTINUOUS
 62
  250
 10
273.56771755294494
 20
169.42914471949291
 11
273.66666126327203
 21
169.48708043421391
  0
LINE
  8
_0-0_
  6
CONTINUOUS
 62
  250
 10
273.66666126327203
 20
169.48708043421391
 11
273.75201511458994
 21
169.54053387964888
  0
LINE
  8
_0-0_
  6
CONTINUOUS
 62
  250
 10
273.75201511458994
 20
169.54053387964888
 11
273.81977367477094
 21
169.58766923273691
  0
LINE
  8
_0-0_
  6
CONTINUOUS
 62
  250
 10
273.81977367477094
 20
169.58766923273691
 11
273.91514110641191
 21
169.65497479761791
  0
LINE
  8
_0-0_
  6
CONTINUOUS
 62
  250
 10
273.91514110641191
 20
169.65497479761791
 11
274.024479866788
 21
169.72404465998292
  0
LINE
  8
_0-0_
  6
CONTINUOUS
 62
  250
 10
274.024479866788
 20
169.72404465998292
 11
274.14273548202203
 21
169.79306683863291
  0
LINE
  8
_0-0_
  6
CONTINUOUS
 62
  250
 10
274.14273548202203
 20
169.79306683863291
 11
274.26471042708994
 21
169.8601101430759
  0
LINE
  8
_0-0_
  6
CONTINUOUS
 62
  250
 10
274.26471042708994
 20
169.8601101430759
 11
274.3851594932529
 21
169.9234341176859
  0
LINE
  8
_0-0_
  6
CONTINUOUS
 62
  250
 10
274.3851594932529
 20
169.9234341176859
 11
274.49902820663203
 21
169.98115525568591
  0
LINE
  8
_0-0_
  6
CONTINUOUS
 62
  250
 10
274.49902820663203
 20
169.98115525568591
 11
274.60107135848693
 21
170.0314854177349
  0
LINE
  8
_0-0_
  6
CONTINUOUS
 62
  250
 10
274.60107135848693
 20
170.0314854177349
 11
274.68618679122596
 21
170.07254109705588
  0
LINE
  8
_0-0_
  6
CONTINUOUS
 62
  250
 10
274.68618679122596
 20
170.07254109705588
 11
274.74917697982494
 21
170.10251031244891
  0
LINE
  8
_0-0_
  6
CONTINUOUS
 62
  250
 10
274.74917697982494
 20
170.10251031244891
 11
274.78493976669
 21
170.11960492457089
  0
LINE
  8
_0-0_
  6
CONTINUOUS
 62
  250
 10
274.78493976669
 20
170.11960492457089
 11
274.82799816207597
 21
170.13629422510792
  0
LINE
  8
_0-0_
  6
CONTINUOUS
 62
  250
 10
274.82799816207597
 20
170.13629422510792
 11
267.65445995406799
 21
167.48767838801086
  0
LINE
  8
_0-0_
  6
CONTINUOUS
 62
  250
 10
267.96097087936096
 20
167.57989869440692
 11
272.87906932906799
 21
169.06600938166292
  0
LINE
  8
_0-0_
  6
CONTINUOUS
 62
  250
 10
272.87906932906799
 20
169.06600938166292
 11
272.95507717208591
 21
169.10360799158693
  0
LINE
  8
_0-0_
  6
CONTINUOUS
 62
  250
 10
272.95507717208591
 20
169.10360799158693
 11
273.04629612044994
 21
169.1494320424909
  0
LINE
  8
_0-0_
  6
CONTINUOUS
 62
  250
 10
273.04629612044994
 20
169.1494320424909
 11
273.14862537459999
 21
169.20162186945589
  0
LINE
  8
_0-0_
  6
CONTINUOUS
 62
  250
 10
273.14862537459999
 20
169.20162186945589
 11
273.25805950240795
 21
169.25836549128192
  0
LINE
  8
_0-0_
  6
CONTINUOUS
 62
  250
 10
273.25805950240795
 20
169.25836549128192
 11
273.37054538802795
 21
169.31792245234189
  0
LINE
  8
_0-0_
  6
CONTINUOUS
 62
  250
 10
273.37054538802795
 20
169.31792245234189
 11
273.48193454818397
 21
169.3784092458599
  0
LINE
  8
_0-0_
  6
CONTINUOUS
 62
  250
 10
273.48193454818397
 20
169.3784092458599
 11
273.58822155074796
 21
169.43803773249289
  0
LINE
  8
_0-0_
  6
CONTINUOUS
 62
  250
 10
273.58822155074796
 20
169.43803773249289
 11
273.68540096358993
 21
169.4950436147559
  0
LINE
  8
_0-0_
  6
CONTINUOUS
 62
  250
 10
273.68540096358993
 20
169.4950436147559
 11
273.769324303433
 21
169.54756722773189
  0
LINE
  8
_0-0_
  6
CONTINUOUS
 62
  250
 10
273.769324303433
 20
169.54756722773189
 11
273.83593845443397
 21
169.59379659021991
  0
LINE
  8
_0-0_
  6
CONTINUOUS
 62
  250
 10
273.83593845443397
 20
169.59379659021991
 11
273.92987537459999
 21
169.66069684351589
  0
LINE
  8
_0-0_
  6
CONTINUOUS
 62
  250
 10
273.92987537459999
 20
169.66069684351589
 11
274.03754520492294
 21
169.72931371058087
  0
LINE
  8
_0-0_
  6
CONTINUOUS
 62
  250
 10
274.03754520492294
 20
169.72931371058087
 11
274.15394115523998
 21
169.79785905207288
  0
LINE
  8
_0-0_
  6
CONTINUOUS
 62
  250
 10
274.15394115523998
 20
169.79785905207288
 11
274.27386570052795
 21
169.86440167749993
  0
LINE
  8
_0-0_
  6
CONTINUOUS
 62
  250
 10
274.27386570052795
 20
169.86440167749993
 11
274.39235973434097
 21
169.92712960566189
  0
LINE
  8
_0-0_
  6
CONTINUOUS
 62
  250
 10
274.39235973434097
 20
169.92712960566189
 11
274.50446415023498
 21
169.98418317164089
  0
LINE
  8
_0-0_
  6
CONTINUOUS
 62
  250
 10
274.50446415023498
 20
169.98418317164089
 11
274.60507679061595
 21
170.03372655237789
  0
LINE
  8
_0-0_
  6
CONTINUOUS
 62
  250
 10
274.60507679061595
 20
170.03372655237789
 11
274.689095497891
 21
170.0739000829569
  0
LINE
  8
_0-0_
  6
CONTINUOUS
 62
  250
 10
274.689095497891
 20
170.0739000829569
 11
274.75146579818397
 21
170.1028917821759
  0
LINE
  8
_0-0_
  6
CONTINUOUS
 62
  250
 10
274.75146579818397
 20
170.1028917821759
 11
274.78732395248102
 21
170.11879430140189
  0
LINE
  8
_0-0_
  6
CONTINUOUS
 62
  250
 10
274.78732395248102
 20
170.11879430140189
 11
274.82623386458994
 21
170.13684258783988
  0
LINE
  8
_0-0_
  6
CONTINUOUS
 62
  250
 10
274.99899196700699
 20
169.45296273554487
 11
274.93295002059597
 21
169.42125306452388
  0
LINE
  8
_0-0_
  6
CONTINUOUS
 62
  250
 10
274.93295002059597
 20
169.42125306452388
 11
274.85760974959999
 21
169.38434586847893
  0
LINE
  8
_0-0_
  6
CONTINUOUS
 62
  250
 10
274.85760974959999
 20
169.38434586847893
 11
274.77530765609401
 21
169.34321866358391
  0
LINE
  8
_0-0_
  6
CONTINUOUS
 62
  250
 10
274.77530765609401
 20
169.34321866358391
 11
274.68866634444896
 21
169.29896817530292
  0
LINE
  8
_0-0_
  6
CONTINUOUS
 62
  250
 10
274.68866634444896
 20
169.29896817530292
 11
274.60040378646494
 21
169.25259576166789
  0
LINE
  8
_0-0_
  6
CONTINUOUS
 62
  250
 10
274.60040378646494
 20
169.25259576166789
 11
274.51285648421901
 21
169.20512662256888
  0
LINE
  8
_0-0_
  6
CONTINUOUS
 62
  250
 10
274.51285648421901
 20
169.20512662256888
 11
274.42874240951198
 21
169.1576574834699
  0
LINE
  8
_0-0_
  6
CONTINUOUS
 62
  250
 10
274.42874240951198
 20
169.1576574834699
 11
274.35068416671493
 21
169.11111817682888
  0
LINE
  8
_0-0_
  6
CONTINUOUS
 62
  250
 10
274.35068416671493
 20
169.11111817682888
 11
274.28106594161699
 21
169.06660542811088
  0
LINE
  8
_0-0_
  6
CONTINUOUS
 62
  250
 10
274.28106594161699
 20
169.06660542811088
 11
274.22260570602094
 21
169.02516827906291
  0
LINE
  8
_0-0_
  6
CONTINUOUS
 62
  250
 10
274.22260570602094
 20
169.02516827906291
 11
274.12423420028398
 21
168.95667062128689
  0
LINE
  8
_0-0_
  6
CONTINUOUS
 62
  250
 10
274.12423420028398
 20
168.95667062128689
 11
274.00531101302795
 21
168.8822363408909
  0
LINE
  8
_0-0_
  6
CONTINUOUS
 62
  250
 10
274.00531101302795
 20
168.8822363408909
 11
273.8724641807529
 21
168.8046787771099
  0
LINE
  8
_0-0_
  6
CONTINUOUS
 62
  250
 10
273.8724641807529
 20
168.8046787771099
 11
273.73236942367294
 21
168.7268112691749
  0
LINE
  8
_0-0_
  6
CONTINUOUS
 62
  250
 10
273.73236942367294
 20
168.7268112691749
 11
273.5917024620029
 21
168.65139947260491
  0
LINE
  8
_0-0_
  6
CONTINUOUS
 62
  250
 10
273.5917024620029
 20
168.65139947260491
 11
273.45709133224199
 21
168.58125672663388
  0
LINE
  8
_0-0_
  6
CONTINUOUS
 62
  250
 10
273.45709133224199
 20
168.58125672663388
 11
273.33530712203691
 21
168.51924405420891
  0
LINE
  8
_0-0_
  6
CONTINUOUS
 62
  250
 10
273.33530712203691
 20
168.51924405420891
 11
273.23288250045499
 21
168.46817479456593
  0
LINE
  8
_0-0_
  6
CONTINUOUS
 62
  250
 10
273.23288250045499
 20
168.46817479456593
 11
273.15649318771091
 21
168.43074307764689
  0
LINE
  8
_0-0_
  6
CONTINUOUS
 62
  250
 10
273.15649318771091
 20
168.43074307764689
 11
273.11291027145097
 21
168.40988145197491
  0
LINE
  8
_0-0_
  6
CONTINUOUS
 62
  250
 10
273.11291027145097
 20
168.40988145197491
 11
273.06427288131403
 21
168.39042649592091
  0
LINE
  8
_0-0_
  6
CONTINUOUS
 62
  250
 10
273.06427288131403
 20
168.39042649592091
 11
267.95181560592403
 21
166.85157761896789
  0
LINE
  8
_0-0_
  6
CONTINUOUS
 62
  250
 10
281.29510212020597
 20
171.29350648249289
 11
275.0992708213779
 21
169.4310043844099
  0
LINE
  8
_0-0_
  6
CONTINUOUS
 62
  250
 10
275.0992708213779
 20
169.4310043844099
 11
275.08963871078197
 21
169.42647443140692
  0
LINE
  8
_0-0_
  6
CONTINUOUS
 62
  250
 10
275.08963871078197
 20
169.42647443140692
 11
275.07995891646999
 21
169.4219683202619
  0
LINE
  8
_0-0_
  6
CONTINUOUS
 62
  250
 10
275.07995891646999
 20
169.4219683202619
 11
275.07013607101101
 21
169.41748605097391
  0
LINE
  8
_0-0_
  6
CONTINUOUS
 62
  250
 10
275.07013607101101
 20
169.41748605097391
 11
275.06031322555191
 21
169.41297993982889
  0
LINE
  8
_0-0_
  6
CONTINUOUS
 62
  250
 10
275.06031322555191
 20
169.41297993982889
 11
275.05029964522993
 21
169.4084499868259
  0
LINE
  8
_0-0_
  6
CONTINUOUS
 62
  250
 10
275.05029964522993
 20
169.4084499868259
 11
275.04028606490795
 21
169.4038008245339
  0
LINE
  8
_0-0_
  6
CONTINUOUS
 62
  250
 10
275.04028606490795
 20
169.4038008245339
 11
275.03012943343793
 21
169.39903245295187
  0
LINE
  8
_0-0_
  6
CONTINUOUS
 62
  250
 10
275.03012943343793
 20
169.39903245295187
 11
275.0199251182529
 21
169.39416871393792
  0
LINE
  8
_0-0_
  6
CONTINUOUS
 62
  250
 10
275.0199251182529
 20
169.39416871393792
 11
275.00957775192001
 21
169.38909039820291
  0
LINE
  8
_0-0_
  6
CONTINUOUS
 62
  250
 10
275.00957775192001
 20
169.38909039820291
 11
274.99927806930191
 21
169.38377366388889
  0
LINE
  8
_0-0_
  6
CONTINUOUS
 62
  250
 10
274.99927806930191
 20
169.38377366388889
 11
281.29510212020597
 21
171.29350648249289
  0
LINE
  8
_0-0_
  6
CONTINUOUS
 62
  250
 10
281.29510212020597
 20
171.29350648249289
 11
275.0992708213779
 21
169.4310043844099
  0
LINE
  8
_0-0_
  6
CONTINUOUS
 62
  250
 10
275.0992708213779
 20
169.4310043844099
 11
275.08963871078197
 21
169.42647443140692
  0
LINE
  8
_0-0_
  6
CONTINUOUS
 62
  250
 10
275.08963871078197
 20
169.42647443140692
 11
275.07995891646999
 21
169.4219683202619
  0
LINE
  8
_0-0_
  6
CONTINUOUS
 62
  250
 10
275.07995891646999
 20
169.4219683202619
 11
275.07013607101101
 21
169.41748605097391
  0
LINE
  8
_0-0_
  6
CONTINUOUS
 62
  250
 10
275.07013607101101
 20
169.41748605097391
 11
275.06031322555191
 21
169.41297993982889
  0
LINE
  8
_0-0_
  6
CONTINUOUS
 62
  250
 10
275.06031322555191
 20
169.41297993982889
 11
275.05029964522993
 21
169.4084499868259
  0
LINE
  8
_0-0_
  6
CONTINUOUS
 62
  250
 10
275.05029964522993
 20
169.4084499868259
 11
275.04028606490795
 21
169.4038008245339
  0
LINE
  8
_0-0_
  6
CONTINUOUS
 62
  250
 10
275.04028606490795
 20
169.4038008245339
 11
275.03012943343793
 21
169.39903245295187
  0
LINE
  8
_0-0_
  6
CONTINUOUS
 62
  250
 10
275.03012943343793
 20
169.39903245295187
 11
275.0199251182529
 21
169.39416871393792
  0
LINE
  8
_0-0_
  6
CONTINUOUS
 62
  250
 10
275.0199251182529
 20
169.39416871393792
 11
275.00957775192001
 21
169.38909039820291
  0
LINE
  8
_0-0_
  6
CONTINUOUS
 62
  250
 10
275.00957775192001
 20
169.38909039820291
 11
274.99927806930191
 21
169.38377366388889
  0
LINE
  8
_0-0_
  6
CONTINUOUS
 62
  250
 10
273.91399669723199
 20
169.83002171839391
 11
281.16397190169994
 21
172.0119808706159
  0
LINE
  8
_0-0_
  6
CONTINUOUS
 62
  250
 10
281.16397190169994
 20
172.0119808706159
 11
273.91399669723199
 21
169.83002171839391
  0
LINE
  8
_0-0_
  6
CONTINUOUS
 62
  250
 10
273.91399669723199
 20
169.83002171839391
 11
281.16397190169994
 21
172.0119808706159
  0
LINE
  8
_0-0_
  6
CONTINUOUS
 62
  250
 10
267.712777138516
 20
169.15727601374289
 11
271.47387790755897
 21
170.2975843938699
  0
LINE
  8
_0-0_
  6
CONTINUOUS
 62
  250
 10
271.47387790755897
 20
170.2975843938699
 11
271.52661609725703
 21
170.30867085779789
  0
LINE
  8
_0-0_
  6
CONTINUOUS
 62
  250
 10
271.52661609725703
 20
170.30867085779789
 11
271.57449054794
 21
170.31541810358692
  0
LINE
  8
_0-0_
  6
CONTINUOUS
 62
  250
 10
271.57449054794
 20
170.31541810358692
 11
271.65841388778398
 21
170.32638535822491
  0
LINE
  8
_0-0_
  6
CONTINUOUS
 62
  250
 10
271.65841388778398
 20
170.32638535822491
 11
271.77128124313094
 21
170.34026131952891
  0
LINE
  8
_0-0_
  6
CONTINUOUS
 62
  250
 10
271.77128124313094
 20
170.34026131952891
 11
271.90603542403898
 21
170.35568700159689
  0
LINE
  8
_0-0_
  6
CONTINUOUS
 62
  250
 10
271.90603542403898
 20
170.35568700159689
 11
272.05566692428295
 21
170.37132726038593
  0
LINE
  8
_0-0_
  6
CONTINUOUS
 62
  250
 10
272.05566692428295
 20
170.37132726038593
 11
272.21307087020597
 21
170.38587079371089
  0
LINE
  8
_0-0_
  6
CONTINUOUS
 62
  250
 10
272.21307087020597
 20
170.38587079371089
 11
272.37119007186595
 21
170.39791093195589
  0
LINE
  8
_0-0_
  6
CONTINUOUS
 62
  250
 10
272.37119007186595
 20
170.39791093195589
 11
272.523015023038
 21
170.40616021479289
  0
LINE
  8
_0-0_
  6
CONTINUOUS
 62
  250
 10
272.523015023038
 20
170.40616021479289
 11
272.66144085006403
 21
170.4092596563209
  0
LINE
  8
_0-0_
  6
CONTINUOUS
 62
  250
 10
272.66144085006403
 20
170.4092596563209
 11
272.77945804671901
 21
170.40587411249791
  0
LINE
  8
_0-0_
  6
CONTINUOUS
 62
  250
 10
272.77945804671901
 20
170.40587411249791
 11
272.85622882919
 21
170.40353761042289
  0
LINE
  8
_0-0_
  6
CONTINUOUS
 62
  250
 10
272.85622882919
 20
170.40353761042289
 11
272.945349694058
 21
170.40532574976589
  0
LINE
  8
_0-0_
  6
CONTINUOUS
 62
  250
 10
272.945349694058
 20
170.40532574976589
 11
273.04343509750095
 21
170.41049943293191
  0
LINE
  8
_0-0_
  6
CONTINUOUS
 62
  250
 10
273.04343509750095
 20
170.41049943293191
 11
273.14709949569396
 21
170.41841492975888
  0
LINE
  8
_0-0_
  6
CONTINUOUS
 62
  250
 10
273.14709949569396
 20
170.41841492975888
 11
273.25305271224698
 21
170.42845235193889
  0
LINE
  8
_0-0_
  6
CONTINUOUS
 62
  250
 10
273.25305271224698
 20
170.42845235193889
 11
273.35800457076698
 21
170.43987260187788
  0
LINE
  8
_0-0_
  6
CONTINUOUS
 62
  250
 10
273.35800457076698
 20
170.43987260187788
 11
273.45871257857999
 21
170.45207963312788
  0
LINE
  8
_0-0_
  6
CONTINUOUS
 62
  250
 10
273.45871257857999
 20
170.45207963312788
 11
273.55179119186096
 21
170.46431050623588
  0
LINE
  8
_0-0_
  6
CONTINUOUS
 62
  250
 10
273.55179119186096
 20
170.46431050623588
 11
273.633854866788
 21
170.4760168584699
  0
LINE
  8
_0-0_
  6
CONTINUOUS
 62
  250
 10
273.633854866788
 20
170.4760168584699
 11
273.70166111068397
 21
170.4864357503759
  0
LINE
  8
_0-0_
  6
CONTINUOUS
 62
  250
 10
273.70166111068397
 20
170.4864357503759
 11
267.712777138516
 21
169.15727601374289
  0
LINE
  8
_0-0_
  6
CONTINUOUS
 62
  250
 10
268.06940364913601
 20
169.2657326253759
 11
271.47497463302301
 21
170.2977036031599
  0
LINE
  8
_0-0_
  6
CONTINUOUS
 62
  250
 10
271.47497463302301
 20
170.2977036031599
 11
271.52637767867691
 21
170.30881390894589
  0
LINE
  8
_0-0_
  6
CONTINUOUS
 62
  250
 10
271.52637767867691
 20
170.30881390894589
 11
271.57382297591892
 21
170.3155373128759
  0
LINE
  8
_0-0_
  6
CONTINUOUS
 62
  250
 10
271.57382297591892
 20
170.3155373128759
 11
271.657507897183
 21
170.32648072565692
  0
LINE
  8
_0-0_
  6
CONTINUOUS
 62
  250
 10
271.657507897183
 20
170.32648072565692
 11
271.77013683395097
 21
170.34033284510289
  0
LINE
  8
_0-0_
  6
CONTINUOUS
 62
  250
 10
271.77013683395097
 20
170.34033284510289
 11
271.90484333114296
 21
170.35573468531291
  0
LINE
  8
_0-0_
  6
CONTINUOUS
 62
  250
 10
271.90484333114296
 20
170.35573468531291
 11
272.05447483138698
 21
170.37127957666988
  0
LINE
  8
_0-0_
  6
CONTINUOUS
 62
  250
 10
272.05447483138698
 20
170.37127957666988
 11
272.21206951217403
 21
170.38570390070589
  0
LINE
  8
_0-0_
  6
CONTINUOUS
 62
  250
 10
272.21206951217403
 20
170.38570390070589
 11
272.37052249984401
 21
170.39760098780292
  0
LINE
  8
_0-0_
  6
CONTINUOUS
 62
  250
 10
272.37052249984401
 20
170.39760098780292
 11
272.52277660445895
 21
170.4056118520609
  0
LINE
  8
_0-0_
  6
CONTINUOUS
 62
  250
 10
272.52277660445895
 20
170.4056118520609
 11
272.66177463607494
 21
170.40840134943591
  0
LINE
  8
_0-0_
  6
CONTINUOUS
 62
  250
 10
272.66177463607494
 20
170.40840134943591
 11
272.780554772183
 21
170.4046343358869
  0
LINE
  8
_0-0_
  6
CONTINUOUS
 62
  250
 10
272.780554772183
 20
170.4046343358869
 11
272.85732555465393
 21
170.4026554616799
  0
LINE
  8
_0-0_
  6
CONTINUOUS
 62
  250
 10
272.85732555465393
 20
170.4026554616799
 11
272.94625568465898
 21
170.4046343358869
  0
LINE
  8
_0-0_
  6
CONTINUOUS
 62
  250
 10
272.94625568465898
 20
170.4046343358869
 11
273.04419803695401
 21
170.4099033864849
  0
LINE
  8
_0-0_
  6
CONTINUOUS
 62
  250
 10
273.04419803695401
 20
170.4099033864849
 11
273.14776706771494
 21
170.41786656702689
  0
LINE
  8
_0-0_
  6
CONTINUOUS
 62
  250
 10
273.14776706771494
 20
170.41786656702689
 11
273.25357723312101
 21
170.4279039892069
  0
LINE
  8
_0-0_
  6
CONTINUOUS
 62
  250
 10
273.25357723312101
 20
170.4279039892069
 11
273.358529091641
 21
170.43934808100391
  0
LINE
  8
_0-0_
  6
CONTINUOUS
 62
  250
 10
273.358529091641
 20
170.43934808100391
 11
273.45914173202203
 21
170.45155511225391
  0
LINE
  8
_0-0_
  6
CONTINUOUS
 62
  250
 10
273.45914173202203
 20
170.45155511225391
 11
273.55231571273498
 21
170.46392903650889
  0
LINE
  8
_0-0_
  6
CONTINUOUS
 62
  250
 10
273.55231571273498
 20
170.46392903650889
 11
273.63461780624095
 21
170.47580228174792
  0
LINE
  8
_0-0_
  6
CONTINUOUS
 62
  250
 10
273.63461780624095
 20
170.47580228174792
 11
273.70275783614801
 21
170.48657880152388
  0
LINE
  8
_0-0_
  6
CONTINUOUS
 62
  250
 10
273.70275783614801
 20
170.48657880152388
 11
268.06940364913601
 21
169.2657326253759
  0
LINE
  8
_0-0_
  6
CONTINUOUS
 62
  250
 10
268.293278694913
 20
169.2657326253759
 11
271.64325046615295
 21
170.30740723932888
  0
LINE
  8
_0-0_
  6
CONTINUOUS
 62
  250
 10
271.64325046615295
 20
170.30740723932888
 11
271.69327068404903
 21
170.31851754511487
  0
LINE
  8
_0-0_
  6
CONTINUOUS
 62
  250
 10
271.69327068404903
 20
170.31851754511487
 11
271.73709201888698
 21
170.32469258631389
  0
LINE
  8
_0-0_
  6
CONTINUOUS
 62
  250
 10
271.73709201888698
 20
170.32469258631389
 11
271.81438732223199
 21
170.3348253759259
  0
LINE
  8
_0-0_
  6
CONTINUOUS
 62
  250
 10
271.81438732223199
 20
170.3348253759259
 11
271.91852855758395
 21
170.34774766291292
  0
LINE
  8
_0-0_
  6
CONTINUOUS
 62
  250
 10
271.91852855758395
 20
170.34774766291292
 11
272.04293537215898
 21
170.36217198694891
  0
LINE
  8
_0-0_
  6
CONTINUOUS
 62
  250
 10
272.04293537215898
 20
170.36217198694891
 11
272.18112278060602
 21
170.37683472956292
  0
LINE
  8
_0-0_
  6
CONTINUOUS
 62
  250
 10
272.18112278060602
 20
170.37683472956292
 11
272.32660579757396
 21
170.39051995600391
  0
LINE
  8
_0-0_
  6
CONTINUOUS
 62
  250
 10
272.32660579757396
 20
170.39051995600391
 11
272.47275638656293
 21
170.40191636408491
  0
LINE
  8
_0-0_
  6
CONTINUOUS
 62
  250
 10
272.47275638656293
 20
170.40191636408491
 11
272.61313724593793
 21
170.40985570276891
  0
LINE
  8
_0-0_
  6
CONTINUOUS
 62
  250
 10
272.61313724593793
 20
170.40985570276891
 11
272.74112033919994
 21
170.41302666987093
  0
LINE
  8
_0-0_
  6
CONTINUOUS
 62
  250
 10
272.74112033919994
 20
170.41302666987093
 11
272.85022068099698
 21
170.41018948877991
  0
LINE
  8
_0-0_
  6
CONTINUOUS
 62
  250
 10
272.85022068099698
 20
170.41018948877991
 11
272.92107868270597
 21
170.4074476751199
  0
LINE
  8
_0-0_
  6
CONTINUOUS
 62
  250
 10
272.92107868270597
 20
170.4074476751199
 11
273.00342845992691
 21
170.40866360987292
  0
LINE
  8
_0-0_
  6
CONTINUOUS
 62
  250
 10
273.00342845992691
 20
170.40866360987292
 11
273.09412288741794
 21
170.41328893030789
  0
LINE
  8
_0-0_
  6
CONTINUOUS
 62
  250
 10
273.09412288741794
 20
170.41328893030789
 11
273.18996715621597
 21
170.42058453882791
  0
LINE
  8
_0-0_
  6
CONTINUOUS
 62
  250
 10
273.18996715621597
 20
170.42058453882791
 11
273.28805255965898
 21
170.42997823084491
  0
LINE
  8
_0-0_
  6
CONTINUOUS
 62
  250
 10
273.28805255965898
 20
170.42997823084491
 11
273.38523197250095
 21
170.44080243433589
  0
LINE
  8
_0-0_
  6
CONTINUOUS
 62
  250
 10
273.38523197250095
 20
170.44080243433589
 11
273.47835826949796
 21
170.45236573542289
  0
LINE
  8
_0-0_
  6
CONTINUOUS
 62
  250
 10
273.47835826949796
 20
170.45236573542289
 11
273.564427376553
 21
170.46402440394093
  0
LINE
  8
_0-0_
  6
CONTINUOUS
 62
  250
 10
273.564427376553
 20
170.46402440394093
 11
273.64038753585493
 21
170.4752062353009
  0
LINE
  8
_0-0_
  6
CONTINUOUS
 62
  250
 10
273.64038753585493
 20
170.4752062353009
 11
273.70304393844299
 21
170.48517213190692
  0
LINE
  8
_0-0_
  6
CONTINUOUS
 62
  250
 10
273.91399669723199
 20
169.83002171839391
 11
273.86678981856994
 21
169.81476292933087
  0
LINE
  8
_0-0_
  6
CONTINUOUS
 62
  250
 10
273.86678981856994
 20
169.81476292933087
 11
273.82373142318397
 21
169.80641827906291
  0
LINE
  8
_0-0_
  6
CONTINUOUS
 62
  250
 10
273.82373142318397
 20
169.80641827906291
 11
273.78773021773998
 21
169.80157838190692
  0
LINE
  8
_0-0_
  6
CONTINUOUS
 62
  250
 10
273.78773021773998
 20
169.80157838190692
 11
273.72388172225703
 21
169.79285226191189
  0
LINE
  8
_0-0_
  6
CONTINUOUS
 62
  250
 10
273.72388172225703
 20
169.79285226191189
 11
273.63714504317898
 21
169.78140817011487
  0
LINE
  8
_0-0_
  6
CONTINUOUS
 62
  250
 10
273.63714504317898
 20
169.78140817011487
 11
273.53247928695401
 21
169.76843819941189
  0
LINE
  8
_0-0_
  6
CONTINUOUS
 62
  250
 10
273.53247928695401
 20
169.76843819941189
 11
273.41489124374095
 21
169.75515828455588
  0
LINE
  8
_0-0_
  6
CONTINUOUS
 62
  250
 10
273.41489124374095
 20
169.75515828455588
 11
273.28934001998596
 21
169.7427843603009
  0
LINE
  8
_0-0_
  6
CONTINUOUS
 62
  250
 10
273.28934001998596
 20
169.7427843603009
 11
273.16083240584999
 21
169.73248467768289
  0
LINE
  8
_0-0_
  6
CONTINUOUS
 62
  250
 10
273.16083240584999
 20
169.73248467768289
 11
273.03427982406293
 21
169.72540364588389
  0
LINE
  8
_0-0_
  6
CONTINUOUS
 62
  250
 10
273.03427982406293
 20
169.72540364588389
 11
272.91473674850192
 21
169.7228287252299
  0
LINE
  8
_0-0_
  6
CONTINUOUS
 62
  250
 10
272.91473674850192
 20
169.7228287252299
 11
272.80706691817898
 21
169.7258327993259
  0
LINE
  8
_0-0_
  6
CONTINUOUS
 62
  250
 10
272.80706691817898
 20
169.7258327993259
 11
272.73139286117294
 21
169.72805009211191
  0
LINE
  8
_0-0_
  6
CONTINUOUS
 62
  250
 10
272.73139286117294
 20
169.72805009211191
 11
272.63864803390197
 21
169.7259996923319
  0
LINE
  8
_0-0_
  6
CONTINUOUS
 62
  250
 10
272.63864803390197
 20
169.7259996923319
 11
272.53302860335998
 21
169.72044453943889
  0
LINE
  8
_0-0_
  6
CONTINUOUS
 62
  250
 10
272.53302860335998
 20
169.72044453943889
 11
272.41873073653898
 21
169.71209988916988
  0
LINE
  8
_0-0_
  6
CONTINUOUS
 62
  250
 10
272.41873073653898
 20
169.71209988916988
 11
272.29999828414594
 21
169.70172868097893
  0
LINE
  8
_0-0_
  6
CONTINUOUS
 62
  250
 10
272.29999828414594
 20
169.70172868097893
 11
272.18078899459499
 21
169.69007001246089
  0
LINE
  8
_0-0_
  6
CONTINUOUS
 62
  250
 10
272.18078899459499
 20
169.69007001246089
 11
272.06534671859401
 21
169.6778152974949
  0
LINE
  8
_0-0_
  6
CONTINUOUS
 62
  250
 10
272.06534671859401
 20
169.6778152974949
 11
271.95791530685096
 21
169.66582284296689
  0
LINE
  8
_0-0_
  6
CONTINUOUS
 62
  250
 10
271.95791530685096
 20
169.66582284296689
 11
271.86254787521091
 21
169.6547125371809
  0
LINE
  8
_0-0_
  6
CONTINUOUS
 62
  250
 10
271.86254787521091
 20
169.6547125371809
 11
271.78348827438094
 21
169.64529500330588
  0
LINE
  8
_0-0_
  6
CONTINUOUS
 62
  250
 10
271.78348827438094
 20
169.64529500330588
 11
268.29318332748102
 21
168.6133478673809
  0
LINE
  8
_0-0_
  6
CONTINUOUS
 62
  250
 10
281.35742473678295
 20
172.79366002405789
 11
273.70328235702203
 21
170.48669801081292
  0
LINE
  8
_0-0_
  6
CONTINUOUS
 62
  250
 10
273.70328235702203
 20
170.48669801081292
 11
281.35742473678295
 21
172.79366002405789
  0
LINE
  8
_0-0_
  6
CONTINUOUS
 62
  250
 10
281.35742473678295
 20
172.79366002405789
 11
273.70328235702203
 21
170.48669801081292
  0
LINE
  8
_0-0_
  6
CONTINUOUS
 62
  250
 10
287.94125843124095
 20
174.8593662771099
 11
287.59121227340393
 21
172.62326226557391
  0
LINE
  8
_0-0_
  6
CONTINUOUS
 62
  250
 10
139.61757946090393
 20
133.86128888453192
 11
139.69120311813094
 21
133.8937614950049
  0
LINE
  8
_0-0_
  6
CONTINUOUS
 62
  250
 10
139.69120311813094
 20
133.8937614950049
 11
139.77517414169
 21
133.93143163050289
  0
LINE
  8
_0-0_
  6
CONTINUOUS
 62
  250
 10
139.77517414169
 20
133.93143163050289
 11
139.866726876065
 21
133.97325024927787
  0
LINE
  8
_0-0_
  6
CONTINUOUS
 62
  250
 10
139.866726876065
 20
133.97325024927787
 11
139.96304798202203
 21
134.01819215143792
  0
LINE
  8
_0-0_
  6
CONTINUOUS
 62
  250
 10
139.96304798202203
 20
134.01819215143792
 11
140.06132412032795
 21
134.0652798208109
  0
LINE
  8
_0-0_
  6
CONTINUOUS
 62
  250
 10
140.06132412032795
 20
134.0652798208109
 11
140.15878963546493
 21
134.1134642156469
  0
LINE
  8
_0-0_
  6
CONTINUOUS
 62
  250
 10
140.15878963546493
 20
134.1134642156469
 11
140.25263118819896
 21
134.1617916616309
  0
LINE
  8
_0-0_
  6
CONTINUOUS
 62
  250
 10
140.25263118819896
 20
134.1617916616309
 11
140.33998775558194
 21
134.20923695887188
  0
LINE
  8
_0-0_
  6
CONTINUOUS
 62
  250
 10
140.33998775558194
 20
134.20923695887188
 11
140.41814136581098
 21
134.25477490748091
  0
LINE
  8
_0-0_
  6
CONTINUOUS
 62
  250
 10
140.41814136581098
 20
134.25477490748091
 11
140.48427867965393
 21
134.29738030756593
  0
LINE
  8
_0-0_
  6
CONTINUOUS
 62
  250
 10
140.48427867965393
 20
134.29738030756593
 11
140.59471416549397
 21
134.3693111928809
  0
LINE
  8
_0-0_
  6
CONTINUOUS
 62
  250
 10
140.59471416549397
 20
134.3693111928809
 11
140.72775173263202
 21
134.44658265436789
  0
LINE
  8
_0-0_
  6
CONTINUOUS
 62
  250
 10
140.72775173263202
 20
134.44658265436789
 11
140.876143456265
 21
134.52650056208293
  0
LINE
  8
_0-0_
  6
CONTINUOUS
 62
  250
 10
140.876143456265
 20
134.52650056208293
 11
141.03245067672398
 21
134.60632310236591
  0
LINE
  8
_0-0_
  6
CONTINUOUS
 62
  250
 10
141.03245067672398
 20
134.60632310236591
 11
141.18928241805699
 21
134.68333230341588
  0
LINE
  8
_0-0_
  6
CONTINUOUS
 62
  250
 10
141.18928241805699
 20
134.68333230341588
 11
141.33934307174397
 21
134.75478635157287
  0
LINE
  8
_0-0_
  6
CONTINUOUS
 62
  250
 10
141.33934307174397
 20
134.75478635157287
 11
141.47528934554794
 21
134.8179911168919
  0
LINE
  8
_0-0_
  6
CONTINUOUS
 62
  250
 10
141.47528934554794
 20
134.8179911168919
 11
141.58968257979998
 21
134.87018094385792
  0
LINE
  8
_0-0_
  6
CONTINUOUS
 62
  250
 10
141.58968257979998
 20
134.87018094385792
 11
141.67522716598199
 21
134.90868554438291
  0
LINE
  8
_0-0_
  6
CONTINUOUS
 62
  250
 10
141.67522716598199
 20
134.90868554438291
 11
141.72453212814
 21
134.93073926294988
  0
LINE
  8
_0-0_
  6
CONTINUOUS
 62
  250
 10
141.72453212814
 20
134.93073926294988
 11
141.777318001553
 21
134.94738087977092
  0
LINE
  8
_0-0_
  6
CONTINUOUS
 62
  250
 10
141.777318001553
 20
134.94738087977092
 11
149.23705387191495
 21
136.90711007441189
  0
LINE
  8
_0-0_
  6
CONTINUOUS
 62
  250
 10
149.23705387191495
 20
136.90711007441189
 11
149.24549388961498
 21
136.90036282862292
  0
LINE
  8
_0-0_
  6
CONTINUOUS
 62
  250
 10
149.24549388961498
 20
136.90036282862292
 11
149.26776218490295
 21
136.87990651453592
  0
LINE
  8
_0-0_
  6
CONTINUOUS
 62
  250
 10
149.26776218490295
 20
136.87990651453592
 11
149.29942417220801
 21
136.8453596624249
  0
LINE
  8
_0-0_
  6
CONTINUOUS
 62
  250
 10
149.29942417220801
 20
136.8453596624249
 11
149.33604526595801
 21
136.79626927698789
  0
LINE
  8
_0-0_
  6
CONTINUOUS
 62
  250
 10
149.33604526595801
 20
136.79626927698789
 11
149.37314319686595
 21
136.73227773035688
  0
LINE
  8
_0-0_
  6
CONTINUOUS
 62
  250
 10
149.37314319686595
 20
136.73227773035688
 11
149.40623569564497
 21
136.6530035528059
  0
LINE
  8
_0-0_
  6
CONTINUOUS
 62
  250
 10
149.40623569564497
 20
136.6530035528059
 11
149.43088817672398
 21
136.55806527460689
  0
LINE
  8
_0-0_
  6
CONTINUOUS
 62
  250
 10
149.43088817672398
 20
136.55806527460689
 11
149.44257068709996
 21
136.44703374231992
  0
LINE
  8
_0-0_
  6
CONTINUOUS
 62
  250
 10
149.44257068709996
 20
136.44703374231992
 11
149.43684864120198
 21
136.31952748621592
  0
LINE
  8
_0-0_
  6
CONTINUOUS
 62
  250
 10
149.43684864120198
 20
136.31952748621592
 11
149.40923976974202
 21
136.17516503656992
  0
LINE
  8
_0-0_
  6
CONTINUOUS
 62
  250
 10
149.40923976974202
 20
136.17516503656992
 11
141.98006916122097
 21
134.22378049219787
  0
LINE
  8
_0-0_
  6
CONTINUOUS
 62
  250
 10
141.98006916122097
 20
134.22378049219787
 11
141.89380931930194
 21
134.18560967768289
  0
LINE
  8
_0-0_
  6
CONTINUOUS
 62
  250
 10
141.89380931930194
 20
134.18560967768289
 11
141.79043102340393
 21
134.13902268732687
  0
LINE
  8
_0-0_
  6
CONTINUOUS
 62
  250
 10
141.79043102340393
 20
134.13902268732687
 11
141.67460727767596
 21
134.08580766047191
  0
LINE
  8
_0-0_
  6
CONTINUOUS
 62
  250
 10
141.67460727767596
 20
134.08580766047191
 11
141.55082035140697
 21
134.02772889460192
  0
LINE
  8
_0-0_
  6
CONTINUOUS
 62
  250
 10
141.55082035140697
 20
134.02772889460192
 11
141.423457146451
 21
133.9666460546369
  0
LINE
  8
_0-0_
  6
CONTINUOUS
 62
  250
 10
141.423457146451
 20
133.9666460546369
 11
141.29728603439
 21
133.90439496363291
  0
LINE
  8
_0-0_
  6
CONTINUOUS
 62
  250
 10
141.29728603439
 20
133.90439496363291
 11
141.17669391708097
 21
133.84269223536191
  0
LINE
  8
_0-0_
  6
CONTINUOUS
 62
  250
 10
141.17669391708097
 20
133.84269223536191
 11
141.06630611495694
 21
133.78342137659689
  0
LINE
  8
_0-0_
  6
CONTINUOUS
 62
  250
 10
141.06630611495694
 20
133.78342137659689
 11
140.97055721358993
 21
133.72837052668191
  0
LINE
  8
_0-0_
  6
CONTINUOUS
 62
  250
 10
140.97055721358993
 20
133.72837052668191
 11
140.89397716598199
 21
133.67935166681889
  0
LINE
  8
_0-0_
  6
CONTINUOUS
 62
  250
 10
140.89397716598199
 20
133.67935166681889
 11
140.78716564254501
 21
133.60928044642091
  0
LINE
  8
_0-0_
  6
CONTINUOUS
 62
  250
 10
140.78716564254501
 20
133.60928044642091
 11
140.66480922775
 21
133.53777871454892
  0
LINE
  8
_0-0_
  6
CONTINUOUS
 62
  250
 10
140.66480922775
 20
133.53777871454892
 11
140.532677651212
 21
133.46668229426086
  0
LINE
  8
_0-0_
  6
CONTINUOUS
 62
  250
 10
140.532677651212
 20
133.46668229426086
 11
140.39639759139703
 21
133.39780316675791
  0
LINE
  8
_0-0_
  6
CONTINUOUS
 62
  250
 10
140.39639759139703
 20
133.39780316675791
 11
140.26188182906799
 21
133.33297715509991
  0
LINE
  8
_0-0_
  6
CONTINUOUS
 62
  250
 10
140.26188182906799
 20
133.33297715509991
 11
140.13480472640697
 21
133.27404008234691
  0
LINE
  8
_0-0_
  6
CONTINUOUS
 62
  250
 10
140.13480472640697
 20
133.27404008234691
 11
140.02093601302795
 21
133.22278008783988
  0
LINE
  8
_0-0_
  6
CONTINUOUS
 62
  250
 10
140.02093601302795
 20
133.22278008783988
 11
139.92604541854598
 21
133.1810806783549
  0
LINE
  8
_0-0_
  6
CONTINUOUS
 62
  250
 10
139.92604541854598
 20
133.1810806783549
 11
139.85590267257396
 21
133.15068230951891
  0
LINE
  8
_0-0_
  6
CONTINUOUS
 62
  250
 10
139.85590267257396
 20
133.15068230951891
 11
139.81622982101101
 21
133.13349232996592
  0
LINE
  8
_0-0_
  6
CONTINUOUS
 62
  250
 10
139.81622982101101
 20
133.13349232996592
 11
139.767592430875
 21
133.11820969904591
  0
LINE
  8
_0-0_
  6
CONTINUOUS
 62
  250
 10
132.652705193326
 20
132.02212796534189
 11
139.50547504500994
 21
133.81517873133294
  0
LINE
  8
_0-0_
  6
CONTINUOUS
 62
  250
 10
139.50547504500994
 20
133.81517873133294
 11
139.51563167647993
 21
133.81975636805188
  0
LINE
  8
_0-0_
  6
CONTINUOUS
 62
  250
 10
139.51563167647993
 20
133.81975636805188
 11
139.52602672652893
 21
133.82435784662891
  0
LINE
  8
_0-0_
  6
CONTINUOUS
 62
  250
 10
139.52602672652893
 20
133.82435784662891
 11
139.53666019515697
 21
133.8289354833469
  0
LINE
  8
_0-0_
  6
CONTINUOUS
 62
  250
 10
139.53666019515697
 20
133.8289354833469
 11
139.54748439864801
 21
133.83351312006593
  0
LINE
  8
_0-0_
  6
CONTINUOUS
 62
  250
 10
139.54748439864801
 20
133.83351312006593
 11
139.55864238814996
 21
133.83809075678488
  0
LINE
  8
_0-0_
  6
CONTINUOUS
 62
  250
 10
139.55864238814996
 20
133.83809075678488
 11
139.569991112515
 21
133.84269223536191
  0
LINE
  8
_0-0_
  6
CONTINUOUS
 62
  250
 10
139.569991112515
 20
133.84269223536191
 11
139.58162593917498
 21
133.84726987207989
  0
LINE
  8
_0-0_
  6
CONTINUOUS
 62
  250
 10
139.58162593917498
 20
133.84726987207989
 11
139.59354686813094
 21
133.85184750879893
  0
LINE
  8
_0-0_
  6
CONTINUOUS
 62
  250
 10
139.59354686813094
 20
133.85184750879893
 11
139.60565853194896
 21
133.8564489873759
  0
LINE
  8
_0-0_
  6
CONTINUOUS
 62
  250
 10
139.60565853194896
 20
133.8564489873759
 11
139.61800861434597
 21
133.8610266240949
  0
LINE
  8
_0-0_
  6
CONTINUOUS
 62
  250
 10
140.78816700057698
 20
133.33364472712191
 11
132.77010250167498
 21
131.22807488764391
  0
LINE
  8
_0-0_
  6
CONTINUOUS
 62
  250
 10
140.99163341598199
 20
132.60670647944093
 11
141.06649684981994
 21
132.61493192041988
  0
LINE
  8
_0-0_
  6
CONTINUOUS
 62
  250
 10
141.06649684981994
 20
132.61493192041988
 11
141.157048226163
 21
132.62418256128888
  0
LINE
  8
_0-0_
  6
CONTINUOUS
 62
  250
 10
141.157048226163
 20
132.62418256128888
 11
141.25956821517596
 21
132.63374314631091
  0
LINE
  8
_0-0_
  6
CONTINUOUS
 62
  250
 10
141.25956821517596
 20
132.63374314631091
 11
141.37043285445898
 21
132.64304147089592
  0
LINE
  8
_0-0_
  6
CONTINUOUS
 62
  250
 10
141.37043285445898
 20
132.64304147089592
 11
141.48587513045996
 21
132.65133843744891
  0
LINE
  8
_0-0_
  6
CONTINUOUS
 62
  250
 10
141.48587513045996
 20
132.65133843744891
 11
141.60231876449299
 21
132.6580141576639
  0
LINE
  8
_0-0_
  6
CONTINUOUS
 62
  250
 10
141.60231876449299
 20
132.6580141576639
 11
141.71604442672398
 21
132.66240105951891
  0
LINE
  8
_0-0_
  6
CONTINUOUS
 62
  250
 10
141.71604442672398
 20
132.66240105951891
 11
141.82333278731994
 21
132.66387925470991
  0
LINE
  8
_0-0_
  6
CONTINUOUS
 62
  250
 10
141.82333278731994
 20
132.66387925470991
 11
141.92060756759295
 21
132.66173348749791
  0
LINE
  8
_0-0_
  6
CONTINUOUS
 62
  250
 10
141.92060756759295
 20
132.66173348749791
 11
142.00410175399495
 21
132.65532002771991
  0
LINE
  8
_0-0_
  6
CONTINUOUS
 62
  250
 10
142.00410175399495
 20
132.65532002771991
 11
142.13341999129901
 21
132.64754758204089
  0
LINE
  8
_0-0_
  6
CONTINUOUS
 62
  250
 10
142.13341999129901
 20
132.64754758204089
 11
142.28538799361897
 21
132.64595017756091
  0
LINE
  8
_0-0_
  6
CONTINUOUS
 62
  250
 10
142.28538799361897
 20
132.64595017756091
 11
142.45218563155797
 21
132.64933572138489
  0
LINE
  8
_0-0_
  6
CONTINUOUS
 62
  250
 10
142.45218563155797
 20
132.64933572138489
 11
142.62599277572301
 21
132.65653596247287
  0
LINE
  8
_0-0_
  6
CONTINUOUS
 62
  250
 10
142.62599277572301
 20
132.65653596247287
 11
142.799084664151
 21
132.6664303335059
  0
LINE
  8
_0-0_
  6
CONTINUOUS
 62
  250
 10
142.799084664151
 20
132.6664303335059
 11
142.96364116744701
 21
132.67780289972893
  0
LINE
  8
_0-0_
  6
CONTINUOUS
 62
  250
 10
142.96364116744701
 20
132.67780289972893
 11
143.111842156216
 21
132.68955693567889
  0
LINE
  8
_0-0_
  6
CONTINUOUS
 62
  250
 10
143.111842156216
 20
132.68955693567889
 11
143.235867501065
 21
132.70042882288593
  0
LINE
  8
_0-0_
  6
CONTINUOUS
 62
  250
 10
143.235867501065
 20
132.70042882288593
 11
143.328087807462
 21
132.7093218358869
  0
LINE
  8
_0-0_
  6
CONTINUOUS
 62
  250
 10
143.328087807462
 20
132.7093218358869
 11
143.38049221114801
 21
132.71504388178488
  0
LINE
  8
_0-0_
  6
CONTINUOUS
 62
  250
 10
143.38049221114801
 20
132.71504388178488
 11
143.43742656783797
 21
132.72477135981188
  0
LINE
  8
_0-0_
  6
CONTINUOUS
 62
  250
 10
143.43742656783797
 20
132.72477135981188
 11
149.51800632552795
 21
134.38170895899393
  0
LINE
  8
_0-0_
  6
CONTINUOUS
 62
  250
 10
149.51800632552795
 20
134.38170895899393
 11
149.52911663131403
 21
135.12476430262188
  0
LINE
  8
_0-0_
  6
CONTINUOUS
 62
  250
 10
149.52911663131403
 20
135.12476430262188
 11
143.29304027633398
 21
133.46644387568088
  0
LINE
  8
_0-0_
  6
CONTINUOUS
 62
  250
 10
143.29304027633398
 20
133.46644387568088
 11
143.20010471419994
 21
133.45740781153393
  0
LINE
  8
_0-0_
  6
CONTINUOUS
 62
  250
 10
143.20010471419994
 20
133.45740781153393
 11
143.08804798202203
 21
133.44746575678488
  0
LINE
  8
_0-0_
  6
CONTINUOUS
 62
  250
 10
143.08804798202203
 20
133.44746575678488
 11
142.96163845138202
 21
133.43723759974188
  0
LINE
  8
_0-0_
  6
CONTINUOUS
 62
  250
 10
142.96163845138202
 20
133.43723759974188
 11
142.82583522872594
 21
133.4273670705669
  0
LINE
  8
_0-0_
  6
CONTINUOUS
 62
  250
 10
142.82583522872594
 20
133.4273670705669
 11
142.68554973678295
 21
133.41852174128192
  0
LINE
  8
_0-0_
  6
CONTINUOUS
 62
  250
 10
142.68554973678295
 20
133.41852174128192
 11
142.54559803084996
 21
133.41134534205091
  0
LINE
  8
_0-0_
  6
CONTINUOUS
 62
  250
 10
142.54559803084996
 20
133.41134534205091
 11
142.41093921737394
 21
133.40645776117992
  0
LINE
  8
_0-0_
  6
CONTINUOUS
 62
  250
 10
142.41093921737394
 20
133.40645776117992
 11
142.28643703536702
 21
133.40457425440491
  0
LINE
  8
_0-0_
  6
CONTINUOUS
 62
  250
 10
142.28643703536702
 20
133.40457425440491
 11
142.17695522384295
 21
133.40629086817393
  0
LINE
  8
_0-0_
  6
CONTINUOUS
 62
  250
 10
142.17695522384295
 20
133.40629086817393
 11
142.08745288924894
 21
133.41227517450989
  0
LINE
  8
_0-0_
  6
CONTINUOUS
 62
  250
 10
142.08745288924894
 20
133.41227517450989
 11
141.96171093063094
 21
133.4201429876199
  0
LINE
  8
_0-0_
  6
CONTINUOUS
 62
  250
 10
141.96171093063094
 20
133.4201429876199
 11
141.82175922469798
 21
133.4219549688209
  0
LINE
  8
_0-0_
  6
CONTINUOUS
 62
  250
 10
141.82175922469798
 20
133.4219549688209
 11
141.67346286849698
 21
133.41890321100888
  0
LINE
  8
_0-0_
  6
CONTINUOUS
 62
  250
 10
141.67346286849698
 20
133.41890321100888
 11
141.52268695907298
 21
133.41210828150392
  0
LINE
  8
_0-0_
  6
CONTINUOUS
 62
  250
 10
141.52268695907298
 20
133.41210828150392
 11
141.37529659347194
 21
133.40271458948789
  0
LINE
  8
_0-0_
  6
CONTINUOUS
 62
  250
 10
141.37529659347194
 20
133.40271458948789
 11
141.23715686874095
 21
133.39186654413891
  0
LINE
  8
_0-0_
  6
CONTINUOUS
 62
  250
 10
141.23715686874095
 20
133.39186654413891
 11
141.11408519820898
 21
133.3806847127789
  0
LINE
  8
_0-0_
  6
CONTINUOUS
 62
  250
 10
141.11408519820898
 20
133.3806847127789
 11
141.01208973006896
 21
133.37036118830389
  0
LINE
  8
_0-0_
  6
CONTINUOUS
 62
  250
 10
141.01208973006896
 20
133.37036118830389
 11
140.93684482650497
 21
133.36196885431889
  0
LINE
  8
_0-0_
  6
CONTINUOUS
 62
  250
 10
140.93684482650497
 20
133.36196885431889
 11
140.89435863570898
 21
133.35669980372089
  0
LINE
  8
_0-0_
  6
CONTINUOUS
 62
  250
 10
140.89435863570898
 20
133.35669980372089
 11
140.84438610152893
 21
133.3455894979349
  0
LINE
  8
_0-0_
  6
CONTINUOUS
 62
  250
 10
140.84438610152893
 20
133.3455894979349
 11
140.78745174483993
 21
133.3317135366309
  0
LINE
  8
_0-0_
  6
CONTINUOUS
 62
  250
 10
132.52538967208594
 20
130.38099751795389
 11
140.99206256942401
 21
132.60739789332089
  0
LINE
  8
_0-0_
  6
CONTINUOUS
 62
  250
 10
124.87968731002495
 20
126.91961274469989
 11
123.056071282193
 21
128.86682496393792
  0
LINE
  8
_0-0_
  6
CONTINUOUS
 62
  250
 10
124.21230602340394
 20
130.7675455602519
 11
123.75954914168999
 21
131.24807820643088
  0
LINE
  8
_0-0_
  6
CONTINUOUS
 62
  250
 10
125.54148960189497
 20
129.28365216578192
 11
125.11095333175399
 21
129.7433470281469
  0
LINE
  8
_0-0_
  6
CONTINUOUS
 62
  250
 10
126.11803340987899
 20
127.6044701131689
 11
125.87498951034198
 21
127.8642033132429
  0
LINE
  8
_0-0_
  6
CONTINUOUS
 62
  250
 10
124.10244274215394
 20
130.50170884455389
 11
123.86774349288601
 21
130.75169072474188
  0
LINE
  8
_0-0_
  6
CONTINUOUS
 62
  250
 10
125.27021694259295
 20
129.25518498743688
 11
125.04104900436097
 21
129.50101838434787
  0
LINE
  8
_0-0_
  6
CONTINUOUS
 62
  250
 10
123.83260059432698
 20
130.69435105646789
 11
123.64234256820401
 21
130.89710221613586
  0
LINE
  8
_0-0_
  6
CONTINUOUS
 62
  250
 10
124.26246929244699
 20
129.28503499353991
 11
124.06939792708994
 21
129.48780999506593
  0
LINE
  8
_0-0_
  6
CONTINUOUS
 62
  250
 10
125.44383335189497
 20
128.94059167231188
 11
125.24661350326198
 21
129.15168748224889
  0
LINE
  8
_0-0_
  6
CONTINUOUS
 62
  250
 10
123.36592006759295
 20
129.03281197870891
 11
123.196452141568
 21
129.21751485193889
  0
LINE
  8
_0-0_
  6
CONTINUOUS
 62
  250
 10
124.75623416976597
 20
127.43628964747089
 11
123.34231662826198
 21
128.94462094629893
  0
LINE
  8
_0-0_
  6
CONTINUOUS
 62
  250
 10
128.53774356917995
 20
130.03781781519589
 11
127.83774662093793
 21
130.78502164209988
  0
LINE
  8
_0-0_
  6
CONTINUOUS
 62
  250
 10
127.896111489102
 20
130.4325436147559
 11
127.637761116788
 21
130.73810086573292
  0
LINE
  8
_0-0_
  6
CONTINUOUS
 62
  250
 10
127.69274044112899
 20
130.39725766504893
 11
127.45246219710999
 21
130.6847666295879
  0
LINE
  8
_0-0_
  6
CONTINUOUS
 62
  250
 10
125.54430294112899
 20
129.28782449091588
 11
125.444310189053
 21
128.94059167231188
  0
LINE
  8
_0-0_
  6
CONTINUOUS
 62
  250
 10
124.20548725204199
 20
130.7499025853979
 11
124.12771511153898
 21
130.4818724187719
  0
LINE
  8
_0-0_
  6
CONTINUOUS
 62
  250
 10
125.10885524825702
 20
129.74351392115287
 11
125.04219341354101
 21
129.50740800226788
  0
LINE
  8
_0-0_
  6
CONTINUOUS
 62
  250
 10
125.27021694259295
 20
129.25518498743688
 11
125.24380016402894
 21
129.15934071863791
  0
LINE
  8
_0-0_
  6
CONTINUOUS
 62
  250
 10
126.56010913924894
 20
129.19822678888889
 11
126.10315609054297
 21
127.6038025411479
  0
LINE
  8
_0-0_
  6
CONTINUOUS
 62
  250
 10
126.25636386947301
 20
129.13046822870891
 11
125.89525508956596
 21
127.85964951838189
  0
LINE
  8
_0-0_
  6
CONTINUOUS
 62
  250
 10
124.62190914229998
 20
130.59252248133294
 11
124.24549388961496
 21
129.2758558782449
  0
LINE
  8
_0-0_
  6
CONTINUOUS
 62
  250
 10
124.35201931075702
 20
130.52614674891092
 11
124.05618953780797
 21
129.4886683019509
  0
LINE
  8
_0-0_
  6
CONTINUOUS
 62
  250
 10
123.18152713851597
 20
129.27421079004893
 11
123.066227913663
 21
128.87283311213187
  0
LINE
  8
_0-0_
  6
CONTINUOUS
 62
  250
 10
123.74038028792995
 20
131.2286470922339
 11
123.64315319137296
 21
130.9008930715429
  0
LINE
  8
_0-0_
  6
CONTINUOUS
 62
  250
 10
123.36329746322301
 20
129.03405175531992
 11
123.33416271285698
 21
128.93961415613791
  0
LINE
  8
_0-0_
  6
CONTINUOUS
 62
  250
 10
123.847477913663
 20
130.73225961054487
 11
123.83775043563494
 21
130.69754586542791
  0
LINE
  8
_0-0_
  6
CONTINUOUS
 62
  250
 10
128.54174900130894
 20
130.02561078394589
 11
127.868168831632
 21
127.6617144140119
  0
LINE
  8
_0-0_
  6
CONTINUOUS
 62
  250
 10
125.55650997237899
 20
129.28503499353991
 11
128.50651073531799
 21
130.01419053400687
  0
LINE
  8
_0-0_
  6
CONTINUOUS
 62
  250
 10
125.45747089461995
 20
128.94321427668191
 11
126.55190754012793
 21
129.21126828516589
  0
LINE
  8
_0-0_
  6
CONTINUOUS
 62
  250
 10
124.79690837936097
 20
127.57602677668191
 11
125.88996219710999
 21
127.84963593805891
  0
LINE
  8
_0-0_
  6
CONTINUOUS
 62
  250
 10
123.19230365829199
 20
129.27559361780789
 11
124.04231357650497
 21
129.48809609736088
  0
LINE
  8
_0-0_
  6
CONTINUOUS
 62
  250
 10
124.99355602340394
 20
127.3237799199929
 11
126.08384418563494
 21
127.59462342585192
  0
LINE
  8
_0-0_
  6
CONTINUOUS
 62
  250
 10
123.75525760726597
 20
131.25852094019589
 11
126.70940685348198
 21
131.98905930842091
  0
LINE
  8
_0-0_
  6
CONTINUOUS
 62
  250
 10
124.25565052108496
 20
130.7743404897559
 11
125.89177417831098
 21
131.17991433466588
  0
LINE
  8
_0-0_
  6
CONTINUOUS
 62
  250
 10
124.168818474576
 20
130.47862992609691
 11
126.06052684859898
 21
130.96059308374993
  0
LINE
  8
_0-0_
  6
CONTINUOUS
 62
  250
 10
124.478190422818
 20
130.2182291540019
 11
126.32402706222194
 21
130.68488583887691
  0
LINE
  8
_0-0_
  6
CONTINUOUS
 62
  250
 10
124.55953884200702
 20
129.91574750269589
 11
127.47201252059597
 21
130.65184102381389
  0
LINE
  8
_0-0_
  6
CONTINUOUS
 62
  250
 10
123.85291385726597
 20
130.68879590357488
 11
123.91261386947301
 21
130.7040785344949
  0
LINE
  8
_0-0_
  6
CONTINUOUS
 62
  250
 10
123.38494587020597
 20
129.05045495356188
 11
125.04467296676296
 21
129.48101506556188
  0
LINE
  8
_0-0_
  6
CONTINUOUS
 62
  250
 10
123.35109043197301
 20
128.92836079920389
 11
125.07328319625594
 21
129.38252435053488
  0
LINE
  8
_0-0_
  6
CONTINUOUS
 62
  250
 10
125.11967945174894
 20
129.75154862726788
 11
127.88633632735893
 21
130.43211446131389
  0
LINE
  8
_0-0_
  6
CONTINUOUS
 62
  250
 10
124.87687397079199
 20
126.91143498743688
 11
127.84771251754501
 21
127.64476285303689
  0
LINE
  8
_0-0_
  6
CONTINUOUS
 62
  250
 10
132.81010913924894
 20
131.58670411432888
 11
131.69903087692001
 21
132.7728127035009
  0
LINE
  8
_0-0_
  6
CONTINUOUS
 62
  250
 10
131.95566463546493
 20
129.35157761896789
 11
131.75563144759801
 21
129.56129060114489
  0
LINE
  8
_0-0_
  6
CONTINUOUS
 62
  250
 10
132.81010913924894
 20
131.57864556635491
 11
132.18926715926793
 21
129.4050310644019
  0
LINE
  8
_0-0_
  6
CONTINUOUS
 62
  250
 10
132.05608654098199
 20
129.64309201563489
 11
131.96992206649495
 21
129.3444965871679
  0
LINE
  8
_0-0_
  6
CONTINUOUS
 62
  250
 10
130.74178028182698
 20
132.5415705236309
 11
131.70284557418501
 21
132.78184876764888
  0
LINE
  8
_0-0_
  6
CONTINUOUS
 62
  250
 10
128.21482944564497
 20
130.41072831476788
 11
132.80648517684597
 21
131.55933366144788
  0
LINE
  8
_0-0_
  6
CONTINUOUS
 62
  250
 10
127.95986461715394
 20
130.66309438074688
 11
129.05706691817898
 21
130.93672738398189
  0
LINE
  8
_0-0_
  6
CONTINUOUS
 62
  250
 10
128.18512249068903
 20
128.6706064733379
 11
132.05594348983496
 21
129.63865743006389
  0
LINE
  8
_0-0_
  6
CONTINUOUS
 62
  250
 10
131.97469043807698
 20
129.3365572484839
 11
132.18440342025497
 21
129.3893431218969
  0
LINE
  8
_0-0_
  6
CONTINUOUS
 62
  250
 10
124.63273334579199
 20
130.02296433771789
 11
124.62329197005894
 21
129.99766812647488
  0
LINE
  8
_0-0_
  6
CONTINUOUS
 62
  250
 10
124.62329197005894
 20
129.99766812647488
 11
124.61103725509295
 21
129.97451768244389
  0
LINE
  8
_0-0_
  6
CONTINUOUS
 62
  250
 10
124.61103725509295
 20
129.97451768244389
 11
124.596302986905
 21
129.95379910791988
  0
LINE
  8
_0-0_
  6
CONTINUOUS
 62
  250
 10
124.596302986905
 20
129.95379910791988
 11
124.57937526778898
 21
129.93579850519788
  0
LINE
  8
_0-0_
  6
CONTINUOUS
 62
  250
 10
124.57937526778898
 20
129.93579850519788
 11
124.56068325118696
 21
129.92087350214592
  0
LINE
  8
_0-0_
  6
CONTINUOUS
 62
  250
 10
124.56068325118696
 20
129.92087350214592
 11
124.54056072311097
 21
129.90926251734388
  0
LINE
  8
_0-0_
  6
CONTINUOUS
 62
  250
 10
124.54056072311097
 20
129.90926251734388
 11
124.51929378585493
 21
129.90127549494389
  0
LINE
  8
_0-0_
  6
CONTINUOUS
 62
  250
 10
124.51929378585493
 20
129.90127549494389
 11
124.49726390914594
 21
129.89722237909891
  0
LINE
  8
_0-0_
  6
CONTINUOUS
 62
  250
 10
124.49726390914594
 20
129.89722237909891
 11
124.47475719527894
 21
129.8973892721049
  0
LINE
  8
_0-0_
  6
CONTINUOUS
 62
  250
 10
124.47475719527894
 20
129.8973892721049
 11
124.45220279769593
 21
129.90210995997089
  0
LINE
  8
_0-0_
  6
CONTINUOUS
 62
  250
 10
124.45220279769593
 20
129.90210995997089
 11
124.43155574874601
 21
129.90995393122287
  0
LINE
  8
_0-0_
  6
CONTINUOUS
 62
  250
 10
124.43155574874601
 20
129.90995393122287
 11
124.41310215072301
 21
129.92156491602589
  0
LINE
  8
_0-0_
  6
CONTINUOUS
 62
  250
 10
124.41310215072301
 20
129.92156491602589
 11
124.39703273849202
 21
129.9365376027929
  0
LINE
  8
_0-0_
  6
CONTINUOUS
 62
  250
 10
124.39703273849202
 20
129.9365376027929
 11
124.38358593063094
 21
129.95444283808391
  0
LINE
  8
_0-0_
  6
CONTINUOUS
 62
  250
 10
124.38358593063094
 20
129.95444283808391
 11
124.37285709457093
 21
129.97487531031291
  0
LINE
  8
_0-0_
  6
CONTINUOUS
 62
  250
 10
124.37285709457093
 20
129.97487531031291
 11
124.36508464889195
 21
129.99740586603792
  0
LINE
  8
_0-0_
  6
CONTINUOUS
 62
  250
 10
124.36508464889195
 20
129.99740586603792
 11
124.36045932845801
 21
130.02167687738992
  0
LINE
  8
_0-0_
  6
CONTINUOUS
 62
  250
 10
124.36045932845801
 20
130.02167687738992
 11
124.35917186813094
 21
130.04728303278591
  0
LINE
  8
_0-0_
  6
CONTINUOUS
 62
  250
 10
124.35917186813094
 20
130.04728303278591
 11
124.36146068648996
 21
130.07374749506593
  0
LINE
  8
_0-0_
  6
CONTINUOUS
 62
  250
 10
124.36146068648996
 20
130.07374749506593
 11
124.36746883468297
 21
130.10073647822088
  0
LINE
  8
_0-0_
  6
CONTINUOUS
 62
  250
 10
124.36746883468297
 20
130.10073647822088
 11
124.376194954678
 21
130.12591348017392
  0
LINE
  8
_0-0_
  6
CONTINUOUS
 62
  250
 10
124.376194954678
 20
130.12591348017392
 11
124.38792514876997
 21
130.1487778219099
  0
LINE
  8
_0-0_
  6
CONTINUOUS
 62
  250
 10
124.38792514876997
 20
130.1487778219099
 11
124.40232563094797
 21
130.16913876856489
  0
LINE
  8
_0-0_
  6
CONTINUOUS
 62
  250
 10
124.40232563094797
 20
130.16913876856489
 11
124.419062615201
 21
130.18675790155987
  0
LINE
  8
_0-0_
  6
CONTINUOUS
 62
  250
 10
124.419062615201
 20
130.18675790155987
 11
124.437611580655
 21
130.2014206441749
  0
LINE
  8
_0-0_
  6
CONTINUOUS
 62
  250
 10
124.437611580655
 20
130.2014206441749
 11
124.45763874129901
 21
130.21293626154591
  0
LINE
  8
_0-0_
  6
CONTINUOUS
 62
  250
 10
124.45763874129901
 20
130.21293626154591
 11
124.47885799483993
 21
130.2210424932349
  0
LINE
  8
_0-0_
  6
CONTINUOUS
 62
  250
 10
124.47885799483993
 20
130.2210424932349
 11
124.50074482040101
 21
130.22557244623789
  0
LINE
  8
_0-0_
  6
CONTINUOUS
 62
  250
 10
124.50074482040101
 20
130.22557244623789
 11
124.52301311568901
 21
130.22628770197491
  0
LINE
  8
_0-0_
  6
CONTINUOUS
 62
  250
 10
124.52301311568901
 20
130.22628770197491
 11
124.545281410977
 21
130.22294984186789
  0
LINE
  8
_0-0_
  6
CONTINUOUS
 62
  250
 10
124.545281410977
 20
130.22294984186789
 11
124.56630992965394
 21
130.2146528753149
  0
LINE
  8
_0-0_
  6
CONTINUOUS
 62
  250
 10
124.56630992965394
 20
130.2146528753149
 11
124.58500194625594
 21
130.20254121149691
  0
LINE
  8
_0-0_
  6
CONTINUOUS
 62
  250
 10
124.58500194625594
 20
130.20254121149691
 11
124.60135746078195
 21
130.1870916875709
  0
LINE
  8
_0-0_
  6
CONTINUOUS
 62
  250
 10
124.60135746078195
 20
130.1870916875709
 11
124.61504268722194
 21
130.1687572988379
  0
LINE
  8
_0-0_
  6
CONTINUOUS
 62
  250
 10
124.61504268722194
 20
130.1687572988379
 11
124.62596225814497
 21
130.14794335688291
  0
LINE
  8
_0-0_
  6
CONTINUOUS
 62
  250
 10
124.62596225814497
 20
130.14794335688291
 11
124.63392543868696
 21
130.12515054072088
  0
LINE
  8
_0-0_
  6
CONTINUOUS
 62
  250
 10
124.63392543868696
 20
130.12515054072088
 11
124.638789177701
 21
130.10078416193591
  0
LINE
  8
_0-0_
  6
CONTINUOUS
 62
  250
 10
124.638789177701
 20
130.10078416193591
 11
124.64031505660698
 21
130.07536874140391
  0
LINE
  8
_0-0_
  6
CONTINUOUS
 62
  250
 10
124.64031505660698
 20
130.07536874140391
 11
124.63836002425799
 21
130.04926190699291
  0
LINE
  8
_0-0_
  6
CONTINUOUS
 62
  250
 10
124.63836002425799
 20
130.04926190699291
 11
124.63273334579199
 21
130.02296433771789
  0
LINE
  8
_0-0_
  6
CONTINUOUS
 62
  250
 10
124.63273334579199
 20
130.02296433771789
 11
124.62329197005894
 21
129.99766812647488
  0
LINE
  8
_0-0_
  6
CONTINUOUS
 62
  250
 10
124.62329197005894
 20
129.99766812647488
 11
124.61103725509295
 21
129.97451768244389
  0
LINE
  8
_0-0_
  6
CONTINUOUS
 62
  250
 10
124.61103725509295
 20
129.97451768244389
 11
124.596302986905
 21
129.95379910791988
  0
LINE
  8
_0-0_
  6
CONTINUOUS
 62
  250
 10
124.596302986905
 20
129.95379910791988
 11
124.57937526778898
 21
129.93579850519788
  0
LINE
  8
_0-0_
  6
CONTINUOUS
 62
  250
 10
124.57937526778898
 20
129.93579850519788
 11
124.56068325118696
 21
129.92087350214592
  0
LINE
  8
_0-0_
  6
CONTINUOUS
 62
  250
 10
124.56068325118696
 20
129.92087350214592
 11
124.54056072311097
 21
129.90926251734388
  0
LINE
  8
_0-0_
  6
CONTINUOUS
 62
  250
 10
124.54056072311097
 20
129.90926251734388
 11
124.51929378585493
 21
129.90127549494389
  0
LINE
  8
_0-0_
  6
CONTINUOUS
 62
  250
 10
124.51929378585493
 20
129.90127549494389
 11
124.49726390914594
 21
129.89722237909891
  0
LINE
  8
_0-0_
  6
CONTINUOUS
 62
  250
 10
124.49726390914594
 20
129.89722237909891
 11
124.47475719527894
 21
129.8973892721049
  0
LINE
  8
_0-0_
  6
CONTINUOUS
 62
  250
 10
124.47475719527894
 20
129.8973892721049
 11
124.45220279769593
 21
129.90210995997089
  0
LINE
  8
_0-0_
  6
CONTINUOUS
 62
  250
 10
124.45220279769593
 20
129.90210995997089
 11
124.43155574874601
 21
129.90995393122287
  0
LINE
  8
_0-0_
  6
CONTINUOUS
 62
  250
 10
124.43155574874601
 20
129.90995393122287
 11
124.41310215072301
 21
129.92156491602589
  0
LINE
  8
_0-0_
  6
CONTINUOUS
 62
  250
 10
124.41310215072301
 20
129.92156491602589
 11
124.39703273849202
 21
129.9365376027929
  0
LINE
  8
_0-0_
  6
CONTINUOUS
 62
  250
 10
124.39703273849202
 20
129.9365376027929
 11
124.38358593063094
 21
129.95444283808391
  0
LINE
  8
_0-0_
  6
CONTINUOUS
 62
  250
 10
124.38358593063094
 20
129.95444283808391
 11
124.37285709457093
 21
129.97487531031291
  0
LINE
  8
_0-0_
  6
CONTINUOUS
 62
  250
 10
124.37285709457093
 20
129.97487531031291
 11
124.36508464889195
 21
129.99740586603792
  0
LINE
  8
_0-0_
  6
CONTINUOUS
 62
  250
 10
124.36508464889195
 20
129.99740586603792
 11
124.36045932845801
 21
130.02167687738992
  0
LINE
  8
_0-0_
  6
CONTINUOUS
 62
  250
 10
124.36045932845801
 20
130.02167687738992
 11
124.35917186813094
 21
130.04728303278591
  0
LINE
  8
_0-0_
  6
CONTINUOUS
 62
  250
 10
124.35917186813094
 20
130.04728303278591
 11
124.36146068648996
 21
130.07374749506593
  0
LINE
  8
_0-0_
  6
CONTINUOUS
 62
  250
 10
124.36146068648996
 20
130.07374749506593
 11
124.36746883468297
 21
130.10073647822088
  0
LINE
  8
_0-0_
  6
CONTINUOUS
 62
  250
 10
124.36746883468297
 20
130.10073647822088
 11
124.376194954678
 21
130.12591348017392
  0
LINE
  8
_0-0_
  6
CONTINUOUS
 62
  250
 10
124.376194954678
 20
130.12591348017392
 11
124.38792514876997
 21
130.1487778219099
  0
LINE
  8
_0-0_
  6
CONTINUOUS
 62
  250
 10
124.38792514876997
 20
130.1487778219099
 11
124.40232563094797
 21
130.16913876856489
  0
LINE
  8
_0-0_
  6
CONTINUOUS
 62
  250
 10
124.40232563094797
 20
130.16913876856489
 11
124.419062615201
 21
130.18675790155987
  0
LINE
  8
_0-0_
  6
CONTINUOUS
 62
  250
 10
124.419062615201
 20
130.18675790155987
 11
124.437611580655
 21
130.2014206441749
  0
LINE
  8
_0-0_
  6
CONTINUOUS
 62
  250
 10
124.437611580655
 20
130.2014206441749
 11
124.45763874129901
 21
130.21293626154591
  0
LINE
  8
_0-0_
  6
CONTINUOUS
 62
  250
 10
124.45763874129901
 20
130.21293626154591
 11
124.47885799483993
 21
130.2210424932349
  0
LINE
  8
_0-0_
  6
CONTINUOUS
 62
  250
 10
124.47885799483993
 20
130.2210424932349
 11
124.50074482040101
 21
130.22557244623789
  0
LINE
  8
_0-0_
  6
CONTINUOUS
 62
  250
 10
124.50074482040101
 20
130.22557244623789
 11
124.52301311568901
 21
130.22628770197491
  0
LINE
  8
_0-0_
  6
CONTINUOUS
 62
  250
 10
124.52301311568901
 20
130.22628770197491
 11
124.545281410977
 21
130.22294984186789
  0
LINE
  8
_0-0_
  6
CONTINUOUS
 62
  250
 10
124.545281410977
 20
130.22294984186789
 11
124.56630992965394
 21
130.2146528753149
  0
LINE
  8
_0-0_
  6
CONTINUOUS
 62
  250
 10
124.56630992965394
 20
130.2146528753149
 11
124.58500194625594
 21
130.20254121149691
  0
LINE
  8
_0-0_
  6
CONTINUOUS
 62
  250
 10
124.58500194625594
 20
130.20254121149691
 11
124.60135746078195
 21
130.1870916875709
  0
LINE
  8
_0-0_
  6
CONTINUOUS
 62
  250
 10
124.60135746078195
 20
130.1870916875709
 11
124.61504268722194
 21
130.1687572988379
  0
LINE
  8
_0-0_
  6
CONTINUOUS
 62
  250
 10
124.61504268722194
 20
130.1687572988379
 11
124.62596225814497
 21
130.14794335688291
  0
LINE
  8
_0-0_
  6
CONTINUOUS
 62
  250
 10
124.62596225814497
 20
130.14794335688291
 11
124.63392543868696
 21
130.12515054072088
  0
LINE
  8
_0-0_
  6
CONTINUOUS
 62
  250
 10
124.63392543868696
 20
130.12515054072088
 11
124.638789177701
 21
130.10078416193591
  0
LINE
  8
_0-0_
  6
CONTINUOUS
 62
  250
 10
124.638789177701
 20
130.10078416193591
 11
124.64031505660698
 21
130.07536874140391
  0
LINE
  8
_0-0_
  6
CONTINUOUS
 62
  250
 10
124.64031505660698
 20
130.07536874140391
 11
124.63836002425799
 21
130.04926190699291
  0
LINE
  8
_0-0_
  6
CONTINUOUS
 62
  250
 10
124.63836002425799
 20
130.04926190699291
 11
124.63273334579199
 21
130.02296433771789
  0
LINE
  8
_0-0_
  6
CONTINUOUS
 62
  250
 10
125.26215839461995
 20
129.22266469324688
 11
125.25376606063494
 21
129.21880231226589
  0
LINE
  8
_0-0_
  6
CONTINUOUS
 62
  250
 10
125.25376606063494
 20
129.21880231226589
 11
125.24523067550399
 21
129.21551213587389
  0
LINE
  8
_0-0_
  6
CONTINUOUS
 62
  250
 10
125.24523067550399
 20
129.21551213587389
 11
125.23655223922398
 21
129.2128418477879
  0
LINE
  8
_0-0_
  6
CONTINUOUS
 62
  250
 10
125.23655223922398
 20
129.2128418477879
 11
125.22777843551296
 21
129.21076760614991
  0
LINE
  8
_0-0_
  6
CONTINUOUS
 62
  250
 10
125.22777843551296
 20
129.21076760614991
 11
125.218956948087
 21
129.20928941095991
  0
LINE
  8
_0-0_
  6
CONTINUOUS
 62
  250
 10
125.218956948087
 20
129.20928941095991
 11
125.21008777694398
 21
129.20847878779088
  0
LINE
  8
_0-0_
  6
CONTINUOUS
 62
  250
 10
125.21008777694398
 20
129.20847878779088
 11
125.20117092208594
 21
129.20828805292791
  0
LINE
  8
_0-0_
  6
CONTINUOUS
 62
  250
 10
125.20117092208594
 20
129.20828805292791
 11
125.192301750943
 21
129.2087172063699
  0
LINE
  8
_0-0_
  6
CONTINUOUS
 62
  250
 10
125.192301750943
 20
129.2087172063699
 11
125.18348026351597
 21
129.20981393183391
  0
LINE
  8
_0-0_
  6
CONTINUOUS
 62
  250
 10
125.18348026351597
 20
129.20981393183391
 11
125.17470645980495
 21
129.21157822931889
  0
LINE
  8
_0-0_
  6
CONTINUOUS
 62
  250
 10
125.17470645980495
 20
129.21157822931889
 11
125.15329647140199
 21
129.22082887018792
  0
LINE
  8
_0-0_
  6
CONTINUOUS
 62
  250
 10
125.15329647140199
 20
129.22082887018792
 11
125.13427066878995
 21
129.2334412130229
  0
LINE
  8
_0-0_
  6
CONTINUOUS
 62
  250
 10
125.13427066878995
 20
129.2334412130229
 11
125.11767673568394
 21
129.2489861043799
  0
LINE
  8
_0-0_
  6
CONTINUOUS
 62
  250
 10
125.11767673568394
 20
129.2489861043799
 11
125.10380077438094
 21
129.26715360010792
  0
LINE
  8
_0-0_
  6
CONTINUOUS
 62
  250
 10
125.10380077438094
 20
129.26715360010792
 11
125.09273815231001
 21
129.28760991419492
  0
LINE
  8
_0-0_
  6
CONTINUOUS
 62
  250
 10
125.09273815231001
 20
129.28760991419492
 11
125.084679604337
 21
129.30997357691388
  0
LINE
  8
_0-0_
  6
CONTINUOUS
 62
  250
 10
125.084679604337
 20
129.30997357691388
 11
125.07976818160698
 21
129.3338869603979
  0
LINE
  8
_0-0_
  6
CONTINUOUS
 62
  250
 10
125.07976818160698
 20
129.3338869603979
 11
125.078242302701
 21
129.35901627863586
  0
LINE
  8
_0-0_
  6
CONTINUOUS
 62
  250
 10
125.078242302701
 20
129.35901627863586
 11
125.08014965133398
 21
129.3850277456159
  0
LINE
  8
_0-0_
  6
CONTINUOUS
 62
  250
 10
125.08014965133398
 20
129.3850277456159
 11
125.08577632979998
 21
129.4115637334699
  0
LINE
  8
_0-0_
  6
CONTINUOUS
 62
  250
 10
125.08577632979998
 20
129.4115637334699
 11
125.08701610641194
 21
129.41478238428689
  0
LINE
  8
_0-0_
  6
CONTINUOUS
 62
  250
 10
125.08701610641194
 20
129.41478238428689
 11
125.088255883023
 21
129.41776261652589
  0
LINE
  8
_0-0_
  6
CONTINUOUS
 62
  250
 10
125.088255883023
 20
129.41776261652589
 11
125.08949565963397
 21
129.42062363947491
  0
LINE
  8
_0-0_
  6
CONTINUOUS
 62
  250
 10
125.08949565963397
 20
129.42062363947491
 11
125.09068775253
 21
129.4233416112769
  0
LINE
  8
_0-0_
  6
CONTINUOUS
 62
  250
 10
125.09068775253
 20
129.4233416112769
 11
125.09187984542498
 21
129.4259642156469
  0
LINE
  8
_0-0_
  6
CONTINUOUS
 62
  250
 10
125.09187984542498
 20
129.4259642156469
 11
125.09297657088894
 21
129.4285629781599
  0
LINE
  8
_0-0_
  6
CONTINUOUS
 62
  250
 10
125.09297657088894
 20
129.4285629781599
 11
125.09407329635297
 21
129.43113789881389
  0
LINE
  8
_0-0_
  6
CONTINUOUS
 62
  250
 10
125.09407329635297
 20
129.43113789881389
 11
125.09507465438494
 21
129.43378434504191
  0
LINE
  8
_0-0_
  6
CONTINUOUS
 62
  250
 10
125.09507465438494
 20
129.43378434504191
 11
125.09602832870198
 21
129.43650231684387
  0
LINE
  8
_0-0_
  6
CONTINUOUS
 62
  250
 10
125.09602832870198
 20
129.43650231684387
 11
125.09693431930194
 21
129.4393394979349
  0
LINE
  8
_0-0_
  6
CONTINUOUS
 62
  250
 10
126.88707637862899
 20
131.79698930109691
 11
126.71345996932698
 21
131.98448167170187
  0
LINE
  8
_0-0_
  6
CONTINUOUS
 62
  250
 10
126.541178704068
 20
130.47045216883294
 11
125.73704052047398
 21
131.3287828954569
  0
LINE
  8
_0-0_
  6
CONTINUOUS
 62
  250
 10
125.97288417892196
 20
131.35891900385491
 11
125.822871208951
 21
131.52142510737093
  0
LINE
  8
_0-0_
  6
CONTINUOUS
 62
  250
 10
126.32555294112899
 20
130.98324284876492
 11
126.12971592025497
 21
131.1901901754249
  0
LINE
  8
_0-0_
  6
CONTINUOUS
 62
  250
 10
126.58457088546493
 20
130.70782170618688
 11
126.498454094693
 21
130.81060395563793
  0
LINE
  8
_0-0_
  6
CONTINUOUS
 62
  250
 10
126.17635059432698
 20
131.42670140589391
 11
126.02772045211496
 21
131.58503518427491
  0
LINE
  8
_0-0_
  6
CONTINUOUS
 62
  250
 10
126.53846073226597
 20
131.04017720545389
 11
126.41343402938494
 21
131.17350087488791
  0
LINE
  8
_0-0_
  6
CONTINUOUS
 62
  250
 10
130.94248104171493
 20
131.80919633234691
 11
130.82718181686096
 21
131.93419919336893
  0
LINE
  8
_0-0_
  6
CONTINUOUS
 62
  250
 10
130.53149509505894
 20
132.25685105646789
 11
130.49678134994195
 21
132.29433045710192
  0
LINE
  8
_0-0_
  6
CONTINUOUS
 62
  250
 10
131.17985057906799
 20
132.0479725393169
 11
130.41729259567001
 21
132.86186204279591
  0
LINE
  8
_0-0_
  6
CONTINUOUS
 62
  250
 10
131.01567554549894
 20
132.02351079310091
 11
130.25593090133398
 21
132.8360174688209
  0
LINE
  8
_0-0_
  6
CONTINUOUS
 62
  250
 10
126.61299038009295
 20
130.70517525995891
 11
126.55329036788601
 21
130.50099358881593
  0
LINE
  8
_0-0_
  6
CONTINUOUS
 62
  250
 10
131.17842006759295
 20
132.01127991999289
 11
131.08400631026899
 21
131.68071256006888
  0
LINE
  8
_0-0_
  6
CONTINUOUS
 62
  250
 10
131.02788257674894
 20
132.01127991999289
 11
130.968134880826
 21
131.80294976557391
  0
LINE
  8
_0-0_
  6
CONTINUOUS
 62
  250
 10
130.90037632064497
 20
132.13878617609691
 11
130.84067630843793
 21
131.9290731939189
  0
LINE
  8
_0-0_
  6
CONTINUOUS
 62
  250
 10
130.52748966292995
 20
132.4792002233379
 11
130.485814095303
 21
132.31945977533988
  0
LINE
  8
_0-0_
  6
CONTINUOUS
 62
  250
 10
130.24119663314497
 20
132.81961427057888
 11
130.18149662093793
 21
132.61407361353488
  0
LINE
  8
_0-0_
  6
CONTINUOUS
 62
  250
 10
126.032441139981
 20
131.56238541926086
 11
125.97274112777397
 21
131.35822758997591
  0
LINE
  8
_0-0_
  6
CONTINUOUS
 62
  250
 10
126.187174797818
 20
131.41046510065692
 11
126.126091957852
 21
131.19796262110393
  0
LINE
  8
_0-0_
  6
CONTINUOUS
 62
  250
 10
126.41372013167995
 20
131.17030606592792
 11
126.36231708602601
 21
130.98281369532287
  0
LINE
  8
_0-0_
  6
CONTINUOUS
 62
  250
 10
126.54923725204199
 20
131.03059277857488
 11
126.488154412076
 21
130.82641110743191
  0
LINE
  8
_0-0_
  6
CONTINUOUS
 62
  250
 10
125.808756829068
 20
131.51892171228991
 11
125.75039196090394
 21
131.31338105524691
  0
LINE
  8
_0-0_
  6
CONTINUOUS
 62
  250
 10
126.56149196700702
 20
130.47045216883294
 11
129.86425685958594
 21
131.29545197809787
  0
LINE
  8
_0-0_
  6
CONTINUOUS
 62
  250
 10
126.62801075057698
 20
130.6997631582129
 11
130.93914318160699
 21
131.77753434504191
  0
LINE
  8
_0-0_
  6
CONTINUOUS
 62
  250
 10
126.58051776961995
 20
131.0265635045879
 11
130.90690898971297
 21
132.1085070165509
  0
LINE
  8
_0-0_
  6
CONTINUOUS
 62
  250
 10
126.52620601729998
 20
130.84074006403591
 11
130.83872127608993
 21
131.91851125086487
  0
LINE
  8
_0-0_
  6
CONTINUOUS
 62
  250
 10
130.83872127608993
 20
131.91851125086487
 11
126.52620601729998
 21
130.84074006403591
  0
LINE
  8
_0-0_
  6
CONTINUOUS
 62
  250
 10
126.41772556380894
 20
131.1689232381689
 11
130.770533562466
 21
132.25644574488291
  0
LINE
  8
_0-0_
  6
CONTINUOUS
 62
  250
 10
126.20744037704199
 20
131.39546857203192
 11
130.55743503646494
 21
132.4802015813699
  0
LINE
  8
_0-0_
  6
CONTINUOUS
 62
  250
 10
130.25345134811096
 20
132.84004674280789
 11
130.39373684005398
 21
132.87752614344291
  0
LINE
  8
_0-0_
  6
CONTINUOUS
 62
  250
 10
126.15999507979998
 20
131.2260006460059
 11
130.46831417159694
 21
132.30100617731691
  0
LINE
  8
_0-0_
  6
CONTINUOUS
 62
  250
 10
130.46831417159694
 20
132.30100617731691
 11
126.15999507979998
 21
131.2260006460059
  0
LINE
  8
_0-0_
  6
CONTINUOUS
 62
  250
 10
126.05690288619699
 20
131.56238541926086
 11
130.41805553512296
 21
132.6540564092509
  0
LINE
  8
_0-0_
  6
CONTINUOUS
 62
  250
 10
125.83040523604998
 20
131.53921113337191
 11
130.32345104293501
 21
132.66559586847893
  0
LINE
  8
_0-0_
  6
CONTINUOUS
 62
  250
 10
131.07814121322301
 20
131.6735123189799
 11
129.87813282088894
 21
131.29850373591091
  0
LINE
  8
_0-0_
  6
CONTINUOUS
 62
  250
 10
127.993815422818
 20
130.83809361780789
 11
128.00006198958994
 21
130.82874760950688
  0
LINE
  8
_0-0_
  6
CONTINUOUS
 62
  250
 10
128.00006198958994
 20
130.82874760950688
 11
128.00521183089899
 21
130.81813798273691
  0
LINE
  8
_0-0_
  6
CONTINUOUS
 62
  250
 10
128.00521183089899
 20
130.81813798273691
 11
128.00893116073297
 21
130.80614552820794
  0
LINE
  8
_0-0_
  6
CONTINUOUS
 62
  250
 10
128.00893116073297
 20
130.80614552820794
 11
128.01088619308194
 21
130.79269872034689
  0
LINE
  8
_0-0_
  6
CONTINUOUS
 62
  250
 10
128.01088619308194
 20
130.79269872034689
 11
128.01064777450293
 21
130.77767834986389
  0
LINE
  8
_0-0_
  6
CONTINUOUS
 62
  250
 10
128.01064777450293
 20
130.77767834986389
 11
128.00802517013202
 21
130.7609890493259
  0
LINE
  8
_0-0_
  6
CONTINUOUS
 62
  250
 10
128.00802517013202
 20
130.7609890493259
 11
128.00258922652893
 21
130.74253545130389
  0
LINE
  8
_0-0_
  6
CONTINUOUS
 62
  250
 10
128.00258922652893
 20
130.74253545130389
 11
127.99400615768093
 21
130.72222218836487
  0
LINE
  8
_0-0_
  6
CONTINUOUS
 62
  250
 10
127.99400615768093
 20
130.72222218836487
 11
127.98198986129501
 21
130.69993005121887
  0
LINE
  8
_0-0_
  6
CONTINUOUS
 62
  250
 10
127.98198986129501
 20
130.69993005121887
 11
127.96606350021094
 21
130.67558751429192
  0
LINE
  8
_0-0_
  6
CONTINUOUS
 62
  250
 10
128.96637249068903
 20
131.0712908300269
 11
128.95736026839899
 21
131.05710492457089
  0
LINE
  8
_0-0_
  6
CONTINUOUS
 62
  250
 10
128.95736026839899
 20
131.05710492457089
 11
128.94920635299397
 21
131.04151234949688
  0
LINE
  8
_0-0_
  6
CONTINUOUS
 62
  250
 10
128.94920635299397
 20
131.04151234949688
 11
128.94286441878995
 21
131.02513299311289
  0
LINE
  8
_0-0_
  6
CONTINUOUS
 62
  250
 10
128.94286441878995
 20
131.02513299311289
 11
128.93909740523998
 21
131.00849137629191
  0
LINE
  8
_0-0_
  6
CONTINUOUS
 62
  250
 10
128.93909740523998
 20
131.00849137629191
 11
128.93895435409198
 21
130.99211201990789
  0
LINE
  8
_0-0_
  6
CONTINUOUS
 62
  250
 10
128.93895435409198
 20
130.99211201990789
 11
128.94319820479998
 21
130.9765909704079
  0
LINE
  8
_0-0_
  6
CONTINUOUS
 62
  250
 10
128.94319820479998
 20
130.9765909704079
 11
128.95268726424894
 21
130.96245274866692
  0
LINE
  8
_0-0_
  6
CONTINUOUS
 62
  250
 10
128.95268726424894
 20
130.96245274866692
 11
128.96842289046901
 21
130.9502218755589
  0
LINE
  8
_0-0_
  6
CONTINUOUS
 62
  250
 10
128.96842289046901
 20
130.9502218755589
 11
128.991215706632
 21
130.94049439753192
  0
LINE
  8
_0-0_
  6
CONTINUOUS
 62
  250
 10
128.991215706632
 20
130.94049439753192
 11
129.02192401961995
 21
130.93379483545891
  0
ENDSEC
  0
EOF
