  0
SECTION
  2
HEADER
  9
$ACADVER
  1
AC1009
  9
$INSBASE
 10
0
 20
0
 30
0
  9
$EXTMIN
 10
0
 20
0
  9
$EXTMAX
 10
420
 20
297
  9
$LIMMIN
 10
0
 20
0
  9
$LIMMAX
 10
420
 20
297
  9
$LTSCALE
 40
1
  0
ENDSEC
  0
SECTION
  2
TABLES
  0
TABLE
  2
LTYPE
 70
     9
  0
LTYPE
  2
CONTINUOUS
 70
    64
  3
実線
 72
    65
 73
     0
 40
0.0
  0
LTYPE
  2
DASHED1
 70
    64
  3
--  --  --  --  --  --  --  --  
 72
    65
 73
     2
 40
2.5
 49
1.25
 49
-1.25
  0
LTYPE
  2
DASHED2
 70
    64
  3
----    ----    ----    ----    
 72
    65
 73
     2
 40
5.0
 49
2.5
 49
-2.5
  0
LTYPE
  2
DASHED3
 70
    64
  3
------  ------  ------  ------  
 72
    65
 73
     2
 40
5.0
 49
3.75
 49
-1.25
  0
LTYPE
  2
CENTER1
 70
    64
  3
----- - ----- - ----- - ----- - 
 72
    65
 73
     4
 40
10.0
 49
6.25
 49
-1.25
 49
1.25
 49
-1.25
  0
LTYPE
  2
CENTER2
 70
    64
  3
----------  --  ----------  --  
 72
    65
 73
     4
 40
20.0
 49
12.5
 49
-2.5
 49
2.5
 49
-2.5
  0
LTYPE
  2
PHANTOM1
 70
    64
  3
--- - - --- - - --- - - --- - - 
 72
    65
 73
     6
 40
10.0
 49
3.25
 49
-1.25
 49
1.25
 49
-1.25
 49
1.25
 49
-1.25
  0
LTYPE
  2
PHANTOM2
 70
    64
  3
--------  -  -  --------  -  -  
 72
    65
 73
     6
 40
20.0
 49
10.0
 49
-2.5
 49
1.25
 49
-2.5
 49
1.25
 49
-2.5
  0
LTYPE
  2
DOT
 70
    64
  3
-   -   -   -   -   -   -   -   
 72
    65
 73
     2
 40
2.5
 49
0.625
 49
-1.875
  0
LTYPE
  2
DUMMY
 70
    64
  3
ダミー
 72
    65
 73
     0
 40
0.0
  0
LTYPE
  2
RAND1
 70
    64
  3
ランダム線1
 72
    65
 73
     4
 40
10.0
 49
1.0
 49
-2.0
 49
3.0
 49
-4.0
  0
LTYPE
  2
RAND2
 70
    64
  3
ランダム線2
 72
    65
 73
     4
 40
14.0
 49
2.0
 49
-3.0
 49
4.0
 49
-5.0
  0
LTYPE
  2
RAND3
 70
    64
  3
ランダム線3
 72
    65
 73
     4
 40
18.0
 49
3.0
 49
-4.0
 49
5.0
 49
-6.0
  0
LTYPE
  2
RAND4
 70
    64
  3
ランダム線4
 72
    65
 73
     4
 40
22.0
 49
4.0
 49
-5.0
 49
6.0
 49
-7.0
  0
LTYPE
  2
RAND5
 70
    64
  3
ランダム線5
 72
    65
 73
     4
 40
26.0
 49
5.0
 49
-6.0
 49
7.0
 49
-8.0
  0
LTYPE
  2
LONG1
 70
    64
  3
----------  --  ----------  --  
 72
    65
 73
     4
 40
40.0
 49
32.5
 49
-2.5
 49
2.5
 49
-2.5
  0
LTYPE
  2
LONG2
 70
    64
  3
--------  -  -  --------  -  -  
 72
    65
 73
     6
 40
40.0
 49
30.0
 49
-2.5
 49
1.25
 49
-2.5
 49
1.25
 49
-2.5
  0
LTYPE
  2
LONG3
 70
    64
  3
+++++++++++++++..+++++++++++++++
 72
    65
 73
     2
 40
40.0
 49
37.5
 49
-2.5
  0
LTYPE
  2
LONG4
 70
    64
  3
+++++++++++++++..+++++++++++++++
 72
    65
 73
     2
 40
80.0
 49
75.0
 49
-5.0
  0
LTYPE
  2
LONG5
 70
    64
  3
----------  --  ----------  --  
 72
    65
 73
     4
 40
60.0
 49
37.5
 49
-7.5
 49
7.5
 49
-7.5
  0
LTYPE
  2
dashed
 70
   64
  3
-------   -------------   ------
 72
   65
 73
    2
 40
7.5
 49
6
 49
-1.5
  0
LTYPE
  2
dashed_spaced
 70
   64
  3
----        --------        ----
 72
   65
 73
    2
 40
12
 49
6
 49
-6
  0
LTYPE
  2
long_dashed_dotted
 70
   64
  3
------------- --- --------------
 72
   65
 73
    4
 40
15.25
 49
12
 49
-1.5
 49
0.25
 49
-1.5
  0
LTYPE
  2
long_dashed_double-dotted
 70
   64
  3
----------- --- --- ------------
 72
   65
 73
    6
 40
17
 49
12
 49
-1.5
 49
0.25
 49
-1.5
 49
0.25
 49
-1.5
  0
LTYPE
  2
long_dashed_triplicate-dotted
 70
   64
  3
--------- --- --- --- ----------
 72
   65
 73
    8
 40
18.75
 49
12
 49
-1.5
 49
0.25
 49
-1.5
 49
0.25
 49
-1.5
 49
0.25
 49
-1.5
  0
LTYPE
  2
dotted
 70
   64
  3
   -       -       -       -    
 72
   65
 73
    2
 40
1.75
 49
0.25
 49
-1.5
  0
LTYPE
  2
chain
 70
   64
  3
-------------- -- --------------
 72
   65
 73
    4
 40
18.5
 49
12
 49
-1.5
 49
3.5
 49
-1.5
  0
LTYPE
  2
chain_double_dash
 70
   64
  3
------------ -- -- -------------
 72
   65
 73
    6
 40
23.5
 49
12
 49
-1.5
 49
3.5
 49
-1.5
 49
3.5
 49
-1.5
  0
LTYPE
  2
dashed_dotted
 70
   64
  3
-----------     -     ----------
 72
   65
 73
    4
 40
9.25
 49
6
 49
-1.5
 49
0.25
 49
-1.5
  0
LTYPE
  2
double-dashed_dotted
 70
   64
  3
------   -----------   -   -----
 72
   65
 73
    6
 40
16.75
 49
6
 49
-1.5
 49
6
 49
-1.5
 49
0.25
 49
-1.5
  0
LTYPE
  2
dashed_double-dotted
 70
   64
  3
---------    -    -    ---------
 72
   65
 73
    6
 40
11
 49
6
 49
-1.5
 49
0.25
 49
-1.5
 49
0.25
 49
-1.5
  0
LTYPE
  2
double-dashed_double-dotted
 70
   64
  3
-----   ---------   -   -   ----
 72
   65
 73
    8
 40
18.5
 49
6
 49
-1.5
 49
6
 49
-1.5
 49
0.25
 49
-1.5
 49
0.25
 49
-1.5
  0
LTYPE
  2
dashed_triplicate-dotted
 70
   64
  3
-------    -    -    -    ------
 72
   65
 73
    8
 40
12.75
 49
6
 49
-1.5
 49
0.25
 49
-1.5
 49
0.25
 49
-1.5
 49
0.25
 49
-1.5
  0
LTYPE
  2
double-dashed_triplicate-dotted
 70
   64
  3
-----  ---------  -  -  -  -----
 72
   65
 73
   10
 40
20.25
 49
6
 49
-1.5
 49
6
 49
-1.5
 49
0.25
 49
-1.5
 49
0.25
 49
-1.5
 49
0.25
 49
-1.5
  0
LTYPE
  2
undefined
 70
   64
  3
--------------------------------
 72
   65
 73
    0
 40
0
  0
ENDTAB
  0
TABLE
  2
STYLE
  5
3
100
AcDbSymbolTable
 70
     1
  0
STYLE
  5
10
100
AcDbSymbolTableRecord
100
AcDbTextStyleTableRecord
  2
STANDARD
 70
     0
 40
0.0
 41
1.0
 50
0.0
 71
     0
 42
0.2
  3
txt
  4
bigfont.shx
  0
STYLE
  5
26
100
AcDbSymbolTableRecord
100
AcDbTextStyleTableRecord
  2
TATEGAKI
 70
    68
 40
0.0
 41
1.0
 50
0.0
 71
     0
 42
1.0
  3
txt
  4
bigfont.shx
  0
ENDTAB
  0
TABLE
  2
LAYER
 70
    3
  0
LAYER
  2
_0-0_0
 70
   64
 62
    7
  6
CONTINUOUS
  0
LAYER
  2
_f-a_250
 70
   64
 62
    7
  6
CONTINUOUS
  0
LAYER
  2
ADD_LINE
 70
   64
 62
    7
  6
CONTINUOUS
  0
ENDTAB
  0
ENDSEC
  0
SECTION
  2
BLOCKS
  0
ENDSEC
  0
SECTION
  2
ENTITIES
  0
LINE
  8
_f-a_250
  6
CONTINUOUS
 62
  250
 10
101.81913719526841
 20
116.09586715649661
 11
101.94693551413144
 21
116.17115974377717
  0
LINE
  8
_f-a_250
  6
CONTINUOUS
 62
  250
 10
101.94693551413144
 20
116.17115974377717
 11
102.09264502874942
 21
116.25837326001265
  0
LINE
  8
_f-a_250
  6
CONTINUOUS
 62
  250
 10
102.09264502874942
 20
116.25837326001265
 11
102.25132451407043
 21
116.35507583569614
  0
LINE
  8
_f-a_250
  6
CONTINUOUS
 62
  250
 10
102.25132451407043
 20
116.35507583569614
 11
102.41802082411391
 21
116.45871639203165
  0
LINE
  8
_f-a_250
  6
CONTINUOUS
 62
  250
 10
102.41802082411391
 20
116.45871639203165
 11
102.58779869429191
 21
116.56691074322762
  0
LINE
  8
_f-a_250
  6
CONTINUOUS
 62
  250
 10
102.58779869429191
 20
116.56691074322762
 11
102.7557228600179
 21
116.67715549420413
  0
LINE
  8
_f-a_250
  6
CONTINUOUS
 62
  250
 10
102.7557228600179
 20
116.67715549420413
 11
102.91684613577442
 21
116.78697109173862
  0
LINE
  8
_f-a_250
  6
CONTINUOUS
 62
  250
 10
102.91684613577442
 20
116.78697109173862
 11
103.06621537558192
 21
116.89390182446564
  0
LINE
  8
_f-a_250
  6
CONTINUOUS
 62
  250
 10
103.06621537558192
 20
116.89390182446564
 11
103.19890723578092
 21
116.99546813916263
  0
LINE
  8
_f-a_250
  6
CONTINUOUS
 62
  250
 10
103.19890723578092
 20
116.99546813916263
 11
103.30996857039091
 21
117.08921432446564
  0
LINE
  8
_f-a_250
  6
CONTINUOUS
 62
  250
 10
103.30996857039091
 20
117.08921432446564
 11
103.49589333883841
 21
117.24359035443362
  0
LINE
  8
_f-a_250
  6
CONTINUOUS
 62
  250
 10
103.49589333883841
 20
117.24359035443362
 11
103.72199759832942
 21
117.41327285718066
  0
LINE
  8
_f-a_250
  6
CONTINUOUS
 62
  250
 10
103.72199759832942
 20
117.41327285718066
 11
103.97542462698539
 21
117.59151458691663
  0
LINE
  8
_f-a_250
  6
CONTINUOUS
 62
  250
 10
103.97542462698539
 20
117.59151458691663
 11
104.24329386107041
 21
117.77163982342813
  0
LINE
  8
_f-a_250
  6
CONTINUOUS
 62
  250
 10
104.24329386107041
 20
117.77163982342813
 11
104.5127604996359
 21
117.94692516278364
  0
LINE
  8
_f-a_250
  6
CONTINUOUS
 62
  250
 10
104.5127604996359
 20
117.94692516278364
 11
104.77096186033842
 21
118.11062335919465
  0
LINE
  8
_f-a_250
  6
CONTINUOUS
 62
  250
 10
104.77096186033842
 20
118.11062335919465
 11
105.0050233399069
 21
118.25613021802015
  0
LINE
  8
_f-a_250
  6
CONTINUOUS
 62
  250
 10
105.0050233399069
 20
118.25613021802015
 11
105.2020941769274
 21
118.37660312604012
  0
LINE
  8
_f-a_250
  6
CONTINUOUS
 62
  250
 10
105.2020941769274
 20
118.37660312604012
 11
105.3493116890584
 21
118.46541404675563
  0
LINE
  8
_f-a_250
  6
CONTINUOUS
 62
  250
 10
105.3493116890584
 20
118.46541404675563
 11
105.43380723349192
 21
118.51586341809366
  0
LINE
  8
_f-a_250
  6
CONTINUOUS
 62
  250
 10
105.43380723349192
 20
118.51586341809366
 11
105.52881107679941
 21
118.55920791577414
  0
LINE
  8
_f-a_250
  6
CONTINUOUS
 62
  250
 10
105.52881107679941
 20
118.55920791577414
 11
118.73780236593839
 21
123.79087448071564
  0
LINE
  8
_f-a_250
  6
CONTINUOUS
 62
  250
 10
118.73780236593839
 20
123.79087448071564
 11
118.75473008505442
 21
123.78038406323512
  0
LINE
  8
_f-a_250
  6
CONTINUOUS
 62
  250
 10
118.75473008505442
 20
123.78038406323512
 11
118.80013690344441
 21
123.74776840161411
  0
LINE
  8
_f-a_250
  6
CONTINUOUS
 62
  250
 10
118.80013690344441
 20
123.74776840161411
 11
118.86594043127639
 21
123.69135856579865
  0
LINE
  8
_f-a_250
  6
CONTINUOUS
 62
  250
 10
118.86594043127639
 20
123.69135856579865
 11
118.94403443686092
 21
123.60943794201913
  0
LINE
  8
_f-a_250
  6
CONTINUOUS
 62
  250
 10
118.94403443686092
 20
123.60943794201913
 11
119.0263603722249
 21
123.50024223279065
  0
LINE
  8
_f-a_250
  6
CONTINUOUS
 62
  250
 10
119.0263603722249
 20
123.50024223279065
 11
119.10481200567841
 21
123.36210250805911
  0
LINE
  8
_f-a_250
  6
CONTINUOUS
 62
  250
 10
119.10481200567841
 20
123.36210250805911
 11
119.17133078924741
 21
123.19330215405566
  0
LINE
  8
_f-a_250
  6
CONTINUOUS
 62
  250
 10
119.17133078924741
 20
123.19330215405566
 11
119.21779857031443
 21
122.99214839886763
  0
LINE
  8
_f-a_250
  6
CONTINUOUS
 62
  250
 10
119.21779857031443
 20
122.99214839886763
 11
119.23615680090543
 21
122.75690078686816
  0
LINE
  8
_f-a_250
  6
CONTINUOUS
 62
  250
 10
119.23615680090543
 20
122.75690078686816
 11
119.2182992493304
 21
122.48586654614515
  0
LINE
  8
_f-a_250
  6
CONTINUOUS
 62
  250
 10
119.2182992493304
 20
122.48586654614515
 11
106.05880365721342
 21
117.28419303845462
  0
LINE
  8
_f-a_250
  6
CONTINUOUS
 62
  250
 10
106.05880365721342
 20
117.28419303845462
 11
105.90915427557542
 21
117.19461917828666
  0
LINE
  8
_f-a_250
  6
CONTINUOUS
 62
  250
 10
105.90915427557542
 20
117.19461917828666
 11
105.73004231802541
 21
117.08578109692661
  0
LINE
  8
_f-a_250
  6
CONTINUOUS
 62
  250
 10
105.73004231802541
 20
117.08578109692661
 11
105.5294667278919
 21
116.96199417065714
  0
LINE
  8
_f-a_250
  6
CONTINUOUS
 62
  250
 10
105.5294667278919
 20
116.96199417065714
 11
105.31542644850342
 21
116.82757377575962
  0
LINE
  8
_f-a_250
  6
CONTINUOUS
 62
  250
 10
105.31542644850342
 20
116.82757377575962
 11
105.09590254179591
 21
116.68693065594766
  0
LINE
  8
_f-a_250
  6
CONTINUOUS
 62
  250
 10
105.09590254179591
 20
116.68693065594766
 11
104.8789118324909
 21
116.54428482007114
  0
LINE
  8
_f-a_250
  6
CONTINUOUS
 62
  250
 10
104.8789118324909
 20
116.54428482007114
 11
104.67244134298892
 21
116.40404701184366
  0
LINE
  8
_f-a_250
  6
CONTINUOUS
 62
  250
 10
104.67244134298892
 20
116.40404701184366
 11
104.48449597708341
 21
116.27050876568865
  0
LINE
  8
_f-a_250
  6
CONTINUOUS
 62
  250
 10
104.48449597708341
 20
116.27050876568865
 11
104.3230567967089
 21
116.14798545788862
  0
LINE
  8
_f-a_250
  6
CONTINUOUS
 62
  250
 10
104.3230567967089
 20
116.14798545788862
 11
104.19613466612441
 21
116.04086399029816
  0
LINE
  8
_f-a_250
  6
CONTINUOUS
 62
  250
 10
104.19613466612441
 20
116.04086399029816
 11
104.0158902203234
 21
115.89058875989062
  0
LINE
  8
_f-a_250
  6
CONTINUOUS
 62
  250
 10
104.0158902203234
 20
115.89058875989062
 11
103.80767331472993
 21
115.73387622784712
  0
LINE
  8
_f-a_250
  6
CONTINUOUS
 62
  250
 10
103.80767331472993
 20
115.73387622784712
 11
103.58158097616791
 21
115.57537555646013
  0
LINE
  8
_f-a_250
  6
CONTINUOUS
 62
  250
 10
103.58158097616791
 20
115.57537555646013
 11
103.34768638960441
 21
115.41975974988063
  0
LINE
  8
_f-a_250
  6
CONTINUOUS
 62
  250
 10
103.34768638960441
 20
115.41975974988063
 11
103.11606870047191
 21
115.27170181225864
  0
LINE
  8
_f-a_250
  6
CONTINUOUS
 62
  250
 10
103.11606870047191
 20
115.27170181225864
 11
102.89681897512992
 21
115.13582706402863
  0
LINE
  8
_f-a_250
  6
CONTINUOUS
 62
  250
 10
102.89681897512992
 20
115.13582706402863
 11
102.70002231947541
 21
115.01680850934113
  0
LINE
  8
_f-a_250
  6
CONTINUOUS
 62
  250
 10
102.70002231947541
 20
115.01680850934113
 11
102.53575787893891
 21
114.91931915234663
  0
LINE
  8
_f-a_250
  6
CONTINUOUS
 62
  250
 10
102.53575787893891
 20
114.91931915234663
 11
102.41409883848743
 21
114.84800815533713
  0
LINE
  8
_f-a_250
  6
CONTINUOUS
 62
  250
 10
102.41409883848743
 20
114.84800815533713
 11
102.34513626448242
 21
114.80752468060564
  0
LINE
  8
_f-a_250
  6
CONTINUOUS
 62
  250
 10
102.34513626448242
 20
114.80752468060564
 11
102.26180301062192
 21
114.76918697308615
  0
LINE
  8
_f-a_250
  6
CONTINUOUS
 62
  250
 10
89.489636281648416
 20
111.19252681683615
 11
101.62580356947541
 21
115.98586082409915
  0
LINE
  8
_f-a_250
  6
CONTINUOUS
 62
  250
 10
101.62580356947541
 20
115.98586082409915
 11
101.64287433973891
 21
115.99689960431165
  0
LINE
  8
_f-a_250
  6
CONTINUOUS
 62
  250
 10
101.64287433973891
 20
115.99689960431165
 11
101.66046963087643
 21
116.00803375195565
  0
LINE
  8
_f-a_250
  6
CONTINUOUS
 62
  250
 10
101.66046963087643
 20
116.00803375195565
 11
101.67858944288841
 21
116.01919174145765
  0
LINE
  8
_f-a_250
  6
CONTINUOUS
 62
  250
 10
101.67858944288841
 20
116.01919174145765
 11
101.69721589438041
 21
116.03034973095964
  0
LINE
  8
_f-a_250
  6
CONTINUOUS
 62
  250
 10
101.69721589438041
 20
116.03034973095964
 11
101.71634302488891
 21
116.04150772046164
  0
LINE
  8
_f-a_250
  6
CONTINUOUS
 62
  250
 10
101.71634302488891
 20
116.04150772046164
 11
101.73595891348441
 21
116.05257034253214
  0
LINE
  8
_f-a_250
  6
CONTINUOUS
 62
  250
 10
101.73595891348441
 20
116.05257034253214
 11
101.75606356016741
 21
116.06360912274462
  0
LINE
  8
_f-a_250
  6
CONTINUOUS
 62
  250
 10
101.75606356016741
 20
116.06360912274462
 11
101.77663312307942
 21
116.07450485180911
  0
LINE
  8
_f-a_250
  6
CONTINUOUS
 62
  250
 10
101.77663312307942
 20
116.07450485180911
 11
101.79766164175589
 21
116.08528137158464
  0
LINE
  8
_f-a_250
  6
CONTINUOUS
 62
  250
 10
101.79766164175589
 20
116.08528137158464
 11
101.81913719526841
 21
116.09586715649661
  0
LINE
  8
_f-a_250
  6
CONTINUOUS
 62
  250
 10
101.81913719526841
 20
116.09586715649661
 11
89.489636281648416
 21
111.19252681683615
  0
LINE
  8
_f-a_250
  6
CONTINUOUS
 62
  250
 10
89.489636281648416
 20
111.19252681683615
 11
101.62580356947541
 21
115.98586082409915
  0
LINE
  8
_f-a_250
  6
CONTINUOUS
 62
  250
 10
101.62580356947541
 20
115.98586082409915
 11
101.64287433973891
 21
115.99689960431165
  0
LINE
  8
_f-a_250
  6
CONTINUOUS
 62
  250
 10
101.64287433973891
 20
115.99689960431165
 11
101.66046963087643
 21
116.00803375195565
  0
LINE
  8
_f-a_250
  6
CONTINUOUS
 62
  250
 10
101.66046963087643
 20
116.00803375195565
 11
101.67858944288841
 21
116.01919174145765
  0
LINE
  8
_f-a_250
  6
CONTINUOUS
 62
  250
 10
101.67858944288841
 20
116.01919174145765
 11
101.69721589438041
 21
116.03034973095964
  0
LINE
  8
_f-a_250
  6
CONTINUOUS
 62
  250
 10
101.69721589438041
 20
116.03034973095964
 11
101.71634302488891
 21
116.04150772046164
  0
LINE
  8
_f-a_250
  6
CONTINUOUS
 62
  250
 10
101.71634302488891
 20
116.04150772046164
 11
101.73595891348441
 21
116.05257034253214
  0
LINE
  8
_f-a_250
  6
CONTINUOUS
 62
  250
 10
101.73595891348441
 20
116.05257034253214
 11
101.75606356016741
 21
116.06360912274462
  0
LINE
  8
_f-a_250
  6
CONTINUOUS
 62
  250
 10
101.75606356016741
 20
116.06360912274462
 11
101.77663312307942
 21
116.07450485180911
  0
LINE
  8
_f-a_250
  6
CONTINUOUS
 62
  250
 10
101.77663312307942
 20
116.07450485180911
 11
101.79766164175589
 21
116.08528137158464
  0
LINE
  8
_f-a_250
  6
CONTINUOUS
 62
  250
 10
101.79766164175589
 20
116.08528137158464
 11
101.81913719526841
 21
116.09586715649661
  0
LINE
  8
_f-a_250
  6
CONTINUOUS
 62
  250
 10
104.07497034422491
 20
115.38919448803964
 11
89.872470954576414
 21
109.77252960156515
  0
LINE
  8
_f-a_250
  6
CONTINUOUS
 62
  250
 10
104.07497034422491
 20
115.38752555798615
 11
104.1771327053699
 21
115.42419433545214
  0
LINE
  8
_f-a_250
  6
CONTINUOUS
 62
  250
 10
104.1771327053699
 20
115.42419433545214
 11
104.2624686752949
 21
115.45585632275666
  0
LINE
  8
_f-a_250
  6
CONTINUOUS
 62
  250
 10
104.2624686752949
 20
115.45585632275666
 11
104.3397103344594
 21
115.47369003247363
  0
LINE
  8
_f-a_250
  6
CONTINUOUS
 62
  250
 10
104.3397103344594
 20
115.47369003247363
 11
104.47612152449241
 21
115.50482749890415
  0
LINE
  8
_f-a_250
  6
CONTINUOUS
 62
  250
 10
104.47612152449241
 20
115.50482749890415
 11
104.6611760651264
 21
115.54578781079363
  0
LINE
  8
_f-a_250
  6
CONTINUOUS
 62
  250
 10
104.6611760651264
 20
115.54578781079363
 11
104.88436565748793
 21
115.59313774060315
  0
LINE
  8
_f-a_250
  6
CONTINUOUS
 62
  250
 10
104.88436565748793
 20
115.59313774060315
 11
105.13515220038042
 21
115.64337253522012
  0
LINE
  8
_f-a_250
  6
CONTINUOUS
 62
  250
 10
105.13515220038042
 20
115.64337253522012
 11
105.40302739492991
 21
115.69298744153116
  0
LINE
  8
_f-a_250
  6
CONTINUOUS
 62
  250
 10
105.40302739492991
 20
115.69298744153116
 11
105.6774710213339
 21
115.73852539013964
  0
LINE
  8
_f-a_250
  6
CONTINUOUS
 62
  250
 10
105.6774710213339
 20
115.73852539013964
 11
105.9479568993244
 21
115.77650546979012
  0
LINE
  8
_f-a_250
  6
CONTINUOUS
 62
  250
 10
105.9479568993244
 20
115.77650546979012
 11
106.20395884863493
 21
115.80344676922864
  0
LINE
  8
_f-a_250
  6
CONTINUOUS
 62
  250
 10
106.20395884863493
 20
115.80344676922864
 11
106.43496260992643
 21
115.81586837720015
  0
LINE
  8
_f-a_250
  6
CONTINUOUS
 62
  250
 10
106.43496260992643
 20
115.81586837720015
 11
106.59998402945139
 21
115.82569122265913
  0
LINE
  8
_f-a_250
  6
CONTINUOUS
 62
  250
 10
106.59998402945139
 20
115.82569122265913
 11
106.8004702126179
 21
115.84760189007812
  0
LINE
  8
_f-a_250
  6
CONTINUOUS
 62
  250
 10
106.8004702126179
 20
115.84760189007812
 11
107.0276533161794
 21
115.87938308667262
  0
LINE
  8
_f-a_250
  6
CONTINUOUS
 62
  250
 10
107.0276533161794
 20
115.87938308667262
 11
107.27272377363789
 21
115.91865062665065
  0
LINE
  8
_f-a_250
  6
CONTINUOUS
 62
  250
 10
107.27272377363789
 20
115.91865062665065
 11
107.5269197022114
 21
115.96316337536913
  0
LINE
  8
_f-a_250
  6
CONTINUOUS
 62
  250
 10
107.5269197022114
 20
115.96316337536913
 11
107.78144345633142
 21
116.01063251446811
  0
LINE
  8
_f-a_250
  6
CONTINUOUS
 62
  250
 10
107.78144345633142
 20
116.01063251446811
 11
108.02751527182191
 21
116.05874538373064
  0
LINE
  8
_f-a_250
  6
CONTINUOUS
 62
  250
 10
108.02751527182191
 20
116.05874538373064
 11
108.25634346357941
 21
116.10523700665561
  0
LINE
  8
_f-a_250
  6
CONTINUOUS
 62
  250
 10
108.25634346357941
 20
116.10523700665561
 11
108.45914826742741
 21
116.14781856488312
  0
LINE
  8
_f-a_250
  6
CONTINUOUS
 62
  250
 10
108.45914826742741
 20
116.14781856488312
 11
108.62713203779791
 21
116.18417739819614
  0
LINE
  8
_f-a_250
  6
CONTINUOUS
 62
  250
 10
108.62713203779791
 20
116.18417739819614
 11
119.56530557028391
 21
120.55086135815714
  0
LINE
  8
_f-a_250
  6
CONTINUOUS
 62
  250
 10
119.56530557028391
 20
120.55086135815714
 11
120.07113442770591
 21
120.75087070416512
  0
LINE
  8
_f-a_250
  6
CONTINUOUS
 62
  250
 10
104.60946903578392
 20
114.10252094220263
 11
104.74482522360441
 21
114.13511276196564
  0
LINE
  8
_f-a_250
  6
CONTINUOUS
 62
  250
 10
104.74482522360441
 20
114.13511276196564
 11
104.90827904097192
 21
114.17259216260013
  0
LINE
  8
_f-a_250
  6
CONTINUOUS
 62
  250
 10
104.90827904097192
 20
114.17259216260013
 11
105.0933693443929
 21
114.21307563733163
  0
LINE
  8
_f-a_250
  6
CONTINUOUS
 62
  250
 10
105.0933693443929
 20
114.21307563733163
 11
105.29362306944492
 21
114.25465583752717
  0
LINE
  8
_f-a_250
  6
CONTINUOUS
 62
  250
 10
105.29362306944492
 20
114.25465583752717
 11
105.50256715170491
 21
114.29544925641166
  0
LINE
  8
_f-a_250
  6
CONTINUOUS
 62
  250
 10
105.50256715170491
 20
114.29544925641166
 11
105.7137404476794
 21
114.33352470349413
  0
LINE
  8
_f-a_250
  6
CONTINUOUS
 62
  250
 10
105.7137404476794
 20
114.33352470349413
 11
105.92066989294641
 21
114.36702251385763
  0
LINE
  8
_f-a_250
  6
CONTINUOUS
 62
  250
 10
105.92066989294641
 20
114.36702251385763
 11
106.11688838354692
 21
114.39398765515415
  0
LINE
  8
_f-a_250
  6
CONTINUOUS
 62
  250
 10
106.11688838354692
 20
114.39398765515415
 11
106.2959168945944
 21
114.41258430432413
  0
LINE
  8
_f-a_250
  6
CONTINUOUS
 62
  250
 10
106.2959168945944
 20
114.41258430432413
 11
106.45130620352342
 21
114.42085742901864
  0
LINE
  8
_f-a_250
  6
CONTINUOUS
 62
  250
 10
106.45130620352342
 20
114.42085742901864
 11
106.69003472677791
 21
114.43444728802766
  0
LINE
  8
_f-a_250
  6
CONTINUOUS
 62
  250
 10
106.69003472677791
 20
114.43444728802766
 11
106.96845994345293
 21
114.46458339642612
  0
LINE
  8
_f-a_250
  6
CONTINUOUS
 62
  250
 10
106.96845994345293
 20
114.46458339642612
 11
107.27267012945741
 21
114.50728416394313
  0
LINE
  8
_f-a_250
  6
CONTINUOUS
 62
  250
 10
107.27267012945741
 20
114.50728416394313
 11
107.58875356070139
 21
114.55861568402365
  0
LINE
  8
_f-a_250
  6
CONTINUOUS
 62
  250
 10
107.58875356070139
 20
114.55861568402365
 11
107.9028044735584
 21
114.61462020825465
  0
LINE
  8
_f-a_250
  6
CONTINUOUS
 62
  250
 10
107.9028044735584
 20
114.61462020825465
 11
108.20091710440242
 21
114.67129230450715
  0
LINE
  8
_f-a_250
  6
CONTINUOUS
 62
  250
 10
108.20091710440242
 20
114.67129230450715
 11
108.46918568960741
 21
114.72474574994162
  0
LINE
  8
_f-a_250
  6
CONTINUOUS
 62
  250
 10
108.46918568960741
 20
114.72474574994162
 11
108.69368658415391
 21
114.77095127057163
  0
LINE
  8
_f-a_250
  6
CONTINUOUS
 62
  250
 10
108.69368658415391
 20
114.77095127057163
 11
108.8605259453449
 21
114.80597495984165
  0
LINE
  8
_f-a_250
  6
CONTINUOUS
 62
  250
 10
108.8605259453449
 20
114.80597495984165
 11
108.95579800955392
 21
114.82588291119663
  0
LINE
  8
_f-a_250
  6
CONTINUOUS
 62
  250
 10
108.95579800955392
 20
114.82588291119663
 11
109.05546889654741
 21
114.85752105664315
  0
LINE
  8
_f-a_250
  6
CONTINUOUS
 62
  250
 10
109.05546889654741
 20
114.85752105664315
 11
119.6426366364154
 21
119.16085720013716
  0
LINE
  8
_f-a_250
  6
CONTINUOUS
 62
  250
 10
119.6426366364154
 20
119.16085720013716
 11
119.97080788961989
 21
119.27751541089114
  0
LINE
  8
_f-a_250
  6
CONTINUOUS
 62
  250
 10
89.61863265387143
 20
108.16418170880415
 11
104.60946903578392
 21
114.10252094220263
  0
LINE
  8
_f-a_250
  6
CONTINUOUS
 62
  250
 10
76.397303203264443
 20
100.15253066968066
 11
72.63096914640991
 21
103.31086158703866
  0
LINE
  8
_f-a_250
  6
CONTINUOUS
 62
  250
 10
72.63096914640991
 20
103.31086158703866
 11
76.397303203264443
 21
100.15253066968066
  0
LINE
  8
_f-a_250
  6
CONTINUOUS
 62
  250
 10
76.397303203264443
 20
100.15253066968066
 11
72.63096914640991
 21
103.31086158703866
  0
LINE
  8
_f-a_250
  6
CONTINUOUS
 62
  250
 10
74.325636485734918
 20
107.03920364331316
 11
73.39663253180143
 21
107.82085895489763
  0
LINE
  8
_f-a_250
  6
CONTINUOUS
 62
  250
 10
73.39663253180143
 20
107.82085895489763
 11
74.325636485734918
 21
107.03920364331316
  0
LINE
  8
_f-a_250
  6
CONTINUOUS
 62
  250
 10
74.325636485734918
 20
107.03920364331316
 11
73.39663253180143
 21
107.82085895489763
  0
LINE
  8
_f-a_250
  6
CONTINUOUS
 62
  250
 10
77.085468629518431
 20
104.61918353985865
 11
76.197466710725905
 21
105.36755561780063
  0
LINE
  8
_f-a_250
  6
CONTINUOUS
 62
  250
 10
76.197466710725905
 20
105.36755561780063
 11
77.085468629518431
 21
104.61918353985865
  0
LINE
  8
_f-a_250
  6
CONTINUOUS
 62
  250
 10
77.085468629518431
 20
104.61918353985865
 11
76.197466710725905
 21
105.36755561780063
  0
LINE
  8
_f-a_250
  6
CONTINUOUS
 62
  250
 10
78.50996599546994
 20
101.67087554883065
 11
78.00863728872892
 21
102.09421157788364
  0
LINE
  8
_f-a_250
  6
CONTINUOUS
 62
  250
 10
78.00863728872892
 20
102.09421157788364
 11
78.50996599546994
 21
101.67087554883065
  0
LINE
  8
_f-a_250
  6
CONTINUOUS
 62
  250
 10
78.50996599546994
 20
101.67087554883065
 11
78.00863728872892
 21
102.09421157788364
  0
LINE
  8
_f-a_250
  6
CONTINUOUS
 62
  250
 10
74.186304668107908
 20
106.53087139081063
 11
73.699972489991922
 21
106.93584918927263
  0
LINE
  8
_f-a_250
  6
CONTINUOUS
 62
  250
 10
73.699972489991922
 20
106.93584918927263
 11
74.186304668107908
 21
106.53087139081063
  0
LINE
  8
_f-a_250
  6
CONTINUOUS
 62
  250
 10
74.186304668107908
 20
106.53087139081063
 11
73.699972489991922
 21
106.93584918927263
  0
LINE
  8
_f-a_250
  6
CONTINUOUS
 62
  250
 10
76.59647212378141
 20
104.50753211926562
 11
76.122466186204889
 21
104.90254402112063
  0
LINE
  8
_f-a_250
  6
CONTINUOUS
 62
  250
 10
76.122466186204889
 20
104.90254402112063
 11
76.59647212378141
 21
104.50753211926562
  0
LINE
  8
_f-a_250
  6
CONTINUOUS
 62
  250
 10
76.59647212378141
 20
104.50753211926562
 11
76.122466186204889
 21
104.90254402112063
  0
LINE
  8
_f-a_250
  6
CONTINUOUS
 62
  250
 10
73.654470304170417
 20
106.82085990857212
 11
73.257300714174391
 21
107.15588569592563
  0
LINE
  8
_f-a_250
  6
CONTINUOUS
 62
  250
 10
73.257300714174391
 20
107.15588569592563
 11
73.654470304170417
 21
106.82085990857212
  0
LINE
  8
_f-a_250
  6
CONTINUOUS
 62
  250
 10
73.654470304170417
 20
106.82085990857212
 11
73.257300714174391
 21
107.15588569592563
  0
LINE
  8
_f-a_250
  6
CONTINUOUS
 62
  250
 10
74.746302226701943
 20
104.34087753247363
 11
74.348471025148427
 21
104.66586589764665
  0
LINE
  8
_f-a_250
  6
CONTINUOUS
 62
  250
 10
74.348471025148427
 20
104.66586589764665
 11
74.746302226701943
 21
104.34087753247363
  0
LINE
  8
_f-a_250
  6
CONTINUOUS
 62
  250
 10
74.746302226701943
 20
104.34087753247363
 11
74.348471025148427
 21
104.66586589764665
  0
LINE
  8
_f-a_250
  6
CONTINUOUS
 62
  250
 10
76.981297591844395
 20
103.96920680951216
 11
76.576301911989418
 21
104.31586742352565
  0
LINE
  8
_f-a_250
  6
CONTINUOUS
 62
  250
 10
76.576301911989418
 20
104.31586742352565
 11
76.981297591844395
 21
103.96920680951216
  0
LINE
  8
_f-a_250
  6
CONTINUOUS
 62
  250
 10
76.981297591844395
 20
103.96920680951216
 11
76.576301911989418
 21
104.31586742352565
  0
LINE
  8
_f-a_250
  6
CONTINUOUS
 62
  250
 10
73.163471082368915
 20
103.68088722180464
 11
72.811970571199396
 21
103.97752761792262
  0
LINE
  8
_f-a_250
  6
CONTINUOUS
 62
  250
 10
72.811970571199396
 20
103.97752761792262
 11
73.163471082368915
 21
103.68088722180464
  0
LINE
  8
_f-a_250
  6
CONTINUOUS
 62
  250
 10
73.163471082368915
 20
103.68088722180464
 11
72.811970571199396
 21
103.97752761792262
  0
LINE
  8
_f-a_250
  6
CONTINUOUS
 62
  250
 10
76.051637986818406
 20
101.06419563244913
 11
73.138800719896409
 21
103.51253986310061
  0
LINE
  8
_f-a_250
  6
CONTINUOUS
 62
  250
 10
73.138800719896409
 20
103.51253986310061
 11
76.051637986818406
 21
101.06419563244913
  0
LINE
  8
_f-a_250
  6
CONTINUOUS
 62
  250
 10
76.051637986818406
 20
101.06419563244913
 11
73.138800719896409
 21
103.51253986310061
  0
LINE
  8
_f-a_250
  6
CONTINUOUS
 62
  250
 10
82.399800876298883
 20
106.65587425183362
 11
80.953297475496413
 21
107.87252426098911
  0
LINE
  8
_f-a_250
  6
CONTINUOUS
 62
  250
 10
80.953297475496413
 20
107.87252426098911
 11
82.399800876298883
 21
106.65587425183362
  0
LINE
  8
_f-a_250
  6
CONTINUOUS
 62
  250
 10
82.399800876298883
 20
106.65587425183362
 11
80.953297475496413
 21
107.87252426098911
  0
LINE
  8
_f-a_250
  6
CONTINUOUS
 62
  250
 10
81.136134723344924
 20
107.24085807751712
 11
80.599800208726919
 21
107.73920059155566
  0
LINE
  8
_f-a_250
  6
CONTINUOUS
 62
  250
 10
80.599800208726919
 20
107.73920059155566
 11
81.136134723344924
 21
107.24085807751712
  0
LINE
  8
_f-a_250
  6
CONTINUOUS
 62
  250
 10
81.136134723344924
 20
107.24085807751712
 11
80.599800208726919
 21
107.73920059155566
  0
LINE
  8
_f-a_250
  6
CONTINUOUS
 62
  250
 10
80.774805406251886
 20
107.13252067517365
 11
80.268970588365391
 21
107.60251522015665
  0
LINE
  8
_f-a_250
  6
CONTINUOUS
 62
  250
 10
80.268970588365391
 20
107.60251522015665
 11
80.774805406251886
 21
107.13252067517365
  0
LINE
  8
_f-a_250
  6
CONTINUOUS
 62
  250
 10
80.774805406251886
 20
107.13252067517365
 11
80.268970588365391
 21
107.60251522015665
  0
LINE
  8
_f-a_250
  6
CONTINUOUS
 62
  250
 10
77.087304452577428
 20
104.62919712018115
 11
76.981297591844395
 21
103.96920680951216
  0
LINE
  8
_f-a_250
  6
CONTINUOUS
 62
  250
 10
76.981297591844395
 20
103.96920680951216
 11
77.087304452577428
 21
104.62919712018115
  0
LINE
  8
_f-a_250
  6
CONTINUOUS
 62
  250
 10
77.087304452577428
 20
104.62919712018115
 11
76.981297591844395
 21
103.96920680951216
  0
LINE
  8
_f-a_250
  6
CONTINUOUS
 62
  250
 10
74.319801191011408
 20
107.00420379590113
 11
74.238470653215387
 21
106.49920940350611
  0
LINE
  8
_f-a_250
  6
CONTINUOUS
 62
  250
 10
74.238470653215387
 20
106.49920940350611
 11
74.319801191011408
 21
107.00420379590113
  0
LINE
  8
_f-a_250
  6
CONTINUOUS
 62
  250
 10
74.319801191011408
 20
107.00420379590113
 11
74.238470653215387
 21
106.49920940350611
  0
LINE
  8
_f-a_250
  6
CONTINUOUS
 62
  250
 10
76.192799667039907
 20
105.36755561780063
 11
76.119968751588914
 21
104.92087840985364
  0
LINE
  8
_f-a_250
  6
CONTINUOUS
 62
  250
 10
76.119968751588914
 20
104.92087840985364
 11
76.192799667039907
 21
105.36755561780063
  0
LINE
  8
_f-a_250
  6
CONTINUOUS
 62
  250
 10
76.192799667039907
 20
105.36755561780063
 11
76.119968751588914
 21
104.92087840985364
  0
LINE
  8
_f-a_250
  6
CONTINUOUS
 62
  250
 10
76.59647212378141
 20
104.50753211926562
 11
76.571801761308905
 21
104.32254314374063
  0
LINE
  8
_f-a_250
  6
CONTINUOUS
 62
  250
 10
76.571801761308905
 20
104.32254314374063
 11
76.59647212378141
 21
104.50753211926562
  0
LINE
  8
_f-a_250
  6
CONTINUOUS
 62
  250
 10
76.59647212378141
 20
104.50753211926562
 11
76.571801761308905
 21
104.32254314374063
  0
LINE
  8
_f-a_250
  6
CONTINUOUS
 62
  250
 10
78.966966727891901
 20
104.68753814648713
 11
78.484473088899421
 21
101.67087554883065
  0
LINE
  8
_f-a_250
  6
CONTINUOUS
 62
  250
 10
78.484473088899421
 20
101.67087554883065
 11
78.966966727891901
 21
104.68753814648713
  0
LINE
  8
_f-a_250
  6
CONTINUOUS
 62
  250
 10
78.966966727891901
 20
104.68753814648713
 11
78.484473088899421
 21
101.67087554883065
  0
LINE
  8
_f-a_250
  6
CONTINUOUS
 62
  250
 10
78.430471280732917
 20
104.49751853894313
 11
78.044465640703407
 21
102.09251880597212
  0
LINE
  8
_f-a_250
  6
CONTINUOUS
 62
  250
 10
78.044465640703407
 20
102.09251880597212
 11
78.430471280732917
 21
104.49751853894313
  0
LINE
  8
_f-a_250
  6
CONTINUOUS
 62
  250
 10
78.430471280732917
 20
104.49751853894313
 11
78.044465640703407
 21
102.09251880597212
  0
LINE
  8
_f-a_250
  6
CONTINUOUS
 62
  250
 10
75.114134410539407
 20
106.80917739819614
 11
74.718800643602407
 21
104.31920528363312
  0
LINE
  8
_f-a_250
  6
CONTINUOUS
 62
  250
 10
74.718800643602407
 20
104.31920528363312
 11
75.114134410539407
 21
106.80917739819614
  0
LINE
  8
_f-a_250
  6
CONTINUOUS
 62
  250
 10
75.114134410539407
 20
106.80917739819614
 11
74.718800643602407
 21
104.31920528363312
  0
LINE
  8
_f-a_250
  6
CONTINUOUS
 62
  250
 10
74.635473350206411
 20
106.62588119458265
 11
74.323639730134914
 21
104.66085910748566
  0
LINE
  8
_f-a_250
  6
CONTINUOUS
 62
  250
 10
74.323639730134914
 20
104.66085910748566
 11
74.635473350206411
 21
106.62588119458265
  0
LINE
  8
_f-a_250
  6
CONTINUOUS
 62
  250
 10
74.635473350206411
 20
106.62588119458265
 11
74.323639730134914
 21
104.66085910748566
  0
LINE
  8
_f-a_250
  6
CONTINUOUS
 62
  250
 10
72.77030096403692
 20
104.07918930005161
 11
72.649804214158934
 21
103.31920623730765
  0
LINE
  8
_f-a_250
  6
CONTINUOUS
 62
  250
 10
72.649804214158934
 20
103.31920623730765
 11
72.77030096403692
 21
104.07918930005161
  0
LINE
  8
_f-a_250
  6
CONTINUOUS
 62
  250
 10
72.77030096403692
 20
104.07918930005161
 11
72.649804214158934
 21
103.31920623730765
  0
LINE
  8
_f-a_250
  6
CONTINUOUS
 62
  250
 10
73.360804179826943
 20
107.78087615918265
 11
73.257300714174391
 21
107.15588569592563
  0
LINE
  8
_f-a_250
  6
CONTINUOUS
 62
  250
 10
73.257300714174391
 20
107.15588569592563
 11
73.360804179826943
 21
107.78087615918265
  0
LINE
  8
_f-a_250
  6
CONTINUOUS
 62
  250
 10
73.360804179826943
 20
107.78087615918265
 11
73.257300714174391
 21
107.15588569592563
  0
LINE
  8
_f-a_250
  6
CONTINUOUS
 62
  250
 10
73.155138353029429
 20
103.68417739819614
 11
73.128465274492385
 21
103.49918842267115
  0
LINE
  8
_f-a_250
  6
CONTINUOUS
 62
  250
 10
73.128465274492385
 20
103.49918842267115
 11
73.155138353029429
 21
103.68417739819614
  0
LINE
  8
_f-a_250
  6
CONTINUOUS
 62
  250
 10
73.155138353029429
 20
103.68417739819614
 11
73.128465274492385
 21
103.49918842267115
  0
LINE
  8
_f-a_250
  6
CONTINUOUS
 62
  250
 10
73.666802505174417
 20
106.89419746350363
 11
73.658302882829901
 21
106.83087348889413
  0
LINE
  8
_f-a_250
  6
CONTINUOUS
 62
  250
 10
73.658302882829901
 20
106.83087348889413
 11
73.666802505174417
 21
106.89419746350363
  0
LINE
  8
_f-a_250
  6
CONTINUOUS
 62
  250
 10
73.666802505174417
 20
106.89419746350363
 11
73.658302882829901
 21
106.83087348889413
  0
LINE
  8
_f-a_250
  6
CONTINUOUS
 62
  250
 10
82.412967542329909
 20
106.63753986310061
 11
81.69547067038144
 21
102.16251850079615
  0
LINE
  8
_f-a_250
  6
CONTINUOUS
 62
  250
 10
81.69547067038144
 20
102.16251850079615
 11
82.412967542329909
 21
106.63753986310061
  0
LINE
  8
_f-a_250
  6
CONTINUOUS
 62
  250
 10
82.412967542329909
 20
106.63753986310061
 11
81.69547067038144
 21
102.16251850079615
  0
LINE
  8
_f-a_250
  6
CONTINUOUS
 62
  250
 10
77.110133031526402
 20
104.62419033001966
 11
82.348469356218402
 21
106.61252975415314
  0
LINE
  8
_f-a_250
  6
CONTINUOUS
 62
  250
 10
82.348469356218402
 20
106.61252975415314
 11
77.110133031526402
 21
104.62419033001966
  0
LINE
  8
_f-a_250
  6
CONTINUOUS
 62
  250
 10
77.110133031526402
 20
104.62419033001966
 11
82.348469356218402
 21
106.61252975415314
  0
LINE
  8
_f-a_250
  6
CONTINUOUS
 62
  250
 10
77.005967954316901
 20
103.97585868786913
 11
78.948638299623411
 21
104.70918655346964
  0
LINE
  8
_f-a_250
  6
CONTINUOUS
 62
  250
 10
78.948638299623411
 20
104.70918655346964
 11
77.005967954316901
 21
103.97585868786913
  0
LINE
  8
_f-a_250
  6
CONTINUOUS
 62
  250
 10
77.005967954316901
 20
103.97585868786913
 11
78.948638299623411
 21
104.70918655346964
  0
LINE
  8
_f-a_250
  6
CONTINUOUS
 62
  250
 10
76.099804500261399
 20
101.33754253338915
 11
78.039804557481887
 21
102.07253932904314
  0
LINE
  8
_f-a_250
  6
CONTINUOUS
 62
  250
 10
78.039804557481887
 20
102.07253932904314
 11
76.099804500261399
 21
101.33754253338915
  0
LINE
  8
_f-a_250
  6
CONTINUOUS
 62
  250
 10
76.099804500261399
 20
101.33754253338915
 11
78.039804557481887
 21
102.07253932904314
  0
LINE
  8
_f-a_250
  6
CONTINUOUS
 62
  250
 10
72.791132787385919
 20
104.08586502026614
 11
74.300966123262384
 21
104.65752124737814
  0
LINE
  8
_f-a_250
  6
CONTINUOUS
 62
  250
 10
74.300966123262384
 20
104.65752124737814
 11
72.791132787385919
 21
104.08586502026614
  0
LINE
  8
_f-a_250
  6
CONTINUOUS
 62
  250
 10
72.791132787385919
 20
104.08586502026614
 11
74.300966123262384
 21
104.65752124737814
  0
LINE
  8
_f-a_250
  6
CONTINUOUS
 62
  250
 10
76.517639020601393
 20
100.91418266247815
 11
78.4519706761034
 21
101.64419650982913
  0
LINE
  8
_f-a_250
  6
CONTINUOUS
 62
  250
 10
78.4519706761034
 20
101.64419650982913
 11
76.517639020601393
 21
100.91418266247815
  0
LINE
  8
_f-a_250
  6
CONTINUOUS
 62
  250
 10
76.517639020601393
 20
100.91418266247815
 11
78.4519706761034
 21
101.64419650982913
  0
LINE
  8
_f-a_250
  6
CONTINUOUS
 62
  250
 10
73.379639247575881
 20
107.84253120373813
 11
78.625801662126435
 21
109.82419490765665
  0
LINE
  8
_f-a_250
  6
CONTINUOUS
 62
  250
 10
78.625801662126435
 20
109.82419490765665
 11
73.379639247575881
 21
107.84253120373813
  0
LINE
  8
_f-a_250
  6
CONTINUOUS
 62
  250
 10
73.379639247575881
 20
107.84253120373813
 11
78.625801662126435
 21
109.82419490765665
  0
LINE
  8
_f-a_250
  6
CONTINUOUS
 62
  250
 10
74.402466872850397
 20
107.06252098034915
 11
77.305469373384398
 21
108.16418170880415
  0
LINE
  8
_f-a_250
  6
CONTINUOUS
 62
  250
 10
77.305469373384398
 20
108.16418170880415
 11
74.402466872850397
 21
107.06252098034915
  0
LINE
  8
_f-a_250
  6
CONTINUOUS
 62
  250
 10
74.402466872850397
 20
107.06252098034915
 11
77.305469373384398
 21
108.16418170880415
  0
LINE
  8
_f-a_250
  6
CONTINUOUS
 62
  250
 10
74.310633996644896
 20
106.50085449170214
 11
77.668133834520404
 21
107.79921054791512
  0
LINE
  8
_f-a_250
  6
CONTINUOUS
 62
  250
 10
77.668133834520404
 20
107.79921054791512
 11
74.310633996644896
 21
106.50085449170214
  0
LINE
  8
_f-a_250
  6
CONTINUOUS
 62
  250
 10
74.310633996644896
 20
106.50085449170214
 11
77.668133834520404
 21
107.79921054791512
  0
LINE
  8
_f-a_250
  6
CONTINUOUS
 62
  250
 10
74.933132985750404
 20
106.09420776318612
 11
78.206471065202919
 21
107.35920906018313
  0
LINE
  8
_f-a_250
  6
CONTINUOUS
 62
  250
 10
78.206471065202919
 20
107.35920906018313
 11
74.933132985750404
 21
106.09420776318612
  0
LINE
  8
_f-a_250
  6
CONTINUOUS
 62
  250
 10
74.933132985750404
 20
106.09420776318612
 11
78.206471065202919
 21
107.35920906018313
  0
LINE
  8
_f-a_250
  6
CONTINUOUS
 62
  250
 10
75.151136974016424
 20
105.55585861157515
 11
80.314633706727903
 21
107.54751205395765
  0
LINE
  8
_f-a_250
  6
CONTINUOUS
 62
  250
 10
80.314633706727903
 20
107.54751205395765
 11
75.151136974016424
 21
105.55585861157515
  0
LINE
  8
_f-a_250
  6
CONTINUOUS
 62
  250
 10
75.151136974016424
 20
105.55585861157515
 11
80.314633706727903
 21
107.54751205395765
  0
LINE
  8
_f-a_250
  6
CONTINUOUS
 62
  250
 10
73.68497000090241
 20
106.81418418835715
 11
73.795637944856423
 21
106.85919761609165
  0
LINE
  8
_f-a_250
  6
CONTINUOUS
 62
  250
 10
73.795637944856423
 20
106.85919761609165
 11
73.68497000090241
 21
106.81418418835715
  0
LINE
  8
_f-a_250
  6
CONTINUOUS
 62
  250
 10
73.68497000090241
 20
106.81418418835715
 11
73.795637944856423
 21
106.85919761609165
  0
LINE
  8
_f-a_250
  6
CONTINUOUS
 62
  250
 10
73.190966705003916
 20
103.71419429730513
 11
76.134965280214402
 21
104.86754417370862
  0
LINE
  8
_f-a_250
  6
CONTINUOUS
 62
  250
 10
76.134965280214402
 20
104.86754417370862
 11
73.190966705003916
 21
103.71419429730513
  0
LINE
  8
_f-a_250
  6
CONTINUOUS
 62
  250
 10
73.190966705003916
 20
103.71419429730513
 11
76.134965280214402
 21
104.86754417370862
  0
LINE
  8
_f-a_250
  6
CONTINUOUS
 62
  250
 10
73.15696821562392
 20
103.48752975415314
 11
76.210466483751418
 21
104.69585895489763
  0
LINE
  8
_f-a_250
  6
CONTINUOUS
 62
  250
 10
76.210466483751418
 20
104.69585895489763
 11
73.15696821562392
 21
103.48752975415314
  0
LINE
  8
_f-a_250
  6
CONTINUOUS
 62
  250
 10
73.15696821562392
 20
103.48752975415314
 11
76.210466483751418
 21
104.69585895489763
  0
LINE
  8
_f-a_250
  6
CONTINUOUS
 62
  250
 10
76.212302306810415
 20
105.38252830456813
 11
81.121299127260414
 21
107.23921298932163
  0
LINE
  8
_f-a_250
  6
CONTINUOUS
 62
  250
 10
81.121299127260414
 20
107.23921298932163
 11
76.212302306810415
 21
105.38252830456813
  0
LINE
  8
_f-a_250
  6
CONTINUOUS
 62
  250
 10
76.212302306810415
 20
105.38252830456813
 11
81.121299127260414
 21
107.23921298932163
  0
LINE
  8
_f-a_250
  6
CONTINUOUS
 62
  250
 10
76.392636159578416
 20
100.13252735089364
 11
81.660303929963902
 21
102.12587356518816
  0
LINE
  8
_f-a_250
  6
CONTINUOUS
 62
  250
 10
81.660303929963902
 20
102.12587356518816
 11
76.392636159578416
 21
100.13252735089364
  0
LINE
  8
_f-a_250
  6
CONTINUOUS
 62
  250
 10
76.392636159578416
 20
100.13252735089364
 11
81.660303929963902
 21
102.12587356518816
  0
LINE
  8
_f-a_250
  6
CONTINUOUS
 62
  250
 10
89.869967559495905
 20
110.43585777234165
 11
87.578967670121926
 21
112.35918044995364
  0
LINE
  8
_f-a_250
  6
CONTINUOUS
 62
  250
 10
87.578967670121926
 20
112.35918044995364
 11
89.869967559495905
 21
110.43585777234165
  0
LINE
  8
_f-a_250
  6
CONTINUOUS
 62
  250
 10
89.869967559495905
 20
110.43585777234165
 11
87.578967670121926
 21
112.35918044995364
  0
LINE
  8
_f-a_250
  6
CONTINUOUS
 62
  250
 10
88.799635032335402
 20
106.15419387768816
 11
88.389471629777915
 21
106.50085449170214
  0
LINE
  8
_f-a_250
  6
CONTINUOUS
 62
  250
 10
88.389471629777915
 20
106.50085449170214
 11
88.799635032335402
 21
106.15419387768816
  0
LINE
  8
_f-a_250
  6
CONTINUOUS
 62
  250
 10
88.799635032335402
 20
106.15419387768816
 11
88.389471629777915
 21
106.50085449170214
  0
LINE
  8
_f-a_250
  6
CONTINUOUS
 62
  250
 10
89.872470954576414
 20
110.41752338360865
 11
89.215639690080422
 21
106.30587577771261
  0
LINE
  8
_f-a_250
  6
CONTINUOUS
 62
  250
 10
89.215639690080422
 20
106.30587577771261
 11
89.872470954576414
 21
110.41752338360865
  0
LINE
  8
_f-a_250
  6
CONTINUOUS
 62
  250
 10
89.872470954576414
 20
110.41752338360865
 11
89.215639690080422
 21
106.30587577771261
  0
LINE
  8
_f-a_250
  6
CONTINUOUS
 62
  250
 10
88.921300033250901
 20
106.71252250622815
 11
88.832799056688401
 21
106.14921092938516
  0
LINE
  8
_f-a_250
  6
CONTINUOUS
 62
  250
 10
88.832799056688401
 20
106.14921092938516
 11
88.921300033250901
 21
106.71252250622815
  0
LINE
  8
_f-a_250
  6
CONTINUOUS
 62
  250
 10
88.921300033250901
 20
106.71252250622815
 11
88.832799056688401
 21
106.14921092938516
  0
LINE
  8
_f-a_250
  6
CONTINUOUS
 62
  250
 10
85.8771358524954
 20
111.72420024823263
 11
87.582806209245916
 21
112.37420082043714
  0
LINE
  8
_f-a_250
  6
CONTINUOUS
 62
  250
 10
87.582806209245916
 20
112.37420082043714
 11
85.8771358524954
 21
111.72420024823263
  0
LINE
  8
_f-a_250
  6
CONTINUOUS
 62
  250
 10
85.8771358524954
 20
111.72420024823263
 11
87.582806209245916
 21
112.37420082043714
  0
LINE
  8
_f-a_250
  6
CONTINUOUS
 62
  250
 10
81.724802116075409
 20
107.26920604657266
 11
89.867964843431423
 21
110.38586139630415
  0
LINE
  8
_f-a_250
  6
CONTINUOUS
 62
  250
 10
89.867964843431423
 20
110.38586139630415
 11
81.724802116075409
 21
107.26920604657266
  0
LINE
  8
_f-a_250
  6
CONTINUOUS
 62
  250
 10
81.724802116075409
 20
107.26920604657266
 11
89.867964843431423
 21
110.38586139630415
  0
LINE
  8
_f-a_250
  6
CONTINUOUS
 62
  250
 10
81.204638341585394
 20
107.67754554699964
 11
83.153138021150426
 21
108.42253208111865
  0
LINE
  8
_f-a_250
  6
CONTINUOUS
 62
  250
 10
83.153138021150426
 20
108.42253208111865
 11
81.204638341585394
 21
107.67754554699964
  0
LINE
  8
_f-a_250
  6
CONTINUOUS
 62
  250
 10
81.204638341585394
 20
107.67754554699964
 11
83.153138021150426
 21
108.42253208111865
  0
LINE
  8
_f-a_250
  6
CONTINUOUS
 62
  250
 10
82.053468087831419
 20
104.07752036999764
 11
88.921300033250901
 21
106.70584678601362
  0
LINE
  8
_f-a_250
  6
CONTINUOUS
 62
  250
 10
88.921300033250901
 20
106.70584678601362
 11
82.053468087831419
 21
104.07752036999764
  0
LINE
  8
_f-a_250
  6
CONTINUOUS
 62
  250
 10
82.053468087831419
 20
104.07752036999764
 11
88.921300033250901
 21
106.70584678601362
  0
LINE
  8
_f-a_250
  6
CONTINUOUS
 62
  250
 10
88.84330139509791
 20
106.13419055890162
 11
89.209136823335911
 21
106.27752780865762
  0
LINE
  8
_f-a_250
  6
CONTINUOUS
 62
  250
 10
89.209136823335911
 20
106.27752780865762
 11
88.84330139509791
 21
106.13419055890162
  0
LINE
  8
_f-a_250
  6
CONTINUOUS
 62
  250
 10
88.84330139509791
 20
106.13419055890162
 11
89.209136823335911
 21
106.27752780865762
  0
LINE
  8
_f-a_250
  6
CONTINUOUS
 62
  250
 10
75.26180491797092
 20
105.77086448620862
 11
75.249585965791908
 21
105.72198867749316
  0
LINE
  8
_f-a_250
  6
CONTINUOUS
 62
  250
 10
75.249585965791908
 20
105.72198867749316
 11
75.231978753724889
 21
105.67676067303714
  0
LINE
  8
_f-a_250
  6
CONTINUOUS
 62
  250
 10
75.231978753724889
 20
105.67676067303714
 11
75.209507802644936
 21
105.63565731000013
  0
LINE
  8
_f-a_250
  6
CONTINUOUS
 62
  250
 10
75.209507802644936
 20
105.63565731000013
 11
75.182691672960402
 21
105.59920310925563
  0
LINE
  8
_f-a_250
  6
CONTINUOUS
 62
  250
 10
75.182691672960402
 20
105.59920310925563
 11
75.152048925081431
 21
105.56794643353564
  0
LINE
  8
_f-a_250
  6
CONTINUOUS
 62
  250
 10
75.152048925081431
 20
105.56794643353564
 11
75.118116000810403
 21
105.54238796185564
  0
LINE
  8
_f-a_250
  6
CONTINUOUS
 62
  250
 10
75.118116000810403
 20
105.54238796185564
 11
75.081399539628904
 21
105.52305221509064
  0
LINE
  8
_f-a_250
  6
CONTINUOUS
 62
  250
 10
75.081399539628904
 20
105.52305221509064
 11
75.042424062410419
 21
105.51043987225611
  0
LINE
  8
_f-a_250
  6
CONTINUOUS
 62
  250
 10
75.042424062410419
 20
105.51043987225611
 11
75.001720050493418
 21
105.50509929608415
  0
LINE
  8
_f-a_250
  6
CONTINUOUS
 62
  250
 10
75.001720050493418
 20
105.50509929608415
 11
74.959800103822914
 21
105.50753116559113
  0
LINE
  8
_f-a_250
  6
CONTINUOUS
 62
  250
 10
74.959800103822914
 20
105.50753116559113
 11
74.920121291795937
 21
105.51795005749764
  0
LINE
  8
_f-a_250
  6
CONTINUOUS
 62
  250
 10
74.920121291795937
 20
105.51795005749764
 11
74.883500198045937
 21
105.53571224164062
  0
LINE
  8
_f-a_250
  6
CONTINUOUS
 62
  250
 10
74.883500198045937
 20
105.53571224164062
 11
74.850395778337401
 21
105.56003093670915
  0
LINE
  8
_f-a_250
  6
CONTINUOUS
 62
  250
 10
74.850395778337401
 20
105.56003093670915
 11
74.821266988435923
 21
105.59011936139163
  0
LINE
  8
_f-a_250
  6
CONTINUOUS
 62
  250
 10
74.821266988435923
 20
105.59011936139163
 11
74.796572784105422
 21
105.62523841809366
  0
LINE
  8
_f-a_250
  6
CONTINUOUS
 62
  250
 10
74.796572784105422
 20
105.62523841809366
 11
74.776790002504413
 21
105.66460132550314
  0
LINE
  8
_f-a_250
  6
CONTINUOUS
 62
  250
 10
74.776790002504413
 20
105.66460132550314
 11
74.762377599397894
 21
105.70746898602565
  0
LINE
  8
_f-a_250
  6
CONTINUOUS
 62
  250
 10
74.762377599397894
 20
105.70746898602565
 11
74.753794530549925
 21
105.75303077649214
  0
LINE
  8
_f-a_250
  6
CONTINUOUS
 62
  250
 10
74.753794530549925
 20
105.75303077649214
 11
74.751505712190408
 21
105.80052375744913
  0
LINE
  8
_f-a_250
  6
CONTINUOUS
 62
  250
 10
74.751505712190408
 20
105.80052375744913
 11
74.755970100084397
 21
105.84920883130161
  0
LINE
  8
_f-a_250
  6
CONTINUOUS
 62
  250
 10
74.755970100084397
 20
105.84920883130161
 11
74.767306903520421
 21
105.89815616559113
  0
LINE
  8
_f-a_250
  6
CONTINUOUS
 62
  250
 10
74.767306903520421
 20
105.89815616559113
 11
74.784484962144916
 21
105.94362258862566
  0
LINE
  8
_f-a_250
  6
CONTINUOUS
 62
  250
 10
74.784484962144916
 20
105.94362258862566
 11
74.806848624864415
 21
105.98508357953165
  0
LINE
  8
_f-a_250
  6
CONTINUOUS
 62
  250
 10
74.806848624864415
 20
105.98508357953165
 11
74.833760121980902
 21
106.02191925000265
  0
LINE
  8
_f-a_250
  6
CONTINUOUS
 62
  250
 10
74.833760121980902
 20
106.02191925000265
 11
74.864551881471414
 21
106.05358123730765
  0
LINE
  8
_f-a_250
  6
CONTINUOUS
 62
  250
 10
74.864551881471414
 20
106.05358123730765
 11
74.898592094102924
 21
106.07947349499764
  0
LINE
  8
_f-a_250
  6
CONTINUOUS
 62
  250
 10
74.898592094102924
 20
106.07947349499764
 11
74.935219148317401
 21
106.09907150220015
  0
LINE
  8
_f-a_250
  6
CONTINUOUS
 62
  250
 10
74.935219148317401
 20
106.09907150220015
 11
74.973783353486908
 21
106.11177921246613
  0
LINE
  8
_f-a_250
  6
CONTINUOUS
 62
  250
 10
74.973783353486908
 20
106.11177921246613
 11
75.013640979448411
 21
106.11700057934863
  0
LINE
  8
_f-a_250
  6
CONTINUOUS
 62
  250
 10
75.013640979448411
 20
106.11700057934863
 11
75.054136375108925
 21
106.11421108197314
  0
LINE
  8
_f-a_250
  6
CONTINUOUS
 62
  250
 10
75.054136375108925
 20
106.11421108197314
 11
75.095287421861912
 21
106.10426902722415
  0
LINE
  8
_f-a_250
  6
CONTINUOUS
 62
  250
 10
75.095287421861912
 20
106.10426902722415
 11
75.132897952714899
 21
106.08698368023965
  0
LINE
  8
_f-a_250
  6
CONTINUOUS
 62
  250
 10
75.132897952714899
 20
106.08698368023965
 11
75.166598418870905
 21
106.06304645489763
  0
LINE
  8
_f-a_250
  6
CONTINUOUS
 62
  250
 10
75.166598418870905
 20
106.06304645489763
 11
75.196013311067418
 21
106.03319644879416
  0
LINE
  8
_f-a_250
  6
CONTINUOUS
 62
  250
 10
75.196013311067418
 20
106.03319644879416
 11
75.220779040971934
 21
105.99817275952414
  0
LINE
  8
_f-a_250
  6
CONTINUOUS
 62
  250
 10
75.220779040971934
 20
105.99817275952414
 11
75.240520099321429
 21
105.95869064282515
  0
LINE
  8
_f-a_250
  6
CONTINUOUS
 62
  250
 10
75.240520099321429
 20
105.95869064282515
 11
75.254860976854417
 21
105.91548919629163
  0
LINE
  8
_f-a_250
  6
CONTINUOUS
 62
  250
 10
75.254860976854417
 20
105.91548919629163
 11
75.263438085237425
 21
105.86928367566165
  0
LINE
  8
_f-a_250
  6
CONTINUOUS
 62
  250
 10
75.263438085237425
 20
105.86928367566165
 11
75.265869954744403
 21
105.82083702038862
  0
LINE
  8
_f-a_250
  6
CONTINUOUS
 62
  250
 10
75.265869954744403
 20
105.82083702038862
 11
75.26180491797092
 21
105.77086448620862
  0
LINE
  8
_f-a_250
  6
CONTINUOUS
 62
  250
 10
75.26180491797092
 20
105.77086448620862
 11
75.249585965791908
 21
105.72198867749316
  0
LINE
  8
_f-a_250
  6
CONTINUOUS
 62
  250
 10
75.249585965791908
 20
105.72198867749316
 11
75.231978753724889
 21
105.67676067303714
  0
LINE
  8
_f-a_250
  6
CONTINUOUS
 62
  250
 10
75.231978753724889
 20
105.67676067303714
 11
75.209507802644936
 21
105.63565731000013
  0
LINE
  8
_f-a_250
  6
CONTINUOUS
 62
  250
 10
75.209507802644936
 20
105.63565731000013
 11
75.182691672960402
 21
105.59920310925563
  0
LINE
  8
_f-a_250
  6
CONTINUOUS
 62
  250
 10
75.182691672960402
 20
105.59920310925563
 11
75.152048925081431
 21
105.56794643353564
  0
LINE
  8
_f-a_250
  6
CONTINUOUS
 62
  250
 10
75.152048925081431
 20
105.56794643353564
 11
75.118116000810403
 21
105.54238796185564
  0
LINE
  8
_f-a_250
  6
CONTINUOUS
 62
  250
 10
75.118116000810403
 20
105.54238796185564
 11
75.081399539628904
 21
105.52305221509064
  0
LINE
  8
_f-a_250
  6
CONTINUOUS
 62
  250
 10
75.081399539628904
 20
105.52305221509064
 11
75.042424062410419
 21
105.51043987225611
  0
LINE
  8
_f-a_250
  6
CONTINUOUS
 62
  250
 10
75.042424062410419
 20
105.51043987225611
 11
75.001720050493418
 21
105.50509929608415
  0
LINE
  8
_f-a_250
  6
CONTINUOUS
 62
  250
 10
75.001720050493418
 20
105.50509929608415
 11
74.959800103822914
 21
105.50753116559113
  0
LINE
  8
_f-a_250
  6
CONTINUOUS
 62
  250
 10
74.959800103822914
 20
105.50753116559113
 11
74.920121291795937
 21
105.51795005749764
  0
LINE
  8
_f-a_250
  6
CONTINUOUS
 62
  250
 10
74.920121291795937
 20
105.51795005749764
 11
74.883500198045937
 21
105.53571224164062
  0
LINE
  8
_f-a_250
  6
CONTINUOUS
 62
  250
 10
74.883500198045937
 20
105.53571224164062
 11
74.850395778337401
 21
105.56003093670915
  0
LINE
  8
_f-a_250
  6
CONTINUOUS
 62
  250
 10
74.850395778337401
 20
105.56003093670915
 11
74.821266988435923
 21
105.59011936139163
  0
LINE
  8
_f-a_250
  6
CONTINUOUS
 62
  250
 10
74.821266988435923
 20
105.59011936139163
 11
74.796572784105422
 21
105.62523841809366
  0
LINE
  8
_f-a_250
  6
CONTINUOUS
 62
  250
 10
74.796572784105422
 20
105.62523841809366
 11
74.776790002504413
 21
105.66460132550314
  0
LINE
  8
_f-a_250
  6
CONTINUOUS
 62
  250
 10
74.776790002504413
 20
105.66460132550314
 11
74.762377599397894
 21
105.70746898602565
  0
LINE
  8
_f-a_250
  6
CONTINUOUS
 62
  250
 10
74.762377599397894
 20
105.70746898602565
 11
74.753794530549925
 21
105.75303077649214
  0
LINE
  8
_f-a_250
  6
CONTINUOUS
 62
  250
 10
74.753794530549925
 20
105.75303077649214
 11
74.751505712190408
 21
105.80052375744913
  0
LINE
  8
_f-a_250
  6
CONTINUOUS
 62
  250
 10
74.751505712190408
 20
105.80052375744913
 11
74.755970100084397
 21
105.84920883130161
  0
LINE
  8
_f-a_250
  6
CONTINUOUS
 62
  250
 10
74.755970100084397
 20
105.84920883130161
 11
74.767306903520421
 21
105.89815616559113
  0
LINE
  8
_f-a_250
  6
CONTINUOUS
 62
  250
 10
74.767306903520421
 20
105.89815616559113
 11
74.784484962144916
 21
105.94362258862566
  0
LINE
  8
_f-a_250
  6
CONTINUOUS
 62
  250
 10
74.784484962144916
 20
105.94362258862566
 11
74.806848624864415
 21
105.98508357953165
  0
LINE
  8
_f-a_250
  6
CONTINUOUS
 62
  250
 10
74.806848624864415
 20
105.98508357953165
 11
74.833760121980902
 21
106.02191925000265
  0
LINE
  8
_f-a_250
  6
CONTINUOUS
 62
  250
 10
74.833760121980902
 20
106.02191925000265
 11
74.864551881471414
 21
106.05358123730765
  0
LINE
  8
_f-a_250
  6
CONTINUOUS
 62
  250
 10
74.864551881471414
 20
106.05358123730765
 11
74.898592094102924
 21
106.07947349499764
  0
LINE
  8
_f-a_250
  6
CONTINUOUS
 62
  250
 10
74.898592094102924
 20
106.07947349499764
 11
74.935219148317401
 21
106.09907150220015
  0
LINE
  8
_f-a_250
  6
CONTINUOUS
 62
  250
 10
74.935219148317401
 20
106.09907150220015
 11
74.973783353486908
 21
106.11177921246613
  0
LINE
  8
_f-a_250
  6
CONTINUOUS
 62
  250
 10
74.973783353486908
 20
106.11177921246613
 11
75.013640979448411
 21
106.11700057934863
  0
LINE
  8
_f-a_250
  6
CONTINUOUS
 62
  250
 10
75.013640979448411
 20
106.11700057934863
 11
75.054136375108925
 21
106.11421108197314
  0
LINE
  8
_f-a_250
  6
CONTINUOUS
 62
  250
 10
75.054136375108925
 20
106.11421108197314
 11
75.095287421861912
 21
106.10426902722415
  0
LINE
  8
_f-a_250
  6
CONTINUOUS
 62
  250
 10
75.095287421861912
 20
106.10426902722415
 11
75.132897952714899
 21
106.08698368023965
  0
LINE
  8
_f-a_250
  6
CONTINUOUS
 62
  250
 10
75.132897952714899
 20
106.08698368023965
 11
75.166598418870905
 21
106.06304645489763
  0
LINE
  8
_f-a_250
  6
CONTINUOUS
 62
  250
 10
75.166598418870905
 20
106.06304645489763
 11
75.196013311067418
 21
106.03319644879416
  0
LINE
  8
_f-a_250
  6
CONTINUOUS
 62
  250
 10
75.196013311067418
 20
106.03319644879416
 11
75.220779040971934
 21
105.99817275952414
  0
LINE
  8
_f-a_250
  6
CONTINUOUS
 62
  250
 10
75.220779040971934
 20
105.99817275952414
 11
75.240520099321429
 21
105.95869064282515
  0
LINE
  8
_f-a_250
  6
CONTINUOUS
 62
  250
 10
75.240520099321429
 20
105.95869064282515
 11
75.254860976854417
 21
105.91548919629163
  0
LINE
  8
_f-a_250
  6
CONTINUOUS
 62
  250
 10
75.254860976854417
 20
105.91548919629163
 11
75.263438085237425
 21
105.86928367566165
  0
LINE
  8
_f-a_250
  6
CONTINUOUS
 62
  250
 10
75.263438085237425
 20
105.86928367566165
 11
75.265869954744403
 21
105.82083702038862
  0
LINE
  8
_f-a_250
  6
CONTINUOUS
 62
  250
 10
75.265869954744403
 20
105.82083702038862
 11
75.26180491797092
 21
105.77086448620862
  0
LINE
  8
_f-a_250
  6
CONTINUOUS
 62
  250
 10
76.58346639029142
 20
104.44587707470964
 11
76.569417575517917
 21
104.43688869427766
  0
LINE
  8
_f-a_250
  6
CONTINUOUS
 62
  250
 10
76.569417575517917
 20
104.43688869427766
 11
76.555291274705922
 21
104.42894935559366
  0
LINE
  8
_f-a_250
  6
CONTINUOUS
 62
  250
 10
76.555291274705922
 20
104.42894935559366
 11
76.541004041353432
 21
104.42210674237313
  0
LINE
  8
_f-a_250
  6
CONTINUOUS
 62
  250
 10
76.541004041353432
 20
104.42210674237313
 11
76.526442626634406
 21
104.41640853833265
  0
LINE
  8
_f-a_250
  6
CONTINUOUS
 62
  250
 10
76.526442626634406
 20
104.41640853833265
 11
76.511511663118426
 21
104.41190242718763
  0
LINE
  8
_f-a_250
  6
CONTINUOUS
 62
  250
 10
76.511511663118426
 20
104.41190242718763
 11
76.496109822908437
 21
104.40865993451216
  0
LINE
  8
_f-a_250
  6
CONTINUOUS
 62
  250
 10
76.496109822908437
 20
104.40865993451216
 11
76.480135778108405
 21
104.40672874402112
  0
LINE
  8
_f-a_250
  6
CONTINUOUS
 62
  250
 10
76.480135778108405
 20
104.40672874402112
 11
76.4634941612874
 21
104.40613269757364
  0
LINE
  8
_f-a_250
  6
CONTINUOUS
 62
  250
 10
76.4634941612874
 20
104.40613269757364
 11
76.446089605012929
 21
104.40694332074263
  0
LINE
  8
_f-a_250
  6
CONTINUOUS
 62
  250
 10
76.446089605012929
 20
104.40694332074263
 11
76.427802899995896
 21
104.40920829724413
  0
LINE
  8
_f-a_250
  6
CONTINUOUS
 62
  250
 10
76.427802899995896
 20
104.40920829724413
 11
76.387522081056403
 21
104.41912651013462
  0
LINE
  8
_f-a_250
  6
CONTINUOUS
 62
  250
 10
76.387522081056403
 20
104.41912651013462
 11
76.350561240831411
 21
104.43643569897714
  0
LINE
  8
_f-a_250
  6
CONTINUOUS
 62
  250
 10
76.350561240831411
 20
104.43643569897714
 11
76.317325690904397
 21
104.46037292431916
  0
LINE
  8
_f-a_250
  6
CONTINUOUS
 62
  250
 10
76.317325690904397
 20
104.46037292431916
 11
76.28824458471891
 21
104.49022293042262
  0
LINE
  8
_f-a_250
  6
CONTINUOUS
 62
  250
 10
76.28824458471891
 20
104.49022293042262
 11
76.263717273393411
 21
104.52524661969264
  0
LINE
  8
_f-a_250
  6
CONTINUOUS
 62
  250
 10
76.263717273393411
 20
104.52524661969264
 11
76.244178870836436
 21
104.56472873639163
  0
LINE
  8
_f-a_250
  6
CONTINUOUS
 62
  250
 10
76.244178870836436
 20
104.56472873639163
 11
76.230034688630894
 21
104.60790634106715
  0
LINE
  8
_f-a_250
  6
CONTINUOUS
 62
  250
 10
76.230034688630894
 20
104.60790634106715
 11
76.221701959291408
 21
104.65411186169712
  0
LINE
  8
_f-a_250
  6
CONTINUOUS
 62
  250
 10
76.221701959291408
 20
104.65411186169712
 11
76.219591954866388
 21
104.70255851697065
  0
LINE
  8
_f-a_250
  6
CONTINUOUS
 62
  250
 10
76.219591954866388
 20
104.70255851697065
 11
76.224133828798415
 21
104.75253105115011
  0
LINE
  8
_f-a_250
  6
CONTINUOUS
 62
  250
 10
76.224133828798415
 20
104.75253105115011
 11
76.226029256502414
 21
104.75841999005415
  0
LINE
  8
_f-a_250
  6
CONTINUOUS
 62
  250
 10
76.226029256502414
 20
104.75841999005415
 11
76.227805474916408
 21
104.76414203595263
  0
LINE
  8
_f-a_250
  6
CONTINUOUS
 62
  250
 10
76.227805474916408
 20
104.76414203595263
 11
76.229486325898904
 21
104.76967334698764
  0
LINE
  8
_f-a_250
  6
CONTINUOUS
 62
  250
 10
76.229486325898904
 20
104.76967334698764
 11
76.231071809450413
 21
104.77503776501712
  0
LINE
  8
_f-a_250
  6
CONTINUOUS
 62
  250
 10
76.231071809450413
 20
104.77503776501712
 11
76.232573846498411
 21
104.78023529004163
  0
LINE
  8
_f-a_250
  6
CONTINUOUS
 62
  250
 10
76.232573846498411
 20
104.78023529004163
 11
76.233998397508401
 21
104.78528976391863
  0
LINE
  8
_f-a_250
  6
CONTINUOUS
 62
  250
 10
76.233998397508401
 20
104.78528976391863
 11
76.235357383409422
 21
104.79020118664812
  0
LINE
  8
_f-a_250
  6
CONTINUOUS
 62
  250
 10
76.235357383409422
 20
104.79020118664812
 11
76.236662725129918
 21
104.79499340008815
  0
LINE
  8
_f-a_250
  6
CONTINUOUS
 62
  250
 10
76.236662725129918
 20
104.79499340008815
 11
76.237914422670428
 21
104.79964256238063
  0
LINE
  8
_f-a_250
  6
CONTINUOUS
 62
  250
 10
76.237914422670428
 20
104.79964256238063
 11
76.239136317888381
 21
104.80419635724165
  0
LINE
  8
_f-a_250
  6
CONTINUOUS
 62
  250
 10
76.239136317888381
 20
104.80419635724165
 11
76.58346639029142
 21
104.44587707470964
  0
LINE
  8
_f-a_250
  6
CONTINUOUS
 62
  250
 10
76.58346639029142
 20
104.44587707470964
 11
76.569417575517917
 21
104.43688869427766
  0
LINE
  8
_f-a_250
  6
CONTINUOUS
 62
  250
 10
76.569417575517917
 20
104.43688869427766
 11
76.555291274705922
 21
104.42894935559366
  0
LINE
  8
_f-a_250
  6
CONTINUOUS
 62
  250
 10
76.555291274705922
 20
104.42894935559366
 11
76.541004041353432
 21
104.42210674237313
  0
LINE
  8
_f-a_250
  6
CONTINUOUS
 62
  250
 10
76.541004041353432
 20
104.42210674237313
 11
76.526442626634406
 21
104.41640853833265
  0
LINE
  8
_f-a_250
  6
CONTINUOUS
 62
  250
 10
76.526442626634406
 20
104.41640853833265
 11
76.511511663118426
 21
104.41190242718763
  0
LINE
  8
_f-a_250
  6
CONTINUOUS
 62
  250
 10
76.511511663118426
 20
104.41190242718763
 11
76.496109822908437
 21
104.40865993451216
  0
LINE
  8
_f-a_250
  6
CONTINUOUS
 62
  250
 10
76.496109822908437
 20
104.40865993451216
 11
76.480135778108405
 21
104.40672874402112
  0
LINE
  8
_f-a_250
  6
CONTINUOUS
 62
  250
 10
76.480135778108405
 20
104.40672874402112
 11
76.4634941612874
 21
104.40613269757364
  0
LINE
  8
_f-a_250
  6
CONTINUOUS
 62
  250
 10
76.4634941612874
 20
104.40613269757364
 11
76.446089605012929
 21
104.40694332074263
  0
LINE
  8
_f-a_250
  6
CONTINUOUS
 62
  250
 10
76.446089605012929
 20
104.40694332074263
 11
76.427802899995896
 21
104.40920829724413
  0
LINE
  8
_f-a_250
  6
CONTINUOUS
 62
  250
 10
76.427802899995896
 20
104.40920829724413
 11
76.387522081056403
 21
104.41912651013462
  0
LINE
  8
_f-a_250
  6
CONTINUOUS
 62
  250
 10
76.387522081056403
 20
104.41912651013462
 11
76.350561240831411
 21
104.43643569897714
  0
LINE
  8
_f-a_250
  6
CONTINUOUS
 62
  250
 10
76.350561240831411
 20
104.43643569897714
 11
76.317325690904397
 21
104.46037292431916
  0
LINE
  8
_f-a_250
  6
CONTINUOUS
 62
  250
 10
76.317325690904397
 20
104.46037292431916
 11
76.28824458471891
 21
104.49022293042262
  0
LINE
  8
_f-a_250
  6
CONTINUOUS
 62
  250
 10
76.28824458471891
 20
104.49022293042262
 11
76.263717273393411
 21
104.52524661969264
  0
LINE
  8
_f-a_250
  6
CONTINUOUS
 62
  250
 10
76.263717273393411
 20
104.52524661969264
 11
76.244178870836436
 21
104.56472873639163
  0
LINE
  8
_f-a_250
  6
CONTINUOUS
 62
  250
 10
76.244178870836436
 20
104.56472873639163
 11
76.230034688630894
 21
104.60790634106715
  0
LINE
  8
_f-a_250
  6
CONTINUOUS
 62
  250
 10
76.230034688630894
 20
104.60790634106715
 11
76.221701959291408
 21
104.65411186169712
  0
LINE
  8
_f-a_250
  6
CONTINUOUS
 62
  250
 10
76.221701959291408
 20
104.65411186169712
 11
76.219591954866388
 21
104.70255851697065
  0
LINE
  8
_f-a_250
  6
CONTINUOUS
 62
  250
 10
76.219591954866388
 20
104.70255851697065
 11
76.224133828798415
 21
104.75253105115011
  0
LINE
  8
_f-a_250
  6
CONTINUOUS
 62
  250
 10
76.224133828798415
 20
104.75253105115011
 11
76.226029256502414
 21
104.75841999005415
  0
LINE
  8
_f-a_250
  6
CONTINUOUS
 62
  250
 10
76.226029256502414
 20
104.75841999005415
 11
76.227805474916408
 21
104.76414203595263
  0
LINE
  8
_f-a_250
  6
CONTINUOUS
 62
  250
 10
76.227805474916408
 20
104.76414203595263
 11
76.229486325898904
 21
104.76967334698764
  0
LINE
  8
_f-a_250
  6
CONTINUOUS
 62
  250
 10
76.229486325898904
 20
104.76967334698764
 11
76.231071809450413
 21
104.77503776501712
  0
LINE
  8
_f-a_250
  6
CONTINUOUS
 62
  250
 10
76.231071809450413
 20
104.77503776501712
 11
76.232573846498411
 21
104.78023529004163
  0
LINE
  8
_f-a_250
  6
CONTINUOUS
 62
  250
 10
76.232573846498411
 20
104.78023529004163
 11
76.233998397508401
 21
104.78528976391863
  0
LINE
  8
_f-a_250
  6
CONTINUOUS
 62
  250
 10
76.233998397508401
 20
104.78528976391863
 11
76.235357383409422
 21
104.79020118664812
  0
LINE
  8
_f-a_250
  6
CONTINUOUS
 62
  250
 10
76.235357383409422
 20
104.79020118664812
 11
76.236662725129918
 21
104.79499340008815
  0
LINE
  8
_f-a_250
  6
CONTINUOUS
 62
  250
 10
76.236662725129918
 20
104.79499340008815
 11
76.237914422670428
 21
104.79964256238063
  0
LINE
  8
_f-a_250
  6
CONTINUOUS
 62
  250
 10
76.237914422670428
 20
104.79964256238063
 11
76.239136317888381
 21
104.80419635724165
  0
LINE
  8
_f-a_250
  6
CONTINUOUS
 62
  250
 10
78.989634374299925
 20
109.51253414105513
 11
78.632298568406895
 21
109.81918811749514
  0
LINE
  8
_f-a_250
  6
CONTINUOUS
 62
  250
 10
78.632298568406895
 20
109.81918811749514
 11
78.989634374299925
 21
109.51253414105513
  0
LINE
  8
_f-a_250
  6
CONTINUOUS
 62
  250
 10
78.989634374299925
 20
109.51253414105513
 11
78.632298568406895
 21
109.81918811749514
  0
LINE
  8
_f-a_250
  6
CONTINUOUS
 62
  250
 10
78.653136352220429
 20
107.01087951611616
 11
76.994303325334386
 21
108.40252876233163
  0
LINE
  8
_f-a_250
  6
CONTINUOUS
 62
  250
 10
76.994303325334386
 20
108.40252876233163
 11
78.653136352220429
 21
107.01087951611616
  0
LINE
  8
_f-a_250
  6
CONTINUOUS
 62
  250
 10
78.653136352220429
 20
107.01087951611616
 11
76.994303325334386
 21
108.40252876233163
  0
LINE
  8
_f-a_250
  6
CONTINUOUS
 62
  250
 10
77.42013082853893
 20
108.50919723462161
 11
77.103636125245885
 21
108.77419948529314
  0
LINE
  8
_f-a_250
  6
CONTINUOUS
 62
  250
 10
77.103636125245885
 20
108.77419948529314
 11
77.42013082853893
 21
108.50919723462161
  0
LINE
  8
_f-a_250
  6
CONTINUOUS
 62
  250
 10
77.42013082853893
 20
108.50919723462161
 11
77.103636125245885
 21
108.77419948529314
  0
LINE
  8
_f-a_250
  6
CONTINUOUS
 62
  250
 10
78.14596639029142
 20
107.90087223004416
 11
77.744302610078904
 21
108.23921203564714
  0
LINE
  8
_f-a_250
  6
CONTINUOUS
 62
  250
 10
77.744302610078904
 20
108.23921203564714
 11
78.14596639029142
 21
107.90087223004416
  0
LINE
  8
_f-a_250
  6
CONTINUOUS
 62
  250
 10
78.14596639029142
 20
107.90087223004416
 11
77.744302610078904
 21
108.23921203564714
  0
LINE
  8
_f-a_250
  6
CONTINUOUS
 62
  250
 10
78.676638463655394
 20
107.45088100384814
 11
78.497472861924905
 21
107.62418746899661
  0
LINE
  8
_f-a_250
  6
CONTINUOUS
 62
  250
 10
78.497472861924905
 20
107.62418746899661
 11
78.676638463655394
 21
107.45088100384814
  0
LINE
  8
_f-a_250
  6
CONTINUOUS
 62
  250
 10
78.676638463655394
 20
107.45088100384814
 11
78.497472861924905
 21
107.62418746899661
  0
LINE
  8
_f-a_250
  6
CONTINUOUS
 62
  250
 10
77.772304872194411
 20
108.67587566327165
 11
77.463636258760403
 21
108.93587112378214
  0
LINE
  8
_f-a_250
  6
CONTINUOUS
 62
  250
 10
77.463636258760403
 20
108.93587112378214
 11
77.772304872194411
 21
108.67587566327165
  0
LINE
  8
_f-a_250
  6
CONTINUOUS
 62
  250
 10
77.772304872194411
 20
108.67587566327165
 11
77.463636258760403
 21
108.93587112378214
  0
LINE
  8
_f-a_250
  6
CONTINUOUS
 62
  250
 10
78.524300912538422
 20
108.04919242810315
 11
78.266463140168923
 21
108.26255321454114
  0
LINE
  8
_f-a_250
  6
CONTINUOUS
 62
  250
 10
78.266463140168923
 20
108.26255321454114
 11
78.524300912538422
 21
108.04919242810315
  0
LINE
  8
_f-a_250
  6
CONTINUOUS
 62
  250
 10
78.524300912538422
 20
108.04919242810315
 11
78.266463140168923
 21
108.26255321454114
  0
LINE
  8
_f-a_250
  6
CONTINUOUS
 62
  250
 10
86.40513167730893
 20
110.43087482403811
 11
86.166802505174417
 21
110.62921523999316
  0
LINE
  8
_f-a_250
  6
CONTINUOUS
 62
  250
 10
86.166802505174417
 20
110.62921523999316
 11
86.40513167730893
 21
110.43087482403811
  0
LINE
  8
_f-a_250
  6
CONTINUOUS
 62
  250
 10
86.40513167730893
 20
110.43087482403811
 11
86.166802505174417
 21
110.62921523999316
  0
LINE
  8
_f-a_250
  6
CONTINUOUS
 62
  250
 10
85.556802610078904
 20
111.15755081128214
 11
85.484472373643911
 21
111.21920585583761
  0
LINE
  8
_f-a_250
  6
CONTINUOUS
 62
  250
 10
85.484472373643911
 20
111.21920585583761
 11
85.556802610078904
 21
111.15755081128214
  0
LINE
  8
_f-a_250
  6
CONTINUOUS
 62
  250
 10
85.556802610078904
 20
111.15755081128214
 11
85.484472373643911
 21
111.21920585583761
  0
LINE
  8
_f-a_250
  6
CONTINUOUS
 62
  250
 10
86.785969594636896
 20
110.91920375775412
 11
85.216305116334894
 21
112.24254608105765
  0
LINE
  8
_f-a_250
  6
CONTINUOUS
 62
  250
 10
85.216305116334894
 20
112.24254608105765
 11
86.785969594636896
 21
110.91920375775412
  0
LINE
  8
_f-a_250
  6
CONTINUOUS
 62
  250
 10
86.785969594636896
 20
110.91920375775412
 11
85.216305116334894
 21
112.24254608105765
  0
LINE
  8
_f-a_250
  6
CONTINUOUS
 62
  250
 10
86.492971042314423
 20
110.83752155255415
 11
84.921303847947911
 21
112.15585708569614
  0
LINE
  8
_f-a_250
  6
CONTINUOUS
 62
  250
 10
84.921303847947911
 20
112.15585708569614
 11
86.492971042314423
 21
110.83752155255415
  0
LINE
  8
_f-a_250
  6
CONTINUOUS
 62
  250
 10
86.492971042314423
 20
110.83752155255415
 11
84.921303847947911
 21
112.15585708569614
  0
LINE
  8
_f-a_250
  6
CONTINUOUS
 62
  250
 10
78.729966739335936
 20
107.45586395215113
 11
78.670135596910399
 21
107.06752777051065
  0
LINE
  8
_f-a_250
  6
CONTINUOUS
 62
  250
 10
78.670135596910399
 20
107.06752777051065
 11
78.729966739335936
 21
107.45586395215113
  0
LINE
  8
_f-a_250
  6
CONTINUOUS
 62
  250
 10
78.729966739335936
 20
107.45586395215113
 11
78.670135596910399
 21
107.06752777051065
  0
LINE
  8
_f-a_250
  6
CONTINUOUS
 62
  250
 10
86.792466500917413
 20
110.85254192303714
 11
86.696801046052911
 21
110.22085189770765
  0
LINE
  8
_f-a_250
  6
CONTINUOUS
 62
  250
 10
86.696801046052911
 20
110.22085189770765
 11
86.792466500917413
 21
110.85254192303714
  0
LINE
  8
_f-a_250
  6
CONTINUOUS
 62
  250
 10
86.792466500917413
 20
110.85254192303714
 11
86.696801046052911
 21
110.22085189770765
  0
LINE
  8
_f-a_250
  6
CONTINUOUS
 62
  250
 10
86.5176414047869
 20
110.81751823376712
 11
86.457804301896886
 21
110.42419910382364
  0
LINE
  8
_f-a_250
  6
CONTINUOUS
 62
  250
 10
86.457804301896886
 20
110.42419910382364
 11
86.5176414047869
 21
110.81751823376712
  0
LINE
  8
_f-a_250
  6
CONTINUOUS
 62
  250
 10
86.5176414047869
 20
110.81751823376712
 11
86.457804301896886
 21
110.42419910382364
  0
LINE
  8
_f-a_250
  6
CONTINUOUS
 62
  250
 10
86.255965093293923
 20
111.02086543988312
 11
86.197969773927923
 21
110.62585353802766
  0
LINE
  8
_f-a_250
  6
CONTINUOUS
 62
  250
 10
86.197969773927923
 20
110.62585353802766
 11
86.255965093293923
 21
111.02086543988312
  0
LINE
  8
_f-a_250
  6
CONTINUOUS
 62
  250
 10
86.255965093293923
 20
111.02086543988312
 11
86.197969773927923
 21
110.62585353802766
  0
LINE
  8
_f-a_250
  6
CONTINUOUS
 62
  250
 10
85.498801330247915
 20
111.56252860974413
 11
85.457137683549917
 21
111.26088142346467
  0
LINE
  8
_f-a_250
  6
CONTINUOUS
 62
  250
 10
85.457137683549917
 20
111.26088142346467
 11
85.498801330247915
 21
111.56252860974413
  0
LINE
  8
_f-a_250
  6
CONTINUOUS
 62
  250
 10
85.498801330247915
 20
111.56252860974413
 11
85.457137683549917
 21
111.26088142346467
  0
LINE
  8
_f-a_250
  6
CONTINUOUS
 62
  250
 10
84.899804452577428
 20
112.12085723828413
 11
84.8392997776659
 21
111.73087596844766
  0
LINE
  8
_f-a_250
  6
CONTINUOUS
 62
  250
 10
84.8392997776659
 20
111.73087596844766
 11
84.899804452577428
 21
112.12085723828413
  0
LINE
  8
_f-a_250
  6
CONTINUOUS
 62
  250
 10
84.899804452577428
 20
112.12085723828413
 11
84.8392997776659
 21
111.73087596844766
  0
LINE
  8
_f-a_250
  6
CONTINUOUS
 62
  250
 10
77.484468082109402
 20
108.89586448620862
 11
77.421972612062405
 21
108.50752830456813
  0
LINE
  8
_f-a_250
  6
CONTINUOUS
 62
  250
 10
77.421972612062405
 20
108.50752830456813
 11
77.484468082109402
 21
108.89586448620862
  0
LINE
  8
_f-a_250
  6
CONTINUOUS
 62
  250
 10
77.484468082109402
 20
108.89586448620862
 11
77.421972612062405
 21
108.50752830456813
  0
LINE
  8
_f-a_250
  6
CONTINUOUS
 62
  250
 10
77.794465879121901
 20
108.65253448437765
 11
77.727970937410419
 21
108.24750900220015
  0
LINE
  8
_f-a_250
  6
CONTINUOUS
 62
  250
 10
77.727970937410419
 20
108.24750900220015
 11
77.794465879121901
 21
108.65253448437765
  0
LINE
  8
_f-a_250
  6
CONTINUOUS
 62
  250
 10
77.794465879121901
 20
108.65253448437765
 11
77.727970937410419
 21
108.24750900220015
  0
LINE
  8
_f-a_250
  6
CONTINUOUS
 62
  250
 10
78.268304923692909
 20
108.26255321454114
 11
78.208473781267401
 21
107.90587902020516
  0
LINE
  8
_f-a_250
  6
CONTINUOUS
 62
  250
 10
78.208473781267401
 20
107.90587902020516
 11
78.268304923692909
 21
108.26255321454114
  0
LINE
  8
_f-a_250
  6
CONTINUOUS
 62
  250
 10
78.268304923692909
 20
108.26255321454114
 11
78.208473781267401
 21
107.90587902020516
  0
LINE
  8
_f-a_250
  6
CONTINUOUS
 62
  250
 10
78.543135980287389
 20
108.03255081128214
 11
78.483137944856423
 21
107.64752864789062
  0
LINE
  8
_f-a_250
  6
CONTINUOUS
 62
  250
 10
78.483137944856423
 20
107.64752864789062
 11
78.543135980287389
 21
108.03255081128214
  0
LINE
  8
_f-a_250
  6
CONTINUOUS
 62
  250
 10
78.543135980287389
 20
108.03255081128214
 11
78.483137944856423
 21
107.64752864789062
  0
LINE
  8
_f-a_250
  6
CONTINUOUS
 62
  250
 10
77.083471873918427
 20
108.76752376507812
 11
77.020964482942418
 21
108.37251186322314
  0
LINE
  8
_f-a_250
  6
CONTINUOUS
 62
  250
 10
77.020964482942418
 20
108.37251186322314
 11
77.083471873918427
 21
108.76752376507812
  0
LINE
  8
_f-a_250
  6
CONTINUOUS
 62
  250
 10
77.083471873918427
 20
108.76752376507812
 11
77.020964482942418
 21
108.37251186322314
  0
LINE
  8
_f-a_250
  6
CONTINUOUS
 62
  250
 10
78.690967420259398
 20
107.01586246441916
 11
84.550968269029426
 21
109.25420761059863
  0
LINE
  8
_f-a_250
  6
CONTINUOUS
 62
  250
 10
84.550968269029426
 20
109.25420761059863
 11
78.690967420259398
 21
107.01586246441916
  0
LINE
  8
_f-a_250
  6
CONTINUOUS
 62
  250
 10
78.690967420259398
 20
107.01586246441916
 11
84.550968269029426
 21
109.25420761059863
  0
LINE
  8
_f-a_250
  6
CONTINUOUS
 62
  250
 10
78.759304145494411
 20
107.44754314374063
 11
86.410305360475434
 21
110.36919593762464
  0
LINE
  8
_f-a_250
  6
CONTINUOUS
 62
  250
 10
86.410305360475434
 20
110.36919593762464
 11
78.759304145494411
 21
107.44754314374063
  0
LINE
  8
_f-a_250
  6
CONTINUOUS
 62
  250
 10
78.759304145494411
 20
107.44754314374063
 11
86.410305360475434
 21
110.36919593762464
  0
LINE
  8
_f-a_250
  6
CONTINUOUS
 62
  250
 10
78.599134544053925
 20
108.03255081128214
 11
86.27880559317191
 21
110.96753120373813
  0
LINE
  8
_f-a_250
  6
CONTINUOUS
 62
  250
 10
86.27880559317191
 20
110.96753120373813
 11
78.599134544053925
 21
108.03255081128214
  0
LINE
  8
_f-a_250
  6
CONTINUOUS
 62
  250
 10
78.599134544053925
 20
108.03255081128214
 11
86.27880559317191
 21
110.96753120373813
  0
LINE
  8
_f-a_250
  6
CONTINUOUS
 62
  250
 10
78.543135980287389
 20
107.68586635541064
 11
86.197969773927923
 21
110.60751914929465
  0
LINE
  8
_f-a_250
  6
CONTINUOUS
 62
  250
 10
86.197969773927923
 20
110.60751914929465
 11
78.543135980287389
 21
107.68586635541064
  0
LINE
  8
_f-a_250
  6
CONTINUOUS
 62
  250
 10
78.270969251314398
 20
108.26255321454114
 11
85.989639619508921
 21
111.21086120556916
  0
LINE
  8
_f-a_250
  6
CONTINUOUS
 62
  250
 10
85.989639619508921
 20
111.21086120556916
 11
78.270969251314398
 21
108.26255321454114
  0
LINE
  8
_f-a_250
  6
CONTINUOUS
 62
  250
 10
78.270969251314398
 20
108.26255321454114
 11
85.989639619508921
 21
111.21086120556916
  0
LINE
  8
_f-a_250
  6
CONTINUOUS
 62
  250
 10
77.841970781007888
 20
108.62752437543013
 11
85.550967315355422
 21
111.57752513836962
  0
LINE
  8
_f-a_250
  6
CONTINUOUS
 62
  250
 10
85.550967315355422
 20
111.57752513836962
 11
77.841970781007888
 21
108.62752437543013
  0
LINE
  8
_f-a_250
  6
CONTINUOUS
 62
  250
 10
77.841970781007888
 20
108.62752437543013
 11
85.550967315355422
 21
111.57752513836962
  0
LINE
  8
_f-a_250
  6
CONTINUOUS
 62
  250
 10
84.921303847947911
 20
112.16584682416064
 11
85.166135886827419
 21
112.25921153973664
  0
LINE
  8
_f-a_250
  6
CONTINUOUS
 62
  250
 10
85.166135886827419
 20
112.25921153973664
 11
84.921303847947911
 21
112.16584682416064
  0
LINE
  8
_f-a_250
  6
CONTINUOUS
 62
  250
 10
84.921303847947911
 20
112.16584682416064
 11
85.166135886827419
 21
112.25921153973664
  0
LINE
  8
_f-a_250
  6
CONTINUOUS
 62
  250
 10
77.787963012376906
 20
108.30587387036411
 11
85.430464605012929
 21
111.22418880414062
  0
LINE
  8
_f-a_250
  6
CONTINUOUS
 62
  250
 10
85.430464605012929
 20
111.22418880414062
 11
77.787963012376906
 21
108.30587387036411
  0
LINE
  8
_f-a_250
  6
CONTINUOUS
 62
  250
 10
77.524301866212909
 20
108.89920234631613
 11
85.259965518632924
 21
111.86422347973911
  0
LINE
  8
_f-a_250
  6
CONTINUOUS
 62
  250
 10
85.259965518632924
 20
111.86422347973911
 11
77.524301866212909
 21
108.89920234631613
  0
LINE
  8
_f-a_250
  6
CONTINUOUS
 62
  250
 10
77.524301866212909
 20
108.89920234631613
 11
85.259965518632924
 21
111.86422347973911
  0
LINE
  8
_f-a_250
  6
CONTINUOUS
 62
  250
 10
77.116635898271397
 20
108.80919933270516
 11
85.089299539247435
 21
111.85585498761264
  0
LINE
  8
_f-a_250
  6
CONTINUOUS
 62
  250
 10
85.089299539247435
 20
111.85585498761264
 11
77.116635898271397
 21
108.80919933270516
  0
LINE
  8
_f-a_250
  6
CONTINUOUS
 62
  250
 10
77.116635898271397
 20
108.80919933270516
 11
85.089299539247435
 21
111.85585498761264
  0
LINE
  8
_f-a_250
  6
CONTINUOUS
 62
  250
 10
86.684307912507933
 20
110.20585536908216
 11
84.569803336778421
 21
109.26255226086714
  0
LINE
  8
_f-a_250
  6
CONTINUOUS
 62
  250
 10
84.569803336778421
 20
109.26255226086714
 11
86.684307912507933
 21
110.20585536908216
  0
LINE
  8
_f-a_250
  6
CONTINUOUS
 62
  250
 10
86.684307912507933
 20
110.20585536908216
 11
84.569803336778421
 21
109.26255226086714
  0
LINE
  8
_f-a_250
  6
CONTINUOUS
 62
  250
 10
81.227967599550425
 20
108.00086498211962
 11
81.241128305116916
 21
107.98574924420413
  0
LINE
  8
_f-a_250
  6
CONTINUOUS
 62
  250
 10
81.241128305116916
 20
107.98574924420413
 11
81.252798894563909
 21
107.96822547864062
  0
LINE
  8
_f-a_250
  6
CONTINUOUS
 62
  250
 10
81.252798894563909
 20
107.96822547864062
 11
81.262347558656899
 21
107.94791221570112
  0
LINE
  8
_f-a_250
  6
CONTINUOUS
 62
  250
 10
81.262347558656899
 20
107.94791221570112
 11
81.269160369554413
 21
107.92454719494913
  0
LINE
  8
_f-a_250
  6
CONTINUOUS
 62
  250
 10
81.269160369554413
 20
107.92454719494913
 11
81.272617438951414
 21
107.89772510480014
  0
LINE
  8
_f-a_250
  6
CONTINUOUS
 62
  250
 10
81.272617438951414
 20
107.89772510480014
 11
81.272080997148436
 21
107.86718368481715
  0
LINE
  8
_f-a_250
  6
CONTINUOUS
 62
  250
 10
81.272080997148436
 20
107.86718368481715
 11
81.266937116304433
 21
107.83254146527365
  0
LINE
  8
_f-a_250
  6
CONTINUOUS
 62
  250
 10
81.266937116304433
 20
107.83254146527365
 11
81.256565908113402
 21
107.79351234387464
  0
LINE
  8
_f-a_250
  6
CONTINUOUS
 62
  250
 10
81.256565908113402
 20
107.79351234387464
 11
81.240335563340921
 21
107.74971485089364
  0
LINE
  8
_f-a_250
  6
CONTINUOUS
 62
  250
 10
81.240335563340921
 20
107.74971485089364
 11
81.217632154146401
 21
107.70086288403613
  0
LINE
  8
_f-a_250
  6
CONTINUOUS
 62
  250
 10
81.217632154146401
 20
107.70086288403613
 11
81.227967599550425
 21
108.00086498211962
  0
LINE
  8
_f-a_250
  6
CONTINUOUS
 62
  250
 10
81.227967599550425
 20
108.00086498211962
 11
81.241128305116916
 21
107.98574924420413
  0
LINE
  8
_f-a_250
  6
CONTINUOUS
 62
  250
 10
81.241128305116916
 20
107.98574924420413
 11
81.252798894563909
 21
107.96822547864062
  0
LINE
  8
_f-a_250
  6
CONTINUOUS
 62
  250
 10
81.252798894563909
 20
107.96822547864062
 11
81.262347558656899
 21
107.94791221570112
  0
LINE
  8
_f-a_250
  6
CONTINUOUS
 62
  250
 10
81.262347558656899
 20
107.94791221570112
 11
81.269160369554413
 21
107.92454719494913
  0
LINE
  8
_f-a_250
  6
CONTINUOUS
 62
  250
 10
81.269160369554413
 20
107.92454719494913
 11
81.272617438951414
 21
107.89772510480014
  0
LINE
  8
_f-a_250
  6
CONTINUOUS
 62
  250
 10
81.272617438951414
 20
107.89772510480014
 11
81.272080997148436
 21
107.86718368481715
  0
LINE
  8
_f-a_250
  6
CONTINUOUS
 62
  250
 10
81.272080997148436
 20
107.86718368481715
 11
81.266937116304433
 21
107.83254146527365
  0
LINE
  8
_f-a_250
  6
CONTINUOUS
 62
  250
 10
81.266937116304433
 20
107.83254146527365
 11
81.256565908113402
 21
107.79351234387464
  0
LINE
  8
_f-a_250
  6
CONTINUOUS
 62
  250
 10
81.256565908113402
 20
107.79351234387464
 11
81.240335563340921
 21
107.74971485089364
  0
LINE
  8
_f-a_250
  6
CONTINUOUS
 62
  250
 10
81.240335563340921
 20
107.74971485089364
 11
81.217632154146401
 21
107.70086288403613
  0
LINE
  8
_f-a_250
  6
CONTINUOUS
 62
  250
 10
82.957801679292913
 20
108.64252090405566
 11
82.942882636705434
 21
108.61493587445312
  0
LINE
  8
_f-a_250
  6
CONTINUOUS
 62
  250
 10
82.942882636705434
 20
108.61493587445312
 11
82.930282214799917
 21
108.58491897534464
  0
LINE
  8
_f-a_250
  6
CONTINUOUS
 62
  250
 10
82.930282214799917
 20
108.58491897534464
 11
82.921430925050913
 21
108.55373382519815
  0
LINE
  8
_f-a_250
  6
CONTINUOUS
 62
  250
 10
82.921430925050913
 20
108.55373382519815
 11
82.917741397538919
 21
108.52254867505161
  0
LINE
  8
_f-a_250
  6
CONTINUOUS
 62
  250
 10
82.917741397538919
 20
108.52254867505161
 11
82.920656064668918
 21
108.49253177594264
  0
LINE
  8
_f-a_250
  6
CONTINUOUS
 62
  250
 10
82.920656064668918
 20
108.49253177594264
 11
82.931593516984918
 21
108.46494674634064
  0
LINE
  8
_f-a_250
  6
CONTINUOUS
 62
  250
 10
82.931593516984918
 20
108.46494674634064
 11
82.951984265962409
 21
108.44091415356715
  0
LINE
  8
_f-a_250
  6
CONTINUOUS
 62
  250
 10
82.951984265962409
 20
108.44091415356715
 11
82.983252862611891
 21
108.42172145794966
  0
LINE
  8
_f-a_250
  6
CONTINUOUS
 62
  250
 10
82.983252862611891
 20
108.42172145794966
 11
83.026823857942418
 21
108.40851306866712
  0
LINE
  8
_f-a_250
  6
CONTINUOUS
 62
  250
 10
83.026823857942418
 20
108.40851306866712
 11
83.084139684358405
 21
108.40252876233163
  0
LINE
  8
_f-a_250
  6
CONTINUOUS
 62
  250
 10
83.084139684358405
 20
108.40252876233163
 11
82.957801679292913
 21
108.64252090405566
  0
LINE
  8
_f-a_250
  6
CONTINUOUS
 62
  250
 10
82.957801679292913
 20
108.64252090405566
 11
82.942882636705434
 21
108.61493587445312
  0
LINE
  8
_f-a_250
  6
CONTINUOUS
 62
  250
 10
82.942882636705434
 20
108.61493587445312
 11
82.930282214799917
 21
108.58491897534464
  0
LINE
  8
_f-a_250
  6
CONTINUOUS
 62
  250
 10
82.930282214799917
 20
108.58491897534464
 11
82.921430925050913
 21
108.55373382519815
  0
LINE
  8
_f-a_250
  6
CONTINUOUS
 62
  250
 10
82.921430925050913
 20
108.55373382519815
 11
82.917741397538919
 21
108.52254867505161
  0
LINE
  8
_f-a_250
  6
CONTINUOUS
 62
  250
 10
82.917741397538919
 20
108.52254867505161
 11
82.920656064668918
 21
108.49253177594264
  0
LINE
  8
_f-a_250
  6
CONTINUOUS
 62
  250
 10
82.920656064668918
 20
108.49253177594264
 11
82.931593516984918
 21
108.46494674634064
  0
LINE
  8
_f-a_250
  6
CONTINUOUS
 62
  250
 10
82.931593516984918
 20
108.46494674634064
 11
82.951984265962409
 21
108.44091415356715
  0
LINE
  8
_f-a_250
  6
CONTINUOUS
 62
  250
 10
82.951984265962409
 20
108.44091415356715
 11
82.983252862611891
 21
108.42172145794966
  0
LINE
  8
_f-a_250
  6
CONTINUOUS
 62
  250
 10
82.983252862611891
 20
108.42172145794966
 11
83.026823857942418
 21
108.40851306866712
  0
LINE
  8
_f-a_250
  6
CONTINUOUS
 62
  250
 10
83.026823857942418
 20
108.40851306866712
 11
83.084139684358405
 21
108.40252876233163
  0
LINE
  8
_f-a_250
  6
CONTINUOUS
 62
  250
 10
118.49564061514494
 20
130.98253250073512
 11
156.97213158957089
 21
143.89585494946564
  0
LINE
  8
_f-a_250
  6
CONTINUOUS
 62
  250
 10
119.03980718008592
 20
130.93751907300066
 11
313.94463525168044
 21
196.96918964337416
  0
LINE
  8
_f-a_250
  6
CONTINUOUS
 62
  250
 10
123.43430266729942
 20
128.57586383771013
 11
319.79130254141438
 21
195.07917404126263
  0
LINE
  8
_f-a_250
  6
CONTINUOUS
 62
  250
 10
124.02946696631039
 20
127.41750717114515
 11
320.94462857596039
 21
193.83083820294465
  0
LINE
  8
_f-a_250
  6
CONTINUOUS
 62
  250
 10
119.63230119101141
 20
119.22086715649661
 11
119.67955575338942
 21
119.22017574261763
  0
LINE
  8
_f-a_250
  6
CONTINUOUS
 62
  250
 10
119.67955575338942
 20
119.22017574261763
 11
119.72740636221491
 21
119.22470569562014
  0
LINE
  8
_f-a_250
  6
CONTINUOUS
 62
  250
 10
119.72740636221491
 20
119.22470569562014
 11
119.77518544546692
 21
119.23538684796412
  0
LINE
  8
_f-a_250
  6
CONTINUOUS
 62
  250
 10
119.77518544546692
 20
119.23538684796412
 11
119.82217774740789
 21
119.25317287396516
  0
LINE
  8
_f-a_250
  6
CONTINUOUS
 62
  250
 10
119.82217774740789
 20
119.25317287396516
 11
119.86767993322943
 21
119.27899360608163
  0
LINE
  8
_f-a_250
  6
CONTINUOUS
 62
  250
 10
119.86767993322943
 20
119.27899360608163
 11
119.91098866812341
 21
119.31375503491464
  0
LINE
  8
_f-a_250
  6
CONTINUOUS
 62
  250
 10
119.91098866812341
 20
119.31375503491464
 11
119.95141253820989
 21
119.35838699292262
  0
LINE
  8
_f-a_250
  6
CONTINUOUS
 62
  250
 10
119.95141253820989
 20
119.35838699292262
 11
119.98823628775241
 21
119.41381931256365
  0
LINE
  8
_f-a_250
  6
CONTINUOUS
 62
  250
 10
119.98823628775241
 20
119.41381931256365
 11
120.02076850287042
 21
119.48100566815464
  0
LINE
  8
_f-a_250
  6
CONTINUOUS
 62
  250
 10
120.02076850287042
 20
119.48100566815464
 11
120.0482939278279
 21
119.56085205029562
  0
LINE
  8
_f-a_250
  6
CONTINUOUS
 62
  250
 10
120.0482939278279
 20
119.56085205029562
 11
120.00397191397292
 21
122.49087333630663
  0
LINE
  8
_f-a_250
  6
CONTINUOUS
 62
  250
 10
120.00397191397292
 20
122.49087333630663
 11
120.00434146277041
 21
122.51600265454363
  0
LINE
  8
_f-a_250
  6
CONTINUOUS
 62
  250
 10
120.00434146277041
 20
122.51600265454363
 11
120.00165925375541
 21
122.58640766095263
  0
LINE
  8
_f-a_250
  6
CONTINUOUS
 62
  250
 10
120.00165925375541
 20
122.58640766095263
 11
119.99017939917189
 21
122.69450664471714
  0
LINE
  8
_f-a_250
  6
CONTINUOUS
 62
  250
 10
119.99017939917189
 20
122.69450664471714
 11
119.96420369497892
 21
122.83274173688014
  0
LINE
  8
_f-a_250
  6
CONTINUOUS
 62
  250
 10
119.96420369497892
 20
122.83274173688014
 11
119.91798625341991
 21
122.99357891034214
  0
LINE
  8
_f-a_250
  6
CONTINUOUS
 62
  250
 10
119.91798625341991
 20
122.99357891034214
 11
119.8458169495259
 21
123.16946029614515
  0
LINE
  8
_f-a_250
  6
CONTINUOUS
 62
  250
 10
119.8458169495259
 20
123.16946029614515
 11
119.74197373739841
 21
123.35285186719015
  0
LINE
  8
_f-a_250
  6
CONTINUOUS
 62
  250
 10
119.74197373739841
 20
123.35285186719015
 11
119.60072265020941
 21
123.53619575451913
  0
LINE
  8
_f-a_250
  6
CONTINUOUS
 62
  250
 10
119.60072265020941
 20
123.53619575451913
 11
119.4163416420614
 21
123.71193408917514
  0
LINE
  8
_f-a_250
  6
CONTINUOUS
 62
  250
 10
119.4163416420614
 20
123.71193408917514
 11
119.18313250891292
 21
123.87250900220015
  0
LINE
  8
_f-a_250
  6
CONTINUOUS
 62
  250
 10
119.18313250891292
 20
123.87250900220015
 11
118.9728592430744
 21
123.99248123120364
  0
LINE
  8
_f-a_250
  6
CONTINUOUS
 62
  250
 10
118.9728592430744
 20
123.99248123120364
 11
118.8508366142904
 21
124.05790328930911
  0
LINE
  8
_f-a_250
  6
CONTINUOUS
 62
  250
 10
118.8508366142904
 20
124.05790328930911
 11
118.80151973120292
 21
124.07864570569113
  0
LINE
  8
_f-a_250
  6
CONTINUOUS
 62
  250
 10
118.80151973120292
 20
124.07864570569113
 11
118.80931601873991
 21
124.06460285138215
  0
LINE
  8
_f-a_250
  6
CONTINUOUS
 62
  250
 10
118.80931601873991
 20
124.06460285138215
 11
118.85863290182692
 21
124.02566909741464
  0
LINE
  8
_f-a_250
  6
CONTINUOUS
 62
  250
 10
118.85863290182692
 20
124.02566909741464
 11
118.93391356817841
 21
123.97166728924813
  0
LINE
  8
_f-a_250
  6
CONTINUOUS
 62
  250
 10
118.93391356817841
 20
123.97166728924813
 11
119.01958928457839
 21
123.91246795605765
  0
LINE
  8
_f-a_250
  6
CONTINUOUS
 62
  250
 10
119.01958928457839
 20
123.91246795605765
 11
119.10005555502491
 21
123.85798931073263
  0
LINE
  8
_f-a_250
  6
CONTINUOUS
 62
  250
 10
119.10005555502491
 20
123.85798931073263
 11
119.1597674881609
 21
123.81805419873312
  0
LINE
  8
_f-a_250
  6
CONTINUOUS
 62
  250
 10
119.1597674881609
 20
123.81805419873312
 11
119.18313250891292
 21
123.80253314923365
  0
LINE
  8
_f-a_250
  6
CONTINUOUS
 62
  250
 10
119.18313250891292
 20
123.80253314923365
 11
117.51897082678391
 21
124.58087444256861
  0
LINE
  8
_f-a_250
  6
CONTINUOUS
 62
  250
 10
117.51897082678391
 20
124.58087444256861
 11
116.3379703556689
 21
125.13252735089364
  0
LINE
  8
_f-a_250
  6
CONTINUOUS
 62
  250
 10
116.3379703556689
 20
125.13252735089364
 11
116.33106217733942
 21
125.13545989941663
  0
LINE
  8
_f-a_250
  6
CONTINUOUS
 62
  250
 10
116.33106217733942
 20
125.13545989941663
 11
116.31237016073791
 21
125.14552116345462
  0
LINE
  8
_f-a_250
  6
CONTINUOUS
 62
  250
 10
116.31237016073791
 20
125.14552116345462
 11
116.28494606367691
 21
125.16471385907266
  0
LINE
  8
_f-a_250
  6
CONTINUOUS
 62
  250
 10
116.28494606367691
 20
125.16471385907266
 11
116.25186548582641
 21
125.19494533490266
  0
LINE
  8
_f-a_250
  6
CONTINUOUS
 62
  250
 10
116.25186548582641
 20
125.19494533490266
 11
116.21617422453491
 21
125.23817062329363
  0
LINE
  8
_f-a_250
  6
CONTINUOUS
 62
  250
 10
116.21617422453491
 20
125.23817062329363
 11
116.18092999807941
 21
125.29634475659464
  0
LINE
  8
_f-a_250
  6
CONTINUOUS
 62
  250
 10
116.18092999807941
 20
125.29634475659464
 11
116.1492084061299
 21
125.37142276715363
  0
LINE
  8
_f-a_250
  6
CONTINUOUS
 62
  250
 10
116.1492084061299
 20
125.37142276715363
 11
116.1240433251059
 21
125.46533584546164
  0
LINE
  8
_f-a_250
  6
CONTINUOUS
 62
  250
 10
116.1240433251059
 20
125.46533584546164
 11
116.10849843374841
 21
125.58006286572513
  0
LINE
  8
_f-a_250
  6
CONTINUOUS
 62
  250
 10
116.10849843374841
 20
125.58006286572513
 11
116.10563741079891
 21
125.71753501843514
  0
LINE
  8
_f-a_250
  6
CONTINUOUS
 62
  250
 10
116.10563741079891
 20
125.71753501843514
 11
116.06847391478141
 21
129.84918594311816
  0
LINE
  8
_f-a_250
  6
CONTINUOUS
 62
  250
 10
116.06847391478141
 20
129.84918594311816
 11
116.06906400076491
 21
129.86704349469264
  0
LINE
  8
_f-a_250
  6
CONTINUOUS
 62
  250
 10
116.06906400076491
 20
129.86704349469264
 11
116.07349858633592
 21
129.91415500592316
  0
LINE
  8
_f-a_250
  6
CONTINUOUS
 62
  250
 10
116.07349858633592
 20
129.91415500592316
 11
116.08570561758592
 21
129.98086452435564
  0
LINE
  8
_f-a_250
  6
CONTINUOUS
 62
  250
 10
116.08570561758592
 20
129.98086452435564
 11
116.10964284292791
 21
130.05756378125267
  0
LINE
  8
_f-a_250
  6
CONTINUOUS
 62
  250
 10
116.10964284292791
 20
130.05756378125267
 11
116.14926205030991
 21
130.13462066601815
  0
LINE
  8
_f-a_250
  6
CONTINUOUS
 62
  250
 10
116.14926205030991
 20
130.13462066601815
 11
116.20850310675242
 21
130.20235538434113
  0
LINE
  8
_f-a_250
  6
CONTINUOUS
 62
  250
 10
116.20850310675242
 20
130.20235538434113
 11
116.29133568159692
 21
130.25115966748314
  0
LINE
  8
_f-a_250
  6
CONTINUOUS
 62
  250
 10
116.29133568159692
 20
130.25115966748314
 11
116.40169964186293
 21
130.27137756299115
  0
LINE
  8
_f-a_250
  6
CONTINUOUS
 62
  250
 10
116.40169964186293
 20
130.27137756299115
 11
116.54354081503493
 21
130.25337696026864
  0
LINE
  8
_f-a_250
  6
CONTINUOUS
 62
  250
 10
116.54354081503493
 20
130.25337696026864
 11
116.72080502859691
 21
130.18752574872113
  0
LINE
  8
_f-a_250
  6
CONTINUOUS
 62
  250
 10
116.72080502859691
 20
130.18752574872113
 11
121.26446709982493
 21
128.03420066784915
  0
LINE
  8
_f-a_250
  6
CONTINUOUS
 62
  250
 10
121.26446709982493
 20
128.03420066784915
 11
121.2658499275839
 21
128.03331851910667
  0
LINE
  8
_f-a_250
  6
CONTINUOUS
 62
  250
 10
121.2658499275839
 20
128.03331851910667
 11
121.26989112249942
 21
128.03064823102062
  0
LINE
  8
_f-a_250
  6
CONTINUOUS
 62
  250
 10
121.26989112249942
 20
128.03064823102062
 11
121.2764357124959
 21
128.02623748730764
  0
LINE
  8
_f-a_250
  6
CONTINUOUS
 62
  250
 10
121.2764357124959
 20
128.02623748730764
 11
121.28532872549641
 21
128.02011012982464
  0
LINE
  8
_f-a_250
  6
CONTINUOUS
 62
  250
 10
121.28532872549641
 20
128.02011012982464
 11
121.29642711035342
 21
128.01233768414562
  0
LINE
  8
_f-a_250
  6
CONTINUOUS
 62
  250
 10
121.29642711035342
 20
128.01233768414562
 11
121.3095758949909
 21
128.00287246655566
  0
LINE
  8
_f-a_250
  6
CONTINUOUS
 62
  250
 10
121.3095758949909
 20
128.00287246655566
 11
121.32463202826142
 21
127.99180984448512
  0
LINE
  8
_f-a_250
  6
CONTINUOUS
 62
  250
 10
121.32463202826142
 20
127.99180984448512
 11
121.34141669622991
 21
127.97917365979265
  0
LINE
  8
_f-a_250
  6
CONTINUOUS
 62
  250
 10
121.34141669622991
 20
127.97917365979265
 11
121.3598106896074
 21
127.96494007062014
  0
LINE
  8
_f-a_250
  6
CONTINUOUS
 62
  250
 10
121.3598106896074
 20
127.96494007062014
 11
121.37963519445989
 21
127.94920444439963
  0
LINE
  8
_f-a_250
  6
CONTINUOUS
 62
  250
 10
121.37963519445989
 20
127.94920444439963
 11
121.44731030813792
 21
127.89331912945813
  0
LINE
  8
_f-a_250
  6
CONTINUOUS
 62
  250
 10
121.44731030813792
 20
127.89331912945813
 11
121.52358041159241
 21
127.82532215069864
  0
LINE
  8
_f-a_250
  6
CONTINUOUS
 62
  250
 10
121.52358041159241
 20
127.82532215069864
 11
121.60473809591892
 21
127.74621486615266
  0
LINE
  8
_f-a_250
  6
CONTINUOUS
 62
  250
 10
121.60473809591892
 20
127.74621486615266
 11
121.68707595221142
 21
127.65697479199515
  0
LINE
  8
_f-a_250
  6
CONTINUOUS
 62
  250
 10
121.68707595221142
 20
127.65697479199515
 11
121.76691041342342
 21
127.55857944439963
  0
LINE
  8
_f-a_250
  6
CONTINUOUS
 62
  250
 10
121.76691041342342
 20
127.55857944439963
 11
121.84052214972093
 21
127.45203018139914
  0
LINE
  8
_f-a_250
  6
CONTINUOUS
 62
  250
 10
121.84052214972093
 20
127.45203018139914
 11
121.90421567312791
 21
127.33835220288364
  0
LINE
  8
_f-a_250
  6
CONTINUOUS
 62
  250
 10
121.90421567312791
 20
127.33835220288364
 11
121.95429549566839
 21
127.21847534131112
  0
LINE
  8
_f-a_250
  6
CONTINUOUS
 62
  250
 10
121.95429549566839
 20
127.21847534131112
 11
121.9870661293659
 21
127.09344863843066
  0
LINE
  8
_f-a_250
  6
CONTINUOUS
 62
  250
 10
121.9870661293659
 20
127.09344863843066
 11
121.99879632345792
 21
126.96420192669966
  0
LINE
  8
_f-a_250
  6
CONTINUOUS
 62
  250
 10
121.99879632345792
 20
126.96420192669966
 11
122.12964043966892
 21
114.88920688580615
  0
LINE
  8
_f-a_250
  6
CONTINUOUS
 62
  250
 10
122.12964043966892
 20
114.88920688580615
 11
122.1301888024004
 21
114.88052844952662
  0
LINE
  8
_f-a_250
  6
CONTINUOUS
 62
  250
 10
122.1301888024004
 20
114.88052844952662
 11
122.1304153000509
 21
114.85723495434863
  0
LINE
  8
_f-a_250
  6
CONTINUOUS
 62
  250
 10
122.1304153000509
 20
114.85723495434863
 11
122.12822184912289
 21
114.82335567425812
  0
LINE
  8
_f-a_250
  6
CONTINUOUS
 62
  250
 10
122.12822184912289
 20
114.82335567425812
 11
122.12148652426342
 21
114.78301525067414
  0
LINE
  8
_f-a_250
  6
CONTINUOUS
 62
  250
 10
122.12148652426342
 20
114.78301525067414
 11
122.10808740011791
 21
114.74024295758313
  0
LINE
  8
_f-a_250
  6
CONTINUOUS
 62
  250
 10
122.10808740011791
 20
114.74024295758313
 11
122.08592639319042
 21
114.69911575268816
  0
LINE
  8
_f-a_250
  6
CONTINUOUS
 62
  250
 10
122.08592639319042
 20
114.69911575268816
 11
122.05288157812693
 21
114.66371059369162
  0
LINE
  8
_f-a_250
  6
CONTINUOUS
 62
  250
 10
122.05288157812693
 20
114.66371059369162
 11
122.00684295050242
 21
114.63810443829615
  0
LINE
  8
_f-a_250
  6
CONTINUOUS
 62
  250
 10
122.00684295050242
 20
114.63810443829615
 11
121.94567666403391
 21
114.62635040234663
  0
LINE
  8
_f-a_250
  6
CONTINUOUS
 62
  250
 10
121.94567666403391
 20
114.62635040234663
 11
121.86729655615441
 21
114.63254928540314
  0
LINE
  8
_f-a_250
  6
CONTINUOUS
 62
  250
 10
121.86729655615441
 20
114.63254928540314
 11
121.7926000153219
 21
114.64439868878462
  0
LINE
  8
_f-a_250
  6
CONTINUOUS
 62
  250
 10
121.7926000153219
 20
114.64439868878462
 11
121.74306855551342
 21
114.65069293927263
  0
LINE
  8
_f-a_250
  6
CONTINUOUS
 62
  250
 10
121.74306855551342
 20
114.65069293927263
 11
121.7146371399554
 21
114.65240955304212
  0
LINE
  8
_f-a_250
  6
CONTINUOUS
 62
  250
 10
121.7146371399554
 20
114.65240955304212
 11
121.70321689001642
 21
114.65062141369913
  0
LINE
  8
_f-a_250
  6
CONTINUOUS
 62
  250
 10
121.70321689001642
 20
114.65062141369913
 11
121.7047427689229
 21
114.64628219555911
  0
LINE
  8
_f-a_250
  6
CONTINUOUS
 62
  250
 10
121.7047427689229
 20
114.64628219555911
 11
121.71513781897141
 21
114.64044094037112
  0
LINE
  8
_f-a_250
  6
CONTINUOUS
 62
  250
 10
121.71513781897141
 20
114.64044094037112
 11
121.73031316153143
 21
114.63412284802511
  0
LINE
  8
_f-a_250
  6
CONTINUOUS
 62
  250
 10
121.73031316153143
 20
114.63412284802511
 11
121.7462037598284
 21
114.62835311841113
  0
LINE
  8
_f-a_250
  6
CONTINUOUS
 62
  250
 10
121.7462037598284
 20
114.62835311841113
 11
121.75873265616042
 21
114.62415695141863
  0
LINE
  8
_f-a_250
  6
CONTINUOUS
 62
  250
 10
121.75873265616042
 20
114.62415695141863
 11
121.76381097189542
 21
114.62251186322314
  0
LINE
  8
_f-a_250
  6
CONTINUOUS
 62
  250
 10
121.76381097189542
 20
114.62251186322314
 11
116.3243030106219
 21
117.29921340893816
  0
LINE
  8
_f-a_250
  6
CONTINUOUS
 62
  250
 10
116.3243030106219
 20
117.29921340893816
 11
116.32184133879291
 21
117.30462551068362
  0
LINE
  8
_f-a_250
  6
CONTINUOUS
 62
  250
 10
116.32184133879291
 20
117.30462551068362
 11
116.31516561857791
 21
117.31981277417262
  0
LINE
  8
_f-a_250
  6
CONTINUOUS
 62
  250
 10
116.31516561857791
 20
117.31981277417262
 11
116.30533681265442
 21
117.34315395306662
  0
LINE
  8
_f-a_250
  6
CONTINUOUS
 62
  250
 10
116.30533681265442
 20
117.34315395306662
 11
116.29338012091242
 21
117.37302780102814
  0
LINE
  8
_f-a_250
  6
CONTINUOUS
 62
  250
 10
116.29338012091242
 20
117.37302780102814
 11
116.28039226881592
 21
117.40774154614515
  0
LINE
  8
_f-a_250
  6
CONTINUOUS
 62
  250
 10
116.28039226881592
 20
117.40774154614515
 11
116.2673865353259
 21
117.44572162579615
  0
LINE
  8
_f-a_250
  6
CONTINUOUS
 62
  250
 10
116.2673865353259
 20
117.44572162579615
 11
116.25543580404842
 21
117.48532295178515
  0
LINE
  8
_f-a_250
  6
CONTINUOUS
 62
  250
 10
116.25543580404842
 20
117.48532295178515
 11
116.24560103766041
 21
117.52490043591565
  0
LINE
  8
_f-a_250
  6
CONTINUOUS
 62
  250
 10
116.24560103766041
 20
117.52490043591565
 11
116.23892531744592
 21
117.56285667370862
  0
LINE
  8
_f-a_250
  6
CONTINUOUS
 62
  250
 10
116.23892531744592
 20
117.56285667370862
 11
116.2364696060809
 21
117.59752273511012
  0
LINE
  8
_f-a_250
  6
CONTINUOUS
 62
  250
 10
117.55413756720139
 20
119.80751991223414
 11
117.51897082678391
 21
124.58251953076464
  0
LINE
  8
_f-a_250
  6
CONTINUOUS
 62
  250
 10
118.43963609091392
 20
124.15253162335462
 11
118.43963609091392
 21
120.15584945630161
  0
LINE
  8
_f-a_250
  6
CONTINUOUS
 62
  250
 10
116.35363445631592
 20
130.27252197217064
 11
118.28196988455389
 21
130.94085693310814
  0
LINE
  8
_f-a_250
  6
CONTINUOUS
 62
  250
 10
118.28196988455389
 20
130.94085693310814
 11
123.37647424093839
 21
128.59918117474612
  0
LINE
  8
_f-a_250
  6
CONTINUOUS
 62
  250
 10
123.37647424093839
 20
128.59918117474612
 11
123.39253173224091
 21
128.59217166852062
  0
LINE
  8
_f-a_250
  6
CONTINUOUS
 62
  250
 10
123.39253173224091
 20
128.59217166852062
 11
123.4363769089374
 21
128.56866359662112
  0
LINE
  8
_f-a_250
  6
CONTINUOUS
 62
  250
 10
123.4363769089374
 20
128.56866359662112
 11
123.50152478567691
 21
128.52498531293011
  0
LINE
  8
_f-a_250
  6
CONTINUOUS
 62
  250
 10
123.50152478567691
 20
128.52498531293011
 11
123.5814784561789
 21
128.45741748761264
  0
LINE
  8
_f-a_250
  6
CONTINUOUS
 62
  250
 10
123.5814784561789
 20
128.45741748761264
 11
123.66971717230442
 21
128.36231231640912
  0
LINE
  8
_f-a_250
  6
CONTINUOUS
 62
  250
 10
123.66971717230442
 20
128.36231231640912
 11
123.75975594870192
 21
128.23595046948512
  0
LINE
  8
_f-a_250
  6
CONTINUOUS
 62
  250
 10
123.75975594870192
 20
128.23595046948512
 11
123.84510980002042
 21
128.07466030072314
  0
LINE
  8
_f-a_250
  6
CONTINUOUS
 62
  250
 10
123.84510980002042
 20
128.07466030072314
 11
123.91924605719191
 21
127.87472248028811
  0
LINE
  8
_f-a_250
  6
CONTINUOUS
 62
  250
 10
123.91924605719191
 20
127.87472248028811
 11
123.97570357672291
 21
127.63246536206316
  0
LINE
  8
_f-a_250
  6
CONTINUOUS
 62
  250
 10
123.97570357672291
 20
127.63246536206316
 11
124.00797353140442
 21
127.34421729992964
  0
LINE
  8
_f-a_250
  6
CONTINUOUS
 62
  250
 10
124.00797353140442
 20
127.34421729992964
 11
124.1538141762409
 21
115.59251785229762
  0
LINE
  8
_f-a_250
  6
CONTINUOUS
 62
  250
 10
124.1538141762409
 20
115.59251785229762
 11
124.15657983175839
 21
115.58305263470716
  0
LINE
  8
_f-a_250
  6
CONTINUOUS
 62
  250
 10
124.15657983175839
 20
115.58305263470716
 11
124.1628860031759
 21
115.55680274914812
  0
LINE
  8
_f-a_250
  6
CONTINUOUS
 62
  250
 10
124.1628860031759
 20
115.55680274914812
 11
124.16968093267991
 21
115.51693916272265
  0
LINE
  8
_f-a_250
  6
CONTINUOUS
 62
  250
 10
124.16968093267991
 20
115.51693916272265
 11
124.17394862524591
 21
115.46665668439013
  0
LINE
  8
_f-a_250
  6
CONTINUOUS
 62
  250
 10
124.17394862524591
 20
115.46665668439013
 11
124.17266116491892
 21
115.40922164868411
  0
LINE
  8
_f-a_250
  6
CONTINUOUS
 62
  250
 10
124.17266116491892
 20
115.40922164868411
 11
124.16276679388642
 21
115.34773349713413
  0
LINE
  8
_f-a_250
  6
CONTINUOUS
 62
  250
 10
124.16276679388642
 20
115.34773349713413
 11
124.14123759619341
 21
115.28545856427263
  0
LINE
  8
_f-a_250
  6
CONTINUOUS
 62
  250
 10
124.14123759619341
 20
115.28545856427263
 11
124.10508141867243
 21
115.22559165906014
  0
LINE
  8
_f-a_250
  6
CONTINUOUS
 62
  250
 10
124.10508141867243
 20
115.22559165906014
 11
124.05119881979542
 21
115.17135143231462
  0
LINE
  8
_f-a_250
  6
CONTINUOUS
 62
  250
 10
124.05119881979542
 20
115.17135143231462
 11
123.97662148825242
 21
115.12586116742213
  0
LINE
  8
_f-a_250
  6
CONTINUOUS
 62
  250
 10
123.97662148825242
 20
115.12586116742213
 11
122.00596080175993
 21
114.58252906750764
  0
LINE
  8
_f-a_250
  6
CONTINUOUS
 62
  250
 10
116.83014378897292
 20
130.18087387036411
 11
118.5736392532979
 21
130.79084396313763
  0
LINE
  8
_f-a_250
  6
CONTINUOUS
 62
  250
 10
121.37963519445989
 20
127.94753551434614
 11
123.25212703100792
 21
128.59918117474612
  0
LINE
  8
_f-a_250
  6
CONTINUOUS
 62
  250
 10
122.00079903952241
 20
126.82088851880161
 11
123.93430219046189
 21
127.43085861157515
  0
LINE
  8
_f-a_250
  6
CONTINUOUS
 62
  250
 10
124.02946696631039
 20
117.65920162152365
 11
321.83962808004935
 21
183.69251728009311
  0
LINE
  8
_f-a_250
  6
CONTINUOUS
 62
  250
 10
124.16230187765692
 20
116.18918418835715
 11
321.96296201101887
 21
182.84753799389912
  0
LINE
  8
_f-a_250
  6
CONTINUOUS
 62
  250
 10
124.28197608343692
 20
115.43752193402365
 11
319.79130254141438
 21
181.17920398663614
  0
LINE
  8
_f-a_250
  6
CONTINUOUS
 62
  250
 10
341.1413048302324
 20
193.51252555798615
 11
339.65462193838698
 21
194.72753047894562
  0
LINE
  8
_f-a_250
  6
CONTINUOUS
 62
  250
 10
338.92630086294741
 20
199.63253974866015
 11
338.47964749685843
 21
196.39419555615513
  0
LINE
  8
_f-a_250
  6
CONTINUOUS
 62
  250
 10
340.84797845236392
 20
197.38587379407014
 11
339.54962239615043
 21
198.41586589764665
  0
LINE
  8
_f-a_250
  6
CONTINUOUS
 62
  250
 10
339.63798032156541
 20
199.10253524731712
 11
338.95462499014491
 21
199.64751243542764
  0
LINE
  8
_f-a_250
  6
CONTINUOUS
 62
  250
 10
341.68630586020095
 20
197.47752189587663
 11
340.94129548422438
 21
198.07085037182864
  0
LINE
  8
_f-a_250
  6
CONTINUOUS
 62
  250
 10
340.5429695641194
 20
199.46753025006365
 11
339.84797940603841
 21
200.01920700024661
  0
LINE
  8
_f-a_250
  6
CONTINUOUS
 62
  250
 10
349.53795419088942
 20
199.86087322186563
 11
346.6396425758989
 21
202.08584308575715
  0
LINE
  8
_f-a_250
  6
CONTINUOUS
 62
  250
 10
347.49296651236136
 20
199.97753143262014
 11
346.0546349083574
 21
201.07418537091311
  0
LINE
  8
_f-a_250
  6
CONTINUOUS
 62
  250
 10
347.60297284475894
 20
200.33086776684863
 11
346.08794198385789
 21
201.51587963055712
  0
LINE
  8
_f-a_250
  6
CONTINUOUS
 62
  250
 10
339.6113012825644
 20
199.03751850079612
 11
339.53128800741791
 21
198.45584869336213
  0
LINE
  8
_f-a_250
  6
CONTINUOUS
 62
  250
 10
340.55796609274489
 20
199.38253402661411
 11
340.47797665945637
 21
198.80420207928714
  0
LINE
  8
_f-a_250
  6
CONTINUOUS
 62
  250
 10
340.95295415274245
 20
198.07421207379414
 11
340.86795792929291
 21
197.43918418835713
  0
LINE
  8
_f-a_250
  6
CONTINUOUS
 62
  250
 10
341.65795789114588
 20
197.50586986493212
 11
341.12297044149989
 21
193.61087322186563
  0
LINE
  8
_f-a_250
  6
CONTINUOUS
 62
  250
 10
349.52627168051345
 20
199.75921153973664
 11
349.11294923178298
 21
196.75752162884814
  0
LINE
  8
_f-a_250
  6
CONTINUOUS
 62
  250
 10
346.05296597830397
 20
201.53917312573509
 11
345.99295602194388
 21
201.1108541483791
  0
LINE
  8
_f-a_250
  6
CONTINUOUS
 62
  250
 10
347.54627690664842
 20
200.36252975415314
 11
347.49296651236136
 21
199.97753143262014
  0
LINE
  8
_f-a_250
  6
CONTINUOUS
 62
  250
 10
342.04963193289387
 20
195.97255229901415
 11
341.88629136435139
 21
194.79919910382364
  0
LINE
  8
_f-a_250
  6
CONTINUOUS
 62
  250
 10
345.96963868490798
 20
197.51254558514665
 11
345.77299104086489
 21
196.09421729992962
  0
LINE
  8
_f-a_250
  6
CONTINUOUS
 62
  250
 10
340.3563116585409
 20
199.55588817547866
 11
346.58297047964692
 21
202.04752922009564
  0
LINE
  8
_f-a_250
  6
CONTINUOUS
 62
  250
 10
339.69462857596039
 20
199.06252860974413
 11
340.53464875570893
 21
199.40420627545413
  0
LINE
  8
_f-a_250
  6
CONTINUOUS
 62
  250
 10
339.60960851065238
 20
198.45251083325462
 11
340.45129762045485
 21
198.78751277875014
  0
LINE
  8
_f-a_250
  6
CONTINUOUS
 62
  250
 10
338.95631776205641
 20
199.65754985760762
 11
339.83794198385789
 21
200.01751422833513
  0
LINE
  8
_f-a_250
  6
CONTINUOUS
 62
  250
 10
342.56795392386039
 20
197.92753696393115
 11
341.87296376577945
 21
198.47585201214864
  0
LINE
  8
_f-a_250
  6
CONTINUOUS
 62
  250
 10
342.58631215445143
 20
197.84084796856965
 11
342.50627503744693
 21
197.2608709330471
  0
LINE
  8
_f-a_250
  6
CONTINUOUS
 62
  250
 10
341.72130570761294
 20
197.51919746350362
 11
342.55796418539643
 21
197.86085128735613
  0
LINE
  8
_f-a_250
  6
CONTINUOUS
 62
  250
 10
340.97796426168992
 20
198.11755657147464
 11
341.86464295736891
 21
198.47418308209512
  0
LINE
  8
_f-a_250
  6
CONTINUOUS
 62
  250
 10
342.56962285391438
 20
197.14919567059613
 11
349.49296460501296
 21
199.83419418286411
  0
LINE
  8
_f-a_250
  6
CONTINUOUS
 62
  250
 10
347.56797299734694
 20
199.91919040631365
 11
348.73627171866042
 21
200.37585735272464
  0
LINE
  8
_f-a_250
  6
CONTINUOUS
 62
  250
 10
342.13295922628987
 20
195.99088668774661
 11
345.88962540976138
 21
197.50920772503912
  0
LINE
  8
_f-a_250
  6
CONTINUOUS
 62
  250
 10
341.18796334616286
 20
193.54754924725609
 11
343.79795537344535
 21
194.61587905835211
  0
LINE
  8
_f-a_250
  6
CONTINUOUS
 62
  250
 10
344.92128835074038
 20
195.07917404126263
 11
349.05630097738845
 21
196.77752494763462
  0
LINE
  8
_f-a_250
  6
CONTINUOUS
 62
  250
 10
342.06129060141188
 20
195.95750808667259
 11
344.45463166586489
 21
195.77919483136264
  0
LINE
  8
_f-a_250
  6
CONTINUOUS
 62
  250
 10
344.47296605459792
 20
195.77421188305911
 11
345.84794984213443
 21
197.43918418835713
  0
LINE
  8
_f-a_250
  6
CONTINUOUS
 62
  250
 10
341.89961896292289
 20
194.7825336451441
 11
344.29629788748343
 21
194.60419654797613
  0
LINE
  8
_f-a_250
  6
CONTINUOUS
 62
  250
 10
344.40463528982741
 20
194.60419654797613
 11
345.7746122872029
 21
196.05752468060564
  0
LINE
  8
_f-a_250
  6
CONTINUOUS
 62
  250
 10
348.78462300650244
 20
200.39085388135013
 11
347.59462819449038
 21
200.33086776684863
  0
LINE
  8
_f-a_250
  6
CONTINUOUS
 62
  250
 10
347.2579573189409
 20
201.62252426098911
 11
346.06295571676839
 21
201.55920028637962
  0
LINE
  8
_f-a_250
  6
CONTINUOUS
 62
  250
 10
321.8563173805864
 20
189.69587326001263
 11
328.74797330252289
 21
191.77087783764912
  0
LINE
  8
_f-a_250
  6
CONTINUOUS
 62
  250
 10
328.74797330252289
 20
191.77087783764912
 11
328.85452256552344
 21
191.82344913434113
  0
LINE
  8
_f-a_250
  6
CONTINUOUS
 62
  250
 10
328.85452256552344
 20
191.82344913434113
 11
328.98236260763747
 21
191.88748836468764
  0
LINE
  8
_f-a_250
  6
CONTINUOUS
 62
  250
 10
328.98236260763747
 20
191.88748836468764
 11
329.12581906668288
 21
191.96046829175066
  0
LINE
  8
_f-a_250
  6
CONTINUOUS
 62
  250
 10
329.12581906668288
 20
191.96046829175066
 11
329.27916989676089
 21
192.03986167859165
  0
LINE
  8
_f-a_250
  6
CONTINUOUS
 62
  250
 10
329.27916989676089
 20
192.03986167859165
 11
329.43671689383137
 21
192.12316513012962
  0
LINE
  8
_f-a_250
  6
CONTINUOUS
 62
  250
 10
329.43671689383137
 20
192.12316513012962
 11
329.5927618538534
 21
192.2077798838526
  0
LINE
  8
_f-a_250
  6
CONTINUOUS
 62
  250
 10
329.5927618538534
 20
192.2077798838526
 11
329.7416065727864
 21
192.29122638653811
  0
LINE
  8
_f-a_250
  6
CONTINUOUS
 62
  250
 10
329.7416065727864
 20
192.29122638653811
 11
329.87755284658988
 21
192.37095355939013
  0
LINE
  8
_f-a_250
  6
CONTINUOUS
 62
  250
 10
329.87755284658988
 20
192.37095355939013
 11
329.9949024712239
 21
192.44448184918463
  0
LINE
  8
_f-a_250
  6
CONTINUOUS
 62
  250
 10
329.9949024712239
 20
192.44448184918463
 11
330.08795724264741
 21
192.50921249341113
  0
LINE
  8
_f-a_250
  6
CONTINUOUS
 62
  250
 10
330.08795724264741
 20
192.50921249341113
 11
330.21949277273745
 21
192.60224342297613
  0
LINE
  8
_f-a_250
  6
CONTINUOUS
 62
  250
 10
330.21949277273745
 20
192.60224342297613
 11
330.37029252401942
 21
192.69761085461712
  0
LINE
  8
_f-a_250
  6
CONTINUOUS
 62
  250
 10
330.37029252401942
 20
192.69761085461712
 11
330.53329930655093
 21
192.79283523511009
  0
LINE
  8
_f-a_250
  6
CONTINUOUS
 62
  250
 10
330.53329930655093
 20
192.79283523511009
 11
330.70143208853347
 21
192.88531780194359
  0
LINE
  8
_f-a_250
  6
CONTINUOUS
 62
  250
 10
330.70143208853347
 20
192.88531780194359
 11
330.86753831259341
 21
192.97253131817914
  0
LINE
  8
_f-a_250
  6
CONTINUOUS
 62
  250
 10
330.86753831259341
 20
192.97253131817914
 11
331.02456078878987
 21
193.05197238873566
  0
LINE
  8
_f-a_250
  6
CONTINUOUS
 62
  250
 10
331.02456078878987
 20
193.05197238873566
 11
331.16537080160691
 21
193.12106609295915
  0
LINE
  8
_f-a_250
  6
CONTINUOUS
 62
  250
 10
331.16537080160691
 20
193.12106609295915
 11
331.28288731924636
 21
193.17726135205365
  0
LINE
  8
_f-a_250
  6
CONTINUOUS
 62
  250
 10
331.28288731924636
 20
193.17726135205365
 11
331.37002930990798
 21
193.21803092907962
  0
LINE
  8
_f-a_250
  6
CONTINUOUS
 62
  250
 10
331.37002930990798
 20
193.21803092907962
 11
331.41962037436087
 21
193.24087142895766
  0
LINE
  8
_f-a_250
  6
CONTINUOUS
 62
  250
 10
331.41962037436087
 20
193.24087142895766
 11
331.47798524252488
 21
193.26585769604759
  0
LINE
  8
_f-a_250
  6
CONTINUOUS
 62
  250
 10
331.71297059408738
 20
192.32253074597415
 11
331.62275300375541
 21
192.27937698315714
  0
LINE
  8
_f-a_250
  6
CONTINUOUS
 62
  250
 10
331.62275300375541
 20
192.27937698315714
 11
331.51944623343093
 21
192.22885608624514
  0
LINE
  8
_f-a_250
  6
CONTINUOUS
 62
  250
 10
331.51944623343093
 20
192.22885608624514
 11
331.40655503622639
 21
192.17247009228763
  0
LINE
  8
_f-a_250
  6
CONTINUOUS
 62
  250
 10
331.40655503622639
 20
192.17247009228763
 11
331.28760800711245
 21
192.11160182904314
  0
LINE
  8
_f-a_250
  6
CONTINUOUS
 62
  250
 10
331.28760800711245
 20
192.11160182904314
 11
331.16608605734439
 21
192.04775333355963
  0
LINE
  8
_f-a_250
  6
CONTINUOUS
 62
  250
 10
331.16608605734439
 20
192.04775333355963
 11
331.0455177818929
 21
191.98233127545413
  0
LINE
  8
_f-a_250
  6
CONTINUOUS
 62
  250
 10
331.0455177818929
 20
191.98233127545413
 11
330.9294317757284
 21
191.91681384991713
  0
LINE
  8
_f-a_250
  6
CONTINUOUS
 62
  250
 10
330.9294317757284
 20
191.91681384991713
 11
330.82128510824788
 21
191.85267925213915
  0
LINE
  8
_f-a_250
  6
CONTINUOUS
 62
  250
 10
330.82128510824788
 20
191.85267925213915
 11
330.72460637442191
 21
191.79131030987813
  0
LINE
  8
_f-a_250
  6
CONTINUOUS
 62
  250
 10
330.72460637442191
 20
191.79131030987813
 11
330.64294801107985
 21
191.73420906018313
  0
LINE
  8
_f-a_250
  6
CONTINUOUS
 62
  250
 10
330.64294801107985
 20
191.73420906018313
 11
330.50774083487136
 21
191.63979530285911
  0
LINE
  8
_f-a_250
  6
CONTINUOUS
 62
  250
 10
330.50774083487136
 20
191.63979530285911
 11
330.3441856896074
 21
191.53717994641363
  0
LINE
  8
_f-a_250
  6
CONTINUOUS
 62
  250
 10
330.3441856896074
 20
191.53717994641363
 11
330.16143784872639
 21
191.43022537182864
  0
LINE
  8
_f-a_250
  6
CONTINUOUS
 62
  250
 10
330.16143784872639
 20
191.43022537182864
 11
329.96867642752289
 21
191.32279396008562
  0
LINE
  8
_f-a_250
  6
CONTINUOUS
 62
  250
 10
329.96867642752289
 20
191.32279396008562
 11
329.7750566994344
 21
191.21877193402364
  0
LINE
  8
_f-a_250
  6
CONTINUOUS
 62
  250
 10
329.7750566994344
 20
191.21877193402364
 11
329.5897100960409
 21
191.12206935834016
  0
LINE
  8
_f-a_250
  6
CONTINUOUS
 62
  250
 10
329.5897100960409
 20
191.12206935834016
 11
329.4218634163534
 21
191.03654861401614
  0
LINE
  8
_f-a_250
  6
CONTINUOUS
 62
  250
 10
329.4218634163534
 20
191.03654861401614
 11
329.28062425009341
 21
190.96609592389163
  0
LINE
  8
_f-a_250
  6
CONTINUOUS
 62
  250
 10
329.28062425009341
 20
190.96609592389163
 11
329.17514787069888
 21
190.91457366894815
  0
LINE
  8
_f-a_250
  6
CONTINUOUS
 62
  250
 10
329.17514787069888
 20
190.91457366894815
 11
329.11461339346488
 21
190.88586807202412
  0
LINE
  8
_f-a_250
  6
CONTINUOUS
 62
  250
 10
329.11461339346488
 20
190.88586807202412
 11
329.04962048880191
 21
190.85918903302263
  0
LINE
  8
_f-a_250
  6
CONTINUOUS
 62
  250
 10
329.04962048880191
 20
190.85918903302263
 11
322.00132356039643
 21
188.73919486950962
  0
LINE
  8
_f-a_250
  6
CONTINUOUS
 62
  250
 10
340.37631497732741
 20
194.94420528363312
 11
331.83794961325242
 21
192.37753391217316
  0
LINE
  8
_f-a_250
  6
CONTINUOUS
 62
  250
 10
331.83794961325242
 20
192.37753391217316
 11
331.82455048910691
 21
192.37193107556413
  0
LINE
  8
_f-a_250
  6
CONTINUOUS
 62
  250
 10
331.82455048910691
 20
192.37193107556413
 11
331.81124673239339
 21
192.36613750409214
  0
LINE
  8
_f-a_250
  6
CONTINUOUS
 62
  250
 10
331.81124673239339
 20
192.36613750409214
 11
331.79801450125291
 21
192.36012935589864
  0
LINE
  8
_f-a_250
  6
CONTINUOUS
 62
  250
 10
331.79801450125291
 20
192.36012935589864
 11
331.78471074453938
 21
192.35393047284214
  0
LINE
  8
_f-a_250
  6
CONTINUOUS
 62
  250
 10
331.78471074453938
 20
192.35393047284214
 11
331.77131162039387
 21
192.34751701306413
  0
LINE
  8
_f-a_250
  6
CONTINUOUS
 62
  250
 10
331.77131162039387
 20
192.34751701306413
 11
331.75767407766887
 21
192.34093666028116
  0
LINE
  8
_f-a_250
  6
CONTINUOUS
 62
  250
 10
331.75767407766887
 20
192.34093666028116
 11
331.74379811636538
 21
192.33411788891863
  0
LINE
  8
_f-a_250
  6
CONTINUOUS
 62
  250
 10
331.74379811636538
 20
192.33411788891863
 11
331.72954068533539
 21
192.32713222455112
  0
LINE
  8
_f-a_250
  6
CONTINUOUS
 62
  250
 10
331.72954068533539
 20
192.32713222455112
 11
331.71485410086245
 21
192.31993198346211
  0
LINE
  8
_f-a_250
  6
CONTINUOUS
 62
  250
 10
331.71485410086245
 20
192.31993198346211
 11
331.69961915365798
 21
192.31254100751016
  0
LINE
  8
_f-a_250
  6
CONTINUOUS
 62
  250
 10
331.69961915365798
 20
192.31254100751016
 11
340.37631497732741
 21
194.94420528363312
  0
LINE
  8
_f-a_250
  6
CONTINUOUS
 62
  250
 10
340.37631497732741
 20
194.94420528363312
 11
331.83794961325242
 21
192.37753391217316
  0
LINE
  8
_f-a_250
  6
CONTINUOUS
 62
  250
 10
331.83794961325242
 20
192.37753391217316
 11
331.82455048910691
 21
192.37193107556413
  0
LINE
  8
_f-a_250
  6
CONTINUOUS
 62
  250
 10
331.82455048910691
 20
192.37193107556413
 11
331.81124673239339
 21
192.36613750409214
  0
LINE
  8
_f-a_250
  6
CONTINUOUS
 62
  250
 10
331.81124673239339
 20
192.36613750409214
 11
331.79801450125291
 21
192.36012935589864
  0
LINE
  8
_f-a_250
  6
CONTINUOUS
 62
  250
 10
331.79801450125291
 20
192.36012935589864
 11
331.78471074453938
 21
192.35393047284214
  0
LINE
  8
_f-a_250
  6
CONTINUOUS
 62
  250
 10
331.78471074453938
 20
192.35393047284214
 11
331.77131162039387
 21
192.34751701306413
  0
LINE
  8
_f-a_250
  6
CONTINUOUS
 62
  250
 10
331.77131162039387
 20
192.34751701306413
 11
331.75767407766887
 21
192.34093666028116
  0
LINE
  8
_f-a_250
  6
CONTINUOUS
 62
  250
 10
331.75767407766887
 20
192.34093666028116
 11
331.74379811636538
 21
192.33411788891863
  0
LINE
  8
_f-a_250
  6
CONTINUOUS
 62
  250
 10
331.74379811636538
 20
192.33411788891863
 11
331.72954068533539
 21
192.32713222455112
  0
LINE
  8
_f-a_250
  6
CONTINUOUS
 62
  250
 10
331.72954068533539
 20
192.32713222455112
 11
331.71485410086245
 21
192.31993198346211
  0
LINE
  8
_f-a_250
  6
CONTINUOUS
 62
  250
 10
331.71485410086245
 20
192.31993198346211
 11
331.69961915365798
 21
192.31254100751016
  0
LINE
  8
_f-a_250
  6
CONTINUOUS
 62
  250
 10
331.69961915365798
 20
192.31254100751016
 11
340.37631497732741
 21
194.94420528363312
  0
LINE
  8
_f-a_250
  6
CONTINUOUS
 62
  250
 10
340.37631497732741
 20
194.94420528363312
 11
331.83794961325242
 21
192.37753391217316
  0
LINE
  8
_f-a_250
  6
CONTINUOUS
 62
  250
 10
331.83794961325242
 20
192.37753391217316
 11
331.82455048910691
 21
192.37193107556413
  0
LINE
  8
_f-a_250
  6
CONTINUOUS
 62
  250
 10
331.82455048910691
 20
192.37193107556413
 11
331.81124673239339
 21
192.36613750409214
  0
LINE
  8
_f-a_250
  6
CONTINUOUS
 62
  250
 10
331.81124673239339
 20
192.36613750409214
 11
331.79801450125291
 21
192.36012935589864
  0
LINE
  8
_f-a_250
  6
CONTINUOUS
 62
  250
 10
331.79801450125291
 20
192.36012935589864
 11
331.78471074453938
 21
192.35393047284214
  0
LINE
  8
_f-a_250
  6
CONTINUOUS
 62
  250
 10
331.78471074453938
 20
192.35393047284214
 11
331.77131162039387
 21
192.34751701306413
  0
LINE
  8
_f-a_250
  6
CONTINUOUS
 62
  250
 10
331.77131162039387
 20
192.34751701306413
 11
331.75767407766887
 21
192.34093666028116
  0
LINE
  8
_f-a_250
  6
CONTINUOUS
 62
  250
 10
331.75767407766887
 20
192.34093666028116
 11
331.74379811636538
 21
192.33411788891863
  0
LINE
  8
_f-a_250
  6
CONTINUOUS
 62
  250
 10
331.74379811636538
 20
192.33411788891863
 11
331.72954068533539
 21
192.32713222455112
  0
LINE
  8
_f-a_250
  6
CONTINUOUS
 62
  250
 10
331.72954068533539
 20
192.32713222455112
 11
331.71485410086245
 21
192.31993198346211
  0
LINE
  8
_f-a_250
  6
CONTINUOUS
 62
  250
 10
331.71485410086245
 20
192.31993198346211
 11
331.69961915365798
 21
192.31254100751016
  0
LINE
  8
_f-a_250
  6
CONTINUOUS
 62
  250
 10
330.20463929525943
 20
192.92751789044465
 11
340.19461617819388
 21
195.93585967969014
  0
LINE
  8
_f-a_250
  6
CONTINUOUS
 62
  250
 10
340.19461617819388
 20
195.93585967969014
 11
330.20463929525943
 21
192.92751789044465
  0
LINE
  8
_f-a_250
  6
CONTINUOUS
 62
  250
 10
330.20463929525943
 20
192.92751789044465
 11
340.19461617819388
 21
195.93585967969014
  0
LINE
  8
_f-a_250
  6
CONTINUOUS
 62
  250
 10
340.19461617819388
 20
195.93585967969014
 11
330.20463929525943
 21
192.92751789044465
  0
LINE
  8
_f-a_250
  6
CONTINUOUS
 62
  250
 10
330.20463929525943
 20
192.92751789044465
 11
340.19461617819388
 21
195.93585967969014
  0
LINE
  8
_f-a_250
  6
CONTINUOUS
 62
  250
 10
321.83962808004935
 20
192.05585956524916
 11
326.84129224173137
 21
193.57253551434613
  0
LINE
  8
_f-a_250
  6
CONTINUOUS
 62
  250
 10
326.84129224173137
 20
193.57253551434613
 11
326.91296086660941
 21
193.58753204297162
  0
LINE
  8
_f-a_250
  6
CONTINUOUS
 62
  250
 10
326.91296086660941
 20
193.58753204297162
 11
326.97895512930495
 21
193.59661579083513
  0
LINE
  8
_f-a_250
  6
CONTINUOUS
 62
  250
 10
326.97895512930495
 20
193.59661579083513
 11
327.09449277273745
 21
193.61163616131859
  0
LINE
  8
_f-a_250
  6
CONTINUOUS
 62
  250
 10
327.09449277273745
 20
193.61163616131859
 11
327.24984631887992
 21
193.63068580578863
  0
LINE
  8
_f-a_250
  6
CONTINUOUS
 62
  250
 10
327.24984631887992
 20
193.63068580578863
 11
327.43540749899489
 21
193.65188121747113
  0
LINE
  8
_f-a_250
  6
CONTINUOUS
 62
  250
 10
327.43540749899489
 20
193.65188121747113
 11
327.64152036062791
 21
193.67336273144815
  0
LINE
  8
_f-a_250
  6
CONTINUOUS
 62
  250
 10
327.64152036062791
 20
193.67336273144815
 11
327.85843358389491
 21
193.69324684094514
  0
LINE
  8
_f-a_250
  6
CONTINUOUS
 62
  250
 10
327.85843358389491
 20
193.69324684094514
 11
328.07656274191487
 21
193.70967388104512
  0
LINE
  8
_f-a_250
  6
CONTINUOUS
 62
  250
 10
328.07656274191487
 20
193.70967388104512
 11
328.28620419851887
 21
193.72071266125764
  0
LINE
  8
_f-a_250
  6
CONTINUOUS
 62
  250
 10
328.28620419851887
 20
193.72071266125764
 11
328.47765431753737
 21
193.72452735852312
  0
LINE
  8
_f-a_250
  6
CONTINUOUS
 62
  250
 10
328.47765431753737
 20
193.72452735852312
 11
328.6413048302324
 21
193.71921062420915
  0
LINE
  8
_f-a_250
  6
CONTINUOUS
 62
  250
 10
328.6413048302324
 20
193.71921062420915
 11
328.74685273520095
 21
193.71630191754414
  0
LINE
  8
_f-a_250
  6
CONTINUOUS
 62
  250
 10
328.74685273520095
 20
193.71630191754414
 11
328.86939988485892
 21
193.71897220563011
  0
LINE
  8
_f-a_250
  6
CONTINUOUS
 62
  250
 10
328.86939988485892
 20
193.71897220563011
 11
329.00439248434645
 21
193.72629165600864
  0
LINE
  8
_f-a_250
  6
CONTINUOUS
 62
  250
 10
329.00439248434645
 20
193.72629165600864
 11
329.14722905508592
 21
193.73737811993666
  0
LINE
  8
_f-a_250
  6
CONTINUOUS
 62
  250
 10
329.14722905508592
 20
193.73737811993666
 11
329.29337964407546
 21
193.75127792309863
  0
LINE
  8
_f-a_250
  6
CONTINUOUS
 62
  250
 10
329.29337964407546
 20
193.75127792309863
 11
329.43821893087943
 21
193.76708507489263
  0
LINE
  8
_f-a_250
  6
CONTINUOUS
 62
  250
 10
329.43821893087943
 20
193.76708507489263
 11
329.57716927877993
 21
193.78384590100362
  0
LINE
  8
_f-a_250
  6
CONTINUOUS
 62
  250
 10
329.57716927877993
 20
193.78384590100362
 11
329.7056768929159
 21
193.80067825268816
  0
LINE
  8
_f-a_250
  6
CONTINUOUS
 62
  250
 10
329.7056768929159
 20
193.80067825268816
 11
329.81914029471039
 21
193.81665229748813
  0
LINE
  8
_f-a_250
  6
CONTINUOUS
 62
  250
 10
329.81914029471039
 20
193.81665229748813
 11
329.91298184744437
 21
193.83083820294465
  0
LINE
  8
_f-a_250
  6
CONTINUOUS
 62
  250
 10
330.20463929525943
 20
192.92751789044465
 11
330.13127789846988
 21
192.90586948346211
  0
LINE
  8
_f-a_250
  6
CONTINUOUS
 62
  250
 10
330.13127789846988
 20
192.90586948346211
 11
330.06962285391438
 21
192.89087295483662
  0
LINE
  8
_f-a_250
  6
CONTINUOUS
 62
  250
 10
330.06962285391438
 20
192.89087295483662
 11
330.01659856192191
 21
192.88290977429463
  0
LINE
  8
_f-a_250
  6
CONTINUOUS
 62
  250
 10
330.01659856192191
 20
192.88290977429463
 11
329.92242322317691
 21
192.86927223157014
  0
LINE
  8
_f-a_250
  6
CONTINUOUS
 62
  250
 10
329.92242322317691
 20
192.86927223157014
 11
329.79444012991542
 21
192.85172462414812
  0
LINE
  8
_f-a_250
  6
CONTINUOUS
 62
  250
 10
329.79444012991542
 20
192.85172462414812
 11
329.6400402580889
 21
192.83205509137213
  0
LINE
  8
_f-a_250
  6
CONTINUOUS
 62
  250
 10
329.6400402580889
 20
192.83205509137213
 11
329.46649537436087
 21
192.81209945630161
  0
LINE
  8
_f-a_250
  6
CONTINUOUS
 62
  250
 10
329.46649537436087
 20
192.81209945630161
 11
329.2812441383989
 21
192.79364585827915
  0
LINE
  8
_f-a_250
  6
CONTINUOUS
 62
  250
 10
329.2812441383989
 20
192.79364585827915
 11
329.09155831686587
 21
192.77853012036411
  0
LINE
  8
_f-a_250
  6
CONTINUOUS
 62
  250
 10
329.09155831686587
 20
192.77853012036411
 11
328.90482888571341
 21
192.76846885632611
  0
LINE
  8
_f-a_250
  6
CONTINUOUS
 62
  250
 10
328.90482888571341
 20
192.76846885632611
 11
328.72839913717837
 21
192.7653217310816
  0
LINE
  8
_f-a_250
  6
CONTINUOUS
 62
  250
 10
328.72839913717837
 20
192.7653217310816
 11
328.56963620535493
 21
192.77087688397464
  0
LINE
  8
_f-a_250
  6
CONTINUOUS
 62
  250
 10
328.56963620535493
 20
192.77087688397464
 11
328.45710263601887
 21
192.77342796277114
  0
LINE
  8
_f-a_250
  6
CONTINUOUS
 62
  250
 10
328.45710263601887
 20
192.77342796277114
 11
328.31960664145095
 21
192.76987552594261
  0
LINE
  8
_f-a_250
  6
CONTINUOUS
 62
  250
 10
328.31960664145095
 20
192.76987552594261
 11
328.16329942099196
 21
192.76122093152114
  0
LINE
  8
_f-a_250
  6
CONTINUOUS
 62
  250
 10
328.16329942099196
 20
192.76122093152114
 11
327.9943321739824
 21
192.74858474682864
  0
LINE
  8
_f-a_250
  6
CONTINUOUS
 62
  250
 10
327.9943321739824
 20
192.74858474682864
 11
327.81878457418992
 21
192.73294448803961
  0
LINE
  8
_f-a_250
  6
CONTINUOUS
 62
  250
 10
327.81878457418992
 20
192.73294448803961
 11
327.64287934652896
 21
192.71542072247561
  0
LINE
  8
_f-a_250
  6
CONTINUOUS
 62
  250
 10
327.64287934652896
 20
192.71542072247561
 11
327.47269616476638
 21
192.69706249188516
  0
LINE
  8
_f-a_250
  6
CONTINUOUS
 62
  250
 10
327.47269616476638
 20
192.69706249188516
 11
327.31438622824294
 21
192.67891883801562
  0
LINE
  8
_f-a_250
  6
CONTINUOUS
 62
  250
 10
327.31438622824294
 20
192.67891883801562
 11
327.17407689444138
 21
192.66203880261514
  0
LINE
  8
_f-a_250
  6
CONTINUOUS
 62
  250
 10
327.17407689444138
 20
192.66203880261514
 11
327.05796704641887
 21
192.64751911114763
  0
LINE
  8
_f-a_250
  6
CONTINUOUS
 62
  250
 10
327.05796704641887
 20
192.64751911114763
 11
321.90128312460541
 21
191.08251571606712
  0
LINE
  8
_f-a_250
  6
CONTINUOUS
 62
  250
 10
340.46131120077689
 20
197.01420307110862
 11
329.91298184744437
 21
193.83253097485613
  0
LINE
  8
_f-a_250
  6
CONTINUOUS
 62
  250
 10
329.91298184744437
 20
193.83253097485613
 11
340.46131120077689
 21
197.01420307110862
  0
LINE
  8
_f-a_250
  6
CONTINUOUS
 62
  250
 10
340.46131120077689
 20
197.01420307110862
 11
329.91298184744437
 21
193.83253097485613
  0
LINE
  8
_f-a_250
  6
CONTINUOUS
 62
  250
 10
329.91298184744437
 20
193.83253097485613
 11
340.46131120077689
 21
197.01420307110862
  0
LINE
  8
_f-a_250
  6
CONTINUOUS
 62
  250
 10
340.46131120077689
 20
197.01420307110862
 11
329.91298184744437
 21
193.83253097485613
  0
LINE
  8
_f-a_250
  6
CONTINUOUS
 62
  250
 10
314.32295785299891
 20
197.17420577954363
 11
319.00130257956141
 21
194.95586395215111
  0
LINE
  8
_f-a_250
  6
CONTINUOUS
 62
  250
 10
319.00130257956141
 20
194.95586395215111
 11
319.00268540731986
 21
194.95498180340863
  0
LINE
  8
_f-a_250
  6
CONTINUOUS
 62
  250
 10
319.00268540731986
 20
194.95498180340863
 11
319.00673852316487
 21
194.95231151532266
  0
LINE
  8
_f-a_250
  6
CONTINUOUS
 62
  250
 10
319.00673852316487
 20
194.95231151532266
 11
319.0133188759479
 21
194.94790077160911
  0
LINE
  8
_f-a_250
  6
CONTINUOUS
 62
  250
 10
319.0133188759479
 20
194.94790077160911
 11
319.02230725637992
 21
194.94179725598411
  0
LINE
  8
_f-a_250
  6
CONTINUOUS
 62
  250
 10
319.02230725637992
 20
194.94179725598411
 11
319.03358445517142
 21
194.93400096844766
  0
LINE
  8
_f-a_250
  6
CONTINUOUS
 62
  250
 10
319.03358445517142
 20
194.93400096844766
 11
319.04703126303298
 21
194.92453575085713
  0
LINE
  8
_f-a_250
  6
CONTINUOUS
 62
  250
 10
319.04703126303298
 20
194.92453575085713
 11
319.06248078695893
 21
194.91347312878665
  0
LINE
  8
_f-a_250
  6
CONTINUOUS
 62
  250
 10
319.06248078695893
 20
194.91347312878665
 11
319.07981381765944
 21
194.90083694409464
  0
LINE
  8
_f-a_250
  6
CONTINUOUS
 62
  250
 10
319.07981381765944
 20
194.90083694409464
 11
319.09891114584548
 21
194.8866033549221
  0
LINE
  8
_f-a_250
  6
CONTINUOUS
 62
  250
 10
319.09891114584548
 20
194.8866033549221
 11
319.1196297203694
 21
194.87086772870165
  0
LINE
  8
_f-a_250
  6
CONTINUOUS
 62
  250
 10
319.1196297203694
 20
194.87086772870165
 11
319.18884263388236
 21
194.81283664654816
  0
LINE
  8
_f-a_250
  6
CONTINUOUS
 62
  250
 10
319.18884263388236
 20
194.81283664654816
 11
319.26694856039643
 21
194.74243164013964
  0
LINE
  8
_f-a_250
  6
CONTINUOUS
 62
  250
 10
319.26694856039643
 20
194.74243164013964
 11
319.35013280264491
 21
194.66070175122363
  0
LINE
  8
_f-a_250
  6
CONTINUOUS
 62
  250
 10
319.35013280264491
 20
194.66070175122363
 11
319.43460450522048
 21
194.56864833783217
  0
LINE
  8
_f-a_250
  6
CONTINUOUS
 62
  250
 10
319.43460450522048
 20
194.56864833783217
 11
319.51650128714186
 21
194.46732044171409
  0
LINE
  8
_f-a_250
  6
CONTINUOUS
 62
  250
 10
319.51650128714186
 20
194.46732044171409
 11
319.59207997671695
 21
194.35774326275913
  0
LINE
  8
_f-a_250
  6
CONTINUOUS
 62
  250
 10
319.59207997671695
 20
194.35774326275913
 11
319.65747819296439
 21
194.24094200085713
  0
LINE
  8
_f-a_250
  6
CONTINUOUS
 62
  250
 10
319.65747819296439
 20
194.24094200085713
 11
319.70890508047688
 21
194.11796569775666
  0
LINE
  8
_f-a_250
  6
CONTINUOUS
 62
  250
 10
319.70890508047688
 20
194.11796569775666
 11
319.74256978384597
 21
193.98981571148965
  0
LINE
  8
_f-a_250
  6
CONTINUOUS
 62
  250
 10
319.74256978384597
 20
193.98981571148965
 11
319.75463376394839
 21
193.85751724194614
  0
LINE
  8
_f-a_250
  6
CONTINUOUS
 62
  250
 10
319.75463376394839
 20
193.85751724194614
 11
319.89129529348941
 21
181.42920970868212
  0
LINE
  8
_f-a_250
  6
CONTINUOUS
 62
  250
 10
319.89129529348941
 20
181.42920970868212
 11
319.89165292135789
 21
181.42405986737313
  0
LINE
  8
_f-a_250
  6
CONTINUOUS
 62
  250
 10
319.89165292135789
 20
181.42405986737313
 11
319.89210591665847
 21
181.40977859448512
  0
LINE
  8
_f-a_250
  6
CONTINUOUS
 62
  250
 10
319.89210591665847
 20
181.40977859448512
 11
319.89174828878987
 21
181.38810634564467
  0
LINE
  8
_f-a_250
  6
CONTINUOUS
 62
  250
 10
319.89174828878987
 20
181.38810634564467
 11
319.88969788900943
 21
181.36087894391164
  0
LINE
  8
_f-a_250
  6
CONTINUOUS
 62
  250
 10
319.88969788900943
 20
181.36087894391164
 11
319.88504872671695
 21
181.32983684491214
  0
LINE
  8
_f-a_250
  6
CONTINUOUS
 62
  250
 10
319.88504872671695
 20
181.32983684491214
 11
319.8768948113119
 21
181.2967205042751
  0
LINE
  8
_f-a_250
  6
CONTINUOUS
 62
  250
 10
319.8768948113119
 20
181.2967205042751
 11
319.86433015219291
 21
181.26331806134311
  0
LINE
  8
_f-a_250
  6
CONTINUOUS
 62
  250
 10
319.86433015219291
 20
181.26331806134311
 11
319.84649644247639
 21
181.23144149731715
  0
LINE
  8
_f-a_250
  6
CONTINUOUS
 62
  250
 10
319.84649644247639
 20
181.23144149731715
 11
319.8224638497029
 21
181.20280742596714
  0
LINE
  8
_f-a_250
  6
CONTINUOUS
 62
  250
 10
319.8224638497029
 20
181.20280742596714
 11
319.79130254141438
 21
181.17920398663614
  0
LINE
  8
_f-a_250
  6
CONTINUOUS
 62
  250
 10
313.94463525168044
 20
197.2608709330471
 11
315.93130574575991
 21
197.94918537091311
  0
LINE
  8
_f-a_250
  6
CONTINUOUS
 62
  250
 10
315.93130574575991
 20
197.94918537091311
 11
321.17463097921939
 21
195.53750991772711
  0
LINE
  8
_f-a_250
  6
CONTINUOUS
 62
  250
 10
321.17463097921939
 20
195.53750991772711
 11
321.19115338675141
 21
195.53033351849612
  0
LINE
  8
_f-a_250
  6
CONTINUOUS
 62
  250
 10
321.19115338675141
 20
195.53033351849612
 11
321.23628602377488
 21
195.50622940014912
  0
LINE
  8
_f-a_250
  6
CONTINUOUS
 62
  250
 10
321.23628602377488
 20
195.50622940014912
 11
321.30332932821841
 21
195.46138286542012
  0
LINE
  8
_f-a_250
  6
CONTINUOUS
 62
  250
 10
321.30332932821841
 20
195.46138286542012
 11
321.38555989615043
 21
195.39197921704363
  0
LINE
  8
_f-a_250
  6
CONTINUOUS
 62
  250
 10
321.38555989615043
 20
195.39197921704363
 11
321.47627816549891
 21
195.29417991589614
  0
LINE
  8
_f-a_250
  6
CONTINUOUS
 62
  250
 10
321.47627816549891
 20
195.29417991589614
 11
321.56883225790591
 21
195.16421794842813
  0
LINE
  8
_f-a_250
  6
CONTINUOUS
 62
  250
 10
321.56883225790591
 20
195.16421794842813
 11
321.65647492758393
 21
194.99820709179963
  0
LINE
  8
_f-a_250
  6
CONTINUOUS
 62
  250
 10
321.65647492758393
 20
194.99820709179963
 11
321.73248277060139
 21
194.79235649060317
  0
LINE
  8
_f-a_250
  6
CONTINUOUS
 62
  250
 10
321.73248277060139
 20
194.79235649060317
 11
321.79020390860188
 21
194.54285144757364
  0
LINE
  8
_f-a_250
  6
CONTINUOUS
 62
  250
 10
321.79020390860188
 20
194.54285144757364
 11
321.82296262137038
 21
194.24585342358662
  0
LINE
  8
_f-a_250
  6
CONTINUOUS
 62
  250
 10
321.82296262137038
 20
194.24585342358662
 11
321.97295174948289
 21
182.15085506390665
  0
LINE
  8
_f-a_250
  6
CONTINUOUS
 62
  250
 10
321.97295174948289
 20
182.15085506390665
 11
321.97588429800589
 21
182.14115142773713
  0
LINE
  8
_f-a_250
  6
CONTINUOUS
 62
  250
 10
321.97588429800589
 20
182.14115142773713
 11
321.98253617636294
 21
182.11421012829865
  0
LINE
  8
_f-a_250
  6
CONTINUOUS
 62
  250
 10
321.98253617636294
 20
182.11421012829865
 11
321.98978410116791
 21
182.07332134198262
  0
LINE
  8
_f-a_250
  6
CONTINUOUS
 62
  250
 10
321.98978410116791
 20
182.07332134198262
 11
321.99445710531791
 21
182.02172756146516
  0
LINE
  8
_f-a_250
  6
CONTINUOUS
 62
  250
 10
321.99445710531791
 20
182.02172756146516
 11
321.99336037985438
 21
181.96271896313766
  0
LINE
  8
_f-a_250
  6
CONTINUOUS
 62
  250
 10
321.99336037985438
 20
181.96271896313766
 11
321.98339448324788
 21
181.89958572339114
  0
LINE
  8
_f-a_250
  6
CONTINUOUS
 62
  250
 10
321.98339448324788
 20
181.89958572339114
 11
321.96136460653889
 21
181.83554649304463
  0
LINE
  8
_f-a_250
  6
CONTINUOUS
 62
  250
 10
321.96136460653889
 20
181.83554649304463
 11
321.92409978262538
 21
181.77389144848911
  0
LINE
  8
_f-a_250
  6
CONTINUOUS
 62
  250
 10
321.92409978262538
 20
181.77389144848911
 11
321.86847672812087
 21
181.71791076611618
  0
LINE
  8
_f-a_250
  6
CONTINUOUS
 62
  250
 10
321.86847672812087
 20
181.71791076611618
 11
321.79132447592337
 21
181.67087078045915
  0
LINE
  8
_f-a_250
  6
CONTINUOUS
 62
  250
 10
321.79132447592337
 20
181.67087078045915
 11
319.76295457235892
 21
181.11254215191914
  0
LINE
  8
_0-0_0
  6
CONTINUOUS
 62
    7
 10
101.94693551413144
 20
116.17115974377717
 11
102.09264502874942
 21
116.25837326001265
  0
LINE
  8
_0-0_0
  6
CONTINUOUS
 62
    7
 10
102.09264502874942
 20
116.25837326001265
 11
102.25132451407043
 21
116.35507583569614
  0
LINE
  8
_0-0_0
  6
CONTINUOUS
 62
    7
 10
102.25132451407043
 20
116.35507583569614
 11
102.41802082411391
 21
116.45871639203165
  0
LINE
  8
_0-0_0
  6
CONTINUOUS
 62
    7
 10
102.41802082411391
 20
116.45871639203165
 11
102.58779869429191
 21
116.56691074322762
  0
LINE
  8
_0-0_0
  6
CONTINUOUS
 62
    7
 10
102.58779869429191
 20
116.56691074322762
 11
102.7557228600179
 21
116.67715549420413
  0
LINE
  8
_0-0_0
  6
CONTINUOUS
 62
    7
 10
102.7557228600179
 20
116.67715549420413
 11
102.91684613577442
 21
116.78697109173862
  0
LINE
  8
_0-0_0
  6
CONTINUOUS
 62
    7
 10
102.91684613577442
 20
116.78697109173862
 11
103.06621537558192
 21
116.89390182446564
  0
LINE
  8
_0-0_0
  6
CONTINUOUS
 62
    7
 10
103.06621537558192
 20
116.89390182446564
 11
103.19890723578092
 21
116.99546813916263
  0
LINE
  8
_0-0_0
  6
CONTINUOUS
 62
    7
 10
103.19890723578092
 20
116.99546813916263
 11
103.30996857039091
 21
117.08921432446564
  0
LINE
  8
_0-0_0
  6
CONTINUOUS
 62
    7
 10
103.30996857039091
 20
117.08921432446564
 11
103.49589333883841
 21
117.24359035443362
  0
LINE
  8
_0-0_0
  6
CONTINUOUS
 62
    7
 10
103.49589333883841
 20
117.24359035443362
 11
103.72199759832942
 21
117.41327285718066
  0
LINE
  8
_0-0_0
  6
CONTINUOUS
 62
    7
 10
103.72199759832942
 20
117.41327285718066
 11
103.97542462698539
 21
117.59151458691663
  0
LINE
  8
_0-0_0
  6
CONTINUOUS
 62
    7
 10
103.97542462698539
 20
117.59151458691663
 11
104.24329386107041
 21
117.77163982342813
  0
LINE
  8
_0-0_0
  6
CONTINUOUS
 62
    7
 10
104.24329386107041
 20
117.77163982342813
 11
104.5127604996359
 21
117.94692516278364
  0
LINE
  8
_0-0_0
  6
CONTINUOUS
 62
    7
 10
104.5127604996359
 20
117.94692516278364
 11
104.77096186033842
 21
118.11062335919465
  0
LINE
  8
_0-0_0
  6
CONTINUOUS
 62
    7
 10
104.77096186033842
 20
118.11062335919465
 11
105.0050233399069
 21
118.25613021802015
  0
LINE
  8
_0-0_0
  6
CONTINUOUS
 62
    7
 10
105.0050233399069
 20
118.25613021802015
 11
105.2020941769274
 21
118.37660312604012
  0
LINE
  8
_0-0_0
  6
CONTINUOUS
 62
    7
 10
105.2020941769274
 20
118.37660312604012
 11
105.3493116890584
 21
118.46541404675563
  0
LINE
  8
_0-0_0
  6
CONTINUOUS
 62
    7
 10
105.3493116890584
 20
118.46541404675563
 11
105.43380723349192
 21
118.51586341809366
  0
LINE
  8
_0-0_0
  6
CONTINUOUS
 62
    7
 10
105.43380723349192
 20
118.51586341809366
 11
105.52881107679941
 21
118.55920791577414
  0
LINE
  8
_0-0_0
  6
CONTINUOUS
 62
    7
 10
105.52881107679941
 20
118.55920791577414
 11
118.73780236593839
 21
123.79087448071564
  0
LINE
  8
_0-0_0
  6
CONTINUOUS
 62
    7
 10
118.73780236593839
 20
123.79087448071564
 11
118.75473008505442
 21
123.78038406323512
  0
LINE
  8
_0-0_0
  6
CONTINUOUS
 62
    7
 10
118.75473008505442
 20
123.78038406323512
 11
118.80013690344441
 21
123.74776840161411
  0
LINE
  8
_0-0_0
  6
CONTINUOUS
 62
    7
 10
118.80013690344441
 20
123.74776840161411
 11
118.86594043127639
 21
123.69135856579865
  0
LINE
  8
_0-0_0
  6
CONTINUOUS
 62
    7
 10
118.86594043127639
 20
123.69135856579865
 11
118.94403443686092
 21
123.60943794201913
  0
LINE
  8
_0-0_0
  6
CONTINUOUS
 62
    7
 10
118.94403443686092
 20
123.60943794201913
 11
119.0263603722249
 21
123.50024223279065
  0
LINE
  8
_0-0_0
  6
CONTINUOUS
 62
    7
 10
119.0263603722249
 20
123.50024223279065
 11
119.10481200567841
 21
123.36210250805911
  0
LINE
  8
_0-0_0
  6
CONTINUOUS
 62
    7
 10
119.10481200567841
 20
123.36210250805911
 11
119.17133078924741
 21
123.19330215405566
  0
LINE
  8
_0-0_0
  6
CONTINUOUS
 62
    7
 10
119.17133078924741
 20
123.19330215405566
 11
119.21779857031443
 21
122.99214839886763
  0
LINE
  8
_0-0_0
  6
CONTINUOUS
 62
    7
 10
119.21779857031443
 20
122.99214839886763
 11
119.23615680090543
 21
122.75690078686816
  0
LINE
  8
_0-0_0
  6
CONTINUOUS
 62
    7
 10
119.23615680090543
 20
122.75690078686816
 11
119.2182992493304
 21
122.48586654614515
  0
LINE
  8
_0-0_0
  6
CONTINUOUS
 62
    7
 10
119.2182992493304
 20
122.48586654614515
 11
106.05880365721342
 21
117.28419303845462
  0
LINE
  8
_0-0_0
  6
CONTINUOUS
 62
    7
 10
106.05880365721342
 20
117.28419303845462
 11
105.90915427557542
 21
117.19461917828666
  0
LINE
  8
_0-0_0
  6
CONTINUOUS
 62
    7
 10
105.90915427557542
 20
117.19461917828666
 11
105.73004231802541
 21
117.08578109692661
  0
LINE
  8
_0-0_0
  6
CONTINUOUS
 62
    7
 10
105.73004231802541
 20
117.08578109692661
 11
105.5294667278919
 21
116.96199417065714
  0
LINE
  8
_0-0_0
  6
CONTINUOUS
 62
    7
 10
105.5294667278919
 20
116.96199417065714
 11
105.31542644850342
 21
116.82757377575962
  0
LINE
  8
_0-0_0
  6
CONTINUOUS
 62
    7
 10
105.31542644850342
 20
116.82757377575962
 11
105.09590254179591
 21
116.68693065594766
  0
LINE
  8
_0-0_0
  6
CONTINUOUS
 62
    7
 10
105.09590254179591
 20
116.68693065594766
 11
104.8789118324909
 21
116.54428482007114
  0
LINE
  8
_0-0_0
  6
CONTINUOUS
 62
    7
 10
104.8789118324909
 20
116.54428482007114
 11
104.67244134298892
 21
116.40404701184366
  0
LINE
  8
_0-0_0
  6
CONTINUOUS
 62
    7
 10
104.67244134298892
 20
116.40404701184366
 11
104.48449597708341
 21
116.27050876568865
  0
LINE
  8
_0-0_0
  6
CONTINUOUS
 62
    7
 10
104.48449597708341
 20
116.27050876568865
 11
104.3230567967089
 21
116.14798545788862
  0
LINE
  8
_0-0_0
  6
CONTINUOUS
 62
    7
 10
104.3230567967089
 20
116.14798545788862
 11
104.19613466612441
 21
116.04086399029816
  0
LINE
  8
_0-0_0
  6
CONTINUOUS
 62
    7
 10
104.19613466612441
 20
116.04086399029816
 11
104.0158902203234
 21
115.89058875989062
  0
LINE
  8
_0-0_0
  6
CONTINUOUS
 62
    7
 10
104.0158902203234
 20
115.89058875989062
 11
103.80767331472993
 21
115.73387622784712
  0
LINE
  8
_0-0_0
  6
CONTINUOUS
 62
    7
 10
103.80767331472993
 20
115.73387622784712
 11
103.58158097616791
 21
115.57537555646013
  0
LINE
  8
_0-0_0
  6
CONTINUOUS
 62
    7
 10
103.58158097616791
 20
115.57537555646013
 11
103.34768638960441
 21
115.41975974988063
  0
LINE
  8
_0-0_0
  6
CONTINUOUS
 62
    7
 10
103.34768638960441
 20
115.41975974988063
 11
103.11606870047191
 21
115.27170181225864
  0
LINE
  8
_0-0_0
  6
CONTINUOUS
 62
    7
 10
103.11606870047191
 20
115.27170181225864
 11
102.89681897512992
 21
115.13582706402863
  0
LINE
  8
_0-0_0
  6
CONTINUOUS
 62
    7
 10
102.89681897512992
 20
115.13582706402863
 11
102.70002231947541
 21
115.01680850934113
  0
LINE
  8
_0-0_0
  6
CONTINUOUS
 62
    7
 10
102.70002231947541
 20
115.01680850934113
 11
102.53575787893891
 21
114.91931915234663
  0
LINE
  8
_0-0_0
  6
CONTINUOUS
 62
    7
 10
102.53575787893891
 20
114.91931915234663
 11
102.41409883848743
 21
114.84800815533713
  0
LINE
  8
_0-0_0
  6
CONTINUOUS
 62
    7
 10
102.41409883848743
 20
114.84800815533713
 11
102.34513626448242
 21
114.80752468060564
  0
LINE
  8
_0-0_0
  6
CONTINUOUS
 62
    7
 10
102.34513626448242
 20
114.80752468060564
 11
102.26180301062192
 21
114.76918697308615
  0
ENDSEC
  0
EOF
