  0
SECTION
  2
HEADER
  9
$ACADVER
  1
AC1009
  9
$INSBASE
 10
0
 20
0
 30
0
  9
$EXTMIN
 10
0
 20
0
  9
$EXTMAX
 10
420
 20
297
  9
$LIMMIN
 10
0
 20
0
  9
$LIMMAX
 10
420
 20
297
  9
$LTSCALE
 40
1
  0
ENDSEC
  0
SECTION
  2
TABLES
  0
TABLE
  2
LTYPE
 70
     9
  0
LTYPE
  2
CONTINUOUS
 70
    64
  3
実線
 72
    65
 73
     0
 40
0.0
  0
LTYPE
  2
DASHED1
 70
    64
  3
--  --  --  --  --  --  --  --  
 72
    65
 73
     2
 40
2.5
 49
1.25
 49
-1.25
  0
LTYPE
  2
DASHED2
 70
    64
  3
----    ----    ----    ----    
 72
    65
 73
     2
 40
5.0
 49
2.5
 49
-2.5
  0
LTYPE
  2
DASHED3
 70
    64
  3
------  ------  ------  ------  
 72
    65
 73
     2
 40
5.0
 49
3.75
 49
-1.25
  0
LTYPE
  2
CENTER1
 70
    64
  3
----- - ----- - ----- - ----- - 
 72
    65
 73
     4
 40
10.0
 49
6.25
 49
-1.25
 49
1.25
 49
-1.25
  0
LTYPE
  2
CENTER2
 70
    64
  3
----------  --  ----------  --  
 72
    65
 73
     4
 40
20.0
 49
12.5
 49
-2.5
 49
2.5
 49
-2.5
  0
LTYPE
  2
PHANTOM1
 70
    64
  3
--- - - --- - - --- - - --- - - 
 72
    65
 73
     6
 40
10.0
 49
3.25
 49
-1.25
 49
1.25
 49
-1.25
 49
1.25
 49
-1.25
  0
LTYPE
  2
PHANTOM2
 70
    64
  3
--------  -  -  --------  -  -  
 72
    65
 73
     6
 40
20.0
 49
10.0
 49
-2.5
 49
1.25
 49
-2.5
 49
1.25
 49
-2.5
  0
LTYPE
  2
DOT
 70
    64
  3
-   -   -   -   -   -   -   -   
 72
    65
 73
     2
 40
2.5
 49
0.625
 49
-1.875
  0
LTYPE
  2
DUMMY
 70
    64
  3
ダミー
 72
    65
 73
     0
 40
0.0
  0
LTYPE
  2
RAND1
 70
    64
  3
ランダム線1
 72
    65
 73
     4
 40
10.0
 49
1.0
 49
-2.0
 49
3.0
 49
-4.0
  0
LTYPE
  2
RAND2
 70
    64
  3
ランダム線2
 72
    65
 73
     4
 40
14.0
 49
2.0
 49
-3.0
 49
4.0
 49
-5.0
  0
LTYPE
  2
RAND3
 70
    64
  3
ランダム線3
 72
    65
 73
     4
 40
18.0
 49
3.0
 49
-4.0
 49
5.0
 49
-6.0
  0
LTYPE
  2
RAND4
 70
    64
  3
ランダム線4
 72
    65
 73
     4
 40
22.0
 49
4.0
 49
-5.0
 49
6.0
 49
-7.0
  0
LTYPE
  2
RAND5
 70
    64
  3
ランダム線5
 72
    65
 73
     4
 40
26.0
 49
5.0
 49
-6.0
 49
7.0
 49
-8.0
  0
LTYPE
  2
LONG1
 70
    64
  3
----------  --  ----------  --  
 72
    65
 73
     4
 40
40.0
 49
32.5
 49
-2.5
 49
2.5
 49
-2.5
  0
LTYPE
  2
LONG2
 70
    64
  3
--------  -  -  --------  -  -  
 72
    65
 73
     6
 40
40.0
 49
30.0
 49
-2.5
 49
1.25
 49
-2.5
 49
1.25
 49
-2.5
  0
LTYPE
  2
LONG3
 70
    64
  3
+++++++++++++++..+++++++++++++++
 72
    65
 73
     2
 40
40.0
 49
37.5
 49
-2.5
  0
LTYPE
  2
LONG4
 70
    64
  3
+++++++++++++++..+++++++++++++++
 72
    65
 73
     2
 40
80.0
 49
75.0
 49
-5.0
  0
LTYPE
  2
LONG5
 70
    64
  3
----------  --  ----------  --  
 72
    65
 73
     4
 40
60.0
 49
37.5
 49
-7.5
 49
7.5
 49
-7.5
  0
LTYPE
  2
dashed
 70
   64
  3
-------   -------------   ------
 72
   65
 73
    2
 40
7.5
 49
6
 49
-1.5
  0
LTYPE
  2
dashed_spaced
 70
   64
  3
----        --------        ----
 72
   65
 73
    2
 40
12
 49
6
 49
-6
  0
LTYPE
  2
long_dashed_dotted
 70
   64
  3
------------- --- --------------
 72
   65
 73
    4
 40
15.25
 49
12
 49
-1.5
 49
0.25
 49
-1.5
  0
LTYPE
  2
long_dashed_double-dotted
 70
   64
  3
----------- --- --- ------------
 72
   65
 73
    6
 40
17
 49
12
 49
-1.5
 49
0.25
 49
-1.5
 49
0.25
 49
-1.5
  0
LTYPE
  2
long_dashed_triplicate-dotted
 70
   64
  3
--------- --- --- --- ----------
 72
   65
 73
    8
 40
18.75
 49
12
 49
-1.5
 49
0.25
 49
-1.5
 49
0.25
 49
-1.5
 49
0.25
 49
-1.5
  0
LTYPE
  2
dotted
 70
   64
  3
   -       -       -       -    
 72
   65
 73
    2
 40
1.75
 49
0.25
 49
-1.5
  0
LTYPE
  2
chain
 70
   64
  3
-------------- -- --------------
 72
   65
 73
    4
 40
18.5
 49
12
 49
-1.5
 49
3.5
 49
-1.5
  0
LTYPE
  2
chain_double_dash
 70
   64
  3
------------ -- -- -------------
 72
   65
 73
    6
 40
23.5
 49
12
 49
-1.5
 49
3.5
 49
-1.5
 49
3.5
 49
-1.5
  0
LTYPE
  2
dashed_dotted
 70
   64
  3
-----------     -     ----------
 72
   65
 73
    4
 40
9.25
 49
6
 49
-1.5
 49
0.25
 49
-1.5
  0
LTYPE
  2
double-dashed_dotted
 70
   64
  3
------   -----------   -   -----
 72
   65
 73
    6
 40
16.75
 49
6
 49
-1.5
 49
6
 49
-1.5
 49
0.25
 49
-1.5
  0
LTYPE
  2
dashed_double-dotted
 70
   64
  3
---------    -    -    ---------
 72
   65
 73
    6
 40
11
 49
6
 49
-1.5
 49
0.25
 49
-1.5
 49
0.25
 49
-1.5
  0
LTYPE
  2
double-dashed_double-dotted
 70
   64
  3
-----   ---------   -   -   ----
 72
   65
 73
    8
 40
18.5
 49
6
 49
-1.5
 49
6
 49
-1.5
 49
0.25
 49
-1.5
 49
0.25
 49
-1.5
  0
LTYPE
  2
dashed_triplicate-dotted
 70
   64
  3
-------    -    -    -    ------
 72
   65
 73
    8
 40
12.75
 49
6
 49
-1.5
 49
0.25
 49
-1.5
 49
0.25
 49
-1.5
 49
0.25
 49
-1.5
  0
LTYPE
  2
double-dashed_triplicate-dotted
 70
   64
  3
-----  ---------  -  -  -  -----
 72
   65
 73
   10
 40
20.25
 49
6
 49
-1.5
 49
6
 49
-1.5
 49
0.25
 49
-1.5
 49
0.25
 49
-1.5
 49
0.25
 49
-1.5
  0
LTYPE
  2
undefined
 70
   64
  3
--------------------------------
 72
   65
 73
    0
 40
0
  0
LTYPE
  2
_
 70
   64
  3
                                
 72
   65
 73
    0
 40
0
  0
LTYPE
  2
__18
 70
   64
  3
                                
 72
   65
 73
    0
 40
0
  0
LTYPE
  2
__19
 70
   64
  3
                                
 72
   65
 73
    0
 40
0
  0
LTYPE
  2
__20
 70
   64
  3
                                
 72
   65
 73
    0
 40
0
  0
LTYPE
  2
__21
 70
   64
  3
                                
 72
   65
 73
    0
 40
0
  0
LTYPE
  2
__22
 70
   64
  3
                                
 72
   65
 73
    0
 40
0
  0
LTYPE
  2
__23
 70
   64
  3
                                
 72
   65
 73
    0
 40
0
  0
LTYPE
  2
__24
 70
   64
  3
                                
 72
   65
 73
    0
 40
0
  0
LTYPE
  2
__25
 70
   64
  3
                                
 72
   65
 73
    0
 40
0
  0
LTYPE
  2
__26
 70
   64
  3
                                
 72
   65
 73
    0
 40
0
  0
LTYPE
  2
__27
 70
   64
  3
                                
 72
   65
 73
    0
 40
0
  0
LTYPE
  2
__28
 70
   64
  3
                                
 72
   65
 73
    0
 40
0
  0
LTYPE
  2
__29
 70
   64
  3
                                
 72
   65
 73
    0
 40
0
  0
LTYPE
  2
__30
 70
   64
  3
                                
 72
   65
 73
    0
 40
0
  0
LTYPE
  2
__31
 70
   64
  3
                                
 72
   65
 73
    0
 40
0
  0
LTYPE
  2
__32
 70
   64
  3
                                
 72
   65
 73
    0
 40
0
  0
ENDTAB
  0
TABLE
  2
STYLE
  5
3
100
AcDbSymbolTable
 70
     1
  0
STYLE
  5
10
100
AcDbSymbolTableRecord
100
AcDbTextStyleTableRecord
  2
STANDARD
 70
     0
 40
0.0
 41
1.0
 50
0.0
 71
     0
 42
0.2
  3
txt
  4
bigfont.shx
  0
STYLE
  5
26
100
AcDbSymbolTableRecord
100
AcDbTextStyleTableRecord
  2
TATEGAKI
 70
    68
 40
0.0
 41
1.0
 50
0.0
 71
     0
 42
1.0
  3
txt
  4
bigfont.shx
  0
ENDTAB
  0
TABLE
  2
LAYER
 70
    3
  0
LAYER
  2
_0-0_0
 70
   64
 62
    7
  6
CONTINUOUS
  0
LAYER
  2
_f-a_250
 70
   64
 62
    7
  6
CONTINUOUS
  0
LAYER
  2
ADD_LINE
 70
   64
 62
    7
  6
CONTINUOUS
  0
ENDTAB
  0
ENDSEC
  0
SECTION
  2
BLOCKS
  0
ENDSEC
  0
SECTION
  2
ENTITIES
  0
LINE
  8
_0-0_0
  6
CONTINUOUS
 62
    7
 10
95.367692199258229
 20
89.983861631477581
 11
92.653529134301223
 21
93.015544599617584
  0
LINE
  8
_0-0_0
  6
CONTINUOUS
 62
    7
 10
92.653529134301223
 20
93.015544599617584
 11
95.367692199258229
 21
89.983861631477581
  0
LINE
  8
_f-a_250
  6
CONTINUOUS
 62
  250
 10
95.367692199258229
 20
89.983861631477581
 11
92.653529134301223
 21
93.015544599617584
  0
LINE
  8
_f-a_250
  6
CONTINUOUS
 62
  250
 10
94.475696769265213
 20
95.888869947517634
 11
93.806527343301198
 21
96.632211393440599
  0
LINE
  8
_f-a_250
  6
CONTINUOUS
 62
  250
 10
93.806527343301198
 20
96.632211393440599
 11
94.475696769265213
 21
95.888869947517634
  0
LINE
  8
_f-a_250
  6
CONTINUOUS
 62
  250
 10
94.475696769265213
 20
95.888869947517634
 11
93.806527343301198
 21
96.632211393440599
  0
LINE
  8
_f-a_250
  6
CONTINUOUS
 62
  250
 10
96.458862510232237
 20
93.573849386299571
 11
95.818196025399246
 21
94.287197774971588
  0
LINE
  8
_f-a_250
  6
CONTINUOUS
 62
  250
 10
95.818196025399246
 20
94.287197774971588
 11
96.458862510232237
 21
93.573849386299571
  0
LINE
  8
_f-a_250
  6
CONTINUOUS
 62
  250
 10
96.458862510232237
 20
93.573849386299571
 11
95.818196025399246
 21
94.287197774971588
  0
LINE
  8
_f-a_250
  6
CONTINUOUS
 62
  250
 10
97.284362998513259
 20
90.987198537910615
 11
96.926198688058221
 21
91.392224020088605
  0
LINE
  8
_f-a_250
  6
CONTINUOUS
 62
  250
 10
96.926198688058221
 20
91.392224020088605
 11
97.284362998513259
 21
90.987198537910615
  0
LINE
  8
_f-a_250
  6
CONTINUOUS
 62
  250
 10
97.284362998513259
 20
90.987198537910615
 11
96.926198688058221
 21
91.392224020088605
  0
LINE
  8
_f-a_250
  6
CONTINUOUS
 62
  250
 10
94.298694816140213
 20
95.482199377144099
 11
93.953029599694716
 21
95.870535558784638
  0
LINE
  8
_f-a_250
  6
CONTINUOUS
 62
  250
 10
93.953029599694716
 20
95.870535558784638
 11
94.298694816140213
 21
95.482199377144099
  0
LINE
  8
_f-a_250
  6
CONTINUOUS
 62
  250
 10
94.298694816140213
 20
95.482199377144099
 11
93.953029599694716
 21
95.870535558784638
  0
LINE
  8
_f-a_250
  6
CONTINUOUS
 62
  250
 10
96.044192996529759
 20
93.538873380745116
 11
95.706192937402236
 21
93.918864912117584
  0
LINE
  8
_f-a_250
  6
CONTINUOUS
 62
  250
 10
95.706192937402236
 20
93.918864912117584
 11
96.044192996529759
 21
93.538873380745116
  0
LINE
  8
_f-a_250
  6
CONTINUOUS
 62
  250
 10
96.044192996529759
 20
93.538873380745116
 11
95.706192937402236
 21
93.918864912117584
  0
LINE
  8
_f-a_250
  6
CONTINUOUS
 62
  250
 10
93.897025075463759
 20
95.785539335335102
 11
93.611864533929193
 21
96.103875822151593
  0
LINE
  8
_f-a_250
  6
CONTINUOUS
 62
  250
 10
93.611864533929193
 20
96.103875822151593
 11
93.897025075463759
 21
95.785539335335102
  0
LINE
  8
_f-a_250
  6
CONTINUOUS
 62
  250
 10
93.897025075463759
 20
95.785539335335102
 11
93.611864533929193
 21
96.103875822151593
  0
LINE
  8
_f-a_250
  6
CONTINUOUS
 62
  250
 10
94.503699031380691
 20
93.618862814034088
 11
94.214693990258255
 21
93.935530370796613
  0
LINE
  8
_f-a_250
  6
CONTINUOUS
 62
  250
 10
94.214693990258255
 20
93.935530370796613
 11
94.503699031380691
 21
93.618862814034088
  0
LINE
  8
_f-a_250
  6
CONTINUOUS
 62
  250
 10
94.503699031380691
 20
93.618862814034088
 11
94.214693990258255
 21
93.935530370796613
  0
LINE
  8
_f-a_250
  6
CONTINUOUS
 62
  250
 10
96.301863875893687
 20
93.053882307137116
 11
96.009532895592727
 21
93.385546392525129
  0
LINE
  8
_f-a_250
  6
CONTINUOUS
 62
  250
 10
96.009532895592727
 20
93.385546392525129
 11
96.301863875893687
 21
93.053882307137116
  0
LINE
  8
_f-a_250
  6
CONTINUOUS
 62
  250
 10
96.301863875893687
 20
93.053882307137116
 11
96.009532895592727
 21
93.385546392525129
  0
LINE
  8
_f-a_250
  6
CONTINUOUS
 62
  250
 10
93.130032506493748
 20
93.263881391609601
 11
92.876194205788707
 21
93.545525259102106
  0
LINE
  8
_f-a_250
  6
CONTINUOUS
 62
  250
 10
92.876194205788707
 20
93.545525259102106
 11
93.130032506493748
 21
93.263881391609601
  0
LINE
  8
_f-a_250
  6
CONTINUOUS
 62
  250
 10
93.130032506493748
 20
93.263881391609601
 11
92.876194205788707
 21
93.545525259102106
  0
LINE
  8
_f-a_250
  6
CONTINUOUS
 62
  250
 10
95.193861213235223
 20
90.78220624359912
 11
93.092362370995701
 21
93.128864950264131
  0
LINE
  8
_f-a_250
  6
CONTINUOUS
 62
  250
 10
93.092362370995701
 20
93.128864950264131
 11
95.193861213235223
 21
90.78220624359912
  0
LINE
  8
_f-a_250
  6
CONTINUOUS
 62
  250
 10
95.193861213235223
 20
90.78220624359912
 11
93.092362370995701
 21
93.128864950264131
  0
LINE
  8
_f-a_250
  6
CONTINUOUS
 62
  250
 10
95.542196717767226
 20
90.64220685395108
 11
95.249859777001703
 21
90.967195219124136
  0
LINE
  8
_f-a_250
  6
CONTINUOUS
 62
  250
 10
95.249859777001703
 20
90.967195219124136
 11
95.542196717767226
 21
90.64220685395108
  0
LINE
  8
_f-a_250
  6
CONTINUOUS
 62
  250
 10
95.542196717767226
 20
90.64220685395108
 11
95.249859777001703
 21
90.967195219124136
  0
LINE
  8
_f-a_250
  6
CONTINUOUS
 62
  250
 10
101.06619426300925
 20
94.625561422432099
 11
100.02069899132671
 21
95.792215055550145
  0
LINE
  8
_f-a_250
  6
CONTINUOUS
 62
  250
 10
100.02069899132671
 20
95.792215055550145
 11
101.06619426300925
 21
94.625561422432099
  0
LINE
  8
_f-a_250
  6
CONTINUOUS
 62
  250
 10
101.06619426300925
 20
94.625561422432099
 11
100.02069899132671
 21
95.792215055550145
  0
LINE
  8
_f-a_250
  6
CONTINUOUS
 62
  250
 10
100.09419747879919
 20
95.255534833992584
 11
99.71786567261627
 21
95.723860448921613
  0
LINE
  8
_f-a_250
  6
CONTINUOUS
 62
  250
 10
99.71786567261627
 20
95.723860448921613
 11
100.09419747879919
 21
95.255534833992584
  0
LINE
  8
_f-a_250
  6
CONTINUOUS
 62
  250
 10
100.09419747879919
 20
95.255534833992584
 11
99.71786567261627
 21
95.723860448921613
  0
LINE
  8
_f-a_250
  6
CONTINUOUS
 62
  250
 10
99.787531581429747
 20
95.207207388008641
 11
99.421034541634739
 21
95.652191824043598
  0
LINE
  8
_f-a_250
  6
CONTINUOUS
 62
  250
 10
99.421034541634739
 20
95.652191824043598
 11
99.787531581429747
 21
95.207207388008641
  0
LINE
  8
_f-a_250
  6
CONTINUOUS
 62
  250
 10
99.787531581429747
 20
95.207207388008641
 11
99.421034541634739
 21
95.652191824043598
  0
LINE
  8
_f-a_250
  6
CONTINUOUS
 62
  250
 10
95.542196717767226
 20
90.600531286324099
 11
95.35403081467571
 21
89.995544141853628
  0
LINE
  8
_f-a_250
  6
CONTINUOUS
 62
  250
 10
95.35403081467571
 20
89.995544141853628
 11
95.542196717767226
 21
90.600531286324099
  0
LINE
  8
_f-a_250
  6
CONTINUOUS
 62
  250
 10
95.542196717767226
 20
90.600531286324099
 11
95.35403081467571
 21
89.995544141853628
  0
LINE
  8
_f-a_250
  6
CONTINUOUS
 62
  250
 10
96.466032948998773
 20
93.580525106514131
 11
96.301863875893687
 21
93.053882307137116
  0
LINE
  8
_f-a_250
  6
CONTINUOUS
 62
  250
 10
96.301863875893687
 20
93.053882307137116
 11
96.466032948998773
 21
93.580525106514131
  0
LINE
  8
_f-a_250
  6
CONTINUOUS
 62
  250
 10
96.466032948998773
 20
93.580525106514131
 11
96.301863875893687
 21
93.053882307137116
  0
LINE
  8
_f-a_250
  6
CONTINUOUS
 62
  250
 10
94.462029424218215
 20
95.855562872017089
 11
94.340364423302688
 21
95.452206319893122
  0
LINE
  8
_f-a_250
  6
CONTINUOUS
 62
  250
 10
94.340364423302688
 20
95.452206319893122
 11
94.462029424218215
 21
95.855562872017089
  0
LINE
  8
_f-a_250
  6
CONTINUOUS
 62
  250
 10
94.462029424218215
 20
95.855562872017089
 11
94.340364423302688
 21
95.452206319893122
  0
LINE
  8
_f-a_250
  6
CONTINUOUS
 62
  250
 10
95.814363446740188
 20
94.295542425240114
 11
95.706192937402236
 21
93.935530370796613
  0
LINE
  8
_f-a_250
  6
CONTINUOUS
 62
  250
 10
95.706192937402236
 20
93.935530370796613
 11
95.814363446740188
 21
94.295542425240114
  0
LINE
  8
_f-a_250
  6
CONTINUOUS
 62
  250
 10
95.814363446740188
 20
94.295542425240114
 11
95.706192937402236
 21
93.935530370796613
  0
LINE
  8
_f-a_250
  6
CONTINUOUS
 62
  250
 10
95.249859777001703
 20
90.967195219124136
 11
95.210860457925222
 21
90.848868078316102
  0
LINE
  8
_f-a_250
  6
CONTINUOUS
 62
  250
 10
95.210860457925222
 20
90.848868078316102
 11
95.249859777001703
 21
90.967195219124136
  0
LINE
  8
_f-a_250
  6
CONTINUOUS
 62
  250
 10
95.249859777001703
 20
90.967195219124136
 11
95.210860457925222
 21
90.848868078316102
  0
LINE
  8
_f-a_250
  6
CONTINUOUS
 62
  250
 10
96.044192996529759
 20
93.538873380745116
 11
95.995358911065196
 21
93.392222112740114
  0
LINE
  8
_f-a_250
  6
CONTINUOUS
 62
  250
 10
95.995358911065196
 20
93.392222112740114
 11
96.044192996529759
 21
93.538873380745116
  0
LINE
  8
_f-a_250
  6
CONTINUOUS
 62
  250
 10
96.044192996529759
 20
93.538873380745116
 11
95.995358911065196
 21
93.392222112740114
  0
LINE
  8
_f-a_250
  6
CONTINUOUS
 62
  250
 10
98.012862887887266
 20
93.410556501472627
 11
97.260866847543227
 21
90.987198537910615
  0
LINE
  8
_f-a_250
  6
CONTINUOUS
 62
  250
 10
97.260866847543227
 20
90.987198537910615
 11
98.012862887887266
 21
93.410556501472627
  0
LINE
  8
_f-a_250
  6
CONTINUOUS
 62
  250
 10
98.012862887887266
 20
93.410556501472627
 11
97.260866847543227
 21
90.987198537910615
  0
LINE
  8
_f-a_250
  6
CONTINUOUS
 62
  250
 10
97.542862382439708
 20
93.315522855843113
 11
96.950362411050222
 21
91.383855527962098
  0
LINE
  8
_f-a_250
  6
CONTINUOUS
 62
  250
 10
96.950362411050222
 20
91.383855527962098
 11
97.542862382439708
 21
93.315522855843113
  0
LINE
  8
_f-a_250
  6
CONTINUOUS
 62
  250
 10
97.542862382439708
 20
93.315522855843113
 11
96.950362411050222
 21
91.383855527962098
  0
LINE
  8
_f-a_250
  6
CONTINUOUS
 62
  250
 10
95.100031581429747
 20
95.603864378059626
 11
94.482867208031692
 21
93.605535215462083
  0
LINE
  8
_f-a_250
  6
CONTINUOUS
 62
  250
 10
94.482867208031692
 20
93.605535215462083
 11
95.100031581429747
 21
95.603864378059626
  0
LINE
  8
_f-a_250
  6
CONTINUOUS
 62
  250
 10
95.100031581429747
 20
95.603864378059626
 11
94.482867208031692
 21
93.605535215462083
  0
LINE
  8
_f-a_250
  6
CONTINUOUS
 62
  250
 10
94.678197589425181
 20
95.508854574287597
 11
94.197033134011733
 21
93.932216352547101
  0
LINE
  8
_f-a_250
  6
CONTINUOUS
 62
  250
 10
94.197033134011733
 20
93.932216352547101
 11
94.678197589425181
 21
95.508854574287597
  0
LINE
  8
_f-a_250
  6
CONTINUOUS
 62
  250
 10
94.678197589425181
 20
95.508854574287597
 11
94.197033134011733
 21
93.932216352547101
  0
LINE
  8
_f-a_250
  6
CONTINUOUS
 62
  250
 10
92.852030482796707
 20
93.632214254463605
 11
92.663197007684218
 21
93.027203268135622
  0
LINE
  8
_f-a_250
  6
CONTINUOUS
 62
  250
 10
92.663197007684218
 20
93.027203268135622
 11
92.852030482796707
 21
93.632214254463605
  0
LINE
  8
_f-a_250
  6
CONTINUOUS
 62
  250
 10
92.852030482796707
 20
93.632214254463605
 11
92.663197007684218
 21
93.027203268135622
  0
LINE
  8
_f-a_250
  6
CONTINUOUS
 62
  250
 10
93.772695746926772
 20
96.608846372688618
 11
93.615029540566766
 21
96.103875822151593
  0
LINE
  8
_f-a_250
  6
CONTINUOUS
 62
  250
 10
93.615029540566766
 20
96.103875822151593
 11
93.772695746926772
 21
96.608846372688618
  0
LINE
  8
_f-a_250
  6
CONTINUOUS
 62
  250
 10
93.772695746926772
 20
96.608846372688618
 11
93.615029540566766
 21
96.103875822151593
  0
LINE
  8
_f-a_250
  6
CONTINUOUS
 62
  250
 10
93.120358672646702
 20
93.263881391609601
 11
93.078695025948704
 21
93.117206281746093
  0
LINE
  8
_f-a_250
  6
CONTINUOUS
 62
  250
 10
93.078695025948704
 20
93.117206281746093
 11
93.120358672646702
 21
93.263881391609601
  0
LINE
  8
_f-a_250
  6
CONTINUOUS
 62
  250
 10
93.120358672646702
 20
93.263881391609601
 11
93.078695025948704
 21
93.117206281746093
  0
LINE
  8
_f-a_250
  6
CONTINUOUS
 62
  250
 10
93.91853043129872
 20
95.842211431587629
 11
93.900196042565724
 21
95.792215055550145
  0
LINE
  8
_f-a_250
  6
CONTINUOUS
 62
  250
 10
93.900196042565724
 20
95.792215055550145
 11
93.91853043129872
 21
95.842211431587629
  0
LINE
  8
_f-a_250
  6
CONTINUOUS
 62
  250
 10
93.91853043129872
 20
95.842211431587629
 11
93.900196042565724
 21
95.792215055550145
  0
LINE
  8
_f-a_250
  6
CONTINUOUS
 62
  250
 10
101.06953212311676
 20
94.612209982002611
 11
99.961362567452753
 21
91.015522665108094
  0
LINE
  8
_f-a_250
  6
CONTINUOUS
 62
  250
 10
99.961362567452753
 20
91.015522665108094
 11
101.06953212311676
 21
94.612209982002611
  0
LINE
  8
_f-a_250
  6
CONTINUOUS
 62
  250
 10
101.06953212311676
 20
94.612209982002611
 11
99.961362567452753
 21
91.015522665108094
  0
LINE
  8
_f-a_250
  6
CONTINUOUS
 62
  250
 10
96.48036190560272
 20
93.577211088264619
 11
101.01353355935019
 21
94.590537733162108
  0
LINE
  8
_f-a_250
  6
CONTINUOUS
 62
  250
 10
101.01353355935019
 20
94.590537733162108
 11
96.48036190560272
 21
93.577211088264619
  0
LINE
  8
_f-a_250
  6
CONTINUOUS
 62
  250
 10
96.48036190560272
 20
93.577211088264619
 11
101.01353355935019
 21
94.590537733162108
  0
LINE
  8
_f-a_250
  6
CONTINUOUS
 62
  250
 10
96.322695699242686
 20
93.053882307137116
 11
98.003028121499241
 21
93.433873838509129
  0
LINE
  8
_f-a_250
  6
CONTINUOUS
 62
  250
 10
98.003028121499241
 20
93.433873838509129
 11
96.322695699242686
 21
93.053882307137116
  0
LINE
  8
_f-a_250
  6
CONTINUOUS
 62
  250
 10
96.322695699242686
 20
93.053882307137116
 11
98.003028121499241
 21
93.433873838509129
  0
LINE
  8
_f-a_250
  6
CONTINUOUS
 62
  250
 10
95.260201182870233
 20
90.987198537910615
 11
96.946529832391249
 21
91.370527929390107
  0
LINE
  8
_f-a_250
  6
CONTINUOUS
 62
  250
 10
96.946529832391249
 20
91.370527929390107
 11
95.260201182870233
 21
90.987198537910615
  0
LINE
  8
_f-a_250
  6
CONTINUOUS
 62
  250
 10
95.260201182870233
 20
90.987198537910615
 11
96.946529832391249
 21
91.370527929390107
  0
LINE
  8
_f-a_250
  6
CONTINUOUS
 62
  250
 10
92.869029727486705
 20
93.635528272713117
 11
94.179527249840717
 21
93.932216352547101
  0
LINE
  8
_f-a_250
  6
CONTINUOUS
 62
  250
 10
94.179527249840717
 20
93.932216352547101
 11
92.869029727486705
 21
93.635528272713117
  0
LINE
  8
_f-a_250
  6
CONTINUOUS
 62
  250
 10
92.869029727486705
 20
93.635528272713117
 11
94.179527249840717
 21
93.932216352547101
  0
LINE
  8
_f-a_250
  6
CONTINUOUS
 62
  250
 10
95.555858102349745
 20
90.597217268074616
 11
97.22902604630373
 21
90.973870939339093
  0
LINE
  8
_f-a_250
  6
CONTINUOUS
 62
  250
 10
97.22902604630373
 20
90.973870939339093
 11
95.555858102349745
 21
90.597217268074616
  0
LINE
  8
_f-a_250
  6
CONTINUOUS
 62
  250
 10
95.555858102349745
 20
90.597217268074616
 11
97.22902604630373
 21
90.973870939339093
  0
LINE
  8
_f-a_250
  6
CONTINUOUS
 62
  250
 10
93.796030965356195
 20
96.652190870369111
 11
98.331193414239252
 21
97.672193235481615
  0
LINE
  8
_f-a_250
  6
CONTINUOUS
 62
  250
 10
98.331193414239252
 20
97.672193235481615
 11
93.796030965356195
 21
96.652190870369111
  0
LINE
  8
_f-a_250
  6
CONTINUOUS
 62
  250
 10
93.796030965356195
 20
96.652190870369111
 11
98.331193414239252
 21
97.672193235481615
  0
LINE
  8
_f-a_250
  6
CONTINUOUS
 62
  250
 10
94.545362678078689
 20
95.895545667732591
 11
97.051863160638234
 21
96.458881086433593
  0
LINE
  8
_f-a_250
  6
CONTINUOUS
 62
  250
 10
97.051863160638234
 20
96.458881086433593
 11
94.545362678078689
 21
95.895545667732591
  0
LINE
  8
_f-a_250
  6
CONTINUOUS
 62
  250
 10
94.545362678078689
 20
95.895545667732591
 11
97.051863160638234
 21
96.458881086433593
  0
LINE
  8
_f-a_250
  6
CONTINUOUS
 62
  250
 10
94.402859893349685
 20
95.443861669624624
 11
97.312365260628738
 21
96.11887235077711
  0
LINE
  8
_f-a_250
  6
CONTINUOUS
 62
  250
 10
97.312365260628738
 20
96.11887235077711
 11
94.402859893349685
 21
95.443861669624624
  0
LINE
  8
_f-a_250
  6
CONTINUOUS
 62
  250
 10
94.402859893349685
 20
95.443861669624624
 11
97.312365260628738
 21
96.11887235077711
  0
LINE
  8
_f-a_250
  6
CONTINUOUS
 62
  250
 10
94.866363492516697
 20
95.037191099251118
 11
97.706858602074718
 21
95.692198461617096
  0
LINE
  8
_f-a_250
  6
CONTINUOUS
 62
  250
 10
97.706858602074718
 20
95.692198461617096
 11
94.866363492516697
 21
95.037191099251118
  0
LINE
  8
_f-a_250
  6
CONTINUOUS
 62
  250
 10
94.866363492516697
 20
95.037191099251118
 11
97.706858602074718
 21
95.692198461617096
  0
LINE
  8
_f-a_250
  6
CONTINUOUS
 62
  250
 10
94.977693048028257
 20
94.568865484322117
 11
99.45236274292877
 21
95.602219289864138
  0
LINE
  8
_f-a_250
  6
CONTINUOUS
 62
  250
 10
99.45236274292877
 20
95.602219289864138
 11
94.977693048028257
 21
94.568865484322117
  0
LINE
  8
_f-a_250
  6
CONTINUOUS
 62
  250
 10
94.977693048028257
 20
94.568865484322117
 11
99.45236274292877
 21
95.602219289864138
  0
LINE
  8
_f-a_250
  6
CONTINUOUS
 62
  250
 10
93.925694909600722
 20
95.775525755013092
 11
94.016699281243703
 21
95.79719800385314
  0
LINE
  8
_f-a_250
  6
CONTINUOUS
 62
  250
 10
94.016699281243703
 20
95.79719800385314
 11
93.925694909600722
 21
95.775525755013092
  0
LINE
  8
_f-a_250
  6
CONTINUOUS
 62
  250
 10
93.925694909600722
 20
95.775525755013092
 11
94.016699281243703
 21
95.79719800385314
  0
LINE
  8
_f-a_250
  6
CONTINUOUS
 62
  250
 10
93.155364480523204
 20
93.28719872864562
 11
95.709530797509231
 21
93.890540784920091
  0
LINE
  8
_f-a_250
  6
CONTINUOUS
 62
  250
 10
95.709530797509231
 20
93.890540784920091
 11
93.155364480523204
 21
93.28719872864562
  0
LINE
  8
_f-a_250
  6
CONTINUOUS
 62
  250
 10
93.155364480523204
 20
93.28719872864562
 11
95.709530797509231
 21
93.890540784920091
  0
LINE
  8
_f-a_250
  6
CONTINUOUS
 62
  250
 10
93.103365388421238
 20
93.103878683174571
 11
95.751194444207229
 21
93.742220586861094
  0
LINE
  8
_f-a_250
  6
CONTINUOUS
 62
  250
 10
95.751194444207229
 20
93.742220586861094
 11
93.103365388421238
 21
93.103878683174571
  0
LINE
  8
_f-a_250
  6
CONTINUOUS
 62
  250
 10
93.103365388421238
 20
93.103878683174571
 11
95.751194444207229
 21
93.742220586861094
  0
LINE
  8
_f-a_250
  6
CONTINUOUS
 62
  250
 10
95.834527698067703
 20
94.3055321637041
 11
100.08319446137371
 21
95.255534833992584
  0
LINE
  8
_f-a_250
  6
CONTINUOUS
 62
  250
 10
100.08319446137371
 20
95.255534833992584
 11
95.834527698067703
 21
94.3055321637041
  0
LINE
  8
_f-a_250
  6
CONTINUOUS
 62
  250
 10
95.834527698067703
 20
94.3055321637041
 11
100.08319446137371
 21
95.255534833992584
  0
LINE
  8
_f-a_250
  6
CONTINUOUS
 62
  250
 10
95.367692199258229
 20
89.968865102852092
 11
99.934027877358758
 21
90.993874258125629
  0
LINE
  8
_f-a_250
  6
CONTINUOUS
 62
  250
 10
99.934027877358758
 20
90.993874258125629
 11
95.367692199258229
 21
89.968865102852092
  0
LINE
  8
_f-a_250
  6
CONTINUOUS
 62
  250
 10
95.367692199258229
 20
89.968865102852092
 11
99.934027877358758
 21
90.993874258125629
  0
LINE
  8
_f-a_250
  6
CONTINUOUS
 62
  250
 10
107.64235683968475
 20
96.85553807648509
 11
105.98286816170624
 21
98.703854269112071
  0
LINE
  8
_f-a_250
  6
CONTINUOUS
 62
  250
 10
105.98286816170624
 20
98.703854269112071
 11
107.64235683968475
 21
96.85553807648509
  0
LINE
  8
_f-a_250
  6
CONTINUOUS
 62
  250
 10
107.64235683968475
 20
96.85553807648509
 11
105.98286816170624
 21
98.703854269112071
  0
LINE
  8
_f-a_250
  6
CONTINUOUS
 62
  250
 10
106.26218744805273
 20
93.468873685921125
 11
105.96669742157873
 21
93.797199911201631
  0
LINE
  8
_f-a_250
  6
CONTINUOUS
 62
  250
 10
105.96669742157873
 20
93.797199911201631
 11
106.26218744805273
 21
93.468873685921125
  0
LINE
  8
_f-a_250
  6
CONTINUOUS
 62
  250
 10
106.26218744805273
 20
93.468873685921125
 11
105.96669742157873
 21
93.797199911201631
  0
LINE
  8
_f-a_250
  6
CONTINUOUS
 62
  250
 10
107.64235683968475
 20
96.838848775948122
 11
106.6215200095457
 21
93.542211240852595
  0
LINE
  8
_f-a_250
  6
CONTINUOUS
 62
  250
 10
106.6215200095457
 20
93.542211240852595
 11
107.64235683968475
 21
96.838848775948122
  0
LINE
  8
_f-a_250
  6
CONTINUOUS
 62
  250
 10
107.64235683968475
 20
96.838848775948122
 11
106.6215200095457
 21
93.542211240852595
  0
LINE
  8
_f-a_250
  6
CONTINUOUS
 62
  250
 10
106.43336006691869
 20
93.912213033760622
 11
106.29019567063274
 21
93.45554608734912
  0
LINE
  8
_f-a_250
  6
CONTINUOUS
 62
  250
 10
106.29019567063274
 20
93.45554608734912
 11
106.43336006691869
 21
93.912213033760622
  0
LINE
  8
_f-a_250
  6
CONTINUOUS
 62
  250
 10
106.43336006691869
 20
93.912213033760622
 11
106.29019567063274
 21
93.45554608734912
  0
LINE
  8
_f-a_250
  6
CONTINUOUS
 62
  250
 10
104.51218315651825
 20
98.382203764046125
 11
105.98686167290624
 21
98.717205709541616
  0
LINE
  8
_f-a_250
  6
CONTINUOUS
 62
  250
 10
105.98686167290624
 20
98.717205709541616
 11
104.51218315651825
 21
98.382203764046125
  0
LINE
  8
_f-a_250
  6
CONTINUOUS
 62
  250
 10
104.51218315651825
 20
98.382203764046125
 11
105.98686167290624
 21
98.717205709541616
  0
LINE
  8
_f-a_250
  6
CONTINUOUS
 62
  250
 10
100.58185884049324
 20
95.207207388008641
 11
107.63853022149023
 21
96.810548490608625
  0
LINE
  8
_f-a_250
  6
CONTINUOUS
 62
  250
 10
107.63853022149023
 20
96.810548490608625
 11
100.58185884049324
 21
95.207207388008641
  0
LINE
  8
_f-a_250
  6
CONTINUOUS
 62
  250
 10
100.20169445565175
 20
95.603864378059626
 11
101.88852974465273
 21
95.987217611397114
  0
LINE
  8
_f-a_250
  6
CONTINUOUS
 62
  250
 10
101.88852974465273
 20
95.987217611397114
 11
100.20169445565175
 21
95.603864378059626
  0
LINE
  8
_f-a_250
  6
CONTINUOUS
 62
  250
 10
100.20169445565175
 20
95.603864378059626
 11
101.88852974465273
 21
95.987217611397114
  0
LINE
  8
_f-a_250
  6
CONTINUOUS
 62
  250
 10
100.4803640513697
 20
92.548864072884115
 11
106.43336006691869
 21
93.90553731354558
  0
LINE
  8
_f-a_250
  6
CONTINUOUS
 62
  250
 10
106.43336006691869
 20
93.90553731354558
 11
100.4803640513697
 21
92.548864072884115
  0
LINE
  8
_f-a_250
  6
CONTINUOUS
 62
  250
 10
100.4803640513697
 20
92.548864072884115
 11
106.43336006691869
 21
93.90553731354558
  0
LINE
  8
_f-a_250
  6
CONTINUOUS
 62
  250
 10
106.29736014893469
 20
93.440525716866119
 11
106.61436149170827
 21
93.51553220185113
  0
LINE
  8
_f-a_250
  6
CONTINUOUS
 62
  250
 10
106.61436149170827
 20
93.51553220185113
 11
106.29736014893469
 21
93.440525716866119
  0
LINE
  8
_f-a_250
  6
CONTINUOUS
 62
  250
 10
106.29736014893469
 20
93.440525716866119
 11
106.61436149170827
 21
93.51553220185113
  0
LINE
  8
_f-a_250
  6
CONTINUOUS
 62
  250
 10
95.100031581429747
 20
94.73387498291811
 11
95.084015813378713
 21
94.695084280098115
  0
LINE
  8
_f-a_250
  6
CONTINUOUS
 62
  250
 10
95.084015813378713
 20
94.695084280098115
 11
95.063988652734267
 21
94.659917539680634
  0
LINE
  8
_f-a_250
  6
CONTINUOUS
 62
  250
 10
95.063988652734267
 20
94.659917539680634
 11
95.040432897118748
 21
94.628756231392089
  0
LINE
  8
_f-a_250
  6
CONTINUOUS
 62
  250
 10
95.040432897118748
 20
94.628756231392089
 11
95.013819423226735
 21
94.601910299385622
  0
LINE
  8
_f-a_250
  6
CONTINUOUS
 62
  250
 10
95.013819423226735
 20
94.601910299385622
 11
94.984631028680226
 21
94.579713529671125
  0
LINE
  8
_f-a_250
  6
CONTINUOUS
 62
  250
 10
94.984631028680226
 20
94.579713529671125
 11
94.953356471566238
 21
94.562523550118129
  0
LINE
  8
_f-a_250
  6
CONTINUOUS
 62
  250
 10
94.953356471566238
 20
94.562523550118129
 11
94.9204606681147
 21
94.550650304878587
  0
LINE
  8
_f-a_250
  6
CONTINUOUS
 62
  250
 10
94.9204606681147
 20
94.550650304878587
 11
94.886420455483758
 21
94.544499105537597
  0
LINE
  8
_f-a_250
  6
CONTINUOUS
 62
  250
 10
94.886420455483758
 20
94.544499105537597
 11
94.851730552224197
 21
94.544308370674571
  0
LINE
  8
_f-a_250
  6
CONTINUOUS
 62
  250
 10
94.851730552224197
 20
94.544308370674571
 11
94.816861835030736
 21
94.550531095589093
  0
LINE
  8
_f-a_250
  6
CONTINUOUS
 62
  250
 10
94.816861835030736
 20
94.550531095589093
 11
94.785330977944696
 21
94.564430898750629
  0
LINE
  8
_f-a_250
  6
CONTINUOUS
 62
  250
 10
94.785330977944696
 20
94.564430898750629
 11
94.757334676293695
 21
94.583695119942121
  0
LINE
  8
_f-a_250
  6
CONTINUOUS
 62
  250
 10
94.757334676293695
 20
94.583695119942121
 11
94.733164992837217
 21
94.607680028999624
  0
LINE
  8
_f-a_250
  6
CONTINUOUS
 62
  250
 10
94.733164992837217
 20
94.607680028999624
 11
94.713119950799253
 21
94.635813421333609
  0
LINE
  8
_f-a_250
  6
CONTINUOUS
 62
  250
 10
94.713119950799253
 20
94.635813421333609
 11
94.697491612939203
 21
94.667403883064594
  0
LINE
  8
_f-a_250
  6
CONTINUOUS
 62
  250
 10
94.697491612939203
 20
94.667403883064594
 11
94.686572042016209
 21
94.701855367744599
  0
LINE
  8
_f-a_250
  6
CONTINUOUS
 62
  250
 10
94.686572042016209
 20
94.701855367744599
 11
94.680653300790212
 21
94.73852414521059
  0
LINE
  8
_f-a_250
  6
CONTINUOUS
 62
  250
 10
94.680653300790212
 20
94.73852414521059
 11
94.680033412484207
 21
94.776790327156618
  0
LINE
  8
_f-a_250
  6
CONTINUOUS
 62
  250
 10
94.680033412484207
 20
94.776790327156618
 11
94.684998479394224
 21
94.816010183418598
  0
LINE
  8
_f-a_250
  6
CONTINUOUS
 62
  250
 10
94.684998479394224
 20
94.816010183418598
 11
94.695864406136693
 21
94.855563825691576
  0
LINE
  8
_f-a_250
  6
CONTINUOUS
 62
  250
 10
94.695864406136693
 20
94.855563825691576
 11
94.709609237221756
 21
94.894974416817121
  0
LINE
  8
_f-a_250
  6
CONTINUOUS
 62
  250
 10
94.709609237221756
 20
94.894974416817121
 11
94.727848258523252
 21
94.930951780403575
  0
LINE
  8
_f-a_250
  6
CONTINUOUS
 62
  250
 10
94.727848258523252
 20
94.930951780403575
 11
94.749991384057225
 21
94.963019079292621
  0
LINE
  8
_f-a_250
  6
CONTINUOUS
 62
  250
 10
94.749991384057225
 20
94.963019079292621
 11
94.775424685982742
 21
94.990747160042133
  0
LINE
  8
_f-a_250
  6
CONTINUOUS
 62
  250
 10
94.775424685982742
 20
94.990747160042133
 11
94.803569999245681
 21
95.013683027351618
  0
LINE
  8
_f-a_250
  6
CONTINUOUS
 62
  250
 10
94.803569999245681
 20
95.013683027351618
 11
94.833825316933726
 21
95.031349844063129
  0
LINE
  8
_f-a_250
  6
CONTINUOUS
 62
  250
 10
94.833825316933726
 20
95.031349844063129
 11
94.865594592599237
 21
95.043318456734113
  0
LINE
  8
_f-a_250
  6
CONTINUOUS
 62
  250
 10
94.865594592599237
 20
95.043318456734113
 11
94.898287740258255
 21
95.049159711922101
  0
LINE
  8
_f-a_250
  6
CONTINUOUS
 62
  250
 10
94.898287740258255
 20
95.049159711922101
 11
94.931290832070729
 21
95.048372930611094
  0
LINE
  8
_f-a_250
  6
CONTINUOUS
 62
  250
 10
94.931290832070729
 20
95.048372930611094
 11
94.964031663445738
 21
95.040552801216649
  0
LINE
  8
_f-a_250
  6
CONTINUOUS
 62
  250
 10
94.964031663445738
 20
95.040552801216649
 11
94.996849980859267
 21
95.027010625923594
  0
LINE
  8
_f-a_250
  6
CONTINUOUS
 62
  250
 10
94.996849980859267
 20
95.027010625923594
 11
95.026032414941213
 21
95.00784177216363
  0
LINE
  8
_f-a_250
  6
CONTINUOUS
 62
  250
 10
95.026032414941213
 20
95.00784177216363
 11
95.051346507577264
 21
94.983761495674571
  0
LINE
  8
_f-a_250
  6
CONTINUOUS
 62
  250
 10
95.051346507577264
 20
94.983761495674571
 11
95.072547879723729
 21
94.955389684761599
  0
LINE
  8
_f-a_250
  6
CONTINUOUS
 62
  250
 10
95.072547879723729
 20
94.955389684761599
 11
95.089404073266209
 21
94.923465437019644
  0
LINE
  8
_f-a_250
  6
CONTINUOUS
 62
  250
 10
95.089404073266209
 20
94.923465437019644
 11
95.101670709161269
 21
94.888608640755109
  0
LINE
  8
_f-a_250
  6
CONTINUOUS
 62
  250
 10
95.101670709161269
 20
94.888608640755109
 11
95.10910340836476
 21
94.851558393562613
  0
LINE
  8
_f-a_250
  6
CONTINUOUS
 62
  250
 10
95.10910340836476
 20
94.851558393562613
 11
95.111469712762201
 21
94.812958425606098
  0
LINE
  8
_f-a_250
  6
CONTINUOUS
 62
  250
 10
95.111469712762201
 20
94.812958425606098
 11
95.10852524331024
 21
94.773500150764619
  0
LINE
  8
_f-a_250
  6
CONTINUOUS
 62
  250
 10
95.10852524331024
 20
94.773500150764619
 11
95.100031581429747
 21
94.73387498291811
  0
LINE
  8
_f-a_250
  6
CONTINUOUS
 62
  250
 10
95.100031581429747
 20
94.73387498291811
 11
95.084015813378713
 21
94.695084280098115
  0
LINE
  8
_f-a_250
  6
CONTINUOUS
 62
  250
 10
95.084015813378713
 20
94.695084280098115
 11
95.063988652734267
 21
94.659917539680634
  0
LINE
  8
_f-a_250
  6
CONTINUOUS
 62
  250
 10
95.063988652734267
 20
94.659917539680634
 11
95.040432897118748
 21
94.628756231392089
  0
LINE
  8
_f-a_250
  6
CONTINUOUS
 62
  250
 10
95.040432897118748
 20
94.628756231392089
 11
95.013819423226735
 21
94.601910299385622
  0
LINE
  8
_f-a_250
  6
CONTINUOUS
 62
  250
 10
95.013819423226735
 20
94.601910299385622
 11
94.984631028680226
 21
94.579713529671125
  0
LINE
  8
_f-a_250
  6
CONTINUOUS
 62
  250
 10
94.984631028680226
 20
94.579713529671125
 11
94.953356471566238
 21
94.562523550118129
  0
LINE
  8
_f-a_250
  6
CONTINUOUS
 62
  250
 10
94.953356471566238
 20
94.562523550118129
 11
94.9204606681147
 21
94.550650304878587
  0
LINE
  8
_f-a_250
  6
CONTINUOUS
 62
  250
 10
94.9204606681147
 20
94.550650304878587
 11
94.886420455483758
 21
94.544499105537597
  0
LINE
  8
_f-a_250
  6
CONTINUOUS
 62
  250
 10
94.886420455483758
 20
94.544499105537597
 11
94.851730552224197
 21
94.544308370674571
  0
LINE
  8
_f-a_250
  6
CONTINUOUS
 62
  250
 10
94.851730552224197
 20
94.544308370674571
 11
94.816861835030736
 21
94.550531095589093
  0
LINE
  8
_f-a_250
  6
CONTINUOUS
 62
  250
 10
94.816861835030736
 20
94.550531095589093
 11
94.785330977944696
 21
94.564430898750629
  0
LINE
  8
_f-a_250
  6
CONTINUOUS
 62
  250
 10
94.785330977944696
 20
94.564430898750629
 11
94.757334676293695
 21
94.583695119942121
  0
LINE
  8
_f-a_250
  6
CONTINUOUS
 62
  250
 10
94.757334676293695
 20
94.583695119942121
 11
94.733164992837217
 21
94.607680028999624
  0
LINE
  8
_f-a_250
  6
CONTINUOUS
 62
  250
 10
94.733164992837217
 20
94.607680028999624
 11
94.713119950799253
 21
94.635813421333609
  0
LINE
  8
_f-a_250
  6
CONTINUOUS
 62
  250
 10
94.713119950799253
 20
94.635813421333609
 11
94.697491612939203
 21
94.667403883064594
  0
LINE
  8
_f-a_250
  6
CONTINUOUS
 62
  250
 10
94.697491612939203
 20
94.667403883064594
 11
94.686572042016209
 21
94.701855367744599
  0
LINE
  8
_f-a_250
  6
CONTINUOUS
 62
  250
 10
94.686572042016209
 20
94.701855367744599
 11
94.680653300790212
 21
94.73852414521059
  0
LINE
  8
_f-a_250
  6
CONTINUOUS
 62
  250
 10
94.680653300790212
 20
94.73852414521059
 11
94.680033412484207
 21
94.776790327156618
  0
LINE
  8
_f-a_250
  6
CONTINUOUS
 62
  250
 10
94.680033412484207
 20
94.776790327156618
 11
94.684998479394224
 21
94.816010183418598
  0
LINE
  8
_f-a_250
  6
CONTINUOUS
 62
  250
 10
94.684998479394224
 20
94.816010183418598
 11
94.695864406136693
 21
94.855563825691576
  0
LINE
  8
_f-a_250
  6
CONTINUOUS
 62
  250
 10
94.695864406136693
 20
94.855563825691576
 11
94.709609237221756
 21
94.894974416817121
  0
LINE
  8
_f-a_250
  6
CONTINUOUS
 62
  250
 10
94.709609237221756
 20
94.894974416817121
 11
94.727848258523252
 21
94.930951780403575
  0
LINE
  8
_f-a_250
  6
CONTINUOUS
 62
  250
 10
94.727848258523252
 20
94.930951780403575
 11
94.749991384057225
 21
94.963019079292621
  0
LINE
  8
_f-a_250
  6
CONTINUOUS
 62
  250
 10
94.749991384057225
 20
94.963019079292621
 11
94.775424685982742
 21
94.990747160042133
  0
LINE
  8
_f-a_250
  6
CONTINUOUS
 62
  250
 10
94.775424685982742
 20
94.990747160042133
 11
94.803569999245681
 21
95.013683027351618
  0
LINE
  8
_f-a_250
  6
CONTINUOUS
 62
  250
 10
94.803569999245681
 20
95.013683027351618
 11
94.833825316933726
 21
95.031349844063129
  0
LINE
  8
_f-a_250
  6
CONTINUOUS
 62
  250
 10
94.833825316933726
 20
95.031349844063129
 11
94.865594592599237
 21
95.043318456734113
  0
LINE
  8
_f-a_250
  6
CONTINUOUS
 62
  250
 10
94.865594592599237
 20
95.043318456734113
 11
94.898287740258255
 21
95.049159711922101
  0
LINE
  8
_f-a_250
  6
CONTINUOUS
 62
  250
 10
94.898287740258255
 20
95.049159711922101
 11
94.931290832070729
 21
95.048372930611094
  0
LINE
  8
_f-a_250
  6
CONTINUOUS
 62
  250
 10
94.931290832070729
 20
95.048372930611094
 11
94.964031663445738
 21
95.040552801216649
  0
LINE
  8
_f-a_250
  6
CONTINUOUS
 62
  250
 10
94.964031663445738
 20
95.040552801216649
 11
94.996849980859267
 21
95.027010625923594
  0
LINE
  8
_f-a_250
  6
CONTINUOUS
 62
  250
 10
94.996849980859267
 20
95.027010625923594
 11
95.026032414941213
 21
95.00784177216363
  0
LINE
  8
_f-a_250
  6
CONTINUOUS
 62
  250
 10
95.026032414941213
 20
95.00784177216363
 11
95.051346507577264
 21
94.983761495674571
  0
LINE
  8
_f-a_250
  6
CONTINUOUS
 62
  250
 10
95.051346507577264
 20
94.983761495674571
 11
95.072547879723729
 21
94.955389684761599
  0
LINE
  8
_f-a_250
  6
CONTINUOUS
 62
  250
 10
95.072547879723729
 20
94.955389684761599
 11
95.089404073266209
 21
94.923465437019644
  0
LINE
  8
_f-a_250
  6
CONTINUOUS
 62
  250
 10
95.089404073266209
 20
94.923465437019644
 11
95.101670709161269
 21
94.888608640755109
  0
LINE
  8
_f-a_250
  6
CONTINUOUS
 62
  250
 10
95.101670709161269
 20
94.888608640755109
 11
95.10910340836476
 21
94.851558393562613
  0
LINE
  8
_f-a_250
  6
CONTINUOUS
 62
  250
 10
95.10910340836476
 20
94.851558393562613
 11
95.111469712762201
 21
94.812958425606098
  0
LINE
  8
_f-a_250
  6
CONTINUOUS
 62
  250
 10
95.111469712762201
 20
94.812958425606098
 11
95.10852524331024
 21
94.773500150764619
  0
LINE
  8
_f-a_250
  6
CONTINUOUS
 62
  250
 10
95.10852524331024
 20
94.773500150764619
 11
95.100031581429747
 21
94.73387498291811
  0
LINE
  8
_f-a_250
  6
CONTINUOUS
 62
  250
 10
96.031032290963211
 20
93.485539144600097
 11
96.017484155205764
 21
93.480889982307616
  0
LINE
  8
_f-a_250
  6
CONTINUOUS
 62
  250
 10
96.017484155205764
 20
93.480889982307616
 11
96.004120793847264
 21
93.47700375946863
  0
LINE
  8
_f-a_250
  6
CONTINUOUS
 62
  250
 10
96.004120793847264
 20
93.47700375946863
 11
95.990888562707269
 21
93.473904317940111
  0
LINE
  8
_f-a_250
  6
CONTINUOUS
 62
  250
 10
95.990888562707269
 20
93.473904317940111
 11
95.977733817605198
 21
93.471663183296613
  0
LINE
  8
_f-a_250
  6
CONTINUOUS
 62
  250
 10
95.977733817605198
 20
93.471663183296613
 11
95.964608874825743
 21
93.470328039253587
  0
LINE
  8
_f-a_250
  6
CONTINUOUS
 62
  250
 10
95.964608874825743
 20
93.470328039253587
 11
95.951472011117247
 21
93.469922727669115
  0
LINE
  8
_f-a_250
  6
CONTINUOUS
 62
  250
 10
95.951472011117247
 20
93.469922727669115
 11
95.938257661370741
 21
93.470542615974608
  0
LINE
  8
_f-a_250
  6
CONTINUOUS
 62
  250
 10
95.938257661370741
 20
93.470542615974608
 11
95.924918141869725
 21
93.47218770417058
  0
LINE
  8
_f-a_250
  6
CONTINUOUS
 62
  250
 10
95.924918141869725
 20
93.47218770417058
 11
95.911417689828241
 21
93.474977201546125
  0
LINE
  8
_f-a_250
  6
CONTINUOUS
 62
  250
 10
95.911417689828241
 20
93.474977201546125
 11
95.897690740136184
 21
93.478863424385622
  0
LINE
  8
_f-a_250
  6
CONTINUOUS
 62
  250
 10
95.897690740136184
 20
93.478863424385622
 11
95.864991632012689
 21
93.491594976509617
  0
LINE
  8
_f-a_250
  6
CONTINUOUS
 62
  250
 10
95.864991632012689
 20
93.491594976509617
 11
95.835904565362242
 21
93.510263151253099
  0
LINE
  8
_f-a_250
  6
CONTINUOUS
 62
  250
 10
95.835904565362242
 20
93.510263151253099
 11
95.81075736573122
 21
93.534105009163085
  0
LINE
  8
_f-a_250
  6
CONTINUOUS
 62
  250
 10
95.81075736573122
 20
93.534105009163085
 11
95.789859977273252
 21
93.56235761078662
  0
LINE
  8
_f-a_250
  6
CONTINUOUS
 62
  250
 10
95.789859977273252
 20
93.56235761078662
 11
95.773552146462762
 21
93.594281858528575
  0
LINE
  8
_f-a_250
  6
CONTINUOUS
 62
  250
 10
95.773552146462762
 20
93.594281858528575
 11
95.762143817452753
 21
93.629114812935114
  0
LINE
  8
_f-a_250
  6
CONTINUOUS
 62
  250
 10
95.762143817452753
 20
93.629114812935114
 11
95.755968776253738
 21
93.666069692696141
  0
LINE
  8
_f-a_250
  6
CONTINUOUS
 62
  250
 10
95.755968776253738
 20
93.666069692696141
 11
95.755336967019261
 21
93.704407400215587
  0
LINE
  8
_f-a_250
  6
CONTINUOUS
 62
  250
 10
95.755336967019261
 20
93.704407400215587
 11
95.760582175759694
 21
93.743388837898607
  0
LINE
  8
_f-a_250
  6
CONTINUOUS
 62
  250
 10
95.760582175759694
 20
93.743388837898607
 11
95.772026267556228
 21
93.782203382576057
  0
LINE
  8
_f-a_250
  6
CONTINUOUS
 62
  250
 10
95.772026267556228
 20
93.782203382576057
 11
95.772246804742238
 21
93.788378423775129
  0
LINE
  8
_f-a_250
  6
CONTINUOUS
 62
  250
 10
95.772246804742238
 20
93.788378423775129
 11
95.772866693047703
 21
93.79393357666811
  0
LINE
  8
_f-a_250
  6
CONTINUOUS
 62
  250
 10
95.772866693047703
 20
93.79393357666811
 11
95.77380844643524
 21
93.798964208687124
  0
LINE
  8
_f-a_250
  6
CONTINUOUS
 62
  250
 10
95.77380844643524
 20
93.798964208687124
 11
95.774988618401707
 21
93.803565687263557
  0
LINE
  8
_f-a_250
  6
CONTINUOUS
 62
  250
 10
95.774988618401707
 20
93.803565687263557
 11
95.776335683373773
 21
93.807833379829589
  0
LINE
  8
_f-a_250
  6
CONTINUOUS
 62
  250
 10
95.776335683373773
 20
93.807833379829589
 11
95.777790036706236
 21
93.811862653816576
  0
LINE
  8
_f-a_250
  6
CONTINUOUS
 62
  250
 10
95.777790036706236
 20
93.811862653816576
 11
95.779256310967767
 21
93.815701192940111
  0
LINE
  8
_f-a_250
  6
CONTINUOUS
 62
  250
 10
95.779256310967767
 20
93.815701192940111
 11
95.780668941048717
 21
93.819492048347627
  0
LINE
  8
_f-a_250
  6
CONTINUOUS
 62
  250
 10
95.780668941048717
 20
93.819492048347627
 11
95.781956401376235
 21
93.823306745613621
  0
LINE
  8
_f-a_250
  6
CONTINUOUS
 62
  250
 10
95.781956401376235
 20
93.823306745613621
 11
95.783029284981765
 21
93.827192968452607
  0
LINE
  8
_f-a_250
  6
CONTINUOUS
 62
  250
 10
95.783029284981765
 20
93.827192968452607
 11
96.031032290963211
 21
93.485539144600097
  0
LINE
  8
_f-a_250
  6
CONTINUOUS
 62
  250
 10
96.031032290963211
 20
93.485539144600097
 11
96.017484155205764
 21
93.480889982307616
  0
LINE
  8
_f-a_250
  6
CONTINUOUS
 62
  250
 10
96.017484155205764
 20
93.480889982307616
 11
96.004120793847264
 21
93.47700375946863
  0
LINE
  8
_f-a_250
  6
CONTINUOUS
 62
  250
 10
96.004120793847264
 20
93.47700375946863
 11
95.990888562707269
 21
93.473904317940111
  0
LINE
  8
_f-a_250
  6
CONTINUOUS
 62
  250
 10
95.990888562707269
 20
93.473904317940111
 11
95.977733817605198
 21
93.471663183296613
  0
LINE
  8
_f-a_250
  6
CONTINUOUS
 62
  250
 10
95.977733817605198
 20
93.471663183296613
 11
95.964608874825743
 21
93.470328039253587
  0
LINE
  8
_f-a_250
  6
CONTINUOUS
 62
  250
 10
95.964608874825743
 20
93.470328039253587
 11
95.951472011117247
 21
93.469922727669115
  0
LINE
  8
_f-a_250
  6
CONTINUOUS
 62
  250
 10
95.951472011117247
 20
93.469922727669115
 11
95.938257661370741
 21
93.470542615974608
  0
LINE
  8
_f-a_250
  6
CONTINUOUS
 62
  250
 10
95.938257661370741
 20
93.470542615974608
 11
95.924918141869725
 21
93.47218770417058
  0
LINE
  8
_f-a_250
  6
CONTINUOUS
 62
  250
 10
95.924918141869725
 20
93.47218770417058
 11
95.911417689828241
 21
93.474977201546125
  0
LINE
  8
_f-a_250
  6
CONTINUOUS
 62
  250
 10
95.911417689828241
 20
93.474977201546125
 11
95.897690740136184
 21
93.478863424385622
  0
LINE
  8
_f-a_250
  6
CONTINUOUS
 62
  250
 10
95.897690740136184
 20
93.478863424385622
 11
95.864991632012689
 21
93.491594976509617
  0
LINE
  8
_f-a_250
  6
CONTINUOUS
 62
  250
 10
95.864991632012689
 20
93.491594976509617
 11
95.835904565362242
 21
93.510263151253099
  0
LINE
  8
_f-a_250
  6
CONTINUOUS
 62
  250
 10
95.835904565362242
 20
93.510263151253099
 11
95.81075736573122
 21
93.534105009163085
  0
LINE
  8
_f-a_250
  6
CONTINUOUS
 62
  250
 10
95.81075736573122
 20
93.534105009163085
 11
95.789859977273252
 21
93.56235761078662
  0
LINE
  8
_f-a_250
  6
CONTINUOUS
 62
  250
 10
95.789859977273252
 20
93.56235761078662
 11
95.773552146462762
 21
93.594281858528575
  0
LINE
  8
_f-a_250
  6
CONTINUOUS
 62
  250
 10
95.773552146462762
 20
93.594281858528575
 11
95.762143817452753
 21
93.629114812935114
  0
LINE
  8
_f-a_250
  6
CONTINUOUS
 62
  250
 10
95.762143817452753
 20
93.629114812935114
 11
95.755968776253738
 21
93.666069692696141
  0
LINE
  8
_f-a_250
  6
CONTINUOUS
 62
  250
 10
95.755968776253738
 20
93.666069692696141
 11
95.755336967019261
 21
93.704407400215587
  0
LINE
  8
_f-a_250
  6
CONTINUOUS
 62
  250
 10
95.755336967019261
 20
93.704407400215587
 11
95.760582175759694
 21
93.743388837898607
  0
LINE
  8
_f-a_250
  6
CONTINUOUS
 62
  250
 10
95.760582175759694
 20
93.743388837898607
 11
95.772026267556228
 21
93.782203382576057
  0
LINE
  8
_f-a_250
  6
CONTINUOUS
 62
  250
 10
95.772026267556228
 20
93.782203382576057
 11
95.772246804742238
 21
93.788378423775129
  0
LINE
  8
_f-a_250
  6
CONTINUOUS
 62
  250
 10
95.772246804742238
 20
93.788378423775129
 11
95.772866693047703
 21
93.79393357666811
  0
LINE
  8
_f-a_250
  6
CONTINUOUS
 62
  250
 10
95.772866693047703
 20
93.79393357666811
 11
95.77380844643524
 21
93.798964208687124
  0
LINE
  8
_f-a_250
  6
CONTINUOUS
 62
  250
 10
95.77380844643524
 20
93.798964208687124
 11
95.774988618401707
 21
93.803565687263557
  0
LINE
  8
_f-a_250
  6
CONTINUOUS
 62
  250
 10
95.774988618401707
 20
93.803565687263557
 11
95.776335683373773
 21
93.807833379829589
  0
LINE
  8
_f-a_250
  6
CONTINUOUS
 62
  250
 10
95.776335683373773
 20
93.807833379829589
 11
95.777790036706236
 21
93.811862653816576
  0
LINE
  8
_f-a_250
  6
CONTINUOUS
 62
  250
 10
95.777790036706236
 20
93.811862653816576
 11
95.779256310967767
 21
93.815701192940111
  0
LINE
  8
_f-a_250
  6
CONTINUOUS
 62
  250
 10
95.779256310967767
 20
93.815701192940111
 11
95.780668941048717
 21
93.819492048347627
  0
LINE
  8
_f-a_250
  6
CONTINUOUS
 62
  250
 10
95.780668941048717
 20
93.819492048347627
 11
95.781956401376235
 21
93.823306745613621
  0
LINE
  8
_f-a_250
  6
CONTINUOUS
 62
  250
 10
95.781956401376235
 20
93.823306745613621
 11
95.783029284981765
 21
93.827192968452607
  0
LINE
  8
_f-a_250
  6
CONTINUOUS
 62
  250
 10
98.598198380975234
 20
97.368877119148607
 11
98.337028708962762
 21
97.660534566963605
  0
LINE
  8
_f-a_250
  6
CONTINUOUS
 62
  250
 10
98.337028708962762
 20
97.660534566963605
 11
98.598198380975234
 21
97.368877119148607
  0
LINE
  8
_f-a_250
  6
CONTINUOUS
 62
  250
 10
98.598198380975234
 20
97.368877119148607
 11
98.337028708962762
 21
97.660534566963605
  0
LINE
  8
_f-a_250
  6
CONTINUOUS
 62
  250
 10
98.027865376977232
 20
95.355551427925633
 11
96.824697938470209
 21
96.692197507942609
  0
LINE
  8
_f-a_250
  6
CONTINUOUS
 62
  250
 10
96.824697938470209
 20
96.692197507942609
 11
98.027865376977232
 21
95.355551427925633
  0
LINE
  8
_f-a_250
  6
CONTINUOUS
 62
  250
 10
98.027865376977232
 20
95.355551427925633
 11
96.824697938470209
 21
96.692197507942609
  0
LINE
  8
_f-a_250
  6
CONTINUOUS
 62
  250
 10
97.187362399605732
 20
96.733873075569591
 11
96.960858788995253
 21
96.982186025703612
  0
LINE
  8
_f-a_250
  6
CONTINUOUS
 62
  250
 10
96.960858788995253
 20
96.982186025703612
 11
97.187362399605732
 21
96.733873075569591
  0
LINE
  8
_f-a_250
  6
CONTINUOUS
 62
  250
 10
97.187362399605732
 20
96.733873075569591
 11
96.960858788995253
 21
96.982186025703612
  0
LINE
  8
_f-a_250
  6
CONTINUOUS
 62
  250
 10
97.717360940484227
 20
96.14552754792058
 11
97.420362916497211
 21
96.470539754951631
  0
LINE
  8
_f-a_250
  6
CONTINUOUS
 62
  250
 10
97.420362916497211
 20
96.470539754951631
 11
97.717360940484227
 21
96.14552754792058
  0
LINE
  8
_f-a_250
  6
CONTINUOUS
 62
  250
 10
97.717360940484227
 20
96.14552754792058
 11
97.420362916497211
 21
96.470539754951631
  0
LINE
  8
_f-a_250
  6
CONTINUOUS
 62
  250
 10
98.100696292428196
 20
95.71217793854558
 11
97.967867341546238
 21
95.8771874371416
  0
LINE
  8
_f-a_250
  6
CONTINUOUS
 62
  250
 10
97.967867341546238
 20
95.8771874371416
 11
98.100696292428196
 21
95.71217793854558
  0
LINE
  8
_f-a_250
  6
CONTINUOUS
 62
  250
 10
98.100696292428196
 20
95.71217793854558
 11
97.967867341546238
 21
95.8771874371416
  0
LINE
  8
_f-a_250
  6
CONTINUOUS
 62
  250
 10
97.50119873574171
 20
96.828882879341649
 11
97.277860131768264
 21
97.077219671333609
  0
LINE
  8
_f-a_250
  6
CONTINUOUS
 62
  250
 10
97.277860131768264
 20
97.077219671333609
 11
97.50119873574171
 21
96.828882879341649
  0
LINE
  8
_f-a_250
  6
CONTINUOUS
 62
  250
 10
97.50119873574171
 20
96.828882879341649
 11
97.277860131768264
 21
97.077219671333609
  0
LINE
  8
_f-a_250
  6
CONTINUOUS
 62
  250
 10
98.041526761559751
 20
96.222202962959614
 11
97.853360858468236
 21
96.430533117378587
  0
LINE
  8
_f-a_250
  6
CONTINUOUS
 62
  250
 10
97.853360858468236
 20
96.430533117378587
 11
98.041526761559751
 21
96.222202962959614
  0
LINE
  8
_f-a_250
  6
CONTINUOUS
 62
  250
 10
98.041526761559751
 20
96.222202962959614
 11
97.853360858468236
 21
96.430533117378587
  0
LINE
  8
_f-a_250
  6
CONTINUOUS
 62
  250
 10
104.79870268395375
 20
97.257201856697634
 11
104.6241981654447
 21
97.448866552437124
  0
LINE
  8
_f-a_250
  6
CONTINUOUS
 62
  250
 10
104.6241981654447
 20
97.448866552437124
 11
104.79870268395375
 21
97.257201856697634
  0
LINE
  8
_f-a_250
  6
CONTINUOUS
 62
  250
 10
104.79870268395375
 20
97.257201856697634
 11
104.6241981654447
 21
97.448866552437124
  0
LINE
  8
_f-a_250
  6
CONTINUOUS
 62
  250
 10
104.18153831055572
 20
97.952192014778575
 11
104.12618943741721
 21
98.00886411103113
  0
LINE
  8
_f-a_250
  6
CONTINUOUS
 62
  250
 10
104.12618943741721
 20
98.00886411103113
 11
104.18153831055572
 21
97.952192014778575
  0
LINE
  8
_f-a_250
  6
CONTINUOUS
 62
  250
 10
104.18153831055572
 20
97.952192014778575
 11
104.12618943741721
 21
98.00886411103113
  0
LINE
  8
_f-a_250
  6
CONTINUOUS
 62
  250
 10
105.16785809090523
 20
97.6138760510336
 11
104.02852722695273
 21
98.87885350617259
  0
LINE
  8
_f-a_250
  6
CONTINUOUS
 62
  250
 10
104.02852722695273
 20
98.87885350617259
 11
105.16785809090523
 21
97.6138760510336
  0
LINE
  8
_f-a_250
  6
CONTINUOUS
 62
  250
 10
105.16785809090523
 20
97.6138760510336
 11
104.02852722695273
 21
98.87885350617259
  0
LINE
  8
_f-a_250
  6
CONTINUOUS
 62
  250
 10
104.91653510621022
 20
97.577207273567609
 11
103.77786585381422
 21
98.848860448921613
  0
LINE
  8
_f-a_250
  6
CONTINUOUS
 62
  250
 10
103.77786585381422
 20
98.848860448921613
 11
104.91653510621022
 21
97.577207273567609
  0
LINE
  8
_f-a_250
  6
CONTINUOUS
 62
  250
 10
104.91653510621022
 20
97.577207273567609
 11
103.77786585381422
 21
98.848860448921613
  0
LINE
  8
_f-a_250
  6
CONTINUOUS
 62
  250
 10
98.142359939126194
 20
95.708887762154149
 11
98.048029628304747
 21
95.403878873909633
  0
LINE
  8
_f-a_250
  6
CONTINUOUS
 62
  250
 10
98.048029628304747
 20
95.403878873909633
 11
98.142359939126194
 21
95.708887762154149
  0
LINE
  8
_f-a_250
  6
CONTINUOUS
 62
  250
 10
98.142359939126194
 20
95.708887762154149
 11
98.048029628304747
 21
95.403878873909633
  0
LINE
  8
_f-a_250
  6
CONTINUOUS
 62
  250
 10
105.16785809090523
 20
97.56054181488858
 11
105.01085945656719
 21
97.04884786042058
  0
LINE
  8
_f-a_250
  6
CONTINUOUS
 62
  250
 10
105.01085945656719
 20
97.04884786042058
 11
105.16785809090523
 21
97.56054181488858
  0
LINE
  8
_f-a_250
  6
CONTINUOUS
 62
  250
 10
105.16785809090523
 20
97.56054181488858
 11
105.01085945656719
 21
97.04884786042058
  0
LINE
  8
_f-a_250
  6
CONTINUOUS
 62
  250
 10
104.93085810234975
 20
97.563879674995604
 11
104.8363608985227
 21
97.243874258125629
  0
LINE
  8
_f-a_250
  6
CONTINUOUS
 62
  250
 10
104.8363608985227
 20
97.243874258125629
 11
104.93085810234975
 21
97.563879674995604
  0
LINE
  8
_f-a_250
  6
CONTINUOUS
 62
  250
 10
104.93085810234975
 20
97.563879674995604
 11
104.8363608985227
 21
97.243874258125629
  0
LINE
  8
_f-a_250
  6
CONTINUOUS
 62
  250
 10
104.74269815972271
 20
97.75885838898509
 11
104.64502998879369
 21
97.442190832222138
  0
LINE
  8
_f-a_250
  6
CONTINUOUS
 62
  250
 10
104.64502998879369
 20
97.442190832222138
 11
104.74269815972271
 21
97.75885838898509
  0
LINE
  8
_f-a_250
  6
CONTINUOUS
 62
  250
 10
104.74269815972271
 20
97.75885838898509
 11
104.64502998879369
 21
97.442190832222138
  0
LINE
  8
_f-a_250
  6
CONTINUOUS
 62
  250
 10
104.18535896828574
 20
98.29222459229311
 11
104.11253401329925
 21
98.047201818550633
  0
LINE
  8
_f-a_250
  6
CONTINUOUS
 62
  250
 10
104.11253401329925
 20
98.047201818550633
 11
104.18535896828574
 21
98.29222459229311
  0
LINE
  8
_f-a_250
  6
CONTINUOUS
 62
  250
 10
104.18535896828574
 20
98.29222459229311
 11
104.11253401329925
 21
98.047201818550633
  0
LINE
  8
_f-a_250
  6
CONTINUOUS
 62
  250
 10
103.75952550461672
 20
98.825543111885622
 11
103.65869232705025
 21
98.508875555122614
  0
LINE
  8
_f-a_250
  6
CONTINUOUS
 62
  250
 10
103.65869232705025
 20
98.508875555122614
 11
103.75952550461672
 21
98.825543111885622
  0
LINE
  8
_f-a_250
  6
CONTINUOUS
 62
  250
 10
103.75952550461672
 20
98.825543111885622
 11
103.65869232705025
 21
98.508875555122614
  0
LINE
  8
_f-a_250
  6
CONTINUOUS
 62
  250
 10
97.288863149194228
 20
97.040550893868129
 11
97.187362399605732
 21
96.727221197212629
  0
LINE
  8
_f-a_250
  6
CONTINUOUS
 62
  250
 10
97.187362399605732
 20
96.727221197212629
 11
97.288863149194228
 21
97.040550893868129
  0
LINE
  8
_f-a_250
  6
CONTINUOUS
 62
  250
 10
97.288863149194228
 20
97.040550893868129
 11
97.187362399605732
 21
96.727221197212629
  0
LINE
  8
_f-a_250
  6
CONTINUOUS
 62
  250
 10
97.514192548302688
 20
96.80387277039361
 11
97.413866010216751
 21
96.475546545113133
  0
LINE
  8
_f-a_250
  6
CONTINUOUS
 62
  250
 10
97.413866010216751
 20
96.475546545113133
 11
97.514192548302688
 21
96.80387277039361
  0
LINE
  8
_f-a_250
  6
CONTINUOUS
 62
  250
 10
97.514192548302688
 20
96.80387277039361
 11
97.413866010216751
 21
96.475546545113133
  0
LINE
  8
_f-a_250
  6
CONTINUOUS
 62
  250
 10
97.853360858468236
 20
96.427219099129076
 11
97.766195025948704
 21
96.14552754792058
  0
LINE
  8
_f-a_250
  6
CONTINUOUS
 62
  250
 10
97.766195025948704
 20
96.14552754792058
 11
97.853360858468236
 21
96.427219099129076
  0
LINE
  8
_f-a_250
  6
CONTINUOUS
 62
  250
 10
97.853360858468236
 20
96.427219099129076
 11
97.766195025948704
 21
96.14552754792058
  0
LINE
  8
_f-a_250
  6
CONTINUOUS
 62
  250
 10
98.058365073708714
 20
96.212189382637604
 11
97.960863795785272
 21
95.90219754608961
  0
LINE
  8
_f-a_250
  6
CONTINUOUS
 62
  250
 10
97.960863795785272
 20
95.90219754608961
 11
98.058365073708714
 21
96.212189382637604
  0
LINE
  8
_f-a_250
  6
CONTINUOUS
 62
  250
 10
98.058365073708714
 20
96.212189382637604
 11
97.960863795785272
 21
95.90219754608961
  0
LINE
  8
_f-a_250
  6
CONTINUOUS
 62
  250
 10
96.943865504769704
 20
96.982186025703612
 11
96.85002991249975
 21
96.667211240852595
  0
LINE
  8
_f-a_250
  6
CONTINUOUS
 62
  250
 10
96.85002991249975
 20
96.667211240852595
 11
96.943865504769704
 21
96.982186025703612
  0
LINE
  8
_f-a_250
  6
CONTINUOUS
 62
  250
 10
96.943865504769704
 20
96.982186025703612
 11
96.85002991249975
 21
96.667211240852595
  0
LINE
  8
_f-a_250
  6
CONTINUOUS
 62
  250
 10
98.058365073708714
 20
95.350544637764131
 11
103.1365317969602
 21
96.508877462471588
  0
LINE
  8
_f-a_250
  6
CONTINUOUS
 62
  250
 10
103.1365317969602
 20
96.508877462471588
 11
98.058365073708714
 21
95.350544637764131
  0
LINE
  8
_f-a_250
  6
CONTINUOUS
 62
  250
 10
98.058365073708714
 20
95.350544637764131
 11
103.1365317969602
 21
96.508877462471588
  0
LINE
  8
_f-a_250
  6
CONTINUOUS
 62
  250
 10
98.167197194604242
 20
95.698874181831599
 11
104.7946972518247
 21
97.207205480659638
  0
LINE
  8
_f-a_250
  6
CONTINUOUS
 62
  250
 10
104.7946972518247
 20
97.207205480659638
 11
98.167197194604242
 21
95.698874181831599
  0
LINE
  8
_f-a_250
  6
CONTINUOUS
 62
  250
 10
98.167197194604242
 20
95.698874181831599
 11
104.7946972518247
 21
97.207205480659638
  0
LINE
  8
_f-a_250
  6
CONTINUOUS
 62
  250
 10
98.107199159173192
 20
96.205537504280613
 11
104.75302168419775
 21
97.71718282135808
  0
LINE
  8
_f-a_250
  6
CONTINUOUS
 62
  250
 10
104.75302168419775
 20
97.71718282135808
 11
98.107199159173192
 21
96.205537504280613
  0
LINE
  8
_f-a_250
  6
CONTINUOUS
 62
  250
 10
98.107199159173192
 20
96.205537504280613
 11
104.75302168419775
 21
97.71718282135808
  0
LINE
  8
_f-a_250
  6
CONTINUOUS
 62
  250
 10
98.016701427010716
 20
95.922177023018122
 11
104.64502998879369
 21
97.428863233650617
  0
LINE
  8
_f-a_250
  6
CONTINUOUS
 62
  250
 10
104.64502998879369
 20
97.428863233650617
 11
98.016701427010716
 21
95.922177023018122
  0
LINE
  8
_f-a_250
  6
CONTINUOUS
 62
  250
 10
97.859863725213231
 20
96.427219099129076
 11
104.5480353503507
 21
97.947209066475097
  0
LINE
  8
_f-a_250
  6
CONTINUOUS
 62
  250
 10
104.5480353503507
 20
97.947209066475097
 11
97.859863725213231
 21
96.427219099129076
  0
LINE
  8
_f-a_250
  6
CONTINUOUS
 62
  250
 10
97.859863725213231
 20
96.427219099129076
 11
104.5480353503507
 21
97.947209066475097
  0
LINE
  8
_f-a_250
  6
CONTINUOUS
 62
  250
 10
97.542862382439708
 20
96.778862661446141
 11
104.23036643555572
 21
98.295514768684626
  0
LINE
  8
_f-a_250
  6
CONTINUOUS
 62
  250
 10
104.23036643555572
 20
98.295514768684626
 11
97.542862382439708
 21
96.778862661446141
  0
LINE
  8
_f-a_250
  6
CONTINUOUS
 62
  250
 10
97.542862382439708
 20
96.778862661446141
 11
104.23036643555572
 21
98.295514768684626
  0
LINE
  8
_f-a_250
  6
CONTINUOUS
 62
  250
 10
103.78103086045174
 20
98.855536169136599
 11
103.99336048653525
 21
98.902218526924571
  0
LINE
  8
_f-a_250
  6
CONTINUOUS
 62
  250
 10
103.99336048653525
 20
98.902218526924571
 11
103.78103086045174
 21
98.855536169136599
  0
LINE
  8
_f-a_250
  6
CONTINUOUS
 62
  250
 10
103.78103086045174
 20
98.855536169136599
 11
103.99336048653525
 21
98.902218526924571
  0
LINE
  8
_f-a_250
  6
CONTINUOUS
 62
  250
 10
97.466693606881179
 20
96.518867200935603
 11
104.08702918579969
 21
98.023860639656618
  0
LINE
  8
_f-a_250
  6
CONTINUOUS
 62
  250
 10
104.08702918579969
 20
98.023860639656618
 11
97.466693606881179
 21
96.518867200935603
  0
LINE
  8
_f-a_250
  6
CONTINUOUS
 62
  250
 10
97.323362317590224
 20
97.045533842171125
 11
104.02452775528822
 21
98.567192739571141
  0
LINE
  8
_f-a_250
  6
CONTINUOUS
 62
  250
 10
104.02452775528822
 20
98.567192739571141
 11
97.323362317590224
 21
97.045533842171125
  0
LINE
  8
_f-a_250
  6
CONTINUOUS
 62
  250
 10
97.323362317590224
 20
97.045533842171125
 11
104.02452775528822
 21
98.567192739571141
  0
LINE
  8
_f-a_250
  6
CONTINUOUS
 62
  250
 10
96.978358712701223
 20
97.008865064705134
 11
103.88203689148826
 21
98.585527128304108
  0
LINE
  8
_f-a_250
  6
CONTINUOUS
 62
  250
 10
103.88203689148826
 20
98.585527128304108
 11
96.978358712701223
 21
97.008865064705134
  0
LINE
  8
_f-a_250
  6
CONTINUOUS
 62
  250
 10
96.978358712701223
 20
97.008865064705134
 11
103.88203689148826
 21
98.585527128304108
  0
LINE
  8
_f-a_250
  6
CONTINUOUS
 62
  250
 10
105.00052997162727
 20
97.045533842171125
 11
103.1463665633482
 21
96.515553182686148
  0
LINE
  8
_f-a_250
  6
CONTINUOUS
 62
  250
 10
103.1463665633482
 20
96.515553182686148
 11
105.00052997162727
 21
97.045533842171125
  0
LINE
  8
_f-a_250
  6
CONTINUOUS
 62
  250
 10
105.00052997162727
 20
97.045533842171125
 11
103.1463665633482
 21
96.515553182686148
  0
LINE
  8
_f-a_250
  6
CONTINUOUS
 62
  250
 10
100.25769897988222
 20
95.865528768623648
 11
100.26828476479473
 21
95.851986593330622
  0
LINE
  8
_f-a_250
  6
CONTINUOUS
 62
  250
 10
100.26828476479473
 20
95.851986593330622
 11
100.27677246621069
 21
95.836227125252094
  0
LINE
  8
_f-a_250
  6
CONTINUOUS
 62
  250
 10
100.27677246621069
 20
95.836227125252094
 11
100.2827031283657
 21
95.818226522530125
  0
LINE
  8
_f-a_250
  6
CONTINUOUS
 62
  250
 10
100.2827031283657
 20
95.818226522530125
 11
100.28565355828222
 21
95.797889417732591
  0
LINE
  8
_f-a_250
  6
CONTINUOUS
 62
  250
 10
100.28565355828222
 20
95.797889417732591
 11
100.28517076065926
 21
95.775120443428619
  0
LINE
  8
_f-a_250
  6
CONTINUOUS
 62
  250
 10
100.28517076065926
 20
95.775120443428619
 11
100.28083154251975
 21
95.749871915901593
  0
LINE
  8
_f-a_250
  6
CONTINUOUS
 62
  250
 10
100.28083154251975
 20
95.749871915901593
 11
100.2721829085627
 21
95.722024625862645
  0
LINE
  8
_f-a_250
  6
CONTINUOUS
 62
  250
 10
100.2721829085627
 20
95.722024625862645
 11
100.2587957053462
 21
95.691530889595612
  0
LINE
  8
_f-a_250
  6
CONTINUOUS
 62
  250
 10
100.2587957053462
 20
95.691530889595612
 11
100.24021693756971
 21
95.658271497810603
  0
LINE
  8
_f-a_250
  6
CONTINUOUS
 62
  250
 10
100.24021693756971
 20
95.658271497810603
 11
100.21602341225575
 21
95.622198766792621
  0
LINE
  8
_f-a_250
  6
CONTINUOUS
 62
  250
 10
100.21602341225575
 20
95.622198766792621
 11
100.25769897988222
 21
95.865528768623648
  0
LINE
  8
_f-a_250
  6
CONTINUOUS
 62
  250
 10
100.25769897988222
 20
95.865528768623648
 11
100.26828476479473
 21
95.851986593330622
  0
LINE
  8
_f-a_250
  6
CONTINUOUS
 62
  250
 10
100.26828476479473
 20
95.851986593330622
 11
100.27677246621069
 21
95.836227125252094
  0
LINE
  8
_f-a_250
  6
CONTINUOUS
 62
  250
 10
100.27677246621069
 20
95.836227125252094
 11
100.2827031283657
 21
95.818226522530125
  0
LINE
  8
_f-a_250
  6
CONTINUOUS
 62
  250
 10
100.2827031283657
 20
95.818226522530125
 11
100.28565355828222
 21
95.797889417732591
  0
LINE
  8
_f-a_250
  6
CONTINUOUS
 62
  250
 10
100.28565355828222
 20
95.797889417732591
 11
100.28517076065926
 21
95.775120443428619
  0
LINE
  8
_f-a_250
  6
CONTINUOUS
 62
  250
 10
100.28517076065926
 20
95.775120443428619
 11
100.28083154251975
 21
95.749871915901593
  0
LINE
  8
_f-a_250
  6
CONTINUOUS
 62
  250
 10
100.28083154251975
 20
95.749871915901593
 11
100.2721829085627
 21
95.722024625862645
  0
LINE
  8
_f-a_250
  6
CONTINUOUS
 62
  250
 10
100.2721829085627
 20
95.722024625862645
 11
100.2587957053462
 21
95.691530889595612
  0
LINE
  8
_f-a_250
  6
CONTINUOUS
 62
  250
 10
100.2587957053462
 20
95.691530889595612
 11
100.24021693756971
 21
95.658271497810603
  0
LINE
  8
_f-a_250
  6
CONTINUOUS
 62
  250
 10
100.24021693756971
 20
95.658271497810603
 11
100.21602341225575
 21
95.622198766792621
  0
LINE
  8
_f-a_250
  6
CONTINUOUS
 62
  250
 10
101.75252982666872
 20
96.190540975655125
 11
101.73820683052925
 21
96.170489973152598
  0
LINE
  8
_f-a_250
  6
CONTINUOUS
 62
  250
 10
101.73820683052925
 20
96.170489973152598
 11
101.72540971329626
 21
96.147911733711595
  0
LINE
  8
_f-a_250
  6
CONTINUOUS
 62
  250
 10
101.72540971329626
 20
96.147911733711595
 11
101.71541997483176
 21
96.123688406075104
  0
LINE
  8
_f-a_250
  6
CONTINUOUS
 62
  250
 10
101.71541997483176
 20
96.123688406075104
 11
101.70953103592824
 21
96.098725980843113
  0
LINE
  8
_f-a_250
  6
CONTINUOUS
 62
  250
 10
101.70953103592824
 20
96.098725980843113
 11
101.7090303569117
 21
96.073858923042621
  0
LINE
  8
_f-a_250
  6
CONTINUOUS
 62
  250
 10
101.7090303569117
 20
96.073858923042621
 11
101.71521135857519
 21
96.050017065132579
  0
LINE
  8
_f-a_250
  6
CONTINUOUS
 62
  250
 10
101.71521135857519
 20
96.050017065132579
 11
101.72936150124472
 21
96.028034872139131
  0
LINE
  8
_f-a_250
  6
CONTINUOUS
 62
  250
 10
101.72936150124472
 20
96.028034872139131
 11
101.7527742057127
 21
96.00881833466363
  0
LINE
  8
_f-a_250
  6
CONTINUOUS
 62
  250
 10
101.7527742057127
 20
96.00881833466363
 11
101.78673097184124
 21
95.993273443306123
  0
LINE
  8
_f-a_250
  6
CONTINUOUS
 62
  250
 10
101.78673097184124
 20
95.993273443306123
 11
101.83253714135073
 21
95.982210821236094
  0
LINE
  8
_f-a_250
  6
CONTINUOUS
 62
  250
 10
101.83253714135073
 20
95.982210821236094
 11
101.75252982666872
 21
96.190540975655125
  0
LINE
  8
_f-a_250
  6
CONTINUOUS
 62
  250
 10
101.75252982666872
 20
96.190540975655125
 11
101.73820683052925
 21
96.170489973152598
  0
LINE
  8
_f-a_250
  6
CONTINUOUS
 62
  250
 10
101.73820683052925
 20
96.170489973152598
 11
101.72540971329626
 21
96.147911733711595
  0
LINE
  8
_f-a_250
  6
CONTINUOUS
 62
  250
 10
101.72540971329626
 20
96.147911733711595
 11
101.71541997483176
 21
96.123688406075104
  0
LINE
  8
_f-a_250
  6
CONTINUOUS
 62
  250
 10
101.71541997483176
 20
96.123688406075104
 11
101.70953103592824
 21
96.098725980843113
  0
LINE
  8
_f-a_250
  6
CONTINUOUS
 62
  250
 10
101.70953103592824
 20
96.098725980843113
 11
101.7090303569117
 21
96.073858923042621
  0
LINE
  8
_f-a_250
  6
CONTINUOUS
 62
  250
 10
101.7090303569117
 20
96.073858923042621
 11
101.71521135857519
 21
96.050017065132579
  0
LINE
  8
_f-a_250
  6
CONTINUOUS
 62
  250
 10
101.71521135857519
 20
96.050017065132579
 11
101.72936150124472
 21
96.028034872139131
  0
LINE
  8
_f-a_250
  6
CONTINUOUS
 62
  250
 10
101.72936150124472
 20
96.028034872139131
 11
101.7527742057127
 21
96.00881833466363
  0
LINE
  8
_f-a_250
  6
CONTINUOUS
 62
  250
 10
101.7527742057127
 20
96.00881833466363
 11
101.78673097184124
 21
95.993273443306123
  0
LINE
  8
_f-a_250
  6
CONTINUOUS
 62
  250
 10
101.78673097184124
 20
95.993273443306123
 11
101.83253714135073
 21
95.982210821236094
  0
LINE
  8
_f-a_250
  6
CONTINUOUS
 62
  250
 10
132.91253277352277
 20
106.75055283936362
 11
133.7147040038387
 21
106.48054379853113
  0
LINE
  8
_f-a_250
  6
CONTINUOUS
 62
  250
 10
263.77450653603466
 20
150.99386472138258
 11
264.58286472847874
 21
150.73553819092612
  0
LINE
  8
_f-a_250
  6
CONTINUOUS
 62
  250
 10
261.2062139182367
 20
150.0788618985066
 11
263.86620232155724
 21
150.9821822110066
  0
LINE
  8
_f-a_250
  6
CONTINUOUS
 62
  250
 10
126.11144014885825
 20
102.09156770142408
 11
126.82937809517769
 21
102.31463212403162
  0
LINE
  8
_f-a_250
  6
CONTINUOUS
 62
  250
 10
126.82937809517769
 20
102.31463212403162
 11
127.79955097725777
 21
102.63098973664111
  0
LINE
  8
_f-a_250
  6
CONTINUOUS
 62
  250
 10
127.79955097725777
 20
102.63098973664111
 11
128.94847818901923
 21
103.01365155609912
  0
LINE
  8
_f-a_250
  6
CONTINUOUS
 62
  250
 10
128.94847818901923
 20
103.01365155609912
 11
130.20266720345421
 21
103.43553323181959
  0
LINE
  8
_f-a_250
  6
CONTINUOUS
 62
  250
 10
130.20266720345421
 20
103.43553323181959
 11
131.48866125634123
 21
103.86962193878961
  0
LINE
  8
_f-a_250
  6
CONTINUOUS
 62
  250
 10
131.48866125634123
 20
103.86962193878961
 11
132.7329678206722
 21
104.28888101013962
  0
LINE
  8
_f-a_250
  6
CONTINUOUS
 62
  250
 10
132.7329678206722
 20
104.28888101013962
 11
133.8621182112972
 21
104.6662499371416
  0
LINE
  8
_f-a_250
  6
CONTINUOUS
 62
  250
 10
133.8621182112972
 20
104.6662499371416
 11
134.80263182213727
 21
104.9747158947836
  0
LINE
  8
_f-a_250
  6
CONTINUOUS
 62
  250
 10
134.80263182213727
 20
104.9747158947836
 11
135.48102804711272
 21
105.1872183743366
  0
LINE
  8
_f-a_250
  6
CONTINUOUS
 62
  250
 10
135.48102804711272
 20
105.1872183743366
 11
135.93703934243123
 21
105.2968670788656
  0
LINE
  8
_f-a_250
  6
CONTINUOUS
 62
  250
 10
135.93703934243123
 20
105.2968670788656
 11
136.26760670235572
 21
105.32225865753961
  0
LINE
  8
_f-a_250
  6
CONTINUOUS
 62
  250
 10
136.26760670235572
 20
105.32225865753961
 11
136.49098106911575
 21
105.2804877224811
  0
LINE
  8
_f-a_250
  6
CONTINUOUS
 62
  250
 10
136.49098106911575
 20
105.2804877224811
 11
136.62541338494222
 21
105.18872041138513
  0
LINE
  8
_f-a_250
  6
CONTINUOUS
 62
  250
 10
136.62541338494222
 20
105.18872041138513
 11
136.68911882927824
 21
105.06409902008861
  0
LINE
  8
_f-a_250
  6
CONTINUOUS
 62
  250
 10
136.68911882927824
 20
105.06409902008861
 11
136.70033642342477
 21
104.92369431885561
  0
LINE
  8
_f-a_250
  6
CONTINUOUS
 62
  250
 10
136.70033642342477
 20
104.92369431885561
 11
136.67731710961272
 21
104.7846724453816
  0
LINE
  8
_f-a_250
  6
CONTINUOUS
 62
  250
 10
136.67731710961272
 20
104.7846724453816
 11
136.63829990914275
 21
104.66415185364562
  0
LINE
  8
_f-a_250
  6
CONTINUOUS
 62
  250
 10
136.63829990914275
 20
104.66415185364562
 11
136.60151192238723
 21
104.57927483948561
  0
LINE
  8
_f-a_250
  6
CONTINUOUS
 62
  250
 10
136.60151192238723
 20
104.57927483948561
 11
136.58519217064773
 21
104.54720754059659
  0
LINE
  8
_f-a_250
  6
CONTINUOUS
 62
  250
 10
136.58519217064773
 20
104.54720754059659
 11
125.37420221856026
 21
100.47721166046961
  0
LINE
  8
_f-a_250
  6
CONTINUOUS
 62
  250
 10
125.37420221856026
 20
100.47721166046961
 11
125.31897255471173
 21
100.43930310639209
  0
LINE
  8
_f-a_250
  6
CONTINUOUS
 62
  250
 10
125.31897255471173
 20
100.43930310639209
 11
125.13767906716269
 21
100.32967824372159
  0
LINE
  8
_f-a_250
  6
CONTINUOUS
 62
  250
 10
125.13767906716269
 20
100.32967824372159
 11
124.80692097237524
 21
100.15455979737109
  0
LINE
  8
_f-a_250
  6
CONTINUOUS
 62
  250
 10
124.80692097237524
 20
100.15455979737109
 11
124.30330940773872
 21
99.920146650398607
  0
LINE
  8
_f-a_250
  6
CONTINUOUS
 62
  250
 10
124.30330940773872
 20
99.920146650398607
 11
123.60343166878623
 21
99.63263768586009
  0
LINE
  8
_f-a_250
  6
CONTINUOUS
 62
  250
 10
123.60343166878623
 20
99.63263768586009
 11
122.68387505104927
 21
99.2982079449541
  0
LINE
  8
_f-a_250
  6
CONTINUOUS
 62
  250
 10
122.68387505104927
 20
99.2982079449541
 11
121.52127453377675
 21
98.9230801525961
  0
LINE
  8
_f-a_250
  6
CONTINUOUS
 62
  250
 10
121.52127453377675
 20
98.9230801525961
 11
120.0921935706417
 21
98.513477033699616
  0
LINE
  8
_f-a_250
  6
CONTINUOUS
 62
  250
 10
120.0921935706417
 20
98.513477033699616
 11
118.37324329903525
 21
98.07554978760561
  0
LINE
  8
_f-a_250
  6
CONTINUOUS
 62
  250
 10
118.37324329903525
 20
98.07554978760561
 11
116.34103485634726
 21
97.615521139229116
  0
LINE
  8
_f-a_250
  6
CONTINUOUS
 62
  250
 10
116.34103485634726
 20
97.615521139229116
 11
116.01294704964575
 21
97.547929472054108
  0
LINE
  8
_f-a_250
  6
CONTINUOUS
 62
  250
 10
116.01294704964575
 20
97.547929472054108
 11
115.68315455010323
 21
97.485130018318586
  0
LINE
  8
_f-a_250
  6
CONTINUOUS
 62
  250
 10
115.68315455010323
 20
97.485130018318586
 11
115.35189577629973
 21
97.42712277802309
  0
LINE
  8
_f-a_250
  6
CONTINUOUS
 62
  250
 10
115.35189577629973
 20
97.42712277802309
 11
115.01939722588476
 21
97.373931593025617
  0
LINE
  8
_f-a_250
  6
CONTINUOUS
 62
  250
 10
115.01939722588476
 20
97.373931593025617
 11
114.68593308022422
 21
97.325532621468113
  0
LINE
  8
_f-a_250
  6
CONTINUOUS
 62
  250
 10
114.68593308022422
 20
97.325532621468113
 11
114.35170003464621
 21
97.281925863350097
  0
LINE
  8
_f-a_250
  6
CONTINUOUS
 62
  250
 10
114.35170003464621
 20
97.281925863350097
 11
114.01697823098119
 21
97.243135160530613
  0
LINE
  8
_f-a_250
  6
CONTINUOUS
 62
  250
 10
114.01697823098119
 20
97.243135160530613
 11
113.68198820641426
 21
97.209136671150617
  0
LINE
  8
_f-a_250
  6
CONTINUOUS
 62
  250
 10
113.68198820641426
 20
97.209136671150617
 11
113.34698030045423
 21
97.17993039521059
  0
LINE
  8
_f-a_250
  6
CONTINUOUS
 62
  250
 10
113.34698030045423
 20
97.17993039521059
 11
113.01218697121523
 21
97.155540174568586
  0
LINE
  8
_f-a_250
  6
CONTINUOUS
 62
  250
 10
113.01218697121523
 20
97.155540174568586
 11
107.63853022149023
 21
96.810548490608625
  0
LINE
  8
_f-a_250
  6
CONTINUOUS
 62
  250
 10
107.63853022149023
 20
96.810548490608625
 11
100.58185884049324
 21
95.207207388008641
  0
LINE
  8
_f-a_250
  6
CONTINUOUS
 62
  250
 10
125.71919390252022
 20
101.98888081940513
 11
126.11144014885825
 21
102.09156770142408
  0
LINE
  8
_f-a_250
  6
CONTINUOUS
 62
  250
 10
126.11144014885825
 20
102.09156770142408
 11
126.82937809517769
 21
102.31463212403162
  0
LINE
  8
_f-a_250
  6
CONTINUOUS
 62
  250
 10
126.82937809517769
 20
102.31463212403162
 11
127.79955097725777
 21
102.63098973664111
  0
LINE
  8
_f-a_250
  6
CONTINUOUS
 62
  250
 10
127.79955097725777
 20
102.63098973664111
 11
128.94847818901923
 21
103.01365155609912
  0
LINE
  8
_f-a_250
  6
CONTINUOUS
 62
  250
 10
128.94847818901923
 20
103.01365155609912
 11
130.20266720345421
 21
103.43553323181959
  0
LINE
  8
_f-a_250
  6
CONTINUOUS
 62
  250
 10
130.20266720345421
 20
103.43553323181959
 11
131.48866125634123
 21
103.86962193878961
  0
LINE
  8
_f-a_250
  6
CONTINUOUS
 62
  250
 10
131.48866125634123
 20
103.86962193878961
 11
132.7329678206722
 21
104.28888101013962
  0
LINE
  8
_f-a_250
  6
CONTINUOUS
 62
  250
 10
132.7329678206722
 20
104.28888101013962
 11
133.8621182112972
 21
104.6662499371416
  0
LINE
  8
_f-a_250
  6
CONTINUOUS
 62
  250
 10
133.8621182112972
 20
104.6662499371416
 11
134.80263182213727
 21
104.9747158947836
  0
LINE
  8
_f-a_250
  6
CONTINUOUS
 62
  250
 10
134.80263182213727
 20
104.9747158947836
 11
135.48102804711272
 21
105.1872183743366
  0
LINE
  8
_f-a_250
  6
CONTINUOUS
 62
  250
 10
135.48102804711272
 20
105.1872183743366
 11
135.93703934243123
 21
105.2968670788656
  0
LINE
  8
_f-a_250
  6
CONTINUOUS
 62
  250
 10
135.93703934243123
 20
105.2968670788656
 11
136.26760670235572
 21
105.32225865753961
  0
LINE
  8
_f-a_250
  6
CONTINUOUS
 62
  250
 10
136.26760670235572
 20
105.32225865753961
 11
136.49098106911575
 21
105.2804877224811
  0
LINE
  8
_f-a_250
  6
CONTINUOUS
 62
  250
 10
136.49098106911575
 20
105.2804877224811
 11
136.62541338494222
 21
105.18872041138513
  0
LINE
  8
_f-a_250
  6
CONTINUOUS
 62
  250
 10
136.62541338494222
 20
105.18872041138513
 11
136.68911882927824
 21
105.06409902008861
  0
LINE
  8
_f-a_250
  6
CONTINUOUS
 62
  250
 10
136.68911882927824
 20
105.06409902008861
 11
136.70033642342477
 21
104.92369431885561
  0
LINE
  8
_f-a_250
  6
CONTINUOUS
 62
  250
 10
136.70033642342477
 20
104.92369431885561
 11
136.67731710961272
 21
104.7846724453816
  0
LINE
  8
_f-a_250
  6
CONTINUOUS
 62
  250
 10
136.67731710961272
 20
104.7846724453816
 11
136.63829990914275
 21
104.66415185364562
  0
LINE
  8
_f-a_250
  6
CONTINUOUS
 62
  250
 10
136.63829990914275
 20
104.66415185364562
 11
136.60151192238723
 21
104.57927483948561
  0
LINE
  8
_f-a_250
  6
CONTINUOUS
 62
  250
 10
136.60151192238723
 20
104.57927483948561
 11
136.58519217064773
 21
104.54720754059659
  0
LINE
  8
_f-a_250
  6
CONTINUOUS
 62
  250
 10
136.58519217064773
 20
104.54720754059659
 11
125.37420221856026
 21
100.47721166046961
  0
LINE
  8
_f-a_250
  6
CONTINUOUS
 62
  250
 10
125.37420221856026
 20
100.47721166046961
 11
125.31897255471173
 21
100.43930310639209
  0
LINE
  8
_f-a_250
  6
CONTINUOUS
 62
  250
 10
125.31897255471173
 20
100.43930310639209
 11
125.13767906716269
 21
100.32967824372159
  0
LINE
  8
_f-a_250
  6
CONTINUOUS
 62
  250
 10
125.13767906716269
 20
100.32967824372159
 11
124.80692097237524
 21
100.15455979737109
  0
LINE
  8
_f-a_250
  6
CONTINUOUS
 62
  250
 10
124.80692097237524
 20
100.15455979737109
 11
124.30330940773872
 21
99.920146650398607
  0
LINE
  8
_f-a_250
  6
CONTINUOUS
 62
  250
 10
124.30330940773872
 20
99.920146650398607
 11
123.60343166878623
 21
99.63263768586009
  0
LINE
  8
_f-a_250
  6
CONTINUOUS
 62
  250
 10
123.60343166878623
 20
99.63263768586009
 11
122.68387505104927
 21
99.2982079449541
  0
LINE
  8
_f-a_250
  6
CONTINUOUS
 62
  250
 10
122.68387505104927
 20
99.2982079449541
 11
121.52127453377675
 21
98.9230801525961
  0
LINE
  8
_f-a_250
  6
CONTINUOUS
 62
  250
 10
121.52127453377675
 20
98.9230801525961
 11
120.0921935706417
 21
98.513477033699616
  0
LINE
  8
_f-a_250
  6
CONTINUOUS
 62
  250
 10
120.0921935706417
 20
98.513477033699616
 11
118.37324329903525
 21
98.07554978760561
  0
LINE
  8
_f-a_250
  6
CONTINUOUS
 62
  250
 10
118.37324329903525
 20
98.07554978760561
 11
116.34103485634726
 21
97.615521139229116
  0
LINE
  8
_f-a_250
  6
CONTINUOUS
 62
  250
 10
116.34103485634726
 20
97.615521139229116
 11
116.01294704964575
 21
97.547929472054108
  0
LINE
  8
_f-a_250
  6
CONTINUOUS
 62
  250
 10
116.01294704964575
 20
97.547929472054108
 11
115.68315455010323
 21
97.485130018318586
  0
LINE
  8
_f-a_250
  6
CONTINUOUS
 62
  250
 10
115.68315455010323
 20
97.485130018318586
 11
115.35189577629973
 21
97.42712277802309
  0
LINE
  8
_f-a_250
  6
CONTINUOUS
 62
  250
 10
115.35189577629973
 20
97.42712277802309
 11
115.01939722588476
 21
97.373931593025617
  0
LINE
  8
_f-a_250
  6
CONTINUOUS
 62
  250
 10
115.01939722588476
 20
97.373931593025617
 11
114.68593308022422
 21
97.325532621468113
  0
LINE
  8
_f-a_250
  6
CONTINUOUS
 62
  250
 10
114.68593308022422
 20
97.325532621468113
 11
114.35170003464621
 21
97.281925863350097
  0
LINE
  8
_f-a_250
  6
CONTINUOUS
 62
  250
 10
114.35170003464621
 20
97.281925863350097
 11
114.01697823098119
 21
97.243135160530613
  0
LINE
  8
_f-a_250
  6
CONTINUOUS
 62
  250
 10
114.01697823098119
 20
97.243135160530613
 11
113.68198820641426
 21
97.209136671150617
  0
LINE
  8
_f-a_250
  6
CONTINUOUS
 62
  250
 10
113.68198820641426
 20
97.209136671150617
 11
113.34698030045423
 21
97.17993039521059
  0
LINE
  8
_f-a_250
  6
CONTINUOUS
 62
  250
 10
113.34698030045423
 20
97.17993039521059
 11
113.01218697121523
 21
97.155540174568586
  0
LINE
  8
_f-a_250
  6
CONTINUOUS
 62
  250
 10
113.01218697121523
 20
97.155540174568586
 11
107.63853022149023
 21
96.810548490608625
  0
LINE
  8
_f-a_250
  6
CONTINUOUS
 62
  250
 10
107.63853022149023
 20
96.810548490608625
 11
100.58185884049324
 21
95.207207388008641
  0
LINE
  8
_f-a_250
  6
CONTINUOUS
 62
  250
 10
106.12686106255474
 20
98.5505272808916
 11
106.33760520508675
 21
98.546164220894099
  0
LINE
  8
_f-a_250
  6
CONTINUOUS
 62
  250
 10
106.33760520508675
 20
98.546164220894099
 11
106.94266983559523
 21
98.546307272041616
  0
LINE
  8
_f-a_250
  6
CONTINUOUS
 62
  250
 10
106.94266983559523
 20
98.546307272041616
 11
107.90129133751778
 21
98.570649808968113
  0
LINE
  8
_f-a_250
  6
CONTINUOUS
 62
  250
 10
107.90129133751778
 20
98.570649808968113
 11
109.17274185707977
 21
98.639004415596588
  0
LINE
  8
_f-a_250
  6
CONTINUOUS
 62
  250
 10
109.17274185707977
 20
98.639004415596588
 11
110.71623989632521
 21
98.771159833992584
  0
LINE
  8
_f-a_250
  6
CONTINUOUS
 62
  250
 10
110.71623989632521
 20
98.771159833992584
 11
112.49105164101523
 21
98.986857122505597
  0
LINE
  8
_f-a_250
  6
CONTINUOUS
 62
  250
 10
112.49105164101523
 20
98.986857122505597
 11
114.45642539551672
 21
99.30586118134363
  0
LINE
  8
_f-a_250
  6
CONTINUOUS
 62
  250
 10
114.45642539551672
 20
99.30586118134363
 11
116.57159754326722
 21
99.747960752571629
  0
LINE
  8
_f-a_250
  6
CONTINUOUS
 62
  250
 10
116.57159754326722
 20
99.747960752571629
 11
118.79581638863472
 21
100.33294457825511
  0
LINE
  8
_f-a_250
  6
CONTINUOUS
 62
  250
 10
118.79581638863472
 20
100.33294457825511
 11
121.0883540778437
 21
101.08055371674362
  0
LINE
  8
_f-a_250
  6
CONTINUOUS
 62
  250
 10
121.0883540778437
 20
101.08055371674362
 11
121.23480269005726
 21
101.13431710633111
  0
LINE
  8
_f-a_250
  6
CONTINUOUS
 62
  250
 10
121.23480269005726
 20
101.13431710633111
 11
121.37965389779021
 21
101.19156140717359
  0
LINE
  8
_f-a_250
  6
CONTINUOUS
 62
  250
 10
121.37965389779021
 20
101.19156140717359
 11
121.52294346383025
 21
101.2521435681231
  0
LINE
  8
_f-a_250
  6
CONTINUOUS
 62
  250
 10
121.52294346383025
 20
101.2521435681231
 11
121.6647190718927
 21
101.31594437989062
  0
LINE
  8
_f-a_250
  6
CONTINUOUS
 62
  250
 10
121.6647190718927
 20
101.31594437989062
 11
121.80500456383628
 21
101.38282079132861
  0
LINE
  8
_f-a_250
  6
CONTINUOUS
 62
  250
 10
121.80500456383628
 20
101.38282079132861
 11
121.94384762337621
 21
101.4526535931476
  0
LINE
  8
_f-a_250
  6
CONTINUOUS
 62
  250
 10
121.94384762337621
 20
101.4526535931476
 11
122.08129593422827
 21
101.5252997342001
  0
LINE
  8
_f-a_250
  6
CONTINUOUS
 62
  250
 10
122.08129593422827
 20
101.5252997342001
 11
122.21736141732124
 21
101.60064000519614
  0
LINE
  8
_f-a_250
  6
CONTINUOUS
 62
  250
 10
122.21736141732124
 20
101.60064000519614
 11
122.35207983544272
 21
101.67855519684659
  0
LINE
  8
_f-a_250
  6
CONTINUOUS
 62
  250
 10
122.35207983544272
 20
101.67855519684659
 11
122.48552271416573
 21
101.7588545742876
  0
LINE
  8
_f-a_250
  6
CONTINUOUS
 62
  250
 10
122.48552271416573
 20
101.7588545742876
 11
123.03380199959678
 21
102.09788579377013
  0
LINE
  8
_f-a_250
  6
CONTINUOUS
 62
  250
 10
123.03380199959678
 20
102.09788579377013
 11
123.71885010292922
 21
102.51192349823813
  0
LINE
  8
_f-a_250
  6
CONTINUOUS
 62
  250
 10
123.71885010292922
 20
102.51192349823813
 11
124.51897093346525
 21
102.98306245240062
  0
LINE
  8
_f-a_250
  6
CONTINUOUS
 62
  250
 10
124.51897093346525
 20
102.98306245240062
 11
125.41245647957724
 21
103.49330205353561
  0
LINE
  8
_f-a_250
  6
CONTINUOUS
 62
  250
 10
125.41245647957724
 20
103.49330205353561
 11
126.37762257149626
 21
104.02471322449512
  0
LINE
  8
_f-a_250
  6
CONTINUOUS
 62
  250
 10
126.37762257149626
 20
104.02471322449512
 11
127.39272543480824
 21
104.55931920441461
  0
LINE
  8
_f-a_250
  6
CONTINUOUS
 62
  250
 10
127.39272543480824
 20
104.55931920441461
 11
128.43609282067223
 21
105.0791670742876
  0
LINE
  8
_f-a_250
  6
CONTINUOUS
 62
  250
 10
128.43609282067223
 20
105.0791670742876
 11
129.48601671746169
 21
105.56630391510808
  0
LINE
  8
_f-a_250
  6
CONTINUOUS
 62
  250
 10
129.48601671746169
 20
105.56630391510808
 11
130.52077719262076
 21
106.00272912415357
  0
LINE
  8
_f-a_250
  6
CONTINUOUS
 62
  250
 10
130.52077719262076
 20
106.00272912415357
 11
131.51869007637922
 21
106.37053746613364
  0
LINE
  8
_f-a_250
  6
CONTINUOUS
 62
  250
 10
131.51869007637922
 20
106.37053746613364
 11
131.56342932274725
 21
106.37826222809659
  0
LINE
  8
_f-a_250
  6
CONTINUOUS
 62
  250
 10
131.56342932274725
 20
106.37826222809659
 11
131.6825790076532
 21
106.3954998913656
  0
LINE
  8
_f-a_250
  6
CONTINUOUS
 62
  250
 10
131.6825790076532
 20
106.3954998913656
 11
131.85357281258527
 21
106.41342896851356
  0
LINE
  8
_f-a_250
  6
CONTINUOUS
 62
  250
 10
131.85357281258527
 20
106.41342896851356
 11
132.05383249810126
 21
106.42310876282559
  0
LINE
  8
_f-a_250
  6
CONTINUOUS
 62
  250
 10
132.05383249810126
 20
106.42310876282559
 11
132.26080366661975
 21
106.4157416287311
  0
LINE
  8
_f-a_250
  6
CONTINUOUS
 62
  250
 10
132.26080366661975
 20
106.4157416287311
 11
132.45188423684021
 21
106.38243455323061
  0
LINE
  8
_f-a_250
  6
CONTINUOUS
 62
  250
 10
132.45188423684021
 20
106.38243455323061
 11
132.60453173211019
 21
106.31427068146559
  0
LINE
  8
_f-a_250
  6
CONTINUOUS
 62
  250
 10
132.60453173211019
 20
106.31427068146559
 11
132.69614407113025
 21
106.20242852600913
  0
LINE
  8
_f-a_250
  6
CONTINUOUS
 62
  250
 10
132.69614407113025
 20
106.20242852600913
 11
132.70417877724569
 21
106.03803891571863
  0
LINE
  8
_f-a_250
  6
CONTINUOUS
 62
  250
 10
132.70417877724569
 20
106.03803891571863
 11
132.60603376915876
 21
105.81220883759363
  0
LINE
  8
_f-a_250
  6
CONTINUOUS
 62
  250
 10
132.60603376915876
 20
105.81220883759363
 11
132.4949307112972
 21
105.77697057160211
  0
LINE
  8
_f-a_250
  6
CONTINUOUS
 62
  250
 10
132.4949307112972
 20
105.77697057160211
 11
132.17601009896222
 21
105.66739339264711
  0
LINE
  8
_f-a_250
  6
CONTINUOUS
 62
  250
 10
132.17601009896222
 20
105.66739339264711
 11
131.67080112984573
 21
105.47777909668761
  0
LINE
  8
_f-a_250
  6
CONTINUOUS
 62
  250
 10
131.67080112984573
 20
105.47777909668761
 11
131.0008806853572
 21
105.20238179596763
  0
LINE
  8
_f-a_250
  6
CONTINUOUS
 62
  250
 10
131.0008806853572
 20
105.20238179596763
 11
130.18777796318923
 21
104.83555097016162
  0
LINE
  8
_f-a_250
  6
CONTINUOUS
 62
  250
 10
130.18777796318923
 20
104.83555097016162
 11
129.2530579238217
 21
104.37149304779859
  0
LINE
  8
_f-a_250
  6
CONTINUOUS
 62
  250
 10
129.2530579238217
 20
104.37149304779859
 11
128.21827360680524
 21
103.80450982483708
  0
LINE
  8
_f-a_250
  6
CONTINUOUS
 62
  250
 10
128.21827360680524
 20
103.80450982483708
 11
127.10497805169028
 21
103.12890309723707
  0
LINE
  8
_f-a_250
  6
CONTINUOUS
 62
  250
 10
127.10497805169028
 20
103.12890309723707
 11
125.93471237709922
 21
102.3389269772421
  0
LINE
  8
_f-a_250
  6
CONTINUOUS
 62
  250
 10
125.93471237709922
 20
102.3389269772421
 11
124.72902962258276
 21
101.42888326081115
  0
LINE
  8
_f-a_250
  6
CONTINUOUS
 62
  250
 10
124.72902962258276
 20
101.42888326081115
 11
123.24732967904021
 21
100.53202409180508
  0
LINE
  8
_f-a_250
  6
CONTINUOUS
 62
  250
 10
123.24732967904021
 20
100.53202409180508
 11
121.32890650322823
 21
99.780481046761111
  0
LINE
  8
_f-a_250
  6
CONTINUOUS
 62
  250
 10
121.32890650322823
 20
99.780481046761111
 11
119.11335417321128
 21
99.162261671150617
  0
LINE
  8
_f-a_250
  6
CONTINUOUS
 62
  250
 10
119.11335417321128
 20
99.162261671150617
 11
116.74026676705269
 21
98.665373510445079
  0
LINE
  8
_f-a_250
  6
CONTINUOUS
 62
  250
 10
116.74026676705269
 20
98.665373510445079
 11
114.34928604653273
 21
98.277824110115603
  0
LINE
  8
_f-a_250
  6
CONTINUOUS
 62
  250
 10
114.34928604653273
 20
98.277824110115603
 11
112.0799643664637
 21
97.987644857491119
  0
LINE
  8
_f-a_250
  6
CONTINUOUS
 62
  250
 10
112.0799643664637
 20
97.987644857491119
 11
110.07192560723227
 21
97.782795614326631
  0
LINE
  8
_f-a_250
  6
CONTINUOUS
 62
  250
 10
110.07192560723227
 20
97.782795614326631
 11
108.46477576783123
 21
97.651331609810114
  0
LINE
  8
_f-a_250
  6
CONTINUOUS
 62
  250
 10
108.46477576783123
 20
97.651331609810114
 11
107.39810892632421
 21
97.581236547554596
  0
LINE
  8
_f-a_250
  6
CONTINUOUS
 62
  250
 10
107.39810892632421
 20
97.581236547554596
 11
107.01153108170423
 21
97.56054181488858
  0
LINE
  8
_f-a_250
  6
CONTINUOUS
 62
  250
 10
107.01153108170423
 20
97.56054181488858
 11
106.12686106255474
 21
98.5505272808916
  0
LINE
  8
_f-a_250
  6
CONTINUOUS
 62
  250
 10
106.12686106255474
 20
98.5505272808916
 11
106.33760520508675
 21
98.546164220894099
  0
LINE
  8
_f-a_250
  6
CONTINUOUS
 62
  250
 10
106.33760520508675
 20
98.546164220894099
 11
106.94266983559523
 21
98.546307272041616
  0
LINE
  8
_f-a_250
  6
CONTINUOUS
 62
  250
 10
106.94266983559523
 20
98.546307272041616
 11
107.90129133751778
 21
98.570649808968113
  0
LINE
  8
_f-a_250
  6
CONTINUOUS
 62
  250
 10
107.90129133751778
 20
98.570649808968113
 11
109.17274185707977
 21
98.639004415596588
  0
LINE
  8
_f-a_250
  6
CONTINUOUS
 62
  250
 10
109.17274185707977
 20
98.639004415596588
 11
110.71623989632521
 21
98.771159833992584
  0
LINE
  8
_f-a_250
  6
CONTINUOUS
 62
  250
 10
110.71623989632521
 20
98.771159833992584
 11
112.49105164101523
 21
98.986857122505597
  0
LINE
  8
_f-a_250
  6
CONTINUOUS
 62
  250
 10
112.49105164101523
 20
98.986857122505597
 11
114.45642539551672
 21
99.30586118134363
  0
LINE
  8
_f-a_250
  6
CONTINUOUS
 62
  250
 10
114.45642539551672
 20
99.30586118134363
 11
116.57159754326722
 21
99.747960752571629
  0
LINE
  8
_f-a_250
  6
CONTINUOUS
 62
  250
 10
116.57159754326722
 20
99.747960752571629
 11
118.79581638863472
 21
100.33294457825511
  0
LINE
  8
_f-a_250
  6
CONTINUOUS
 62
  250
 10
118.79581638863472
 20
100.33294457825511
 11
121.0883540778437
 21
101.08055371674362
  0
LINE
  8
_f-a_250
  6
CONTINUOUS
 62
  250
 10
121.0883540778437
 20
101.08055371674362
 11
121.23480269005726
 21
101.13431710633111
  0
LINE
  8
_f-a_250
  6
CONTINUOUS
 62
  250
 10
121.23480269005726
 20
101.13431710633111
 11
121.37965389779021
 21
101.19156140717359
  0
LINE
  8
_f-a_250
  6
CONTINUOUS
 62
  250
 10
121.37965389779021
 20
101.19156140717359
 11
121.52294346383025
 21
101.2521435681231
  0
LINE
  8
_f-a_250
  6
CONTINUOUS
 62
  250
 10
121.52294346383025
 20
101.2521435681231
 11
121.6647190718927
 21
101.31594437989062
  0
LINE
  8
_f-a_250
  6
CONTINUOUS
 62
  250
 10
121.6647190718927
 20
101.31594437989062
 11
121.80500456383628
 21
101.38282079132861
  0
LINE
  8
_f-a_250
  6
CONTINUOUS
 62
  250
 10
121.80500456383628
 20
101.38282079132861
 11
121.94384762337621
 21
101.4526535931476
  0
LINE
  8
_f-a_250
  6
CONTINUOUS
 62
  250
 10
121.94384762337621
 20
101.4526535931476
 11
122.08129593422827
 21
101.5252997342001
  0
LINE
  8
_f-a_250
  6
CONTINUOUS
 62
  250
 10
122.08129593422827
 20
101.5252997342001
 11
122.21736141732124
 21
101.60064000519614
  0
LINE
  8
_f-a_250
  6
CONTINUOUS
 62
  250
 10
122.21736141732124
 20
101.60064000519614
 11
122.35207983544272
 21
101.67855519684659
  0
LINE
  8
_f-a_250
  6
CONTINUOUS
 62
  250
 10
122.35207983544272
 20
101.67855519684659
 11
122.48552271416573
 21
101.7588545742876
  0
LINE
  8
_f-a_250
  6
CONTINUOUS
 62
  250
 10
122.48552271416573
 20
101.7588545742876
 11
123.03380199959678
 21
102.09788579377013
  0
LINE
  8
_f-a_250
  6
CONTINUOUS
 62
  250
 10
123.03380199959678
 20
102.09788579377013
 11
123.71885010292922
 21
102.51192349823813
  0
LINE
  8
_f-a_250
  6
CONTINUOUS
 62
  250
 10
123.71885010292922
 20
102.51192349823813
 11
124.51897093346525
 21
102.98306245240062
  0
LINE
  8
_f-a_250
  6
CONTINUOUS
 62
  250
 10
124.51897093346525
 20
102.98306245240062
 11
125.41245647957724
 21
103.49330205353561
  0
LINE
  8
_f-a_250
  6
CONTINUOUS
 62
  250
 10
125.41245647957724
 20
103.49330205353561
 11
126.37762257149626
 21
104.02471322449512
  0
LINE
  8
_f-a_250
  6
CONTINUOUS
 62
  250
 10
126.37762257149626
 20
104.02471322449512
 11
127.39272543480824
 21
104.55931920441461
  0
LINE
  8
_f-a_250
  6
CONTINUOUS
 62
  250
 10
127.39272543480824
 20
104.55931920441461
 11
128.43609282067223
 21
105.0791670742876
  0
LINE
  8
_f-a_250
  6
CONTINUOUS
 62
  250
 10
128.43609282067223
 20
105.0791670742876
 11
129.48601671746169
 21
105.56630391510808
  0
LINE
  8
_f-a_250
  6
CONTINUOUS
 62
  250
 10
129.48601671746169
 20
105.56630391510808
 11
130.52077719262076
 21
106.00272912415357
  0
LINE
  8
_f-a_250
  6
CONTINUOUS
 62
  250
 10
130.52077719262076
 20
106.00272912415357
 11
131.51869007637922
 21
106.37053746613364
  0
LINE
  8
_f-a_250
  6
CONTINUOUS
 62
  250
 10
131.51869007637922
 20
106.37053746613364
 11
131.56342932274725
 21
106.37826222809659
  0
LINE
  8
_f-a_250
  6
CONTINUOUS
 62
  250
 10
131.56342932274725
 20
106.37826222809659
 11
131.6825790076532
 21
106.3954998913656
  0
LINE
  8
_f-a_250
  6
CONTINUOUS
 62
  250
 10
131.6825790076532
 20
106.3954998913656
 11
131.85357281258527
 21
106.41342896851356
  0
LINE
  8
_f-a_250
  6
CONTINUOUS
 62
  250
 10
131.85357281258527
 20
106.41342896851356
 11
132.05383249810126
 21
106.42310876282559
  0
LINE
  8
_f-a_250
  6
CONTINUOUS
 62
  250
 10
132.05383249810126
 20
106.42310876282559
 11
132.26080366661975
 21
106.4157416287311
  0
LINE
  8
_f-a_250
  6
CONTINUOUS
 62
  250
 10
132.26080366661975
 20
106.4157416287311
 11
132.45188423684021
 21
106.38243455323061
  0
LINE
  8
_f-a_250
  6
CONTINUOUS
 62
  250
 10
132.45188423684021
 20
106.38243455323061
 11
132.60453173211019
 21
106.31427068146559
  0
LINE
  8
_f-a_250
  6
CONTINUOUS
 62
  250
 10
132.60453173211019
 20
106.31427068146559
 11
132.69614407113025
 21
106.20242852600913
  0
LINE
  8
_f-a_250
  6
CONTINUOUS
 62
  250
 10
132.69614407113025
 20
106.20242852600913
 11
132.70417877724569
 21
106.03803891571863
  0
LINE
  8
_f-a_250
  6
CONTINUOUS
 62
  250
 10
132.70417877724569
 20
106.03803891571863
 11
132.60603376915876
 21
105.81220883759363
  0
LINE
  8
_f-a_250
  6
CONTINUOUS
 62
  250
 10
132.60603376915876
 20
105.81220883759363
 11
132.4949307112972
 21
105.77697057160211
  0
LINE
  8
_f-a_250
  6
CONTINUOUS
 62
  250
 10
132.4949307112972
 20
105.77697057160211
 11
132.17601009896222
 21
105.66739339264711
  0
LINE
  8
_f-a_250
  6
CONTINUOUS
 62
  250
 10
132.17601009896222
 20
105.66739339264711
 11
131.67080112984573
 21
105.47777909668761
  0
LINE
  8
_f-a_250
  6
CONTINUOUS
 62
  250
 10
131.67080112984573
 20
105.47777909668761
 11
131.0008806853572
 21
105.20238179596763
  0
LINE
  8
_f-a_250
  6
CONTINUOUS
 62
  250
 10
131.0008806853572
 20
105.20238179596763
 11
130.18777796318923
 21
104.83555097016162
  0
LINE
  8
_f-a_250
  6
CONTINUOUS
 62
  250
 10
130.18777796318923
 20
104.83555097016162
 11
129.2530579238217
 21
104.37149304779859
  0
LINE
  8
_f-a_250
  6
CONTINUOUS
 62
  250
 10
129.2530579238217
 20
104.37149304779859
 11
128.21827360680524
 21
103.80450982483708
  0
LINE
  8
_f-a_250
  6
CONTINUOUS
 62
  250
 10
128.21827360680524
 20
103.80450982483708
 11
127.10497805169028
 21
103.12890309723707
  0
LINE
  8
_f-a_250
  6
CONTINUOUS
 62
  250
 10
127.10497805169028
 20
103.12890309723707
 11
125.93471237709922
 21
102.3389269772421
  0
LINE
  8
_f-a_250
  6
CONTINUOUS
 62
  250
 10
125.93471237709922
 20
102.3389269772421
 11
124.72902962258276
 21
101.42888326081115
  0
LINE
  8
_f-a_250
  6
CONTINUOUS
 62
  250
 10
124.72902962258276
 20
101.42888326081115
 11
123.24732967904021
 21
100.53202409180508
  0
LINE
  8
_f-a_250
  6
CONTINUOUS
 62
  250
 10
123.24732967904021
 20
100.53202409180508
 11
121.32890650322823
 21
99.780481046761111
  0
LINE
  8
_f-a_250
  6
CONTINUOUS
 62
  250
 10
121.32890650322823
 20
99.780481046761111
 11
119.11335417321128
 21
99.162261671150617
  0
LINE
  8
_f-a_250
  6
CONTINUOUS
 62
  250
 10
119.11335417321128
 20
99.162261671150617
 11
116.74026676705269
 21
98.665373510445079
  0
LINE
  8
_f-a_250
  6
CONTINUOUS
 62
  250
 10
116.74026676705269
 20
98.665373510445079
 11
114.34928604653273
 21
98.277824110115603
  0
LINE
  8
_f-a_250
  6
CONTINUOUS
 62
  250
 10
114.34928604653273
 20
98.277824110115603
 11
112.0799643664637
 21
97.987644857491119
  0
LINE
  8
_f-a_250
  6
CONTINUOUS
 62
  250
 10
112.0799643664637
 20
97.987644857491119
 11
110.07192560723227
 21
97.782795614326631
  0
LINE
  8
_f-a_250
  6
CONTINUOUS
 62
  250
 10
110.07192560723227
 20
97.782795614326631
 11
108.46477576783123
 21
97.651331609810114
  0
LINE
  8
_f-a_250
  6
CONTINUOUS
 62
  250
 10
108.46477576783123
 20
97.651331609810114
 11
107.39810892632421
 21
97.581236547554596
  0
LINE
  8
_f-a_250
  6
CONTINUOUS
 62
  250
 10
107.39810892632421
 20
97.581236547554596
 11
107.01153108170423
 21
97.56054181488858
  0
LINE
  8
_f-a_250
  6
CONTINUOUS
 62
  250
 10
125.34651614190662
 20
101.8913168080411
 11
126.11144014885825
 21
102.09156770142408
  0
LINE
  8
_f-a_250
  6
CONTINUOUS
 62
  250
 10
132.06017601472394
 20
106.43834849711021
 11
132.94386097481672
 21
106.74721497925609
  0
LINE
  8
_f-a_250
  6
CONTINUOUS
 62
  250
 10
132.70712102564178
 20
106.16364749713162
 11
133.72768589547073
 21
106.50386113556712
  0
LINE
  8
_f-a_250
  6
CONTINUOUS
 62
  250
 10
134.56554431404993
 20
104.90606026317005
 11
132.25859609717361
 21
105.67076579615198
  0
LINE
  8
_f-a_250
  6
CONTINUOUS
 62
  250
 10
134.84776869241739
 20
103.84775139341531
 11
136.21986338189075
 21
103.30387849243959
  0
LINE
  8
_f-a_250
  6
CONTINUOUS
 62
  250
 10
195.85620590737273
 20
128.0988861981281
 11
198.50336949113759
 21
128.95261104132095
  0
LINE
  8
_f-a_250
  6
CONTINUOUS
 62
  250
 10
198.50336949113759
 20
128.95261104132095
 11
199.23619457772173
 21
128.7022044125446
  0
LINE
  8
_f-a_250
  6
CONTINUOUS
 62
  250
 10
131.23042012166491
 20
105.2816013136206
 11
133.27664264019609
 21
104.47051663722519
  0
LINE
  8
_f-a_250
  6
CONTINUOUS
 62
  250
 10
136.62597580366671
 20
105.17195840309537
 11
137.06386247575773
 21
105.32550060692267
  0
LINE
  8
_f-a_250
  6
CONTINUOUS
 62
  250
 10
136.66092670078351
 20
104.68746819276481
 11
137.67799066727258
 21
105.02639998525527
  0
LINE
  8
_f-a_250
  6
CONTINUOUS
 62
  250
 10
137.67799066727258
 20
105.02639998525527
 11
137.05969282677572
 21
105.32218713196607
  0
LINE
  8
_f-a_250
  6
CONTINUOUS
 62
  250
 10
284.5095032258908
 20
158.13144015305713
 11
131.55278036783918
 21
106.38688756207685
  0
LINE
  8
_f-a_250
  6
CONTINUOUS
 62
  250
 10
136.21986338189075
 20
103.30387849243959
 11
136.23650402797585
 21
104.32963860200607
  0
LINE
  8
_0-0_0
  6
CONTINUOUS
 62
    7
 10
129.565567897243
 20
104.52596174693937
 11
129.565567897243
 21
104.40365097083665
  0
LINE
  8
_0-0_0
  6
CONTINUOUS
 62
    7
 10
137.06493160934511
 20
102.50950004700147
 11
137.04979868852007
 21
101.34426514347263
  0
LINE
  8
_f-a_250
  6
CONTINUOUS
 62
  250
 10
136.50312335224828
 20
107.5086587958497
 11
136.50312335224828
 21
107.66198578406969
  0
LINE
  8
_f-a_250
  6
CONTINUOUS
 62
  250
 10
136.49594695301727
 20
107.66198578406969
 11
136.79678351612773
 21
107.55696239997567
  0
LINE
  8
_f-a_250
  6
CONTINUOUS
 62
  250
 10
137.04029233189277
 20
107.85365047980972
 11
137.33329684467975
 21
107.75699558784171
  0
LINE
  8
_f-a_250
  6
CONTINUOUS
 62
  250
 10
136.48945004673675
 20
107.51697960426017
 11
136.78895146580425
 21
107.4136489920777
  0
LINE
  8
_f-a_250
  6
CONTINUOUS
 62
  250
 10
136.78895146580425
 20
107.40866604377422
 11
136.78895146580425
 21
107.57198277045867
  0
LINE
  8
_f-a_250
  6
CONTINUOUS
 62
  250
 10
137.33578831883125
 20
107.59365501929918
 11
137.33578831883125
 21
107.75198879768072
  0
LINE
  8
_f-a_250
  6
CONTINUOUS
 62
  250
 10
136.79678351612773
 20
107.56363812019023
 11
137.34296471806226
 21
107.75198879768072
  0
LINE
  8
_f-a_250
  6
CONTINUOUS
 62
  250
 10
136.50312335224828
 20
107.6669925742307
 11
137.05061585636781
 21
107.85198154975569
  0
LINE
  8
_f-a_250
  6
CONTINUOUS
 62
  250
 10
136.78895146580425
 20
107.40866604377422
 11
136.89312846394228
 21
107.44533482124018
  0
LINE
  8
_f-a_250
  6
CONTINUOUS
 62
  250
 10
136.81311518879579
 20
107.4136489920777
 11
137.34296471806226
 21
107.5986379676022
  0
LINE
  8
_f-a_250
  6
CONTINUOUS
 62
  250
 10
136.88596398564027
 20
107.48531761695514
 11
136.88346059055976
 21
107.48531761695514
  0
LINE
  8
_f-a_250
  6
CONTINUOUS
 62
  250
 10
136.84178502293275
 20
107.60698261787118
 11
136.63595826359477
 21
107.67698231269517
  0
LINE
  8
_f-a_250
  6
CONTINUOUS
 62
  250
 10
136.63595826359477
 20
107.67698231269517
 11
136.84178502293275
 21
107.60698261787118
  0
LINE
  8
_f-a_250
  6
CONTINUOUS
 62
  250
 10
136.63595826359477
 20
107.67698231269517
 11
136.84178502293275
 21
107.60698261787118
  0
LINE
  8
_f-a_250
  6
CONTINUOUS
 62
  250
 10
137.2179499361103
 20
107.74695816566168
 11
137.0089522096697
 21
107.8203195624512
  0
LINE
  8
_f-a_250
  6
CONTINUOUS
 62
  250
 10
137.0089522096697
 20
107.8203195624512
 11
137.2179499361103
 21
107.74695816566168
  0
LINE
  8
_f-a_250
  6
CONTINUOUS
 62
  250
 10
137.0089522096697
 20
107.8203195624512
 11
137.2179499361103
 21
107.74695816566168
  0
LINE
  8
_f-a_250
  6
CONTINUOUS
 62
  250
 10
136.63995177479421
 20
107.68363419105219
 11
136.84178502293275
 21
107.61032047797821
  0
LINE
  8
_f-a_250
  6
CONTINUOUS
 62
  250
 10
136.84178502293275
 20
107.61032047797821
 11
137.22445876331977
 21
107.74695816566168
  0
LINE
  8
_f-a_250
  6
CONTINUOUS
 62
  250
 10
137.22445876331977
 20
107.74695816566168
 11
137.02595145435976
 21
107.81030598212871
  0
LINE
  8
_f-a_250
  6
CONTINUOUS
 62
  250
 10
137.02595145435976
 20
107.81030598212871
 11
136.63995177479421
 21
107.68363419105219
  0
LINE
  8
_f-a_250
  6
CONTINUOUS
 62
  250
 10
137.02595145435976
 20
107.81030598212871
 11
136.63995177479421
 21
107.68363419105219
  0
LINE
  8
_f-a_250
  6
CONTINUOUS
 62
  250
 10
136.63995177479421
 20
107.68363419105219
 11
136.84178502293275
 21
107.61032047797821
  0
LINE
  8
_f-a_250
  6
CONTINUOUS
 62
  250
 10
136.84178502293275
 20
107.61032047797821
 11
137.22445876331977
 21
107.74695816566168
  0
LINE
  8
_f-a_250
  6
CONTINUOUS
 62
  250
 10
136.86578185291921
 20
107.43198338081021
 11
136.86578185291921
 21
107.57198277045867
  0
LINE
  8
_f-a_250
  6
CONTINUOUS
 62
  250
 10
136.86578185291921
 20
107.57198277045867
 11
136.86578185291921
 21
107.43198338081021
  0
LINE
  8
_f-a_250
  6
CONTINUOUS
 62
  250
 10
136.86578185291921
 20
107.57198277045867
 11
136.86578185291921
 21
107.43198338081021
  0
LINE
  8
_f-a_250
  6
CONTINUOUS
 62
  250
 10
137.22445876331977
 20
107.54864159156469
 11
137.22445876331977
 21
107.7036375098387
  0
LINE
  8
_f-a_250
  6
CONTINUOUS
 62
  250
 10
137.22445876331977
 20
107.7036375098387
 11
137.22445876331977
 21
107.54864159156469
  0
LINE
  8
_f-a_250
  6
CONTINUOUS
 62
  250
 10
137.22445876331977
 20
107.7036375098387
 11
137.22445876331977
 21
107.54864159156469
  0
LINE
  8
_f-a_250
  6
CONTINUOUS
 62
  250
 10
136.8619552347248
 20
107.58030357886969
 11
136.89312846394228
 21
107.46364536811518
  0
LINE
  8
_f-a_250
  6
CONTINUOUS
 62
  250
 10
136.89312846394228
 20
107.46364536811518
 11
137.22445876331977
 21
107.56363812019023
  0
LINE
  8
_f-a_250
  6
CONTINUOUS
 62
  250
 10
137.22445876331977
 20
107.56363812019023
 11
137.19328553410224
 21
107.67865124274869
  0
LINE
  8
_f-a_250
  6
CONTINUOUS
 62
  250
 10
137.19328553410224
 20
107.67865124274869
 11
136.8619552347248
 21
107.58030357886969
  0
LINE
  8
_f-a_250
  6
CONTINUOUS
 62
  250
 10
137.22445876331977
 20
107.56697598029768
 11
136.89312846394228
 21
107.46364536811518
  0
LINE
  8
_f-a_250
  6
CONTINUOUS
 62
  250
 10
136.89312846394228
 20
107.46364536811518
 11
136.8619552347248
 21
107.58030357886969
  0
LINE
  8
_f-a_250
  6
CONTINUOUS
 62
  250
 10
136.8619552347248
 20
107.58030357886969
 11
137.19328553410224
 21
107.68363419105219
  0
LINE
  8
_f-a_250
  6
CONTINUOUS
 62
  250
 10
137.19328553410224
 20
107.68363419105219
 11
137.22445876331977
 21
107.56697598029768
  0
LINE
  8
_f-a_250
  6
CONTINUOUS
 62
  250
 10
134.22399530371959
 20
106.02815214803591
 11
134.22713191242872
 21
106.59198704291973
  0
LINE
  8
_f-a_250
  6
CONTINUOUS
 62
  250
 10
134.22713191242872
 20
106.59198704291973
 11
136.27944654373951
 21
107.31577741993232
  0
LINE
  8
_f-a_250
  6
CONTINUOUS
 62
  250
 10
135.83229109671197
 20
106.03988017545542
 11
134.22713191242872
 21
106.59198704291973
  0
LINE
  8
_f-a_250
  6
CONTINUOUS
 62
  250
 10
136.27944654373951
 20
107.31577741993232
 11
137.8957916354849
 21
106.7679403231122
  0
LINE
  8
_f-a_250
  6
CONTINUOUS
 62
  250
 10
135.82748906138073
 20
105.4447911176087
 11
135.83114930753584
 21
106.03124894249514
  0
LINE
  8
_0-0_0
  6
CONTINUOUS
 62
    7
 10
135.83430930190565
 20
106.0412070081465
 11
137.88615893463333
 21
106.7668611465502
  0
LINE
  8
_0-0_0
  6
CONTINUOUS
 62
    7
 10
134.22285666351948
 20
106.03119798554783
 11
135.81929576800763
 21
105.44567016352553
  0
LINE
  8
_f-a_250
  6
CONTINUOUS
 62
  250
 10
137.96677558620837
 20
107.35480557427209
 11
137.9699121949175
 21
107.91864046915592
  0
LINE
  8
_f-a_250
  6
CONTINUOUS
 62
  250
 10
135.82748906138073
 20
105.4447911176087
 11
137.88409022087575
 21
106.14402546008267
  0
LINE
  8
_f-a_250
  6
CONTINUOUS
 62
  250
 10
137.88409022087575
 20
106.14402546008267
 11
137.8957916354849
 21
106.7679403231122
  0
LINE
  8
_f-a_250
  6
CONTINUOUS
 62
  250
 10
139.57507137920078
 20
107.3665336016916
 11
137.9699121949175
 21
107.91864046915592
  0
LINE
  8
_0-0_0
  6
CONTINUOUS
 62
    7
 10
137.96563694600826
 20
107.357851411784
 11
139.57025610510715
 21
106.76932338164428
  0
LINE
  8
_f-a_250
  6
CONTINUOUS
 62
  250
 10
137.9699121949175
 20
107.91864046915592
 11
140.02222682622829
 21
108.64243084616848
  0
LINE
  8
_f-a_250
  6
CONTINUOUS
 62
  250
 10
140.02222682622829
 20
108.64243084616848
 11
141.63857191797371
 21
108.09459374934838
  0
LINE
  8
_0-0_0
  6
CONTINUOUS
 62
    7
 10
139.57708958439443
 20
107.36786043438266
 11
141.62893921712214
 21
108.09351457278638
  0
LINE
  8
_0-0_0
  6
CONTINUOUS
 62
    7
 10
139.60001255008291
 20
106.77923284529386
 11
141.62793531795126
 21
107.53473348430364
  0
LINE
  8
_f-a_250
  6
CONTINUOUS
 62
  250
 10
139.57025610510715
 20
106.76932338164428
 11
139.57392959002462
 21
107.35790236873132
  0
LINE
  8
_f-a_250
  6
CONTINUOUS
 62
  250
 10
144.26941861675357
 20
110.13490601108376
 11
144.27592744396304
 21
110.28823299930374
  0
LINE
  8
_f-a_250
  6
CONTINUOUS
 62
  250
 10
144.26541318462461
 20
110.28823299930374
 11
144.56558217571359
 21
110.18323345706776
  0
LINE
  8
_f-a_250
  6
CONTINUOUS
 62
  250
 10
144.80907907054961
 20
110.47822876498972
 11
145.10276307628703
 21
110.38159771488026
  0
LINE
  8
_f-a_250
  6
CONTINUOUS
 62
  250
 10
144.25508966014957
 20
110.13657494113724
 11
144.55776204631906
 21
110.03658218906227
  0
LINE
  8
_f-a_250
  6
CONTINUOUS
 62
  250
 10
144.55776204631906
 20
110.03159924075871
 11
144.56242312954009
 21
110.19658489749722
  0
LINE
  8
_f-a_250
  6
CONTINUOUS
 62
  250
 10
145.10276307628703
 20
110.22159500644474
 11
145.10925998256755
 21
110.37823601291473
  0
LINE
  8
_f-a_250
  6
CONTINUOUS
 62
  250
 10
144.56242312954009
 20
110.18990917728226
 11
145.10925998256755
 21
110.37823601291473
  0
LINE
  8
_f-a_250
  6
CONTINUOUS
 62
  250
 10
144.26941861675357
 20
110.28992577121522
 11
144.82408752010406
 21
110.47822876498972
  0
LINE
  8
_f-a_250
  6
CONTINUOUS
 62
  250
 10
144.56242312954009
 20
110.03159924075871
 11
144.65991248653506
 21
110.0682680182247
  0
LINE
  8
_f-a_250
  6
CONTINUOUS
 62
  250
 10
144.58258142040307
 20
110.04325790927675
 11
145.11575688884807
 21
110.22159500644474
  0
LINE
  8
_f-a_250
  6
CONTINUOUS
 62
  250
 10
144.61059560344756
 20
110.22824688480173
 11
144.40158595607858
 21
110.30158443973372
  0
LINE
  8
_f-a_250
  6
CONTINUOUS
 62
  250
 10
144.40158595607858
 20
110.30158443973372
 11
144.61059560344756
 21
110.22824688480173
  0
LINE
  8
_f-a_250
  6
CONTINUOUS
 62
  250
 10
144.40158595607858
 20
110.30158443973372
 11
144.61059560344756
 21
110.22824688480173
  0
LINE
  8
_f-a_250
  6
CONTINUOUS
 62
  250
 10
144.98357762859405
 20
110.36989136264626
 11
144.78441466854156
 21
110.43991489932822
  0
LINE
  8
_f-a_250
  6
CONTINUOUS
 62
  250
 10
144.78441466854156
 20
110.43991489932822
 11
144.98357762859405
 21
110.36989136264626
  0
LINE
  8
_f-a_250
  6
CONTINUOUS
 62
  250
 10
144.78441466854156
 20
110.43991489932822
 11
144.98357762859405
 21
110.36989136264626
  0
LINE
  8
_f-a_250
  6
CONTINUOUS
 62
  250
 10
144.40876235530953
 20
110.30492229984074
 11
144.61059560344756
 21
110.23992939517777
  0
LINE
  8
_f-a_250
  6
CONTINUOUS
 62
  250
 10
144.61059560344756
 20
110.23992939517777
 11
144.99008645580358
 21
110.36490841434275
  0
LINE
  8
_f-a_250
  6
CONTINUOUS
 62
  250
 10
144.99008645580358
 20
110.36490841434275
 11
144.79159106777257
 21
110.43991489932822
  0
LINE
  8
_f-a_250
  6
CONTINUOUS
 62
  250
 10
144.79159106777257
 20
110.43991489932822
 11
144.40876235530953
 21
110.30492229984074
  0
LINE
  8
_f-a_250
  6
CONTINUOUS
 62
  250
 10
144.79159106777257
 20
110.43991489932822
 11
144.40876235530953
 21
110.30492229984074
  0
LINE
  8
_f-a_250
  6
CONTINUOUS
 62
  250
 10
144.40876235530953
 20
110.30492229984074
 11
144.61059560344756
 21
110.23492260501675
  0
LINE
  8
_f-a_250
  6
CONTINUOUS
 62
  250
 10
144.61059560344756
 20
110.23492260501675
 11
144.99008645580358
 21
110.36490841434275
  0
LINE
  8
_f-a_250
  6
CONTINUOUS
 62
  250
 10
144.63524808452706
 20
110.05324764774124
 11
144.63524808452706
 21
110.19658489749722
  0
LINE
  8
_f-a_250
  6
CONTINUOUS
 62
  250
 10
144.63524808452706
 20
110.19658489749722
 11
144.63524808452706
 21
110.05324764774124
  0
LINE
  8
_f-a_250
  6
CONTINUOUS
 62
  250
 10
144.63524808452706
 20
110.19658489749722
 11
144.63524808452706
 21
110.05324764774124
  0
LINE
  8
_f-a_250
  6
CONTINUOUS
 62
  250
 10
144.99725093410558
 20
110.16823692844221
 11
144.99725093410558
 21
110.32823963687724
  0
LINE
  8
_f-a_250
  6
CONTINUOUS
 62
  250
 10
144.99725093410558
 20
110.32823963687724
 11
144.99725093410558
 21
110.16823692844221
  0
LINE
  8
_f-a_250
  6
CONTINUOUS
 62
  250
 10
144.99725093410558
 20
110.32823963687724
 11
144.99725093410558
 21
110.16823692844221
  0
LINE
  8
_f-a_250
  6
CONTINUOUS
 62
  250
 10
144.63142146633209
 20
110.20323677585426
 11
144.66257085369205
 21
110.09158535526072
  0
LINE
  8
_f-a_250
  6
CONTINUOUS
 62
  250
 10
144.66257085369205
 20
110.09158535526072
 11
144.99725093410558
 21
110.18990917728226
  0
LINE
  8
_f-a_250
  6
CONTINUOUS
 62
  250
 10
144.99725093410558
 20
110.18990917728226
 11
144.96209611461705
 21
110.30492229984074
  0
LINE
  8
_f-a_250
  6
CONTINUOUS
 62
  250
 10
144.96209611461705
 20
110.30492229984074
 11
144.63142146633209
 21
110.20323677585426
  0
LINE
  8
_f-a_250
  6
CONTINUOUS
 62
  250
 10
144.99725093410558
 20
110.18990917728226
 11
144.66257085369205
 21
110.09158535526072
  0
LINE
  8
_f-a_250
  6
CONTINUOUS
 62
  250
 10
144.66257085369205
 20
110.09158535526072
 11
144.63142146633209
 21
110.20323677585426
  0
LINE
  8
_f-a_250
  6
CONTINUOUS
 62
  250
 10
144.63142146633209
 20
110.20323677585426
 11
144.96209611461705
 21
110.30492229984074
  0
LINE
  8
_f-a_250
  6
CONTINUOUS
 62
  250
 10
144.96209611461705
 20
110.30492229984074
 11
144.99725093410558
 21
110.18990917728226
  0
LINE
  8
_f-a_250
  6
CONTINUOUS
 62
  250
 10
141.90760590616253
 20
108.56774929570744
 11
141.91074251487163
 21
109.13158419059127
  0
LINE
  8
_f-a_250
  6
CONTINUOUS
 62
  250
 10
143.51590169915488
 20
108.57947732312695
 11
141.91074251487163
 21
109.13158419059127
  0
LINE
  8
_0-0_0
  6
CONTINUOUS
 62
    7
 10
143.51791990434856
 20
108.58080415581802
 11
145.56976953707624
 21
109.30645829422173
  0
LINE
  8
_f-a_250
  6
CONTINUOUS
 62
  250
 10
141.91074251487163
 20
109.13158419059127
 11
143.96305714618245
 21
109.85537456760383
  0
LINE
  8
_f-a_250
  6
CONTINUOUS
 62
  250
 10
143.96305714618245
 20
109.85537456760383
 11
145.57940223792784
 21
109.30753747078373
  0
LINE
  8
_f-a_250
  6
CONTINUOUS
 62
  250
 10
145.54309165815272
 20
109.79175706145287
 11
145.54622826686182
 21
110.3555919563367
  0
LINE
  8
_f-a_250
  6
CONTINUOUS
 62
  250
 10
147.15138745114507
 20
109.80348508887238
 11
145.54622826686182
 21
110.3555919563367
  0
LINE
  8
_0-0_0
  6
CONTINUOUS
 62
    7
 10
147.15340565633875
 20
109.80481192156346
 11
149.20525528906643
 21
110.53046605996715
  0
LINE
  8
_f-a_250
  6
CONTINUOUS
 62
  250
 10
145.54622826686182
 20
110.3555919563367
 11
147.59854289817261
 21
111.07938233334927
  0
LINE
  8
_f-a_250
  6
CONTINUOUS
 62
  250
 10
147.59854289817261
 20
111.07938233334927
 11
149.21488798991803
 21
110.53154523652915
  0
LINE
  8
_f-a_250
  6
CONTINUOUS
 62
  250
 10
149.12377109227367
 20
111.01576482719832
 11
149.1269077009828
 21
111.57959972208214
  0
LINE
  8
_f-a_250
  6
CONTINUOUS
 62
  250
 10
145.56896637776342
 20
108.75110147714115
 11
145.57940223792784
 21
109.30753747078373
  0
LINE
  8
_f-a_250
  6
CONTINUOUS
 62
  250
 10
149.2046385213973
 20
109.98504757263046
 11
149.21488798991803
 21
110.53154523652915
  0
LINE
  8
_0-0_0
  6
CONTINUOUS
 62
    7
 10
141.90646726596242
 20
108.57079513321935
 11
143.51108642506125
 21
107.98226710307964
  0
LINE
  8
_f-a_250
  6
CONTINUOUS
 62
  250
 10
143.51108642506125
 20
107.98226710307964
 11
143.51475990997875
 21
108.57084609016667
  0
LINE
  8
_0-0_0
  6
CONTINUOUS
 62
    7
 10
145.54195301795261
 20
109.79480289896479
 11
147.14657217705147
 21
109.20627486882508
  0
LINE
  8
_f-a_250
  6
CONTINUOUS
 62
  250
 10
147.14657217705147
 20
109.20627486882508
 11
147.15024566196894
 21
109.79485385591209
  0
LINE
  8
_0-0_0
  6
CONTINUOUS
 62
    7
 10
143.52760992599343
 20
108.01331078092676
 11
145.56446362375897
 21
108.75004509713983
  0
LINE
  8
_0-0_0
  6
CONTINUOUS
 62
    7
 10
147.10293822526276
 20
109.22675553704241
 11
149.19396356392633
 21
109.97432418143509
  0
LINE
  8
_0-0_0
  6
CONTINUOUS
 62
    7
 10
149.12263245207356
 20
111.01881066471023
 11
150.71907155656172
 21
110.43328284268793
  0
LINE
  8
_f-a_250
  6
CONTINUOUS
 62
  250
 10
150.73206688526605
 20
111.02749285461783
 11
149.1269077009828
 21
111.57959972208214
  0
LINE
  8
_f-a_250
  6
CONTINUOUS
 62
  250
 10
149.1269077009828
 20
111.57959972208214
 11
151.17922233229359
 21
112.30339009909471
  0
LINE
  8
_0-0_0
  6
CONTINUOUS
 62
    7
 10
150.73408509045973
 20
111.0288196873089
 11
152.78593472318741
 21
111.75447382571261
  0
LINE
  8
_0-0_0
  6
CONTINUOUS
 62
    7
 10
150.74327249360971
 20
110.44020029315806
 11
152.78012619137525
 21
111.12276296847311
  0
LINE
  8
_f-a_250
  6
CONTINUOUS
 62
  250
 10
150.72726484993481
 20
110.4324037967711
 11
150.73092509608992
 21
111.01886162165755
  0
LINE
  8
_f-a_250
  6
CONTINUOUS
 62
  250
 10
141.62808539827552
 20
107.54282632489031
 11
141.63859399860081
 21
108.10314079553926
  0
LINE
  8
_f-a_250
  6
CONTINUOUS
 62
  250
 10
167.10033454032165
 20
117.59983589307255
 11
169.15251053900963
 21
118.32148124829753
  0
LINE
  8
_f-a_250
  6
CONTINUOUS
 62
  250
 10
158.18883217902413
 20
114.68149711743804
 11
158.18883217902413
 21
114.83317901746257
  0
LINE
  8
_f-a_250
  6
CONTINUOUS
 62
  250
 10
158.18233527274361
 20
114.83317901746257
 11
158.48250426383262
 21
114.73483135358303
  0
LINE
  8
_f-a_250
  6
CONTINUOUS
 62
  250
 10
158.72600115866911
 20
115.02815773145157
 11
159.01899375052662
 21
114.92983390943003
  0
LINE
  8
_f-a_250
  6
CONTINUOUS
 62
  250
 10
158.17133225531816
 20
114.68483497754555
 11
158.47215689749962
 21
114.58484222547001
  0
LINE
  8
_f-a_250
  6
CONTINUOUS
 62
  250
 10
158.47215689749962
 20
114.58150436536256
 11
158.47467221350914
 21
114.74317600385153
  0
LINE
  8
_f-a_250
  6
CONTINUOUS
 62
  250
 10
159.02166403861261
 20
114.77150013104902
 11
159.02166403861261
 21
114.92482711926901
  0
LINE
  8
_f-a_250
  6
CONTINUOUS
 62
  250
 10
158.48250426383262
 20
114.73483135358303
 11
159.02866162390913
 21
114.92482711926901
  0
LINE
  8
_f-a_250
  6
CONTINUOUS
 62
  250
 10
158.18883217902413
 20
114.83649303571205
 11
158.73899497123014
 21
115.02481987134404
  0
LINE
  8
_f-a_250
  6
CONTINUOUS
 62
  250
 10
158.47467221350914
 20
114.58150436536256
 11
158.57566632361662
 21
114.61650421277507
  0
LINE
  8
_f-a_250
  6
CONTINUOUS
 62
  250
 10
158.49950350852262
 20
114.58982517377358
 11
159.03266705603815
 21
114.77150013104902
  0
LINE
  8
_f-a_250
  6
CONTINUOUS
 62
  250
 10
158.52682627768766
 20
114.77982093945953
 11
158.32099951834917
 21
114.84984447614154
  0
LINE
  8
_f-a_250
  6
CONTINUOUS
 62
  250
 10
158.32099951834917
 20
114.84984447614154
 11
158.52682627768766
 21
114.77982093945953
  0
LINE
  8
_f-a_250
  6
CONTINUOUS
 62
  250
 10
158.32099951834917
 20
114.84984447614154
 11
158.52682627768766
 21
114.77982093945953
  0
LINE
  8
_f-a_250
  6
CONTINUOUS
 62
  250
 10
158.89983214469166
 20
114.92482711926901
 11
158.69417227835865
 21
114.98984386579001
  0
LINE
  8
_f-a_250
  6
CONTINUOUS
 62
  250
 10
158.69417227835865
 20
114.98984386579001
 11
158.89983214469166
 21
114.92482711926901
  0
LINE
  8
_f-a_250
  6
CONTINUOUS
 62
  250
 10
158.69417227835865
 20
114.98984386579001
 11
158.89983214469166
 21
114.92482711926901
  0
LINE
  8
_f-a_250
  6
CONTINUOUS
 62
  250
 10
158.32099951834917
 20
114.85315849439105
 11
158.52416791053062
 21
114.78482772962055
  0
LINE
  8
_f-a_250
  6
CONTINUOUS
 62
  250
 10
158.52416791053062
 20
114.78482772962055
 11
158.91033448310114
 21
114.91650631085857
  0
LINE
  8
_f-a_250
  6
CONTINUOUS
 62
  250
 10
158.91033448310114
 20
114.91650631085857
 11
158.70449580283415
 21
114.98648216382456
  0
LINE
  8
_f-a_250
  6
CONTINUOUS
 62
  250
 10
158.70449580283415
 20
114.98648216382456
 11
158.32099951834917
 21
114.85315849439105
  0
LINE
  8
_f-a_250
  6
CONTINUOUS
 62
  250
 10
158.70449580283415
 20
114.98648216382456
 11
158.32099951834917
 21
114.85315849439105
  0
LINE
  8
_f-a_250
  6
CONTINUOUS
 62
  250
 10
158.32099951834917
 20
114.85315849439105
 11
158.52416791053062
 21
114.77982093945953
  0
LINE
  8
_f-a_250
  6
CONTINUOUS
 62
  250
 10
158.52416791053062
 20
114.77982093945953
 11
158.91033448310114
 21
114.91650631085857
  0
LINE
  8
_f-a_250
  6
CONTINUOUS
 62
  250
 10
158.54834355445118
 20
114.60649063245255
 11
158.54834355445118
 21
114.74482109204753
  0
LINE
  8
_f-a_250
  6
CONTINUOUS
 62
  250
 10
158.54834355445118
 20
114.74482109204753
 11
158.54834355445118
 21
114.60649063245255
  0
LINE
  8
_f-a_250
  6
CONTINUOUS
 62
  250
 10
158.54834355445118
 20
114.74317600385153
 11
158.54834355445118
 21
114.60649063245255
  0
LINE
  8
_f-a_250
  6
CONTINUOUS
 62
  250
 10
158.91417302222462
 20
114.71649696485004
 11
158.91417302222462
 21
114.87814476148101
  0
LINE
  8
_f-a_250
  6
CONTINUOUS
 62
  250
 10
158.91417302222462
 20
114.87814476148101
 11
158.91417302222462
 21
114.71649696485004
  0
LINE
  8
_f-a_250
  6
CONTINUOUS
 62
  250
 10
158.91417302222462
 20
114.87814476148101
 11
158.91417302222462
 21
114.71649696485004
  0
LINE
  8
_f-a_250
  6
CONTINUOUS
 62
  250
 10
158.54834355445118
 20
114.75647976056557
 11
158.58283080191862
 21
114.63984539166908
  0
LINE
  8
_f-a_250
  6
CONTINUOUS
 62
  250
 10
158.58283080191862
 20
114.63984539166908
 11
158.91033448310114
 21
114.74317600385153
  0
LINE
  8
_f-a_250
  6
CONTINUOUS
 62
  250
 10
158.91033448310114
 20
114.74317600385153
 11
158.87899436087812
 21
114.85315849439105
  0
LINE
  8
_f-a_250
  6
CONTINUOUS
 62
  250
 10
158.87899436087812
 20
114.85315849439105
 11
158.54834355445118
 21
114.75647976056557
  0
LINE
  8
_f-a_250
  6
CONTINUOUS
 62
  250
 10
158.91033448310114
 20
114.73814537183254
 11
158.58283080191862
 21
114.63984539166908
  0
LINE
  8
_f-a_250
  6
CONTINUOUS
 62
  250
 10
158.58283080191862
 20
114.63984539166908
 11
158.54834355445118
 21
114.75647976056557
  0
LINE
  8
_f-a_250
  6
CONTINUOUS
 62
  250
 10
158.54834355445118
 20
114.75647976056557
 11
158.87899436087812
 21
114.85315849439105
  0
LINE
  8
_f-a_250
  6
CONTINUOUS
 62
  250
 10
158.87899436087812
 20
114.85315849439105
 11
158.91033448310114
 21
114.73814537183254
  0
LINE
  8
_f-a_250
  6
CONTINUOUS
 62
  250
 10
165.82815684409363
 20
117.36983348981353
 11
165.82815684409363
 21
117.51982261792604
  0
LINE
  8
_f-a_250
  6
CONTINUOUS
 62
  250
 10
165.82100428672064
 20
117.51982261792604
 11
166.12449921698814
 21
117.41982986585104
  0
LINE
  8
_f-a_250
  6
CONTINUOUS
 62
  250
 10
166.35750569434416
 20
117.718139192023
 11
166.65365733237516
 21
117.61316349164456
  0
LINE
  8
_f-a_250
  6
CONTINUOUS
 62
  250
 10
165.81850089164013
 20
117.37815429822406
 11
166.11332930655712
 21
117.27150966779202
  0
LINE
  8
_f-a_250
  6
CONTINUOUS
 62
  250
 10
166.11332930655712
 20
117.26984073773805
 11
166.11332930655712
 21
117.42817451611954
  0
LINE
  8
_f-a_250
  6
CONTINUOUS
 62
  250
 10
166.66083373160612
 20
117.45649864331706
 11
166.66083373160612
 21
117.61316349164456
  0
LINE
  8
_f-a_250
  6
CONTINUOUS
 62
  250
 10
166.11332930655712
 20
117.42650558606606
 11
166.66483916373463
 21
117.60980178967905
  0
LINE
  8
_f-a_250
  6
CONTINUOUS
 62
  250
 10
165.82815684409363
 20
117.52316047803355
 11
166.37183465094816
 21
117.71482517377358
  0
LINE
  8
_f-a_250
  6
CONTINUOUS
 62
  250
 10
166.11332930655712
 20
117.26984073773805
 11
166.21567048163664
 21
117.30314781323854
  0
LINE
  8
_f-a_250
  6
CONTINUOUS
 62
  250
 10
166.13167561621916
 20
117.27649261609501
 11
166.67267121405811
 21
117.45649864331706
  0
LINE
  8
_f-a_250
  6
CONTINUOUS
 62
  250
 10
166.21166504950762
 20
117.34148552075807
 11
166.20850600333463
 21
117.34148552075807
  0
LINE
  8
_f-a_250
  6
CONTINUOUS
 62
  250
 10
166.16616286368614
 20
117.46815731183501
 11
165.96033610434765
 21
117.53651191846355
  0
LINE
  8
_f-a_250
  6
CONTINUOUS
 62
  250
 10
165.96033610434765
 20
117.53651191846355
 11
166.16616286368614
 21
117.46815731183501
  0
LINE
  8
_f-a_250
  6
CONTINUOUS
 62
  250
 10
165.96033610434765
 20
117.53651191846355
 11
166.16616286368614
 21
117.46815731183501
  0
LINE
  8
_f-a_250
  6
CONTINUOUS
 62
  250
 10
166.53918065161915
 20
117.60484268323405
 11
166.33800305457365
 21
117.67648746625404
  0
LINE
  8
_f-a_250
  6
CONTINUOUS
 62
  250
 10
166.33800305457365
 20
117.67648746625404
 11
166.53918065161915
 21
117.60484268323405
  0
LINE
  8
_f-a_250
  6
CONTINUOUS
 62
  250
 10
166.33800305457365
 20
117.67314960614654
 11
166.53918065161915
 21
117.60484268323405
  0
LINE
  8
_f-a_250
  6
CONTINUOUS
 62
  250
 10
165.96499718756914
 20
117.53982593671306
 11
166.16283692450762
 21
117.46815731183501
  0
LINE
  8
_f-a_250
  6
CONTINUOUS
 62
  250
 10
166.16283692450762
 20
117.46815731183501
 11
166.54566563697111
 21
117.60484268323405
  0
LINE
  8
_f-a_250
  6
CONTINUOUS
 62
  250
 10
166.54566563697111
 20
117.60484268323405
 11
166.3478378209611
 21
117.67314960614654
  0
LINE
  8
_f-a_250
  6
CONTINUOUS
 62
  250
 10
166.3478378209611
 20
117.67314960614654
 11
165.96499718756914
 21
117.53982593671306
  0
LINE
  8
_f-a_250
  6
CONTINUOUS
 62
  250
 10
166.3478378209611
 20
117.67314960614654
 11
165.96499718756914
 21
117.53982593671306
  0
LINE
  8
_f-a_250
  6
CONTINUOUS
 62
  250
 10
165.96499718756914
 20
117.53982593671306
 11
166.16283692450762
 21
117.46815731183501
  0
LINE
  8
_f-a_250
  6
CONTINUOUS
 62
  250
 10
166.16283692450762
 20
117.46815731183501
 11
166.54566563697111
 21
117.60484268323405
  0
LINE
  8
_f-a_250
  6
CONTINUOUS
 62
  250
 10
166.18700064749962
 20
117.28984405652507
 11
166.18700064749962
 21
117.42817451611954
  0
LINE
  8
_f-a_250
  6
CONTINUOUS
 62
  250
 10
166.18700064749962
 20
117.42817451611954
 11
166.18700064749962
 21
117.28984405652507
  0
LINE
  8
_f-a_250
  6
CONTINUOUS
 62
  250
 10
166.18700064749962
 20
117.42817451611954
 11
166.18700064749962
 21
117.28984405652507
  0
LINE
  8
_f-a_250
  6
CONTINUOUS
 62
  250
 10
166.55283011527311
 20
117.40480949536753
 11
166.55283011527311
 21
117.56815006391007
  0
LINE
  8
_f-a_250
  6
CONTINUOUS
 62
  250
 10
166.55283011527311
 20
117.56815006391007
 11
166.55283011527311
 21
117.40480949536753
  0
LINE
  8
_f-a_250
  6
CONTINUOUS
 62
  250
 10
166.55283011527311
 20
117.56815006391007
 11
166.55283011527311
 21
117.40480949536753
  0
LINE
  8
_f-a_250
  6
CONTINUOUS
 62
  250
 10
166.18700064749962
 20
117.43983318463755
 11
166.22284688086711
 21
117.32315113202556
  0
LINE
  8
_f-a_250
  6
CONTINUOUS
 62
  250
 10
166.22284688086711
 20
117.32315113202556
 11
166.54566563697111
 21
117.42650558606606
  0
LINE
  8
_f-a_250
  6
CONTINUOUS
 62
  250
 10
166.54566563697111
 20
117.42650558606606
 11
166.51250161261763
 21
117.53982593671306
  0
LINE
  8
_f-a_250
  6
CONTINUOUS
 62
  250
 10
166.51250161261763
 20
117.53982593671306
 11
166.18700064749962
 21
117.43983318463755
  0
LINE
  8
_f-a_250
  6
CONTINUOUS
 62
  250
 10
166.54566563697111
 20
117.42650558606606
 11
166.22284688086711
 21
117.32315113202556
  0
LINE
  8
_f-a_250
  6
CONTINUOUS
 62
  250
 10
166.22284688086711
 20
117.32315113202556
 11
166.18700064749962
 21
117.43983318463755
  0
LINE
  8
_f-a_250
  6
CONTINUOUS
 62
  250
 10
166.18700064749962
 20
117.43983318463755
 11
166.51250161261763
 21
117.53982593671306
  0
LINE
  8
_f-a_250
  6
CONTINUOUS
 62
  250
 10
166.51250161261763
 20
117.53982593671306
 11
166.54566563697111
 21
117.42650558606606
  0
LINE
  8
_f-a_250
  6
CONTINUOUS
 62
  250
 10
152.69563542095028
 20
112.15667449926873
 11
152.69877202965941
 21
112.72050939415254
  0
LINE
  8
_f-a_250
  6
CONTINUOUS
 62
  250
 10
154.30393121394266
 20
112.16840252668824
 11
152.69877202965941
 21
112.72050939415254
  0
LINE
  8
_0-0_0
  6
CONTINUOUS
 62
    7
 10
154.30594941913634
 20
112.16972935937932
 11
156.35779905186402
 21
112.89538349778302
  0
LINE
  8
_f-a_250
  6
CONTINUOUS
 62
  250
 10
152.69877202965941
 20
112.72050939415254
 11
154.7510866609702
 21
113.44429977116513
  0
LINE
  8
_f-a_250
  6
CONTINUOUS
 62
  250
 10
154.7510866609702
 20
113.44429977116513
 11
156.36743175271562
 21
112.89646267434502
  0
LINE
  8
_f-a_250
  6
CONTINUOUS
 62
  250
 10
156.05984479480793
 20
113.25956576260168
 11
156.06298140351703
 21
113.82340065748551
  0
LINE
  8
_f-a_250
  6
CONTINUOUS
 62
  250
 10
157.66814058780031
 20
113.27129379002119
 11
156.06298140351703
 21
113.82340065748551
  0
LINE
  8
_0-0_0
  6
CONTINUOUS
 62
    7
 10
157.67015879299399
 20
113.27262062271225
 11
159.72200842572167
 21
113.99827476111597
  0
LINE
  8
_f-a_250
  6
CONTINUOUS
 62
  250
 10
156.06298140351703
 20
113.82340065748551
 11
158.11529603482785
 21
114.54719103449807
  0
LINE
  8
_f-a_250
  6
CONTINUOUS
 62
  250
 10
158.11529603482785
 20
114.54719103449807
 11
159.73164112657327
 21
113.99935393767797
  0
LINE
  8
_f-a_250
  6
CONTINUOUS
 62
  250
 10
161.24882002192129
 20
114.49530155576663
 11
159.64366083763804
 21
115.04740842323093
  0
LINE
  8
_f-a_250
  6
CONTINUOUS
 62
  250
 10
159.64366083763804
 20
115.04740842323093
 11
161.69597546894883
 21
115.77119880024352
  0
LINE
  8
_f-a_250
  6
CONTINUOUS
 62
  250
 10
161.69597546894883
 20
115.77119880024352
 11
163.31232056069425
 21
115.22336170342341
  0
LINE
  8
_0-0_0
  6
CONTINUOUS
 62
    7
 10
161.25083822711497
 20
114.49662838845771
 11
163.30268785984265
 21
115.22228252686141
  0
LINE
  8
_f-a_250
  6
CONTINUOUS
 62
  250
 10
159.64052422892891
 20
114.48357352834712
 11
159.64366083763804
 21
115.04740842323093
  0
LINE
  8
_f-a_250
  6
CONTINUOUS
 62
  250
 10
163.53154799874119
 20
115.81087905174962
 11
163.53468460745029
 21
116.37471394663345
  0
LINE
  8
_f-a_250
  6
CONTINUOUS
 62
  250
 10
165.13984379173357
 20
115.82260707916913
 11
163.53468460745029
 21
116.37471394663345
  0
LINE
  8
_f-a_250
  6
CONTINUOUS
 62
  250
 10
167.19164291589735
 20
115.9267523637964
 11
167.20334433050652
 21
116.55066722682591
  0
LINE
  8
_f-a_250
  6
CONTINUOUS
 62
  250
 10
165.13504175640233
 20
115.22751802132241
 11
165.13870200255744
 21
115.81397584620885
  0
LINE
  8
_0-0_0
  6
CONTINUOUS
 62
    7
 10
165.14186199692725
 20
115.82393391186019
 11
167.19371162965493
 21
116.54958805026391
  0
LINE
  8
_0-0_0
  6
CONTINUOUS
 62
    7
 10
163.53040935854108
 20
115.81392488926153
 11
165.12684846302923
 21
115.22839706723923
  0
LINE
  8
_f-a_250
  6
CONTINUOUS
 62
  250
 10
163.53468460745029
 20
116.37471394663345
 11
165.58699923876111
 21
117.09850432364601
  0
LINE
  8
_f-a_250
  6
CONTINUOUS
 62
  250
 10
165.58699923876111
 20
117.09850432364601
 11
167.20334433050652
 21
116.55066722682591
  0
LINE
  8
_f-a_250
  6
CONTINUOUS
 62
  250
 10
168.71572119052331
 20
116.45152578706785
 11
168.71938143667842
 21
117.03798361195429
  0
LINE
  8
_0-0_0
  6
CONTINUOUS
 62
    7
 10
167.11108879266206
 20
117.03793265500698
 11
168.70752789715021
 21
116.45240483298468
  0
LINE
  8
_f-a_250
  6
CONTINUOUS
 62
  250
 10
168.72052322585455
 20
117.04661484491457
 11
167.1153640415713
 21
117.59872171237888
  0
LINE
  8
_f-a_250
  6
CONTINUOUS
 62
  250
 10
169.16767867288209
 20
118.32251208939147
 11
170.78402376462751
 21
117.77467499257135
  0
LINE
  8
_0-0_0
  6
CONTINUOUS
 62
    7
 10
168.72254143104823
 20
117.04794167760565
 11
170.77439106377591
 21
117.77359581600935
  0
LINE
  8
_f-a_250
  6
CONTINUOUS
 62
  250
 10
170.77232235001833
 20
117.15076012954182
 11
170.78402376462751
 21
117.77467499257135
  0
LINE
  8
_f-a_250
  6
CONTINUOUS
 62
  250
 10
167.11222743286217
 20
117.03488681749506
 11
167.1153640415713
 21
117.59872171237888
  0
LINE
  8
_f-a_250
  6
CONTINUOUS
 62
  250
 10
156.3576069553605
 20
112.37260831136015
 11
156.36743175271562
 21
112.89646267434502
  0
LINE
  8
_f-a_250
  6
CONTINUOUS
 62
  250
 10
159.72212358561961
 20
113.4918823661794
 11
159.73164112657327
 21
113.99935393767797
  0
LINE
  8
_f-a_250
  6
CONTINUOUS
 62
  250
 10
163.30232408291562
 20
114.69035340721862
 11
163.31232056069425
 21
115.22336170342341
  0
LINE
  8
_0-0_0
  6
CONTINUOUS
 62
    7
 10
152.69449678075017
 20
112.15972033678065
 11
154.29911593984906
 21
111.57119230664094
  0
LINE
  8
_f-a_250
  6
CONTINUOUS
 62
  250
 10
154.29911593984906
 20
111.57119230664094
 11
154.30278942476653
 21
112.15977129372796
  0
LINE
  8
_0-0_0
  6
CONTINUOUS
 62
    7
 10
156.05870615460782
 20
113.26261160011359
 11
157.66332531370671
 21
112.67408356997387
  0
LINE
  8
_f-a_250
  6
CONTINUOUS
 62
  250
 10
157.66332531370671
 20
112.67408356997387
 11
157.66699879862418
 21
113.26266255706091
  0
LINE
  8
_0-0_0
  6
CONTINUOUS
 62
    7
 10
159.6393855887288
 20
114.48661936585904
 11
161.24400474782769
 21
113.89809133571933
  0
LINE
  8
_f-a_250
  6
CONTINUOUS
 62
  250
 10
161.24400474782769
 20
113.89809133571933
 11
161.24767823274516
 21
114.48667032280635
  0
LINE
  8
_0-0_0
  6
CONTINUOUS
 62
    7
 10
154.31318557117078
 20
111.57521619327719
 11
156.35003926893634
 21
112.35528782220868
  0
LINE
  8
_0-0_0
  6
CONTINUOUS
 62
    7
 10
157.67182730684803
 20
112.69115199577639
 11
159.71951533279321
 21
113.4928922810671
  0
LINE
  8
_0-0_0
  6
CONTINUOUS
 62
    7
 10
161.23632127793775
 20
113.89376242371245
 11
163.32734661660132
 21
114.68466838082354
  0
LINE
  8
_0-0_0
  6
CONTINUOUS
 62
    7
 10
165.13667942259519
 20
115.21555046162413
 11
167.19520177671995
 21
115.90894746511879
  0
LINE
  8
_0-0_0
  6
CONTINUOUS
 62
    7
 10
168.72284205004411
 20
116.46149820227859
 11
170.78136440416887
 21
117.15489520577324
  0
LINE
  8
_f-a_250
  6
CONTINUOUS
 62
  250
 10
152.78200278827072
 20
111.12217677305675
 11
152.79370420287989
 21
111.74609163608628
  0
LINE
  8
_0-0_0
  6
CONTINUOUS
 62
    7
 10
151.19212080143916
 20
112.29382783314671
 11
152.78785349557529
 21
111.75799139341834
  0
LINE
  8
_f-a_250
  6
CONTINUOUS
 62
  250
 10
151.06594235707448
 20
112.5365457899635
 11
151.06594235707448
 21
112.68822768998797
  0
LINE
  8
_f-a_250
  6
CONTINUOUS
 62
  250
 10
151.06594235707448
 20
112.68822768998797
 11
151.36594445515797
 21
112.591548956162
  0
LINE
  8
_f-a_250
  6
CONTINUOUS
 62
  250
 10
151.60628230382153
 20
112.88487533403051
 11
151.89860732365801
 21
112.788196600205
  0
LINE
  8
_f-a_250
  6
CONTINUOUS
 62
  250
 10
151.06193692494551
 20
112.543221510178
 11
151.36277348805598
 21
112.44322875810298
  0
LINE
  8
_f-a_250
  6
CONTINUOUS
 62
  250
 10
151.36277348805598
 20
112.4398908979955
 11
151.36277348805598
 21
112.59820083451899
  0
LINE
  8
_f-a_250
  6
CONTINUOUS
 62
  250
 10
151.9064393739815
 20
112.626548803574
 11
151.90959842015454
 21
112.783213651902
  0
LINE
  8
_f-a_250
  6
CONTINUOUS
 62
  250
 10
151.36277348805598
 20
112.59488681626948
 11
151.90959842015454
 21
112.77989963365249
  0
LINE
  8
_f-a_250
  6
CONTINUOUS
 62
  250
 10
151.06594235707448
 20
112.69821742845198
 11
151.6237822275275
 21
112.881561315781
  0
LINE
  8
_f-a_250
  6
CONTINUOUS
 62
  250
 10
151.36277348805598
 20
112.4398908979955
 11
151.46293313313649
 21
112.47653583360346
  0
LINE
  8
_f-a_250
  6
CONTINUOUS
 62
  250
 10
151.37910516072452
 20
112.44823554826399
 11
151.91293628026202
 21
112.62988666368148
  0
LINE
  8
_f-a_250
  6
CONTINUOUS
 62
  250
 10
151.41094596196345
 20
112.63820747209246
 11
151.20911271382496
 21
112.70987609696999
  0
LINE
  8
_f-a_250
  6
CONTINUOUS
 62
  250
 10
151.20911271382496
 20
112.70987609696999
 11
151.41094596196345
 21
112.63820747209246
  0
LINE
  8
_f-a_250
  6
CONTINUOUS
 62
  250
 10
151.20911271382496
 20
112.70987609696999
 11
151.41094596196345
 21
112.63820747209246
  0
LINE
  8
_f-a_250
  6
CONTINUOUS
 62
  250
 10
151.20911271382496
 20
112.70987609696999
 11
151.41094596196345
 21
112.64154533219948
  0
LINE
  8
_f-a_250
  6
CONTINUOUS
 62
  250
 10
151.41094596196345
 20
112.64154533219948
 11
151.793774674427
 21
112.77489284349099
  0
LINE
  8
_f-a_250
  6
CONTINUOUS
 62
  250
 10
151.793774674427
 20
112.77489284349099
 11
151.59194142628849
 21
112.84653762651098
  0
LINE
  8
_f-a_250
  6
CONTINUOUS
 62
  250
 10
151.59194142628849
 20
112.84653762651098
 11
151.20911271382496
 21
112.70987609696999
  0
LINE
  8
_f-a_250
  6
CONTINUOUS
 62
  250
 10
151.59194142628849
 20
112.84653762651098
 11
151.20911271382496
 21
112.70987609696999
  0
LINE
  8
_f-a_250
  6
CONTINUOUS
 62
  250
 10
151.20911271382496
 20
112.70987609696999
 11
151.41094596196345
 21
112.64321426225345
  0
LINE
  8
_f-a_250
  6
CONTINUOUS
 62
  250
 10
151.41094596196345
 20
112.64321426225345
 11
151.793774674427
 21
112.77489284349099
  0
LINE
  8
_f-a_250
  6
CONTINUOUS
 62
  250
 10
151.4284458856695
 20
112.46320823503149
 11
151.43178374577701
 21
112.59820083451899
  0
LINE
  8
_f-a_250
  6
CONTINUOUS
 62
  250
 10
151.43178374577701
 20
112.59820083451899
 11
151.4284458856695
 21
112.46320823503149
  0
LINE
  8
_f-a_250
  6
CONTINUOUS
 62
  250
 10
151.43178374577701
 20
112.59820083451899
 11
151.4284458856695
 21
112.46320823503149
  0
LINE
  8
_f-a_250
  6
CONTINUOUS
 62
  250
 10
151.793774674427
 20
112.57655242753651
 11
151.79760129262149
 21
112.73822406602551
  0
LINE
  8
_f-a_250
  6
CONTINUOUS
 62
  250
 10
151.4284458856695
 20
112.61322120500247
 11
151.46293313313649
 21
112.49987701249748
  0
LINE
  8
_f-a_250
  6
CONTINUOUS
 62
  250
 10
151.46293313313649
 20
112.49987701249748
 11
151.793774674427
 21
112.59488681626948
  0
LINE
  8
_f-a_250
  6
CONTINUOUS
 62
  250
 10
151.793774674427
 20
112.59488681626948
 11
151.76244647313297
 21
112.70987609696999
  0
LINE
  8
_f-a_250
  6
CONTINUOUS
 62
  250
 10
151.76244647313297
 20
112.70987609696999
 11
151.4284458856695
 21
112.61322120500247
  0
LINE
  8
_f-a_250
  6
CONTINUOUS
 62
  250
 10
151.793774674427
 20
112.59488681626948
 11
151.46293313313649
 21
112.49987701249748
  0
LINE
  8
_f-a_250
  6
CONTINUOUS
 62
  250
 10
151.46293313313649
 20
112.49987701249748
 11
151.4284458856695
 21
112.61322120500247
  0
LINE
  8
_f-a_250
  6
CONTINUOUS
 62
  250
 10
151.4284458856695
 20
112.61322120500247
 11
151.76244647313297
 21
112.70987609696999
  0
LINE
  8
_f-a_250
  6
CONTINUOUS
 62
  250
 10
172.71939608331496
 20
119.70005168132603
 11
172.72390219446044
 21
119.85340251140455
  0
LINE
  8
_f-a_250
  6
CONTINUOUS
 62
  250
 10
172.71939608331496
 20
119.85340251140455
 11
173.02006575342
 21
119.75174082927553
  0
LINE
  8
_f-a_250
  6
CONTINUOUS
 62
  250
 10
173.25973603006196
 20
120.04840506725152
 11
173.55339619394147
 21
119.94674338512256
  0
LINE
  8
_f-a_250
  6
CONTINUOUS
 62
  250
 10
172.70956131692748
 20
119.71006526164855
 11
173.00839516397298
 21
119.60506571941205
  0
LINE
  8
_f-a_250
  6
CONTINUOUS
 62
  250
 10
173.00839516397298
 20
119.60172785930455
 11
173.00839516397298
 21
119.76506842784705
  0
LINE
  8
_f-a_250
  6
CONTINUOUS
 62
  250
 10
173.56057259317248
 20
119.79007853679504
 11
173.56306406732398
 21
119.94674338512256
  0
LINE
  8
_f-a_250
  6
CONTINUOUS
 62
  250
 10
173.01622721429646
 20
119.76337565593555
 11
173.56306406732398
 21
119.94340552501502
  0
LINE
  8
_f-a_250
  6
CONTINUOUS
 62
  250
 10
172.71939608331496
 20
119.85674037151206
 11
173.27072712655848
 21
120.04339827709056
  0
LINE
  8
_f-a_250
  6
CONTINUOUS
 62
  250
 10
173.00839516397298
 20
119.60172785930455
 11
173.11390730615449
 21
119.64006556682456
  0
LINE
  8
_f-a_250
  6
CONTINUOUS
 62
  250
 10
173.03705307718099
 20
119.61007250957353
 11
173.57024046655494
 21
119.79007853679504
  0
LINE
  8
_f-a_250
  6
CONTINUOUS
 62
  250
 10
173.10673090692347
 20
119.67837943248607
 11
173.10407253976643
 21
119.67837943248607
  0
LINE
  8
_f-a_250
  6
CONTINUOUS
 62
  250
 10
173.06506726022548
 20
119.80006827525953
 11
172.85540196176345
 21
119.87004412822553
  0
LINE
  8
_f-a_250
  6
CONTINUOUS
 62
  250
 10
172.85540196176345
 20
119.87004412822553
 11
173.06506726022548
 21
119.80006827525953
  0
LINE
  8
_f-a_250
  6
CONTINUOUS
 62
  250
 10
172.85540196176345
 20
119.87004412822553
 11
173.06506726022548
 21
119.80006827525953
  0
LINE
  8
_f-a_250
  6
CONTINUOUS
 62
  250
 10
173.44139906640845
 20
119.94006766490749
 11
173.23306891198945
 21
120.01171244792802
  0
LINE
  8
_f-a_250
  6
CONTINUOUS
 62
  250
 10
173.23306891198945
 20
120.01171244792802
 11
173.44139906640845
 21
119.94006766490749
  0
LINE
  8
_f-a_250
  6
CONTINUOUS
 62
  250
 10
173.23306891198945
 20
120.01171244792802
 11
173.44139906640845
 21
119.94006766490749
  0
LINE
  8
_f-a_250
  6
CONTINUOUS
 62
  250
 10
172.86255451913695
 20
119.87340583019103
 11
173.06506726022548
 21
119.80340613536656
  0
LINE
  8
_f-a_250
  6
CONTINUOUS
 62
  250
 10
173.06506726022548
 20
119.80340613536656
 11
173.44522568460297
 21
119.94006766490749
  0
LINE
  8
_f-a_250
  6
CONTINUOUS
 62
  250
 10
173.44522568460297
 20
119.94006766490749
 11
173.24223610635596
 21
120.00839842967856
  0
LINE
  8
_f-a_250
  6
CONTINUOUS
 62
  250
 10
173.24223610635596
 20
120.00839842967856
 11
172.86255451913695
 21
119.87340583019103
  0
LINE
  8
_f-a_250
  6
CONTINUOUS
 62
  250
 10
173.24223610635596
 20
120.00839842967856
 11
172.86255451913695
 21
119.87340583019103
  0
LINE
  8
_f-a_250
  6
CONTINUOUS
 62
  250
 10
172.86255451913695
 20
119.87340583019103
 11
173.061228721102
 21
119.80340613536656
  0
LINE
  8
_f-a_250
  6
CONTINUOUS
 62
  250
 10
173.061228721102
 20
119.80340613536656
 11
173.44522568460297
 21
119.94006766490749
  0
LINE
  8
_f-a_250
  6
CONTINUOUS
 62
  250
 10
173.08722826715297
 20
119.62673796825256
 11
173.08722826715297
 21
119.76506842784705
  0
LINE
  8
_f-a_250
  6
CONTINUOUS
 62
  250
 10
173.08722826715297
 20
119.76506842784705
 11
173.08722826715297
 21
119.62673796825256
  0
LINE
  8
_f-a_250
  6
CONTINUOUS
 62
  250
 10
173.08722826715297
 20
119.76506842784705
 11
173.08722826715297
 21
119.62673796825256
  0
LINE
  8
_f-a_250
  6
CONTINUOUS
 62
  250
 10
173.45305773492646
 20
119.74172724895301
 11
173.45305773492646
 21
119.89841593913853
  0
LINE
  8
_f-a_250
  6
CONTINUOUS
 62
  250
 10
173.45305773492646
 20
119.89841593913853
 11
173.45305773492646
 21
119.74172724895301
  0
LINE
  8
_f-a_250
  6
CONTINUOUS
 62
  250
 10
173.45305773492646
 20
119.89841593913853
 11
173.45305773492646
 21
119.74172724895301
  0
LINE
  8
_f-a_250
  6
CONTINUOUS
 62
  250
 10
173.08722826715297
 20
119.77672709636552
 11
173.11838957544148
 21
119.65839995555702
  0
LINE
  8
_f-a_250
  6
CONTINUOUS
 62
  250
 10
173.11838957544148
 20
119.65839995555702
 11
173.44522568460297
 21
119.76337565593555
  0
LINE
  8
_f-a_250
  6
CONTINUOUS
 62
  250
 10
173.44522568460297
 20
119.76337565593555
 11
173.41272923227149
 21
119.87340583019103
  0
LINE
  8
_f-a_250
  6
CONTINUOUS
 62
  250
 10
173.41272923227149
 20
119.87340583019103
 11
173.08722826715297
 21
119.77672709636552
  0
LINE
  8
_f-a_250
  6
CONTINUOUS
 62
  250
 10
173.44522568460297
 20
119.76337565593555
 11
173.11838957544148
 21
119.65839995555702
  0
LINE
  8
_f-a_250
  6
CONTINUOUS
 62
  250
 10
173.11838957544148
 20
119.65839995555702
 11
173.08722826715297
 21
119.77672709636552
  0
LINE
  8
_f-a_250
  6
CONTINUOUS
 62
  250
 10
173.08722826715297
 20
119.77672709636552
 11
173.41272923227149
 21
119.87340583019103
  0
LINE
  8
_f-a_250
  6
CONTINUOUS
 62
  250
 10
173.41272923227149
 20
119.87340583019103
 11
173.44522568460297
 21
119.76337565593555
  0
LINE
  8
_f-a_250
  6
CONTINUOUS
 62
  250
 10
180.30788990732046
 20
122.13173045329906
 11
180.30788990732046
 21
122.28505744151904
  0
LINE
  8
_f-a_250
  6
CONTINUOUS
 62
  250
 10
180.30272814508299
 20
122.28007449321605
 11
180.60406538720946
 21
122.18005789928249
  0
LINE
  8
_f-a_250
  6
CONTINUOUS
 62
  250
 10
180.84756228204549
 20
122.48005999736607
 11
181.14256951089698
 21
122.38006724529104
  0
LINE
  8
_f-a_250
  6
CONTINUOUS
 62
  250
 10
180.29688688989495
 20
122.13506831340653
 11
180.59640022989097
 21
122.03171385936606
  0
LINE
  8
_f-a_250
  6
CONTINUOUS
 62
  250
 10
180.59640022989097
 20
122.02673091106253
 11
180.59955927606444
 21
122.19505442790806
  0
LINE
  8
_f-a_250
  6
CONTINUOUS
 62
  250
 10
181.14256951089698
 20
122.21675051860656
 11
181.14706370111298
 21
122.37672938518354
  0
LINE
  8
_f-a_250
  6
CONTINUOUS
 62
  250
 10
180.59955927606444
 20
122.1883787076935
 11
181.14706370111298
 21
122.37172259502252
  0
LINE
  8
_f-a_250
  6
CONTINUOUS
 62
  250
 10
180.30788990732046
 20
122.29006423168003
 11
180.85806462045497
 21
122.47338427715151
  0
LINE
  8
_f-a_250
  6
CONTINUOUS
 62
  250
 10
180.59640022989097
 20
122.02673091106253
 11
180.69790693994346
 21
122.06840647868951
  0
LINE
  8
_f-a_250
  6
CONTINUOUS
 62
  250
 10
180.62106463189895
 20
122.03674449138505
 11
181.15040156122046
 21
122.21839560680253
  0
LINE
  8
_f-a_250
  6
CONTINUOUS
 62
  250
 10
180.64706417794994
 20
122.22671641521303
 11
180.44656607385497
 21
122.30007781200256
  0
LINE
  8
_f-a_250
  6
CONTINUOUS
 62
  250
 10
180.44656607385497
 20
122.30007781200256
 11
180.64706417794994
 21
122.22671641521303
  0
LINE
  8
_f-a_250
  6
CONTINUOUS
 62
  250
 10
180.44656607385497
 20
122.30007781200256
 11
180.64706417794994
 21
122.22671641521303
  0
LINE
  8
_f-a_250
  6
CONTINUOUS
 62
  250
 10
181.02005812402547
 20
122.36840857677301
 11
180.82224222894496
 21
122.44339121990053
  0
LINE
  8
_f-a_250
  6
CONTINUOUS
 62
  250
 10
180.82224222894496
 20
122.44339121990053
 11
181.02005812402547
 21
122.36840857677301
  0
LINE
  8
_f-a_250
  6
CONTINUOUS
 62
  250
 10
180.82224222894496
 20
122.44339121990053
 11
181.02005812402547
 21
122.36840857677301
  0
LINE
  8
_f-a_250
  6
CONTINUOUS
 62
  250
 10
180.44656607385497
 20
122.30672969035952
 11
180.64706417794994
 21
122.23339213542802
  0
LINE
  8
_f-a_250
  6
CONTINUOUS
 62
  250
 10
180.64706417794994
 20
122.23339213542802
 11
181.02539870019746
 21
122.36840857677301
  0
LINE
  8
_f-a_250
  6
CONTINUOUS
 62
  250
 10
181.02539870019746
 20
122.36840857677301
 11
180.82673641916097
 21
122.43840827159705
  0
LINE
  8
_f-a_250
  6
CONTINUOUS
 62
  250
 10
180.82673641916097
 20
122.43840827159705
 11
180.44656607385497
 21
122.30672969035952
  0
LINE
  8
_f-a_250
  6
CONTINUOUS
 62
  250
 10
180.83323332544148
 20
122.43840827159705
 11
180.44656607385497
 21
122.30672969035952
  0
LINE
  8
_f-a_250
  6
CONTINUOUS
 62
  250
 10
180.44656607385497
 20
122.30672969035952
 11
180.64706417794994
 21
122.23339213542802
  0
LINE
  8
_f-a_250
  6
CONTINUOUS
 62
  250
 10
180.64706417794994
 20
122.23339213542802
 11
181.02539870019746
 21
122.36840857677301
  0
LINE
  8
_f-a_250
  6
CONTINUOUS
 62
  250
 10
180.66922518487746
 20
122.05672396831353
 11
180.67306372400145
 21
122.19505442790806
  0
LINE
  8
_f-a_250
  6
CONTINUOUS
 62
  250
 10
180.67306372400145
 20
122.19505442790806
 11
180.66922518487746
 21
122.05672396831353
  0
LINE
  8
_f-a_250
  6
CONTINUOUS
 62
  250
 10
180.67306372400145
 20
122.19505442790806
 11
180.66922518487746
 21
122.05672396831353
  0
LINE
  8
_f-a_250
  6
CONTINUOUS
 62
  250
 10
181.03189560647797
 20
122.16839923076454
 11
181.03189560647797
 21
122.32670916728803
  0
LINE
  8
_f-a_250
  6
CONTINUOUS
 62
  250
 10
181.03189560647797
 20
122.32670916728803
 11
181.03189560647797
 21
122.16839923076454
  0
LINE
  8
_f-a_250
  6
CONTINUOUS
 62
  250
 10
181.03189560647797
 20
122.32670916728803
 11
181.03189560647797
 21
122.16839923076454
  0
LINE
  8
_f-a_250
  6
CONTINUOUS
 62
  250
 10
180.66922518487746
 20
122.20173014812305
 11
180.704391925295
 21
122.09172381572553
  0
LINE
  8
_f-a_250
  6
CONTINUOUS
 62
  250
 10
180.704391925295
 20
122.09172381572553
 11
181.03189560647797
 21
122.1883787076935
  0
LINE
  8
_f-a_250
  6
CONTINUOUS
 62
  250
 10
181.03189560647797
 20
122.1883787076935
 11
180.99674078698945
 21
122.30339183025201
  0
LINE
  8
_f-a_250
  6
CONTINUOUS
 62
  250
 10
180.99674078698945
 20
122.30339183025201
 11
180.66922518487746
 21
122.20173014812305
  0
LINE
  8
_f-a_250
  6
CONTINUOUS
 62
  250
 10
181.03189560647797
 20
122.1883787076935
 11
180.704391925295
 21
122.09172381572553
  0
LINE
  8
_f-a_250
  6
CONTINUOUS
 62
  250
 10
180.704391925295
 20
122.09172381572553
 11
180.66922518487746
 21
122.20173014812305
  0
LINE
  8
_f-a_250
  6
CONTINUOUS
 62
  250
 10
180.66922518487746
 20
122.20173014812305
 11
180.99674078698945
 21
122.30339183025201
  0
LINE
  8
_f-a_250
  6
CONTINUOUS
 62
  250
 10
180.99674078698945
 20
122.30339183025201
 11
181.03189560647797
 21
122.1883787076935
  0
LINE
  8
_f-a_250
  6
CONTINUOUS
 62
  250
 10
170.7504960133914
 20
118.24927082568603
 11
170.7536326221005
 21
118.81310572056984
  0
LINE
  8
_f-a_250
  6
CONTINUOUS
 62
  250
 10
172.35879180638375
 20
118.26099885310553
 11
170.7536326221005
 21
118.81310572056984
  0
LINE
  8
_f-a_250
  6
CONTINUOUS
 62
  250
 10
174.41059093054753
 20
118.36514413773278
 11
174.42229234515668
 21
118.98905900076231
  0
LINE
  8
_f-a_250
  6
CONTINUOUS
 62
  250
 10
172.35398977105251
 20
117.66590979525881
 11
172.35765001720762
 21
118.25236762014525
  0
LINE
  8
_0-0_0
  6
CONTINUOUS
 62
    7
 10
172.36081001157743
 20
118.2623256857966
 11
174.41265964430511
 21
118.98797982420031
  0
LINE
  8
_0-0_0
  6
CONTINUOUS
 62
    7
 10
170.74935737319129
 20
118.25231666319793
 11
172.34579647767941
 21
117.66678884117563
  0
LINE
  8
_f-a_250
  6
CONTINUOUS
 62
  250
 10
170.7536326221005
 20
118.81310572056984
 11
172.80594725341129
 21
119.53689609758241
  0
LINE
  8
_f-a_250
  6
CONTINUOUS
 62
  250
 10
172.80594725341129
 20
119.53689609758241
 11
174.42229234515668
 21
118.98905900076231
  0
LINE
  8
_f-a_250
  6
CONTINUOUS
 62
  250
 10
175.93466920517349
 20
118.88991756100425
 11
175.93832945132857
 21
119.47637538589069
  0
LINE
  8
_0-0_0
  6
CONTINUOUS
 62
    7
 10
174.33003680731224
 20
119.47632442894337
 11
175.92647591180037
 21
118.89079660692107
  0
LINE
  8
_f-a_250
  6
CONTINUOUS
 62
  250
 10
175.93947124050473
 20
119.48500661885097
 11
174.33431205622145
 21
120.03711348631528
  0
LINE
  8
_f-a_250
  6
CONTINUOUS
 62
  250
 10
174.33431205622145
 20
120.03711348631528
 11
176.38662668753227
 21
120.76090386332785
  0
LINE
  8
_f-a_250
  6
CONTINUOUS
 62
  250
 10
176.38662668753227
 20
120.76090386332785
 11
178.00297177927769
 21
120.21306676650775
  0
LINE
  8
_0-0_0
  6
CONTINUOUS
 62
    7
 10
175.94148944569838
 20
119.48633345154204
 11
177.99333907842609
 21
120.21198758994575
  0
LINE
  8
_f-a_250
  6
CONTINUOUS
 62
  250
 10
177.99127036466848
 20
119.58915190347822
 11
178.00297177927769
 21
120.21306676650775
  0
LINE
  8
_f-a_250
  6
CONTINUOUS
 62
  250
 10
174.33117544751235
 20
119.47327859143147
 11
174.33431205622145
 21
120.03711348631528
  0
LINE
  8
_f-a_250
  6
CONTINUOUS
 62
  250
 10
178.14120514465327
 20
120.67909300582693
 11
178.14434175336237
 21
121.24292790071074
  0
LINE
  8
_f-a_250
  6
CONTINUOUS
 62
  250
 10
179.74950093764565
 20
120.69082103324644
 11
178.14434175336237
 21
121.24292790071074
  0
LINE
  8
_f-a_250
  6
CONTINUOUS
 62
  250
 10
181.80130006180943
 20
120.79496631787369
 11
181.81300147641861
 21
121.41888118090321
  0
LINE
  8
_f-a_250
  6
CONTINUOUS
 62
  250
 10
179.74469890231441
 20
120.0957319753997
 11
179.74835914846952
 21
120.68218980028615
  0
LINE
  8
_0-0_0
  6
CONTINUOUS
 62
    7
 10
179.75151914283933
 20
120.6921478659375
 11
181.80336877556701
 21
121.41780200434121
  0
LINE
  8
_0-0_0
  6
CONTINUOUS
 62
    7
 10
178.14006650445316
 20
120.68213884333883
 11
179.73650560894131
 21
120.09661102131653
  0
LINE
  8
_f-a_250
  6
CONTINUOUS
 62
  250
 10
178.14434175336237
 20
121.24292790071074
 11
180.19665638467319
 21
121.96671827772332
  0
LINE
  8
_f-a_250
  6
CONTINUOUS
 62
  250
 10
180.19665638467319
 20
121.96671827772332
 11
181.81300147641861
 21
121.41888118090321
  0
LINE
  8
_f-a_250
  6
CONTINUOUS
 62
  250
 10
183.32537833643539
 20
121.31973974114516
 11
183.3290385825905
 21
121.90619756603158
  0
LINE
  8
_0-0_0
  6
CONTINUOUS
 62
    7
 10
181.72074593857414
 20
121.90614660908427
 11
183.3171850430623
 21
121.32061878706197
  0
LINE
  8
_f-a_250
  6
CONTINUOUS
 62
  250
 10
183.33018037176663
 20
121.91482879899186
 11
181.72502118748338
 21
122.46693566645618
  0
LINE
  8
_f-a_250
  6
CONTINUOUS
 62
  250
 10
181.72502118748338
 20
122.46693566645618
 11
183.77733581879417
 21
123.19072604346876
  0
LINE
  8
_f-a_250
  6
CONTINUOUS
 62
  250
 10
183.77733581879417
 20
123.19072604346876
 11
185.39368091053959
 21
122.64288894664864
  0
LINE
  8
_0-0_0
  6
CONTINUOUS
 62
    7
 10
183.33219857696031
 20
121.91615563168294
 11
185.38404820968799
 21
122.64180977008664
  0
LINE
  8
_f-a_250
  6
CONTINUOUS
 62
  250
 10
185.38197949593041
 20
122.01897408361913
 11
185.39368091053959
 21
122.64288894664864
  0
LINE
  8
_f-a_250
  6
CONTINUOUS
 62
  250
 10
181.72188457877425
 20
121.90310077157235
 11
181.72502118748338
 21
122.46693566645618
  0
LINE
  8
_f-a_250
  6
CONTINUOUS
 62
  250
 10
185.69390242125792
 20
123.31140036764623
 11
185.69703902996702
 21
123.87523526253004
  0
LINE
  8
_f-a_250
  6
CONTINUOUS
 62
  250
 10
187.30219821425027
 20
123.32312839506574
 11
185.69703902996702
 21
123.87523526253004
  0
LINE
  8
_f-a_250
  6
CONTINUOUS
 62
  250
 10
187.29739617891903
 20
122.72803933721902
 11
187.30105642507414
 21
123.31449716210545
  0
LINE
  8
_0-0_0
  6
CONTINUOUS
 62
    7
 10
187.30421641944395
 20
123.3244552277568
 11
189.35606605217163
 21
124.05010936616051
  0
LINE
  8
_0-0_0
  6
CONTINUOUS
 62
    7
 10
185.69276378105781
 20
123.31444620515813
 11
187.28920288554593
 21
122.72891838313583
  0
LINE
  8
_f-a_250
  6
CONTINUOUS
 62
  250
 10
185.69703902996702
 20
123.87523526253004
 11
187.74935366127781
 21
124.59902563954262
  0
LINE
  8
_f-a_250
  6
CONTINUOUS
 62
  250
 10
187.74935366127781
 20
124.59902563954262
 11
189.36569875302322
 21
124.05118854272251
  0
LINE
  8
_0-0_0
  6
CONTINUOUS
 62
    7
 10
172.323740638966
 20
117.67267822401014
 11
174.39309732127037
 21
118.3552408993252
  0
LINE
  8
_0-0_0
  6
CONTINUOUS
 62
    7
 10
175.95324057913334
 20
118.87528865194619
 11
177.9900942768989
 21
119.56868565544085
  0
LINE
  8
_0-0_0
  6
CONTINUOUS
 62
    7
 10
179.72358678563552
 20
120.11040206442104
 11
181.7712748115807
 21
120.79296473973609
  0
LINE
  8
_0-0_0
  6
CONTINUOUS
 62
    7
 10
183.34225239762327
 20
121.29134383599788
 11
185.38994042356842
 21
122.00640949585174
  0
LINE
  8
_0-0_0
  6
CONTINUOUS
 62
    7
 10
187.31845083953795
 20
122.74314381206482
 11
189.35530453730348
 21
123.41487215920027
  0
LINE
  8
_f-a_250
  6
CONTINUOUS
 62
  250
 10
194.94249533901944
 20
127.11576743750594
 11
194.94249533901944
 21
127.26911826758395
  0
LINE
  8
_f-a_250
  6
CONTINUOUS
 62
  250
 10
194.94249533901944
 20
127.26911826758395
 11
195.23915957699595
 21
127.16745658545496
  0
LINE
  8
_f-a_250
  6
CONTINUOUS
 62
  250
 10
195.47913979779042
 20
127.46412082343095
 11
195.77249001751693
 21
127.36744208960543
  0
LINE
  8
_f-a_250
  6
CONTINUOUS
 62
  250
 10
194.93249367962642
 20
127.12413592963249
 11
195.22915791760241
 21
127.01911254553796
  0
LINE
  8
_f-a_250
  6
CONTINUOUS
 62
  250
 10
195.23082684765592
 20
127.01911254553796
 11
195.23082684765592
 21
127.18078418402693
  0
LINE
  8
_f-a_250
  6
CONTINUOUS
 62
  250
 10
195.77916573773192
 20
127.20579429297443
 11
195.77916573773192
 21
127.36410422949798
  0
LINE
  8
_f-a_250
  6
CONTINUOUS
 62
  250
 10
195.23082684765592
 20
127.17577739386594
 11
195.78582953701792
 21
127.36410422949798
  0
LINE
  8
_f-a_250
  6
CONTINUOUS
 62
  250
 10
194.94249533901944
 20
127.27579398779891
 11
195.49249123821991
 21
127.46412082343095
  0
LINE
  8
_f-a_250
  6
CONTINUOUS
 62
  250
 10
195.23082684765592
 20
127.01911254553796
 11
195.33581446896343
 21
127.05244346289645
  0
LINE
  8
_f-a_250
  6
CONTINUOUS
 62
  250
 10
195.25248717556744
 20
127.02411933569944
 11
195.78582953701792
 21
127.20579429297443
  0
LINE
  8
_f-a_250
  6
CONTINUOUS
 62
  250
 10
195.28749894390842
 20
127.21742911963496
 11
195.07581900845341
 21
127.28578372626289
  0
LINE
  8
_f-a_250
  6
CONTINUOUS
 62
  250
 10
195.07581900845341
 20
127.28578372626289
 11
195.28749894390842
 21
127.21742911963496
  0
LINE
  8
_f-a_250
  6
CONTINUOUS
 62
  250
 10
195.07581900845341
 20
127.28578372626289
 11
195.28749894390842
 21
127.21742911963496
  0
LINE
  8
_f-a_250
  6
CONTINUOUS
 62
  250
 10
195.65750073681642
 20
127.35745235114094
 11
195.4491586614684
 21
127.42578311591144
  0
LINE
  8
_f-a_250
  6
CONTINUOUS
 62
  250
 10
195.4491586614684
 20
127.42578311591144
 11
195.65750073681642
 21
127.35745235114094
  0
LINE
  8
_f-a_250
  6
CONTINUOUS
 62
  250
 10
195.4491586614684
 20
127.42578311591144
 11
195.65750073681642
 21
127.35745235114094
  0
LINE
  8
_f-a_250
  6
CONTINUOUS
 62
  250
 10
195.08248280773893
 20
127.29079051642448
 11
195.2824921537474
 21
127.22243590979595
  0
LINE
  8
_f-a_250
  6
CONTINUOUS
 62
  250
 10
195.2824921537474
 20
127.22243590979595
 11
195.66747855435139
 21
127.35411449103397
  0
LINE
  8
_f-a_250
  6
CONTINUOUS
 62
  250
 10
195.66747855435139
 20
127.35411449103397
 11
195.46583604107641
 21
127.42077632575045
  0
LINE
  8
_f-a_250
  6
CONTINUOUS
 62
  250
 10
195.46583604107641
 20
127.42077632575045
 11
195.08248280773893
 21
127.29079051642448
  0
LINE
  8
_f-a_250
  6
CONTINUOUS
 62
  250
 10
195.46583604107641
 20
127.42077632575045
 11
195.08248280773893
 21
127.29079051642448
  0
LINE
  8
_f-a_250
  6
CONTINUOUS
 62
  250
 10
195.08248280773893
 20
127.29079051642448
 11
195.2824921537474
 21
127.22243590979595
  0
LINE
  8
_f-a_250
  6
CONTINUOUS
 62
  250
 10
195.2824921537474
 20
127.22243590979595
 11
195.66082667599491
 21
127.35411449103397
  0
LINE
  8
_f-a_250
  6
CONTINUOUS
 62
  250
 10
195.30583333264141
 20
127.04245372443195
 11
195.30583333264141
 21
127.18078418402693
  0
LINE
  8
_f-a_250
  6
CONTINUOUS
 62
  250
 10
195.30583333264141
 20
127.18078418402693
 11
195.30583333264141
 21
127.04245372443195
  0
LINE
  8
_f-a_250
  6
CONTINUOUS
 62
  250
 10
195.30583333264141
 20
127.18078418402693
 11
195.30583333264141
 21
127.04245372443195
  0
LINE
  8
_f-a_250
  6
CONTINUOUS
 62
  250
 10
195.66747855435139
 20
127.15577407507892
 11
195.67248534451292
 21
127.31746955542597
  0
LINE
  8
_f-a_250
  6
CONTINUOUS
 62
  250
 10
195.67248534451292
 20
127.31746955542597
 11
195.66747855435139
 21
127.15577407507892
  0
LINE
  8
_f-a_250
  6
CONTINUOUS
 62
  250
 10
195.67248534451292
 20
127.31746955542597
 11
195.66747855435139
 21
127.15577407507892
  0
LINE
  8
_f-a_250
  6
CONTINUOUS
 62
  250
 10
195.30250739346295
 20
127.19244285254491
 11
195.34417104016094
 21
127.07742972998641
  0
LINE
  8
_f-a_250
  6
CONTINUOUS
 62
  250
 10
195.34417104016094
 20
127.07742972998641
 11
195.66747855435139
 21
127.17577739386594
  0
LINE
  8
_f-a_250
  6
CONTINUOUS
 62
  250
 10
195.66747855435139
 20
127.17577739386594
 11
195.63249062786841
 21
127.29079051642448
  0
LINE
  8
_f-a_250
  6
CONTINUOUS
 62
  250
 10
195.63249062786841
 20
127.29079051642448
 11
195.30250739346295
 21
127.19244285254491
  0
LINE
  8
_f-a_250
  6
CONTINUOUS
 62
  250
 10
195.66747855435139
 20
127.17744632391943
 11
195.34417104016094
 21
127.07742972998641
  0
LINE
  8
_f-a_250
  6
CONTINUOUS
 62
  250
 10
195.34417104016094
 20
127.07742972998641
 11
195.30250739346295
 21
127.19244285254491
  0
LINE
  8
_f-a_250
  6
CONTINUOUS
 62
  250
 10
195.30250739346295
 20
127.19244285254491
 11
195.63249062786841
 21
127.29079051642448
  0
LINE
  8
_f-a_250
  6
CONTINUOUS
 62
  250
 10
195.63249062786841
 20
127.29079051642448
 11
195.66747855435139
 21
127.17744632391943
  0
LINE
  8
_f-a_250
  6
CONTINUOUS
 62
  250
 10
201.94081973324595
 20
129.33246417670247
 11
201.94081973324595
 21
129.48910518317246
  0
LINE
  8
_f-a_250
  6
CONTINUOUS
 62
  250
 10
201.93416785488893
 20
129.48910518317246
 11
202.23248910198942
 21
129.38410564093599
  0
LINE
  8
_f-a_250
  6
CONTINUOUS
 62
  250
 10
202.47082423458843
 20
129.68076987891195
 11
202.76583146343992
 21
129.58244605689046
  0
LINE
  8
_f-a_250
  6
CONTINUOUS
 62
  250
 10
201.92749213467391
 20
129.33913989691746
 11
202.2258372236324
 21
129.23411651282345
  0
LINE
  8
_f-a_250
  6
CONTINUOUS
 62
  250
 10
202.2258372236324
 20
129.23411651282345
 11
202.2258372236324
 21
129.39912601141944
  0
LINE
  8
_f-a_250
  6
CONTINUOUS
 62
  250
 10
202.77248334179691
 20
129.42411227850948
 11
202.7808399129944
 21
129.580800968695
  0
LINE
  8
_f-a_250
  6
CONTINUOUS
 62
  250
 10
202.23248910198942
 20
129.39078136115094
 11
202.7808399129944
 21
129.57743926672947
  0
LINE
  8
_f-a_250
  6
CONTINUOUS
 62
  250
 10
201.94081973324595
 20
129.49244304327996
 11
202.48748969326792
 21
129.67578693060895
  0
LINE
  8
_f-a_250
  6
CONTINUOUS
 62
  250
 10
202.2258372236324
 20
129.23411651282345
 11
202.32749890576142
 21
129.26911636023544
  0
LINE
  8
_f-a_250
  6
CONTINUOUS
 62
  250
 10
202.25082349072241
 20
129.23745437293047
 11
202.78416585217295
 21
129.42411227850948
  0
LINE
  8
_f-a_250
  6
CONTINUOUS
 62
  250
 10
202.32082318554691
 20
129.31079192786248
 11
202.32082318554691
 21
129.30745406775495
  0
LINE
  8
_f-a_250
  6
CONTINUOUS
 62
  250
 10
202.28248547802744
 20
129.43243308691993
 11
202.06916045437592
 21
129.50078769354843
  0
LINE
  8
_f-a_250
  6
CONTINUOUS
 62
  250
 10
202.06916045437592
 20
129.50078769354843
 11
202.28248547802744
 21
129.43243308691993
  0
LINE
  8
_f-a_250
  6
CONTINUOUS
 62
  250
 10
202.06916045437592
 20
129.50078769354843
 11
202.28248547802744
 21
129.43243308691993
  0
LINE
  8
_f-a_250
  6
CONTINUOUS
 62
  250
 10
202.65581321011342
 20
129.57243247656845
 11
202.44581412564091
 21
129.64243217139247
  0
LINE
  8
_f-a_250
  6
CONTINUOUS
 62
  250
 10
202.44581412564091
 20
129.64243217139247
 11
202.65581321011342
 21
129.57243247656845
  0
LINE
  8
_f-a_250
  6
CONTINUOUS
 62
  250
 10
202.44581412564091
 20
129.64243217139247
 11
202.65581321011342
 21
129.57243247656845
  0
LINE
  8
_f-a_250
  6
CONTINUOUS
 62
  250
 10
202.06916045437592
 20
129.50579448370945
 11
202.27583359967042
 21
129.43743987708095
  0
LINE
  8
_f-a_250
  6
CONTINUOUS
 62
  250
 10
202.27583359967042
 20
129.43743987708095
 11
202.65749406109592
 21
129.56578059821143
  0
LINE
  8
_f-a_250
  6
CONTINUOUS
 62
  250
 10
202.65749406109592
 20
129.56578059821143
 11
202.45747279415892
 21
129.63911815314296
  0
LINE
  8
_f-a_250
  6
CONTINUOUS
 62
  250
 10
202.45747279415892
 20
129.63911815314296
 11
202.06916045437592
 21
129.50579448370945
  0
LINE
  8
_f-a_250
  6
CONTINUOUS
 62
  250
 10
202.45747279415892
 20
129.63911815314296
 11
202.06916045437592
 21
129.50579448370945
  0
LINE
  8
_f-a_250
  6
CONTINUOUS
 62
  250
 10
202.06916045437592
 20
129.50579448370945
 11
202.27583359967042
 21
129.43743987708095
  0
LINE
  8
_f-a_250
  6
CONTINUOUS
 62
  250
 10
202.27583359967042
 20
129.43743987708095
 11
202.65749406109592
 21
129.567473370123
  0
LINE
  8
_f-a_250
  6
CONTINUOUS
 62
  250
 10
202.30081986675992
 20
129.25743384985944
 11
202.30583857785044
 21
129.39912601141944
  0
LINE
  8
_f-a_250
  6
CONTINUOUS
 62
  250
 10
202.30583857785044
 20
129.39912601141944
 11
202.30081986675992
 21
129.25743384985944
  0
LINE
  8
_f-a_250
  6
CONTINUOUS
 62
  250
 10
202.30583857785044
 20
129.39912601141944
 11
202.30081986675992
 21
129.25743384985944
  0
LINE
  8
_f-a_250
  6
CONTINUOUS
 62
  250
 10
202.6658267904354
 20
129.3691091123105
 11
202.6658267904354
 21
129.53244968085298
  0
LINE
  8
_f-a_250
  6
CONTINUOUS
 62
  250
 10
202.6658267904354
 20
129.53244968085298
 11
202.6658267904354
 21
129.3691091123105
  0
LINE
  8
_f-a_250
  6
CONTINUOUS
 62
  250
 10
202.6658267904354
 20
129.53244968085298
 11
202.6658267904354
 21
129.3691091123105
  0
LINE
  8
_f-a_250
  6
CONTINUOUS
 62
  250
 10
202.30081986675992
 20
129.40577788977646
 11
202.33583163510141
 21
129.29412646918294
  0
LINE
  8
_f-a_250
  6
CONTINUOUS
 62
  250
 10
202.33583163510141
 20
129.29412646918294
 11
202.65749406109592
 21
129.39078136115094
  0
LINE
  8
_f-a_250
  6
CONTINUOUS
 62
  250
 10
202.65749406109592
 20
129.39078136115094
 11
202.62415122280893
 21
129.50245662360194
  0
LINE
  8
_f-a_250
  6
CONTINUOUS
 62
  250
 10
202.62415122280893
 20
129.50245662360194
 11
202.30081986675992
 21
129.40577788977646
  0
LINE
  8
_f-a_250
  6
CONTINUOUS
 62
  250
 10
202.65749406109592
 20
129.39078136115094
 11
202.33583163510141
 21
129.29412646918294
  0
LINE
  8
_f-a_250
  6
CONTINUOUS
 62
  250
 10
202.33583163510141
 20
129.29412646918294
 11
202.30081986675992
 21
129.40577788977646
  0
LINE
  8
_f-a_250
  6
CONTINUOUS
 62
  250
 10
202.30081986675992
 20
129.40577788977646
 11
202.62415122280893
 21
129.50245662360194
  0
LINE
  8
_f-a_250
  6
CONTINUOUS
 62
  250
 10
202.62415122280893
 20
129.50245662360194
 11
202.65749406109592
 21
129.39078136115094
  0
LINE
  8
_f-a_250
  6
CONTINUOUS
 62
  250
 10
209.57749795208741
 20
132.01913161902448
 11
209.57749795208741
 21
132.17245860724447
  0
LINE
  8
_f-a_250
  6
CONTINUOUS
 62
  250
 10
209.57250308285492
 20
132.17245860724447
 11
209.87416219006343
 21
132.07077308325799
  0
LINE
  8
_f-a_250
  6
CONTINUOUS
 62
  250
 10
210.1174921918944
 20
132.36746116309197
 11
210.40749263058441
 21
132.26744456915898
  0
LINE
  8
_f-a_250
  6
CONTINUOUS
 62
  250
 10
209.5624775816039
 20
132.02580733923946
 11
209.86082267056241
 21
131.92247672705645
  0
LINE
  8
_f-a_250
  6
CONTINUOUS
 62
  250
 10
209.86082267056241
 20
131.91746993689546
 11
209.86082267056241
 21
132.08078666357997
  0
LINE
  8
_f-a_250
  6
CONTINUOUS
 62
  250
 10
210.40917348156739
 20
132.10746570258149
 11
210.41582535992441
 21
132.26243777899745
  0
LINE
  8
_f-a_250
  6
CONTINUOUS
 62
  250
 10
209.86915539990244
 20
132.07744880347246
 11
210.41582535992441
 21
132.26243777899745
  0
LINE
  8
_f-a_250
  6
CONTINUOUS
 62
  250
 10
209.57749795208741
 20
132.17577262549395
 11
210.12249898205542
 21
132.36576839117998
  0
LINE
  8
_f-a_250
  6
CONTINUOUS
 62
  250
 10
209.86082267056241
 20
131.91746993689546
 11
209.9674911428524
 21
131.95745273261093
  0
LINE
  8
_f-a_250
  6
CONTINUOUS
 62
  250
 10
209.88915871868892
 20
131.92743583350196
 11
210.4191512991024
 21
132.10746570258149
  0
LINE
  8
_f-a_250
  6
CONTINUOUS
 62
  250
 10
209.9624843526914
 20
131.99412151007647
 11
209.9541635442809
 21
131.99412151007647
  0
LINE
  8
_f-a_250
  6
CONTINUOUS
 62
  250
 10
209.91747092495694
 20
132.11743159918797
 11
209.71250247250342
 21
132.18912406592392
  0
LINE
  8
_f-a_250
  6
CONTINUOUS
 62
  250
 10
209.71250247250342
 20
132.18912406592392
 11
209.91747092495694
 21
132.11743159918797
  0
LINE
  8
_f-a_250
  6
CONTINUOUS
 62
  250
 10
209.71250247250342
 20
132.18912406592392
 11
209.91747092495694
 21
132.11743159918797
  0
LINE
  8
_f-a_250
  6
CONTINUOUS
 62
  250
 10
210.29081057797242
 20
132.25743098883643
 11
210.08583020458994
 21
132.33079238562595
  0
LINE
  8
_f-a_250
  6
CONTINUOUS
 62
  250
 10
209.71582841168194
 20
132.18912406592392
 11
209.91747092495694
 21
132.1207933011535
  0
LINE
  8
_f-a_250
  6
CONTINUOUS
 62
  250
 10
209.91747092495694
 20
132.1207933011535
 11
210.29748629818693
 21
132.25244804053344
  0
LINE
  8
_f-a_250
  6
CONTINUOUS
 62
  250
 10
210.29748629818693
 20
132.25244804053344
 11
210.09583186398291
 21
132.33079238562595
  0
LINE
  8
_f-a_250
  6
CONTINUOUS
 62
  250
 10
210.09583186398291
 20
132.33079238562595
 11
209.71582841168194
 21
132.18912406592392
  0
LINE
  8
_f-a_250
  6
CONTINUOUS
 62
  250
 10
210.09583186398291
 20
132.33079238562595
 11
209.71582841168194
 21
132.18912406592392
  0
LINE
  8
_f-a_250
  6
CONTINUOUS
 62
  250
 10
209.71582841168194
 20
132.18912406592392
 11
209.91747092495694
 21
132.1207933011535
  0
LINE
  8
_f-a_250
  6
CONTINUOUS
 62
  250
 10
209.91747092495694
 20
132.1207933011535
 11
210.29748629818693
 21
132.25743098883643
  0
LINE
  8
_f-a_250
  6
CONTINUOUS
 62
  250
 10
209.93915509472643
 20
131.94245620398544
 11
209.93915509472643
 21
132.08078666357997
  0
LINE
  8
_f-a_250
  6
CONTINUOUS
 62
  250
 10
209.93915509472643
 20
132.08078666357997
 11
209.93915509472643
 21
131.94245620398544
  0
LINE
  8
_f-a_250
  6
CONTINUOUS
 62
  250
 10
209.93915509472643
 20
132.08078666357997
 11
209.93915509472643
 21
131.94577022223496
  0
LINE
  8
_f-a_250
  6
CONTINUOUS
 62
  250
 10
210.30250500927744
 20
132.05744548468599
 11
210.30250500927744
 21
132.21744819312093
  0
LINE
  8
_f-a_250
  6
CONTINUOUS
 62
  250
 10
209.93915509472643
 20
132.09244533209795
 11
209.96916007290639
 21
131.97745605139744
  0
LINE
  8
_f-a_250
  6
CONTINUOUS
 62
  250
 10
209.96916007290639
 20
131.97745605139744
 11
210.29748629818693
 21
132.07744880347246
  0
LINE
  8
_f-a_250
  6
CONTINUOUS
 62
  250
 10
210.29748629818693
 20
132.07744880347246
 11
210.2641673017574
 21
132.18912406592392
  0
LINE
  8
_f-a_250
  6
CONTINUOUS
 62
  250
 10
210.2641673017574
 20
132.18912406592392
 11
209.93915509472643
 21
132.09244533209795
  0
LINE
  8
_f-a_250
  6
CONTINUOUS
 62
  250
 10
210.29748629818693
 20
132.07744880347246
 11
209.96916007290639
 21
131.97745605139744
  0
LINE
  8
_f-a_250
  6
CONTINUOUS
 62
  250
 10
209.96916007290639
 20
131.97745605139744
 11
209.93915509472643
 21
132.09244533209795
  0
LINE
  8
_f-a_250
  6
CONTINUOUS
 62
  250
 10
209.93915509472643
 20
132.09244533209795
 11
210.2641673017574
 21
132.18912406592392
  0
LINE
  8
_f-a_250
  6
CONTINUOUS
 62
  250
 10
190.92550519863948
 20
123.92776804713236
 11
190.92916544479456
 21
124.5142258720188
  0
LINE
  8
_0-0_0
  6
CONTINUOUS
 62
    7
 10
189.3208728007782
 20
124.51417491507149
 11
190.91731190526636
 21
123.92864709304919
  0
LINE
  8
_f-a_250
  6
CONTINUOUS
 62
  250
 10
190.93030723397072
 20
124.52285710497908
 11
189.32514804968744
 21
125.07496397244338
  0
LINE
  8
_f-a_250
  6
CONTINUOUS
 62
  250
 10
189.32514804968744
 20
125.07496397244338
 11
191.37746268099824
 21
125.79875434945598
  0
LINE
  8
_f-a_250
  6
CONTINUOUS
 62
  250
 10
191.37746268099824
 20
125.79875434945598
 11
192.99380777274365
 21
125.25091725263586
  0
LINE
  8
_0-0_0
  6
CONTINUOUS
 62
    7
 10
190.93232543916437
 20
124.52418393767016
 11
192.98417507189208
 21
125.24983807607386
  0
LINE
  8
_f-a_250
  6
CONTINUOUS
 62
  250
 10
192.98210635813447
 20
124.62700238960633
 11
192.99380777274365
 21
125.25091725263586
  0
LINE
  8
_f-a_250
  6
CONTINUOUS
 62
  250
 10
192.97005299277652
 20
125.71694349195504
 11
192.97318960148561
 21
126.28077838683885
  0
LINE
  8
_f-a_250
  6
CONTINUOUS
 62
  250
 10
194.5783487857689
 20
125.72867151937454
 11
192.97318960148561
 21
126.28077838683885
  0
LINE
  8
_f-a_250
  6
CONTINUOUS
 62
  250
 10
196.63014790993265
 20
125.83281680400179
 11
196.64184932454182
 21
126.45673166703132
  0
LINE
  8
_f-a_250
  6
CONTINUOUS
 62
  250
 10
194.57354675043766
 20
125.13358246152782
 11
194.57720699659274
 21
125.72004028641426
  0
LINE
  8
_0-0_0
  6
CONTINUOUS
 62
    7
 10
194.58036699096255
 20
125.72999835206561
 11
196.63221662369025
 21
126.45565249046932
  0
LINE
  8
_0-0_0
  6
CONTINUOUS
 62
    7
 10
192.96891435257641
 20
125.71998932946694
 11
194.56535345706453
 21
125.13446150744464
  0
LINE
  8
_f-a_250
  6
CONTINUOUS
 62
  250
 10
192.97318960148561
 20
126.28077838683885
 11
195.02550423279644
 21
127.00456876385142
  0
LINE
  8
_f-a_250
  6
CONTINUOUS
 62
  250
 10
195.02550423279644
 20
127.00456876385142
 11
196.64184932454182
 21
126.45673166703132
  0
LINE
  8
_f-a_250
  6
CONTINUOUS
 62
  250
 10
198.15422618455864
 20
126.35759022727326
 11
198.15788643071372
 21
126.9440480521597
  0
LINE
  8
_0-0_0
  6
CONTINUOUS
 62
    7
 10
196.54959378669739
 20
126.94399709521238
 11
198.14603289118551
 21
126.35846927319008
  0
LINE
  8
_f-a_250
  6
CONTINUOUS
 62
  250
 10
198.15902821988988
 20
126.95267928511998
 11
196.5538690356066
 21
127.50478615258429
  0
LINE
  8
_f-a_250
  6
CONTINUOUS
 62
  250
 10
196.5538690356066
 20
127.50478615258429
 11
198.60618366691742
 21
128.22857652959686
  0
LINE
  8
_f-a_250
  6
CONTINUOUS
 62
  250
 10
198.60618366691742
 20
128.22857652959686
 11
200.2225287586628
 21
127.68073943277676
  0
LINE
  8
_0-0_0
  6
CONTINUOUS
 62
    7
 10
198.16104642508353
 20
126.95400611781105
 11
200.21289605781124
 21
127.67966025621476
  0
LINE
  8
_f-a_250
  6
CONTINUOUS
 62
  250
 10
200.21082734405363
 20
127.05682456974723
 11
200.2225287586628
 21
127.68073943277676
  0
LINE
  8
_f-a_250
  6
CONTINUOUS
 62
  250
 10
196.5507324268975
 20
126.94095125770048
 11
196.5538690356066
 21
127.50478615258429
  0
LINE
  8
_f-a_250
  6
CONTINUOUS
 62
  250
 10
199.87479768801023
 20
127.92403197224968
 11
199.87793429671933
 21
128.4878668671335
  0
LINE
  8
_f-a_250
  6
CONTINUOUS
 62
  250
 10
201.48309348100261
 20
127.93575999966919
 11
199.87793429671933
 21
128.4878668671335
  0
LINE
  8
_0-0_0
  6
CONTINUOUS
 62
    7
 10
201.48511168619626
 20
127.93708683236025
 11
203.53696131892397
 21
128.66274097076396
  0
LINE
  8
_f-a_250
  6
CONTINUOUS
 62
  250
 10
199.87793429671933
 20
128.4878668671335
 11
201.93024892803015
 21
129.21165724414607
  0
LINE
  8
_f-a_250
  6
CONTINUOUS
 62
  250
 10
201.93024892803015
 20
129.21165724414607
 11
203.54659401977554
 21
128.66382014732596
  0
LINE
  8
_f-a_250
  6
CONTINUOUS
 62
  250
 10
205.06377291512359
 20
129.15976776541464
 11
203.45861373084031
 21
129.71187463287893
  0
LINE
  8
_f-a_250
  6
CONTINUOUS
 62
  250
 10
203.45861373084031
 20
129.71187463287893
 11
205.51092836215113
 21
130.43566500989152
  0
LINE
  8
_f-a_250
  6
CONTINUOUS
 62
  250
 10
205.51092836215113
 20
130.43566500989152
 11
207.12727345389652
 21
129.88782791307142
  0
LINE
  8
_0-0_0
  6
CONTINUOUS
 62
    7
 10
205.06579112031724
 20
129.16109459810571
 11
207.11764075304495
 21
129.88674873650939
  0
LINE
  8
_f-a_250
  6
CONTINUOUS
 62
  250
 10
207.11557203928734
 20
129.26391305004188
 11
207.12727345389652
 21
129.88782791307142
  0
LINE
  8
_f-a_250
  6
CONTINUOUS
 62
  250
 10
203.45547712213121
 20
129.14803973799513
 11
203.45861373084031
 21
129.71187463287893
  0
LINE
  8
_f-a_250
  6
CONTINUOUS
 62
  250
 10
207.08327015576157
 20
130.39435118872626
 11
207.08640676447067
 21
130.95818608361009
  0
LINE
  8
_f-a_250
  6
CONTINUOUS
 62
  250
 10
208.69156594875395
 20
130.40607921614577
 11
207.08640676447067
 21
130.95818608361009
  0
LINE
  8
_f-a_250
  6
CONTINUOUS
 62
  250
 10
210.7433650729177
 20
130.51022450077303
 11
210.75506648752688
 21
131.13413936380255
  0
LINE
  8
_f-a_250
  6
CONTINUOUS
 62
  250
 10
208.68676391342271
 20
129.81099015829903
 11
208.69042415957779
 21
130.39744798318549
  0
LINE
  8
_0-0_0
  6
CONTINUOUS
 62
    7
 10
208.6935841539476
 20
130.40740604883683
 11
210.74543378667531
 21
131.13306018724055
  0
LINE
  8
_0-0_0
  6
CONTINUOUS
 62
    7
 10
207.08213151556146
 20
130.39739702623817
 11
208.67857062004958
 21
129.81186920421587
  0
LINE
  8
_f-a_250
  6
CONTINUOUS
 62
  250
 10
207.08640676447067
 20
130.95818608361009
 11
209.13872139578149
 21
131.68197646062265
  0
LINE
  8
_f-a_250
  6
CONTINUOUS
 62
  250
 10
209.13872139578149
 20
131.68197646062265
 11
210.75506648752688
 21
131.13413936380255
  0
LINE
  8
_0-0_0
  6
CONTINUOUS
 62
    7
 10
190.90870573986791
 20
123.93230951234837
 11
192.98889675035187
 21
124.64737517220223
  0
LINE
  8
_0-0_0
  6
CONTINUOUS
 62
    7
 10
194.55987433639444
 20
125.10241695574561
 11
196.61839669051921
 21
125.84998560013828
  0
LINE
  8
_0-0_0
  6
CONTINUOUS
 62
    7
 10
198.12436830748416
 20
126.34836469640007
 11
200.22622797432734
 21
127.06343035625393
  0
LINE
  8
_0-0_0
  6
CONTINUOUS
 62
    7
 10
199.87365904781012
 20
127.92707780976158
 11
201.47827820690898
 21
127.33854977962187
  0
LINE
  8
_f-a_250
  6
CONTINUOUS
 62
  250
 10
201.47827820690898
 20
127.33854977962187
 11
201.48195169182645
 21
127.9271287667089
  0
LINE
  8
_0-0_0
  6
CONTINUOUS
 62
    7
 10
201.48301004316141
 20
127.34512288892364
 11
203.53591834530539
 21
128.09459734843651
  0
LINE
  8
_f-a_250
  6
CONTINUOUS
 62
  250
 10
203.53591834530539
 20
128.09459734843651
 11
203.54659401977554
 21
128.66382014732596
  0
LINE
  8
_0-0_0
  6
CONTINUOUS
 62
    7
 10
203.4543384819311
 20
129.15108557550704
 11
205.05895764102996
 21
128.56255754536733
  0
LINE
  8
_f-a_250
  6
CONTINUOUS
 62
  250
 10
205.05895764102996
 20
128.56255754536733
 11
205.06263112594743
 21
129.15113653245436
  0
LINE
  8
_0-0_0
  6
CONTINUOUS
 62
    7
 10
205.05833834243074
 20
128.53689898868009
 11
207.12769502473512
 21
129.26279897671355
  0
LINE
  8
_0-0_0
  6
CONTINUOUS
 62
    7
 10
208.66616962623888
 20
129.81534971387336
 11
210.72469198036364
 21
130.48707806100879
  0
LINE
  8
_f-a_250
  6
CONTINUOUS
 62
  250
 10
187.95485647788956
 20
124.96471897612044
 11
187.95652540794359
 21
125.11971489439445
  0
LINE
  8
_f-a_250
  6
CONTINUOUS
 62
  250
 10
187.95151861778257
 20
125.11971489439445
 11
188.25150879493711
 21
125.01471535215843
  0
LINE
  8
_f-a_250
  6
CONTINUOUS
 62
  250
 10
188.49486263862607
 20
125.31304852018796
 11
188.78485115638711
 21
125.21639362822044
  0
LINE
  8
_f-a_250
  6
CONTINUOUS
 62
  250
 10
187.9431739675141
 20
124.97139469633545
 11
188.23985012641913
 21
124.87137810240243
  0
LINE
  8
_f-a_250
  6
CONTINUOUS
 62
  250
 10
188.24485691658012
 20
124.86641899595695
 11
188.24485691658012
 21
125.03140465269543
  0
LINE
  8
_f-a_250
  6
CONTINUOUS
 62
  250
 10
188.7948408948516
 20
125.05140797148194
 11
188.7948408948516
 21
125.2097417498634
  0
LINE
  8
_f-a_250
  6
CONTINUOUS
 62
  250
 10
188.24485691658012
 20
125.02472893248044
 11
188.79650982490509
 21
125.2097417498634
  0
LINE
  8
_f-a_250
  6
CONTINUOUS
 62
  250
 10
187.95485647788956
 20
125.12472168455592
 11
188.50150259605408
 21
125.30971066008043
  0
LINE
  8
_f-a_250
  6
CONTINUOUS
 62
  250
 10
188.24485691658012
 20
124.86641899595695
 11
188.34484966865509
 21
124.90304008970695
  0
LINE
  8
_f-a_250
  6
CONTINUOUS
 62
  250
 10
188.26319130531309
 20
124.87638489256345
 11
188.79650982490509
 21
125.05140797148194
  0
LINE
  8
_f-a_250
  6
CONTINUOUS
 62
  250
 10
188.29984816184961
 20
125.06306663999997
 11
188.08651121726959
 21
125.13640419493196
  0
LINE
  8
_f-a_250
  6
CONTINUOUS
 62
  250
 10
188.08651121726959
 20
125.13640419493196
 11
188.29984816184961
 21
125.06306663999997
  0
LINE
  8
_f-a_250
  6
CONTINUOUS
 62
  250
 10
188.0931869374846
 20
125.13640419493196
 11
188.29984816184961
 21
125.06306663999997
  0
LINE
  8
_f-a_250
  6
CONTINUOUS
 62
  250
 10
188.66816910377457
 20
125.20306602964844
 11
188.46985252967812
 21
125.27473465452645
  0
LINE
  8
_f-a_250
  6
CONTINUOUS
 62
  250
 10
188.46985252967812
 20
125.27473465452645
 11
188.66816910377457
 21
125.20306602964844
  0
LINE
  8
_f-a_250
  6
CONTINUOUS
 62
  250
 10
188.46985252967812
 20
125.27473465452645
 11
188.66816910377457
 21
125.20306602964844
  0
LINE
  8
_f-a_250
  6
CONTINUOUS
 62
  250
 10
188.0931869374846
 20
125.13971821318141
 11
188.29651030174261
 21
125.06974236021493
  0
LINE
  8
_f-a_250
  6
CONTINUOUS
 62
  250
 10
188.29651030174261
 20
125.06974236021493
 11
188.67484482398959
 21
125.19805923948742
  0
LINE
  8
_f-a_250
  6
CONTINUOUS
 62
  250
 10
188.67484482398959
 20
125.19805923948742
 11
188.4731903897856
 21
125.27473465452645
  0
LINE
  8
_f-a_250
  6
CONTINUOUS
 62
  250
 10
188.4731903897856
 20
125.27473465452645
 11
188.0931869374846
 21
125.13971821318141
  0
LINE
  8
_f-a_250
  6
CONTINUOUS
 62
  250
 10
188.4731903897856
 20
125.27473465452645
 11
188.0931869374846
 21
125.13971821318141
  0
LINE
  8
_f-a_250
  6
CONTINUOUS
 62
  250
 10
188.0931869374846
 20
125.13971821318141
 11
188.29651030174261
 21
125.06974236021493
  0
LINE
  8
_f-a_250
  6
CONTINUOUS
 62
  250
 10
188.29651030174261
 20
125.06974236021493
 11
188.67484482398959
 21
125.19805923948742
  0
LINE
  8
_f-a_250
  6
CONTINUOUS
 62
  250
 10
188.31651362052909
 20
124.88806740293946
 11
188.31651362052909
 21
125.03140465269543
  0
LINE
  8
_f-a_250
  6
CONTINUOUS
 62
  250
 10
188.31651362052909
 20
125.03140465269543
 11
188.31651362052909
 21
124.88806740293946
  0
LINE
  8
_f-a_250
  6
CONTINUOUS
 62
  250
 10
188.31651362052909
 20
125.03140465269543
 11
188.31651362052909
 21
124.88806740293946
  0
LINE
  8
_f-a_250
  6
CONTINUOUS
 62
  250
 10
188.67985161415058
 20
125.00305668363988
 11
188.67985161415058
 21
125.1630355502174
  0
LINE
  8
_f-a_250
  6
CONTINUOUS
 62
  250
 10
188.67985161415058
 20
125.1630355502174
 11
188.67985161415058
 21
125.00305668363988
  0
LINE
  8
_f-a_250
  6
CONTINUOUS
 62
  250
 10
188.68652733436562
 20
125.1630355502174
 11
188.67985161415058
 21
125.00305668363988
  0
LINE
  8
_f-a_250
  6
CONTINUOUS
 62
  250
 10
188.31651362052909
 20
125.03972546110596
 11
188.3515253888701
 21
124.92306725035142
  0
LINE
  8
_f-a_250
  6
CONTINUOUS
 62
  250
 10
188.3515253888701
 20
124.92306725035142
 11
188.67985161415058
 21
125.02472893248044
  0
LINE
  8
_f-a_250
  6
CONTINUOUS
 62
  250
 10
188.67985161415058
 20
125.02472893248044
 11
188.6431828366851
 21
125.13971821318141
  0
LINE
  8
_f-a_250
  6
CONTINUOUS
 62
  250
 10
188.6431828366851
 20
125.13971821318141
 11
188.31651362052909
 21
125.03972546110596
  0
LINE
  8
_f-a_250
  6
CONTINUOUS
 62
  250
 10
188.67985161415058
 20
125.02472893248044
 11
188.3515253888701
 21
124.92306725035142
  0
LINE
  8
_f-a_250
  6
CONTINUOUS
 62
  250
 10
188.3515253888701
 20
124.92306725035142
 11
188.31651362052909
 21
125.03972546110596
  0
LINE
  8
_f-a_250
  6
CONTINUOUS
 62
  250
 10
188.31651362052909
 20
125.03972546110596
 11
188.6431828366851
 21
125.13971821318141
  0
LINE
  8
_f-a_250
  6
CONTINUOUS
 62
  250
 10
188.6431828366851
 20
125.13971821318141
 11
188.67985161415058
 21
125.02472893248044
  0
LINE
  8
_0-0_0
  6
CONTINUOUS
 62
    7
 10
189.32447158570233
 20
125.06185861003459
 11
189.3352307823121
 21
124.53465797615682
  0
LINE
  8
_0-0_0
  6
CONTINUOUS
 62
    7
 10
189.34598997892184
 20
124.05049412871806
 11
189.35674917553158
 21
123.44797911857204
  0
LINE
  8
_f-a_250
  6
CONTINUOUS
 62
  250
 10
212.3734240615951
 20
131.02066531883486
 11
212.37708430775021
 21
131.60712314372131
  0
LINE
  8
_0-0_0
  6
CONTINUOUS
 62
    7
 10
210.76879166373385
 20
131.60707218677399
 11
212.36523076822201
 21
131.02154436475169
  0
LINE
  8
_f-a_250
  6
CONTINUOUS
 62
  250
 10
212.37822609692634
 20
131.61575437668159
 11
210.77306691264309
 21
132.16786124414588
  0
LINE
  8
_f-a_250
  6
CONTINUOUS
 62
  250
 10
210.77306691264309
 20
132.16786124414588
 11
212.82538154395388
 21
132.89165162115847
  0
LINE
  8
_f-a_250
  6
CONTINUOUS
 62
  250
 10
212.82538154395388
 20
132.89165162115847
 11
214.4417266356993
 21
132.34381452433837
  0
LINE
  8
_0-0_0
  6
CONTINUOUS
 62
    7
 10
212.38024430212002
 20
131.61708120937266
 11
214.4320939348477
 21
132.34273534777637
  0
LINE
  8
_f-a_250
  6
CONTINUOUS
 62
  250
 10
214.43002522109012
 20
131.71989966130883
 11
214.4417266356993
 21
132.34381452433837
  0
LINE
  8
_f-a_250
  6
CONTINUOUS
 62
  250
 10
210.76993030393396
 20
131.60402634926209
 11
210.77306691264309
 21
132.16786124414588
  0
LINE
  8
_0-0_0
  6
CONTINUOUS
 62
    7
 10
212.35831296773924
 20
131.01446186477938
 11
214.42766965004361
 21
131.70785886827403
  0
LINE
  8
_f-a_250
  6
CONTINUOUS
 62
  250
 10
216.64707971137176
 20
134.28299313776574
 11
216.64707971137176
 21
134.43968182795126
  0
LINE
  8
_f-a_250
  6
CONTINUOUS
 62
  250
 10
216.64376569312225
 20
134.43968182795126
 11
216.94376779120577
 21
134.33465844385722
  0
LINE
  8
_f-a_250
  6
CONTINUOUS
 62
  250
 10
217.18707395117877
 20
134.63134652369126
 11
217.47541738074429
 21
134.53297501795373
  0
LINE
  8
_f-a_250
  6
CONTINUOUS
 62
  250
 10
216.63208318274627
 20
134.29300671808824
 11
216.93375421088325
 21
134.18798333399374
  0
LINE
  8
_f-a_250
  6
CONTINUOUS
 62
  250
 10
216.93375421088325
 20
134.18297654383275
 11
216.94042993109829
 21
134.34631711237526
  0
LINE
  8
_f-a_250
  6
CONTINUOUS
 62
  250
 10
217.47875524085177
 20
134.37466508143027
 11
217.48707604926227
 21
134.53130608790025
  0
LINE
  8
_f-a_250
  6
CONTINUOUS
 62
  250
 10
216.94042993109829
 20
134.34133416407226
 11
217.48707604926227
 21
134.52801591150876
  0
LINE
  8
_f-a_250
  6
CONTINUOUS
 62
  250
 10
216.64707971137176
 20
134.44132691614723
 11
217.18876672309028
 21
134.63134652369126
  0
LINE
  8
_f-a_250
  6
CONTINUOUS
 62
  250
 10
216.94042993109829
 20
134.18297654383275
 11
217.03708482306578
 21
134.21964532129871
  0
LINE
  8
_f-a_250
  6
CONTINUOUS
 62
  250
 10
216.95707154791924
 20
134.19632798426272
 11
217.49043775122774
 21
134.37466508143027
  0
LINE
  8
_f-a_250
  6
CONTINUOUS
 62
  250
 10
216.98875737708224
 20
134.37967187159177
 11
216.78543401282428
 21
134.45298558466527
  0
LINE
  8
_f-a_250
  6
CONTINUOUS
 62
  250
 10
216.78543401282428
 20
134.45298558466527
 11
216.98875737708224
 21
134.37967187159177
  0
LINE
  8
_f-a_250
  6
CONTINUOUS
 62
  250
 10
216.78543401282428
 20
134.45298558466527
 11
216.98875737708224
 21
134.37967187159177
  0
LINE
  8
_f-a_250
  6
CONTINUOUS
 62
  250
 10
217.35709023993624
 20
134.52300912134726
 11
217.15877366583928
 21
134.59298497431374
  0
LINE
  8
_f-a_250
  6
CONTINUOUS
 62
  250
 10
217.15877366583928
 20
134.59298497431374
 11
217.35709023993624
 21
134.52300912134726
  0
LINE
  8
_f-a_250
  6
CONTINUOUS
 62
  250
 10
217.15877366583928
 20
134.59298497431374
 11
217.35709023993624
 21
134.52300912134726
  0
LINE
  8
_f-a_250
  6
CONTINUOUS
 62
  250
 10
216.78543401282428
 20
134.45632344477275
 11
216.98875737708224
 21
134.38629990809071
  0
LINE
  8
_f-a_250
  6
CONTINUOUS
 62
  250
 10
216.98875737708224
 20
134.38629990809071
 11
217.36376596015074
 21
134.51800233118627
  0
LINE
  8
_f-a_250
  6
CONTINUOUS
 62
  250
 10
217.36376596015074
 20
134.51800233118627
 11
217.1654255441963
 21
134.59298497431374
  0
LINE
  8
_f-a_250
  6
CONTINUOUS
 62
  250
 10
217.1654255441963
 20
134.59298497431374
 11
216.78543401282428
 21
134.45632344477275
  0
LINE
  8
_f-a_250
  6
CONTINUOUS
 62
  250
 10
217.1654255441963
 20
134.59298497431374
 11
216.78543401282428
 21
134.45632344477275
  0
LINE
  8
_f-a_250
  6
CONTINUOUS
 62
  250
 10
216.78543401282428
 20
134.45632344477275
 11
216.98875737708224
 21
134.38629990809071
  0
LINE
  8
_f-a_250
  6
CONTINUOUS
 62
  250
 10
216.98875737708224
 20
134.38629990809071
 11
217.36376596015074
 21
134.51800233118627
  0
LINE
  8
_f-a_250
  6
CONTINUOUS
 62
  250
 10
217.01042962592228
 20
134.20631772272674
 11
217.01042962592228
 21
134.34631711237526
  0
LINE
  8
_f-a_250
  6
CONTINUOUS
 62
  250
 10
217.01042962592228
 20
134.34631711237526
 11
217.01042962592228
 21
134.20631772272674
  0
LINE
  8
_f-a_250
  6
CONTINUOUS
 62
  250
 10
217.01042962592228
 20
134.34631711237526
 11
217.01042962592228
 21
134.20631772272674
  0
LINE
  8
_f-a_250
  6
CONTINUOUS
 62
  250
 10
217.37208676856173
 20
134.31966191523173
 11
217.37208676856173
 21
134.48133355372073
  0
LINE
  8
_f-a_250
  6
CONTINUOUS
 62
  250
 10
217.37208676856173
 20
134.48133355372073
 11
217.37208676856173
 21
134.31966191523173
  0
LINE
  8
_f-a_250
  6
CONTINUOUS
 62
  250
 10
217.37208676856173
 20
134.48133355372073
 11
217.37208676856173
 21
134.31966191523173
  0
LINE
  8
_f-a_250
  6
CONTINUOUS
 62
  250
 10
217.01042962592228
 20
134.35633069269775
 11
217.04042268317326
 21
134.24298650019273
  0
LINE
  8
_f-a_250
  6
CONTINUOUS
 62
  250
 10
217.04042268317326
 20
134.24298650019273
 11
217.37208676856173
 21
134.34133416407226
  0
LINE
  8
_f-a_250
  6
CONTINUOUS
 62
  250
 10
217.37208676856173
 20
134.34133416407226
 11
217.34042478125676
 21
134.45632344477275
  0
LINE
  8
_f-a_250
  6
CONTINUOUS
 62
  250
 10
217.34042478125676
 20
134.45632344477275
 11
217.01042962592228
 21
134.35633069269775
  0
LINE
  8
_f-a_250
  6
CONTINUOUS
 62
  250
 10
217.37208676856173
 20
134.34133416407226
 11
217.04042268317326
 21
134.24298650019273
  0
LINE
  8
_f-a_250
  6
CONTINUOUS
 62
  250
 10
217.04042268317326
 20
134.24298650019273
 11
217.01042962592228
 21
134.35633069269775
  0
LINE
  8
_f-a_250
  6
CONTINUOUS
 62
  250
 10
217.01042962592228
 20
134.35633069269775
 11
217.34042478125676
 21
134.45632344477275
  0
LINE
  8
_f-a_250
  6
CONTINUOUS
 62
  250
 10
217.34042478125676
 20
134.45632344477275
 11
217.37208676856173
 21
134.34133416407226
  0
LINE
  8
_f-a_250
  6
CONTINUOUS
 62
  250
 10
224.27876306098076
 20
136.70132046930877
 11
224.27876306098076
 21
136.84632664911825
  0
LINE
  8
_f-a_250
  6
CONTINUOUS
 62
  250
 10
224.27542520087374
 20
136.84632664911825
 11
224.57542729895724
 21
136.75134068720422
  0
LINE
  8
_f-a_250
  6
CONTINUOUS
 62
  250
 10
224.82042623084175
 20
137.04299813501927
 11
225.10876966040729
 21
136.94965726130127
  0
LINE
  8
_f-a_250
  6
CONTINUOUS
 62
  250
 10
224.26541162055128
 20
136.70465832941625
 11
224.56710649054625
 21
136.60299664728723
  0
LINE
  8
_f-a_250
  6
CONTINUOUS
 62
  250
 10
224.56710649054625
 20
136.59965878717969
 11
224.57211328070781
 21
136.76133042566875
  0
LINE
  8
_f-a_250
  6
CONTINUOUS
 62
  250
 10
225.11542153876422
 20
136.78464776270476
 11
225.12042832892524
 21
136.94467431299773
  0
LINE
  8
_f-a_250
  6
CONTINUOUS
 62
  250
 10
224.57211328070781
 20
136.75465470545373
 11
225.12042832892524
 21
136.94133645289025
  0
LINE
  8
_f-a_250
  6
CONTINUOUS
 62
  250
 10
224.27876306098076
 20
136.85800915949426
 11
224.83375382941375
 21
137.04299813501927
  0
LINE
  8
_f-a_250
  6
CONTINUOUS
 62
  250
 10
224.56710649054625
 20
136.59965878717969
 11
224.67544389289029
 21
136.63465863459226
  0
LINE
  8
_f-a_250
  6
CONTINUOUS
 62
  250
 10
224.59209275763629
 20
136.60633450739476
 11
225.12207341712127
 21
136.78800946467021
  0
LINE
  8
_f-a_250
  6
CONTINUOUS
 62
  250
 10
224.62041688483379
 20
136.79633027308074
 11
224.41542459052229
 21
136.86797505610076
  0
LINE
  8
_f-a_250
  6
CONTINUOUS
 62
  250
 10
224.41542459052229
 20
136.86797505610076
 11
224.62041688483379
 21
136.79633027308074
  0
LINE
  8
_f-a_250
  6
CONTINUOUS
 62
  250
 10
224.41542459052229
 20
136.86797505610076
 11
224.62041688483379
 21
136.79633027308074
  0
LINE
  8
_f-a_250
  6
CONTINUOUS
 62
  250
 10
224.99378037970675
 20
136.93799859278323
 11
224.78876424353729
 21
137.00966721766073
  0
LINE
  8
_f-a_250
  6
CONTINUOUS
 62
  250
 10
224.78876424353729
 20
137.00966721766073
 11
224.99378037970675
 21
136.93799859278323
  0
LINE
  8
_f-a_250
  6
CONTINUOUS
 62
  250
 10
224.78876424353729
 20
137.00966721766073
 11
224.99378037970675
 21
136.93632966272926
  0
LINE
  8
_f-a_250
  6
CONTINUOUS
 62
  250
 10
224.41876245062926
 20
136.87298184626223
 11
224.62041688483379
 21
136.80131322138425
  0
LINE
  8
_f-a_250
  6
CONTINUOUS
 62
  250
 10
224.62041688483379
 20
136.80131322138425
 11
225.0004322580638
 21
136.93632966272926
  0
LINE
  8
_f-a_250
  6
CONTINUOUS
 62
  250
 10
225.0004322580638
 20
136.93632966272926
 11
224.79708505194776
 21
137.00468426935771
  0
LINE
  8
_f-a_250
  6
CONTINUOUS
 62
  250
 10
224.79708505194776
 20
137.00468426935771
 11
224.41876245062926
 21
136.87298184626223
  0
LINE
  8
_f-a_250
  6
CONTINUOUS
 62
  250
 10
224.80542970221626
 20
137.00468426935771
 11
224.41876245062926
 21
136.87298184626223
  0
LINE
  8
_f-a_250
  6
CONTINUOUS
 62
  250
 10
224.41876245062926
 20
136.87298184626223
 11
224.62041688483379
 21
136.80131322138425
  0
LINE
  8
_f-a_250
  6
CONTINUOUS
 62
  250
 10
224.62041688483379
 20
136.80131322138425
 11
225.0004322580638
 21
136.93632966272926
  0
LINE
  8
_f-a_250
  6
CONTINUOUS
 62
  250
 10
224.64208913367378
 20
136.61966210596677
 11
224.64375806372774
 21
136.76133042566875
  0
LINE
  8
_f-a_250
  6
CONTINUOUS
 62
  250
 10
224.64375806372774
 20
136.76133042566875
 11
224.64208913367378
 21
136.61966210596677
  0
LINE
  8
_f-a_250
  6
CONTINUOUS
 62
  250
 10
224.64375806372774
 20
136.75634747736575
 11
224.64208913367378
 21
136.62466889612773
  0
LINE
  8
_f-a_250
  6
CONTINUOUS
 62
  250
 10
225.00207734625928
 20
136.73634415857873
 11
225.00207734625928
 21
136.89966088526327
  0
LINE
  8
_f-a_250
  6
CONTINUOUS
 62
  250
 10
225.00207734625928
 20
136.89966088526327
 11
225.00207734625928
 21
136.73634415857873
  0
LINE
  8
_f-a_250
  6
CONTINUOUS
 62
  250
 10
225.00207734625928
 20
136.89966088526327
 11
225.00207734625928
 21
136.73634415857873
  0
LINE
  8
_f-a_250
  6
CONTINUOUS
 62
  250
 10
224.64208913367378
 20
136.77132016413327
 11
224.67544389289029
 21
136.65966874353978
  0
LINE
  8
_f-a_250
  6
CONTINUOUS
 62
  250
 10
224.67544389289029
 20
136.65966874353978
 11
225.0004322580638
 21
136.75465470545373
  0
LINE
  8
_f-a_250
  6
CONTINUOUS
 62
  250
 10
225.0004322580638
 20
136.75465470545373
 11
224.96540856879326
 21
136.87298184626223
  0
LINE
  8
_f-a_250
  6
CONTINUOUS
 62
  250
 10
224.96540856879326
 20
136.87298184626223
 11
224.64208913367378
 21
136.77132016413327
  0
LINE
  8
_f-a_250
  6
CONTINUOUS
 62
  250
 10
225.0004322580638
 20
136.75465470545373
 11
224.67544389289029
 21
136.65966874353978
  0
LINE
  8
_f-a_250
  6
CONTINUOUS
 62
  250
 10
224.67544389289029
 20
136.65966874353978
 11
224.64208913367378
 21
136.77132016413327
  0
LINE
  8
_f-a_250
  6
CONTINUOUS
 62
  250
 10
224.64208913367378
 20
136.77132016413327
 11
224.96540856879326
 21
136.87298184626223
  0
LINE
  8
_f-a_250
  6
CONTINUOUS
 62
  250
 10
224.96540856879326
 20
136.87298184626223
 11
225.0004322580638
 21
136.75465470545373
  0
LINE
  8
_f-a_250
  6
CONTINUOUS
 62
  250
 10
231.91709828894727
 20
139.38631898157675
 11
231.92208123725078
 21
139.53800088160125
  0
LINE
  8
_f-a_250
  6
CONTINUOUS
 62
  250
 10
231.91540551703579
 20
139.53800088160125
 11
232.21376252692326
 21
139.43633919947226
  0
LINE
  8
_f-a_250
  6
CONTINUOUS
 62
  250
 10
232.45539975684278
 20
139.73297959559071
 11
232.75208783667676
 21
139.63131791346171
  0
LINE
  8
_f-a_250
  6
CONTINUOUS
 62
  250
 10
231.90043283026827
 20
139.39132577173825
 11
232.20374894660125
 21
139.28632622950173
  0
LINE
  8
_f-a_250
  6
CONTINUOUS
 62
  250
 10
232.20374894660125
 20
139.28298836939427
 11
232.21042466681578
 21
139.44799786799075
  0
LINE
  8
_f-a_250
  6
CONTINUOUS
 62
  250
 10
232.75876355689178
 20
139.47131520502674
 11
232.75876355689178
 21
139.62967282526574
  0
LINE
  8
_f-a_250
  6
CONTINUOUS
 62
  250
 10
232.21042466681578
 20
139.44301491968724
 11
232.75876355689178
 21
139.62967282526574
  0
LINE
  8
_f-a_250
  6
CONTINUOUS
 62
  250
 10
231.91709828894727
 20
139.54131489985076
 11
232.47211289923774
 21
139.72966557734128
  0
LINE
  8
_f-a_250
  6
CONTINUOUS
 62
  250
 10
232.20374894660125
 20
139.28298836939427
 11
232.30874848883727
 21
139.31798821680624
  0
LINE
  8
_f-a_250
  6
CONTINUOUS
 62
  250
 10
232.22875905554878
 20
139.29467087977025
 11
232.76043248694526
 21
139.47465306513425
  0
LINE
  8
_f-a_250
  6
CONTINUOUS
 62
  250
 10
232.25708318274627
 20
139.48132878534875
 11
232.05209088843475
 21
139.55464249842274
  0
LINE
  8
_f-a_250
  6
CONTINUOUS
 62
  250
 10
232.05209088843475
 20
139.55464249842274
 11
232.25708318274627
 21
139.48132878534875
  0
LINE
  8
_f-a_250
  6
CONTINUOUS
 62
  250
 10
232.05209088843475
 20
139.55464249842274
 11
232.25708318274627
 21
139.48132878534875
  0
LINE
  8
_f-a_250
  6
CONTINUOUS
 62
  250
 10
232.63209176581475
 20
139.62132817499725
 11
232.43208241980679
 21
139.69466572992923
  0
LINE
  8
_f-a_250
  6
CONTINUOUS
 62
  250
 10
232.43208241980679
 20
139.69466572992923
 11
232.63209176581475
 21
139.62132817499725
  0
LINE
  8
_f-a_250
  6
CONTINUOUS
 62
  250
 10
232.43208241980679
 20
139.69466572992923
 11
232.63209176581475
 21
139.62132817499725
  0
LINE
  8
_f-a_250
  6
CONTINUOUS
 62
  250
 10
232.0587427667918
 20
139.55800420038827
 11
232.25708318274627
 21
139.48964959375976
  0
LINE
  8
_f-a_250
  6
CONTINUOUS
 62
  250
 10
232.25708318274627
 20
139.48964959375976
 11
232.64041257422576
 21
139.62132817499725
  0
LINE
  8
_f-a_250
  6
CONTINUOUS
 62
  250
 10
232.64041257422576
 20
139.62132817499725
 11
232.44209600012877
 21
139.69132786982175
  0
LINE
  8
_f-a_250
  6
CONTINUOUS
 62
  250
 10
232.44209600012877
 20
139.69132786982175
 11
232.0587427667918
 21
139.55800420038827
  0
LINE
  8
_f-a_250
  6
CONTINUOUS
 62
  250
 10
232.44209600012877
 20
139.69132786982175
 11
232.0587427667918
 21
139.55800420038827
  0
LINE
  8
_f-a_250
  6
CONTINUOUS
 62
  250
 10
232.0587427667918
 20
139.55800420038827
 11
232.25708318274627
 21
139.48964959375976
  0
LINE
  8
_f-a_250
  6
CONTINUOUS
 62
  250
 10
232.25708318274627
 20
139.48964959375976
 11
232.64041257422576
 21
139.62132817499725
  0
LINE
  8
_f-a_250
  6
CONTINUOUS
 62
  250
 10
232.27708650153278
 20
139.30799847834226
 11
232.27708650153278
 21
139.44799786799075
  0
LINE
  8
_f-a_250
  6
CONTINUOUS
 62
  250
 10
232.27708650153278
 20
139.44799786799075
 11
232.27708650153278
 21
139.30799847834226
  0
LINE
  8
_f-a_250
  6
CONTINUOUS
 62
  250
 10
232.27708650153278
 20
139.44799786799075
 11
232.27708650153278
 21
139.30799847834226
  0
LINE
  8
_f-a_250
  6
CONTINUOUS
 62
  250
 10
232.64208150427925
 20
139.42131882898926
 11
232.64208150427925
 21
139.58465939753174
  0
LINE
  8
_f-a_250
  6
CONTINUOUS
 62
  250
 10
232.64208150427925
 20
139.58465939753174
 11
232.64208150427925
 21
139.42131882898926
  0
LINE
  8
_f-a_250
  6
CONTINUOUS
 62
  250
 10
232.64208150427925
 20
139.58465939753174
 11
232.64208150427925
 21
139.42131882898926
  0
LINE
  8
_f-a_250
  6
CONTINUOUS
 62
  250
 10
232.27708650153278
 20
139.45298081629375
 11
232.31876206915973
 21
139.34297448389626
  0
LINE
  8
_f-a_250
  6
CONTINUOUS
 62
  250
 10
232.31876206915973
 20
139.34297448389626
 11
232.64208150427925
 21
139.44301491968724
  0
LINE
  8
_f-a_250
  6
CONTINUOUS
 62
  250
 10
232.64208150427925
 20
139.44301491968724
 11
232.61208844702827
 21
139.55800420038827
  0
LINE
  8
_f-a_250
  6
CONTINUOUS
 62
  250
 10
232.61208844702827
 20
139.55800420038827
 11
232.27708650153278
 21
139.45298081629375
  0
LINE
  8
_f-a_250
  6
CONTINUOUS
 62
  250
 10
232.64208150427925
 20
139.44301491968724
 11
232.31876206915973
 21
139.34297448389626
  0
LINE
  8
_f-a_250
  6
CONTINUOUS
 62
  250
 10
232.31876206915973
 20
139.34297448389626
 11
232.27708650153278
 21
139.45298081629375
  0
LINE
  8
_f-a_250
  6
CONTINUOUS
 62
  250
 10
232.27708650153278
 20
139.45298081629375
 11
232.61208844702827
 21
139.55800420038827
  0
LINE
  8
_f-a_250
  6
CONTINUOUS
 62
  250
 10
232.61208844702827
 20
139.55800420038827
 11
232.64208150427925
 21
139.44301491968724
  0
LINE
  8
_f-a_250
  6
CONTINUOUS
 62
  250
 10
238.86711907904728
 20
141.71299821131325
 11
238.86711907904728
 21
141.86632519953372
  0
LINE
  8
_f-a_250
  6
CONTINUOUS
 62
  250
 10
238.86044335883281
 20
141.86632519953372
 11
239.16373563330777
 21
141.76297074549277
  0
LINE
  8
_f-a_250
  6
CONTINUOUS
 62
  250
 10
239.40375161688922
 20
142.05798989527324
 11
239.70043969672329
 21
141.95632821314427
  0
LINE
  8
_f-a_250
  6
CONTINUOUS
 62
  250
 10
238.85708165686725
 20
141.71798115961673
 11
239.15376973670124
 21
141.61465054743377
  0
LINE
  8
_f-a_250
  6
CONTINUOUS
 62
  250
 10
239.16044545691631
 20
141.61133652918426
 11
239.16044545691631
 21
141.77632218592274
  0
LINE
  8
_f-a_250
  6
CONTINUOUS
 62
  250
 10
239.70375371497272
 20
141.79799443476327
 11
239.70375371497272
 21
141.95632821314427
  0
LINE
  8
_f-a_250
  6
CONTINUOUS
 62
  250
 10
239.16044545691631
 20
141.76466351740476
 11
239.70375371497272
 21
141.95299035303674
  0
LINE
  8
_f-a_250
  6
CONTINUOUS
 62
  250
 10
238.86711907904728
 20
141.86632519953372
 11
239.42208600562225
 21
142.05465203516576
  0
LINE
  8
_f-a_250
  6
CONTINUOUS
 62
  250
 10
239.16044545691631
 20
141.61133652918426
 11
239.2571003488838
 21
141.64633637659676
  0
LINE
  8
_f-a_250
  6
CONTINUOUS
 62
  250
 10
239.17708707373725
 20
141.61965733759524
 11
239.71042943518779
 21
141.79799443476327
  0
LINE
  8
_f-a_250
  6
CONTINUOUS
 62
  250
 10
239.21208692114928
 20
141.81132203333473
 11
239.00375676673025
 21
141.87967663996324
  0
LINE
  8
_f-a_250
  6
CONTINUOUS
 62
  250
 10
239.00375676673025
 20
141.87967663996324
 11
239.21208692114928
 21
141.81132203333473
  0
LINE
  8
_f-a_250
  6
CONTINUOUS
 62
  250
 10
239.00375676673025
 20
141.87967663996324
 11
239.21208692114928
 21
141.81132203333473
  0
LINE
  8
_f-a_250
  6
CONTINUOUS
 62
  250
 10
239.58208871405728
 20
141.94965249292972
 11
239.38041043799527
 21
142.02132111780725
  0
LINE
  8
_f-a_250
  6
CONTINUOUS
 62
  250
 10
239.00375676673025
 20
141.88799744837377
 11
239.20874906104228
 21
141.81132203333473
  0
LINE
  8
_f-a_250
  6
CONTINUOUS
 62
  250
 10
239.20874906104228
 20
141.81132203333473
 11
239.59210229437926
 21
141.94965249292972
  0
LINE
  8
_f-a_250
  6
CONTINUOUS
 62
  250
 10
239.39042401831725
 20
142.01631432764626
 11
239.00375676673025
 21
141.88799744837377
  0
LINE
  8
_f-a_250
  6
CONTINUOUS
 62
  250
 10
239.39042401831725
 20
142.01631432764626
 11
239.00375676673025
 21
141.88799744837377
  0
LINE
  8
_f-a_250
  6
CONTINUOUS
 62
  250
 10
239.00375676673025
 20
141.88799744837377
 11
239.20874906104228
 21
141.81132203333473
  0
LINE
  8
_f-a_250
  6
CONTINUOUS
 62
  250
 10
239.20874906104228
 20
141.81132203333473
 11
239.59210229437926
 21
141.94965249292972
  0
LINE
  8
_f-a_250
  6
CONTINUOUS
 62
  250
 10
239.23042130988227
 20
141.63133984797122
 11
239.23042130988227
 21
141.77632218592274
  0
LINE
  8
_f-a_250
  6
CONTINUOUS
 62
  250
 10
239.23042130988227
 20
141.77632218592274
 11
239.23042130988227
 21
141.63133984797122
  0
LINE
  8
_f-a_250
  6
CONTINUOUS
 62
  250
 10
239.23042130988227
 20
141.77632218592274
 11
239.23042130988227
 21
141.63133984797122
  0
LINE
  8
_f-a_250
  6
CONTINUOUS
 62
  250
 10
239.59210229437926
 20
141.74799805872522
 11
239.59544015448677
 21
141.90633183710673
  0
LINE
  8
_f-a_250
  6
CONTINUOUS
 62
  250
 10
239.22708344977477
 20
141.78130513422576
 11
239.26709008734829
 21
141.66798478357873
  0
LINE
  8
_f-a_250
  6
CONTINUOUS
 62
  250
 10
239.26709008734829
 20
141.66798478357873
 11
239.59210229437926
 21
141.76797753565427
  0
LINE
  8
_f-a_250
  6
CONTINUOUS
 62
  250
 10
239.59210229437926
 20
141.76797753565427
 11
239.5570786051093
 21
141.88799744837377
  0
LINE
  8
_f-a_250
  6
CONTINUOUS
 62
  250
 10
239.5570786051093
 20
141.88799744837377
 11
239.22708344977477
 21
141.78130513422576
  0
LINE
  8
_f-a_250
  6
CONTINUOUS
 62
  250
 10
239.59210229437926
 20
141.76797753565427
 11
239.26041436713325
 21
141.66798478357873
  0
LINE
  8
_f-a_250
  6
CONTINUOUS
 62
  250
 10
239.26041436713325
 20
141.66798478357873
 11
239.22708344977477
 21
141.78130513422576
  0
LINE
  8
_f-a_250
  6
CONTINUOUS
 62
  250
 10
239.22708344977477
 20
141.78130513422576
 11
239.5570786051093
 21
141.88799744837377
  0
LINE
  8
_f-a_250
  6
CONTINUOUS
 62
  250
 10
214.59524494904832
 20
132.82379398428748
 11
214.59838155775742
 21
133.3876288791713
  0
LINE
  8
_f-a_250
  6
CONTINUOUS
 62
  250
 10
216.2035407420407
 20
132.83552201170698
 11
214.59838155775742
 21
133.3876288791713
  0
LINE
  8
_f-a_250
  6
CONTINUOUS
 62
  250
 10
218.25533986620445
 20
132.93966729633425
 11
218.26704128081366
 21
133.56358215936376
  0
LINE
  8
_f-a_250
  6
CONTINUOUS
 62
  250
 10
216.19873870670946
 20
132.24043295386028
 11
216.20239895286454
 21
132.8268907787467
  0
LINE
  8
_0-0_0
  6
CONTINUOUS
 62
    7
 10
216.20555894723435
 20
132.83684884439808
 11
218.25740857996206
 21
133.56250298280176
  0
LINE
  8
_0-0_0
  6
CONTINUOUS
 62
    7
 10
214.59410630884821
 20
132.82683982179941
 11
216.19054541333634
 21
132.24131199977711
  0
LINE
  8
_f-a_250
  6
CONTINUOUS
 62
  250
 10
214.59838155775742
 20
133.3876288791713
 11
216.65069618906824
 21
134.11141925618389
  0
LINE
  8
_f-a_250
  6
CONTINUOUS
 62
  250
 10
216.65069618906824
 20
134.11141925618389
 11
218.26704128081366
 21
133.56358215936376
  0
LINE
  8
_f-a_250
  6
CONTINUOUS
 62
  250
 10
219.77941814083044
 20
133.4644407196057
 11
219.78307838698555
 21
134.05089854449216
  0
LINE
  8
_0-0_0
  6
CONTINUOUS
 62
    7
 10
218.17478574296919
 20
134.05084758754484
 11
219.77122484745735
 21
133.46531976552254
  0
LINE
  8
_f-a_250
  6
CONTINUOUS
 62
  250
 10
219.78422017616168
 20
134.05952977745244
 11
218.17906099187843
 21
134.61163664491676
  0
LINE
  8
_f-a_250
  6
CONTINUOUS
 62
  250
 10
218.17906099187843
 20
134.61163664491676
 11
220.23137562318922
 21
135.33542702192932
  0
LINE
  8
_f-a_250
  6
CONTINUOUS
 62
  250
 10
220.23137562318922
 20
135.33542702192932
 11
221.84772071493461
 21
134.78758992510922
  0
LINE
  8
_0-0_0
  6
CONTINUOUS
 62
    7
 10
219.78623838135536
 20
134.0608566101435
 11
221.83808801408304
 21
134.78651074854722
  0
LINE
  8
_f-a_250
  6
CONTINUOUS
 62
  250
 10
221.83601930032546
 20
134.1636750620797
 11
221.84772071493461
 21
134.78758992510922
  0
LINE
  8
_f-a_250
  6
CONTINUOUS
 62
  250
 10
218.1759243831693
 20
134.04780175003293
 11
218.17906099187843
 21
134.61163664491676
  0
LINE
  8
_f-a_250
  6
CONTINUOUS
 62
  250
 10
222.08719667114943
 20
135.25361616442839
 11
222.09033327985853
 21
135.81745105931222
  0
LINE
  8
_f-a_250
  6
CONTINUOUS
 62
  250
 10
223.69549246414181
 20
135.2653441918479
 11
222.09033327985853
 21
135.81745105931222
  0
LINE
  8
_f-a_250
  6
CONTINUOUS
 62
  250
 10
225.74729158830559
 20
135.36948947647517
 11
225.75899300291474
 21
135.99340433950468
  0
LINE
  8
_f-a_250
  6
CONTINUOUS
 62
  250
 10
223.69069042881057
 20
134.67025513400117
 11
223.69435067496568
 21
135.25671295888762
  0
LINE
  8
_0-0_0
  6
CONTINUOUS
 62
    7
 10
223.69751066933549
 20
135.26667102453897
 11
225.74936030206317
 21
135.99232516294268
  0
LINE
  8
_0-0_0
  6
CONTINUOUS
 62
    7
 10
222.08605803094932
 20
135.2566620019403
 11
223.68249713543747
 21
134.671134179918
  0
LINE
  8
_f-a_250
  6
CONTINUOUS
 62
  250
 10
222.09033327985853
 20
135.81745105931222
 11
224.14264791116935
 21
136.54124143632478
  0
LINE
  8
_f-a_250
  6
CONTINUOUS
 62
  250
 10
224.14264791116935
 20
136.54124143632478
 11
225.75899300291474
 21
135.99340433950468
  0
LINE
  8
_f-a_250
  6
CONTINUOUS
 62
  250
 10
227.27136986293155
 20
135.89426289974662
 11
227.27503010908663
 21
136.48072072463304
  0
LINE
  8
_0-0_0
  6
CONTINUOUS
 62
    7
 10
225.6667374650703
 20
136.48066976768575
 11
227.26317656955842
 21
135.89514194566345
  0
LINE
  8
_f-a_250
  6
CONTINUOUS
 62
  250
 10
227.27617189826279
 20
136.48935195759333
 11
225.67101271397951
 21
137.04145882505765
  0
LINE
  8
_f-a_250
  6
CONTINUOUS
 62
  250
 10
225.67101271397951
 20
137.04145882505765
 11
227.72332734529033
 21
137.76524920207024
  0
LINE
  8
_f-a_250
  6
CONTINUOUS
 62
  250
 10
227.72332734529033
 20
137.76524920207024
 11
229.33967243703574
 21
137.21741210525011
  0
LINE
  8
_0-0_0
  6
CONTINUOUS
 62
    7
 10
227.27819010345644
 20
136.49067879028442
 11
229.33003973618415
 21
137.2163329286881
  0
LINE
  8
_f-a_250
  6
CONTINUOUS
 62
  250
 10
229.32797102242654
 20
136.59349724222059
 11
229.33967243703574
 21
137.21741210525011
  0
LINE
  8
_f-a_250
  6
CONTINUOUS
 62
  250
 10
225.66787610527041
 20
136.47762393017382
 11
225.67101271397951
 21
137.04145882505765
  0
LINE
  8
_f-a_250
  6
CONTINUOUS
 62
  250
 10
229.6196454295862
 20
137.82517797174418
 11
229.6227820382953
 21
138.38901286662798
  0
LINE
  8
_f-a_250
  6
CONTINUOUS
 62
  250
 10
231.22794122257858
 20
137.83690599916369
 11
229.6227820382953
 21
138.38901286662798
  0
LINE
  8
_f-a_250
  6
CONTINUOUS
 62
  250
 10
233.27974034674236
 20
137.94105128379093
 11
233.29144176135151
 21
138.56496614682047
  0
LINE
  8
_f-a_250
  6
CONTINUOUS
 62
  250
 10
231.22313918724734
 20
137.24181694131696
 11
231.22679943340245
 21
137.82827476620341
  0
LINE
  8
_0-0_0
  6
CONTINUOUS
 62
    7
 10
231.22995942777226
 20
137.83823283185475
 11
233.28180906049994
 21
138.56388697025847
  0
LINE
  8
_0-0_0
  6
CONTINUOUS
 62
    7
 10
229.61850678938609
 20
137.82822380925609
 11
231.21494589387424
 21
137.24269598723379
  0
LINE
  8
_f-a_250
  6
CONTINUOUS
 62
  250
 10
229.6227820382953
 20
138.38901286662798
 11
231.67509666960612
 21
139.11280324364057
  0
LINE
  8
_f-a_250
  6
CONTINUOUS
 62
  250
 10
231.67509666960612
 20
139.11280324364057
 11
233.29144176135151
 21
138.56496614682047
  0
LINE
  8
_f-a_250
  6
CONTINUOUS
 62
  250
 10
234.80381862136832
 20
138.46582470706241
 11
234.8074788675234
 21
139.05228253194883
  0
LINE
  8
_0-0_0
  6
CONTINUOUS
 62
    7
 10
233.19918622350707
 20
139.05223157500151
 11
234.7956253279952
 21
138.46670375297921
  0
LINE
  8
_f-a_250
  6
CONTINUOUS
 62
  250
 10
234.80862065669956
 20
139.06091376490912
 11
233.20346147241628
 21
139.61302063237343
  0
LINE
  8
_f-a_250
  6
CONTINUOUS
 62
  250
 10
233.20346147241628
 20
139.61302063237343
 11
235.2557761037271
 21
140.336811009386
  0
LINE
  8
_f-a_250
  6
CONTINUOUS
 62
  250
 10
235.2557761037271
 20
140.336811009386
 11
236.87212119547252
 21
139.78897391256589
  0
LINE
  8
_0-0_0
  6
CONTINUOUS
 62
    7
 10
234.81063886189321
 20
139.06224059760018
 11
236.86248849462092
 21
139.78789473600389
  0
LINE
  8
_f-a_250
  6
CONTINUOUS
 62
  250
 10
236.86041978086331
 20
139.16505904953638
 11
236.87212119547252
 21
139.78897391256589
  0
LINE
  8
_f-a_250
  6
CONTINUOUS
 62
  250
 10
233.20032486370718
 20
139.04918573748961
 11
233.20346147241628
 21
139.61302063237343
  0
LINE
  8
_f-a_250
  6
CONTINUOUS
 62
  250
 10
236.82811789733753
 20
140.25500015188507
 11
236.83125450604663
 21
140.8188350467689
  0
LINE
  8
_f-a_250
  6
CONTINUOUS
 62
  250
 10
238.43641369032991
 20
140.26672817930458
 11
236.83125450604663
 21
140.8188350467689
  0
LINE
  8
_f-a_250
  6
CONTINUOUS
 62
  250
 10
240.48821281449369
 20
140.37087346393184
 11
240.49991422910284
 21
140.99478832696136
  0
LINE
  8
_f-a_250
  6
CONTINUOUS
 62
  250
 10
238.43161165499868
 20
139.67163912145784
 11
238.43527190115378
 21
140.2580969463443
  0
LINE
  8
_0-0_0
  6
CONTINUOUS
 62
    7
 10
238.43843189552359
 20
140.26805501199564
 11
240.49028152825127
 21
140.99370915039935
  0
LINE
  8
_0-0_0
  6
CONTINUOUS
 62
    7
 10
236.82697925713742
 20
140.25804598939698
 11
238.42341836162558
 21
139.67251816737468
  0
LINE
  8
_f-a_250
  6
CONTINUOUS
 62
  250
 10
236.83125450604663
 20
140.8188350467689
 11
238.88356913735745
 21
141.54262542378146
  0
LINE
  8
_f-a_250
  6
CONTINUOUS
 62
  250
 10
238.88356913735745
 20
141.54262542378146
 11
240.49991422910284
 21
140.99478832696136
  0
LINE
  8
_0-0_0
  6
CONTINUOUS
 62
    7
 10
216.20895009129248
 20
132.21361727156028
 11
218.25663811723766
 21
132.92868293141413
  0
LINE
  8
_0-0_0
  6
CONTINUOUS
 62
    7
 10
219.751775406023
 20
133.47039934039432
 11
221.81029776014776
 21
134.15296201570939
  0
LINE
  8
_0-0_0
  6
CONTINUOUS
 62
    7
 10
223.67380220703964
 20
134.67300976833039
 11
225.75399321752363
 21
135.35557244364543
  0
LINE
  8
_0-0_0
  6
CONTINUOUS
 62
    7
 10
227.2707991626682
 20
135.90812318080523
 11
229.31848718861335
 21
136.57985152794069
  0
LINE
  8
_0-0_0
  6
CONTINUOUS
 62
    7
 10
231.24699760458287
 20
137.25157987507612
 11
233.29468563052802
 21
137.93414255039119
  0
LINE
  8
_0-0_0
  6
CONTINUOUS
 62
    7
 10
234.80065724749298
 20
138.47585895937138
 11
236.85917960161774
 21
139.16925596286603
  0
LINE
  8
_0-0_0
  6
CONTINUOUS
 62
    7
 10
238.44099151583993
 20
139.67846938730742
 11
240.45617655724627
 21
140.38270071898168
  0
LINE
  8
_f-a_250
  6
CONTINUOUS
 62
  250
 10
248.79483518894037
 20
143.19251505879524
 11
248.79849543509548
 21
143.77897288368169
  0
LINE
  8
_f-a_250
  6
CONTINUOUS
 62
  250
 10
245.7399050177533
 20
143.99584057981622
 11
245.7399050177533
 21
144.1491914098942
  0
LINE
  8
_f-a_250
  6
CONTINUOUS
 62
  250
 10
245.73654331578774
 20
144.1491914098942
 11
246.03323139562173
 21
144.04750588590767
  0
LINE
  8
_f-a_250
  6
CONTINUOUS
 62
  250
 10
246.27989925756032
 20
144.34419396574174
 11
246.56988777532132
 21
144.23919442350521
  0
LINE
  8
_f-a_250
  6
CONTINUOUS
 62
  250
 10
245.72989143743075
 20
144.00084736997721
 11
246.02154888524575
 21
143.90085461790221
  0
LINE
  8
_f-a_250
  6
CONTINUOUS
 62
  250
 10
246.02655567540677
 20
143.89751675779473
 11
246.03323139562173
 21
144.05918839628373
  0
LINE
  8
_f-a_250
  6
CONTINUOUS
 62
  250
 10
246.57656349553628
 20
144.08252957517769
 11
246.57656349553628
 21
144.23919442350521
  0
LINE
  8
_f-a_250
  6
CONTINUOUS
 62
  250
 10
246.03323139562173
 20
144.05587437803422
 11
246.57823242558976
 21
144.2358565633977
  0
LINE
  8
_f-a_250
  6
CONTINUOUS
 62
  250
 10
245.7399050177533
 20
144.15252927000171
 11
246.28988899602479
 21
144.3408561056342
  0
LINE
  8
_f-a_250
  6
CONTINUOUS
 62
  250
 10
246.03323139562173
 20
143.89751675779473
 11
246.12988628758927
 21
143.9341855352607
  0
LINE
  8
_f-a_250
  6
CONTINUOUS
 62
  250
 10
246.04655899419328
 20
143.90419247800969
 11
246.58655323400075
 21
144.08252957517769
  0
LINE
  8
_f-a_250
  6
CONTINUOUS
 62
  250
 10
246.12654842748231
 20
143.96918538267269
 11
246.11989654912526
 21
143.96918538267269
  0
LINE
  8
_f-a_250
  6
CONTINUOUS
 62
  250
 10
246.08153499974782
 20
144.09251931364219
 11
245.86824573888327
 21
144.16585686857368
  0
LINE
  8
_f-a_250
  6
CONTINUOUS
 62
  250
 10
245.86824573888327
 20
144.16585686857368
 11
246.08153499974782
 21
144.09251931364219
  0
LINE
  8
_f-a_250
  6
CONTINUOUS
 62
  250
 10
245.86824573888327
 20
144.16585686857368
 11
246.08153499974782
 21
144.09251931364219
  0
LINE
  8
_f-a_250
  6
CONTINUOUS
 62
  250
 10
246.45489849462075
 20
144.2325187032902
 11
246.24821342839778
 21
144.30421117002621
  0
LINE
  8
_f-a_250
  6
CONTINUOUS
 62
  250
 10
246.24821342839778
 20
144.30421117002621
 11
246.45489849462075
 21
144.2325187032902
  0
LINE
  8
_f-a_250
  6
CONTINUOUS
 62
  250
 10
246.24821342839778
 20
144.30421117002621
 11
246.45489849462075
 21
144.2325187032902
  0
LINE
  8
_f-a_250
  6
CONTINUOUS
 62
  250
 10
245.87821163548978
 20
144.16919472868122
 11
246.07824482335627
 21
144.09585717374921
  0
LINE
  8
_f-a_250
  6
CONTINUOUS
 62
  250
 10
246.07824482335627
 20
144.09585717374921
 11
246.4615503729778
 21
144.2325187032902
  0
LINE
  8
_f-a_250
  6
CONTINUOUS
 62
  250
 10
246.4615503729778
 20
144.2325187032902
 11
246.25822700871976
 21
144.3025183981147
  0
LINE
  8
_f-a_250
  6
CONTINUOUS
 62
  250
 10
246.25822700871976
 20
144.3025183981147
 11
245.87821163548978
 21
144.16919472868122
  0
LINE
  8
_f-a_250
  6
CONTINUOUS
 62
  250
 10
246.25822700871976
 20
144.3025183981147
 11
245.87821163548978
 21
144.16919472868122
  0
LINE
  8
_f-a_250
  6
CONTINUOUS
 62
  250
 10
245.87821163548978
 20
144.16919472868122
 11
246.07824482335627
 21
144.09585717374921
  0
LINE
  8
_f-a_250
  6
CONTINUOUS
 62
  250
 10
246.07824482335627
 20
144.09585717374921
 11
246.4615503729778
 21
144.2325187032902
  0
LINE
  8
_f-a_250
  6
CONTINUOUS
 62
  250
 10
246.10323109044577
 20
143.91918900663521
 11
246.10323109044577
 21
144.05918839628373
  0
LINE
  8
_f-a_250
  6
CONTINUOUS
 62
  250
 10
246.10323109044577
 20
144.05918839628373
 11
246.10323109044577
 21
143.91918900663521
  0
LINE
  8
_f-a_250
  6
CONTINUOUS
 62
  250
 10
246.10323109044577
 20
144.05918839628373
 11
246.10323109044577
 21
143.91918900663521
  0
LINE
  8
_f-a_250
  6
CONTINUOUS
 62
  250
 10
246.46822609319224
 20
144.0325331991402
 11
246.46822609319224
 21
144.19418099577069
  0
LINE
  8
_f-a_250
  6
CONTINUOUS
 62
  250
 10
246.46822609319224
 20
144.19418099577069
 11
246.46822609319224
 21
144.0325331991402
  0
LINE
  8
_f-a_250
  6
CONTINUOUS
 62
  250
 10
246.46822609319224
 20
144.19418099577069
 11
246.46822609319224
 21
144.0325331991402
  0
LINE
  8
_f-a_250
  6
CONTINUOUS
 62
  250
 10
246.10323109044577
 20
144.0675330465522
 11
246.13656200780429
 21
143.9541888540472
  0
LINE
  8
_f-a_250
  6
CONTINUOUS
 62
  250
 10
246.13656200780429
 20
143.9541888540472
 11
246.4615503729778
 21
144.05587437803422
  0
LINE
  8
_f-a_250
  6
CONTINUOUS
 62
  250
 10
246.4615503729778
 20
144.05587437803422
 11
246.42988838567277
 21
144.16919472868122
  0
LINE
  8
_f-a_250
  6
CONTINUOUS
 62
  250
 10
246.42988838567277
 20
144.16919472868122
 11
246.10323109044577
 21
144.0675330465522
  0
LINE
  8
_f-a_250
  6
CONTINUOUS
 62
  250
 10
246.4615503729778
 20
144.05587437803422
 11
246.13656200780429
 21
143.9541888540472
  0
LINE
  8
_f-a_250
  6
CONTINUOUS
 62
  250
 10
246.13656200780429
 20
143.9541888540472
 11
246.10323109044577
 21
144.0675330465522
  0
LINE
  8
_f-a_250
  6
CONTINUOUS
 62
  250
 10
246.10323109044577
 20
144.0675330465522
 11
246.42988838567277
 21
144.16919472868122
  0
LINE
  8
_f-a_250
  6
CONTINUOUS
 62
  250
 10
246.42988838567277
 20
144.16919472868122
 11
246.4615503729778
 21
144.05587437803422
  0
LINE
  8
_f-a_250
  6
CONTINUOUS
 62
  250
 10
253.38322319402278
 20
146.68250802213822
 11
253.38322319402278
 21
146.83585885221618
  0
LINE
  8
_f-a_250
  6
CONTINUOUS
 62
  250
 10
253.37657131566579
 20
146.83585885221618
 11
253.67488064183777
 21
146.73419717008721
  0
LINE
  8
_f-a_250
  6
CONTINUOUS
 62
  250
 10
253.91158260716981
 20
147.02752354795572
 11
254.20819916142977
 21
146.92919972593415
  0
LINE
  8
_f-a_250
  6
CONTINUOUS
 62
  250
 10
253.36491264714778
 20
146.6891837423527
 11
253.66820492162282
 21
146.58418420011674
  0
LINE
  8
_f-a_250
  6
CONTINUOUS
 62
  250
 10
253.66820492162282
 20
146.5808463400092
 11
253.66820492162282
 21
146.74421075040971
  0
LINE
  8
_f-a_250
  6
CONTINUOUS
 62
  250
 10
254.21322979344876
 20
146.7691731756417
 11
254.21823658360978
 21
146.92919972593415
  0
LINE
  8
_f-a_250
  6
CONTINUOUS
 62
  250
 10
253.67156662358832
 20
146.73918011839066
 11
254.21823658360978
 21
146.92586186582719
  0
LINE
  8
_f-a_250
  6
CONTINUOUS
 62
  250
 10
253.38322319402278
 20
146.83919671232368
 11
253.92655529393727
 21
147.02752354795572
  0
LINE
  8
_f-a_250
  6
CONTINUOUS
 62
  250
 10
253.66820492162282
 20
146.5808463400092
 11
253.76822151555575
 21
146.61587002927922
  0
LINE
  8
_f-a_250
  6
CONTINUOUS
 62
  250
 10
253.69154610051675
 20
146.59085992033121
 11
254.22155060185929
 21
146.7691731756417
  0
LINE
  8
_f-a_250
  6
CONTINUOUS
 62
  250
 10
253.71989406957181
 20
146.7792105978217
 11
253.51156391515281
 21
146.85085538084172
  0
LINE
  8
_f-a_250
  6
CONTINUOUS
 62
  250
 10
253.51156391515281
 20
146.85085538084172
 11
253.71989406957181
 21
146.7792105978217
  0
LINE
  8
_f-a_250
  6
CONTINUOUS
 62
  250
 10
253.51156391515281
 20
146.85085538084172
 11
253.71989406957181
 21
146.7792105978217
  0
LINE
  8
_f-a_250
  6
CONTINUOUS
 62
  250
 10
254.09657158269431
 20
146.92252400571968
 11
253.88824142827582
 21
146.98920968229424
  0
LINE
  8
_f-a_250
  6
CONTINUOUS
 62
  250
 10
253.88824142827582
 20
146.98920968229424
 11
254.09657158269431
 21
146.92252400571968
  0
LINE
  8
_f-a_250
  6
CONTINUOUS
 62
  250
 10
253.88824142827582
 20
146.98920968229424
 11
254.09657158269431
 21
146.92252400571968
  0
LINE
  8
_f-a_250
  6
CONTINUOUS
 62
  250
 10
253.51156391515281
 20
146.85586217100274
 11
253.71989406957181
 21
146.78252461607121
  0
LINE
  8
_f-a_250
  6
CONTINUOUS
 62
  250
 10
253.71989406957181
 20
146.78252461607121
 11
254.09988560094376
 21
146.91918614561217
  0
LINE
  8
_f-a_250
  6
CONTINUOUS
 62
  250
 10
254.09988560094376
 20
146.91918614561217
 11
253.89653839482827
 21
146.98920968229424
  0
LINE
  8
_f-a_250
  6
CONTINUOUS
 62
  250
 10
253.89653839482827
 20
146.98920968229424
 11
253.51156391515281
 21
146.85586217100274
  0
LINE
  8
_f-a_250
  6
CONTINUOUS
 62
  250
 10
253.89653839482827
 20
146.98920968229424
 11
253.51156391515281
 21
146.85252431089521
  0
LINE
  8
_f-a_250
  6
CONTINUOUS
 62
  250
 10
253.51156391515281
 20
146.85252431089521
 11
253.71989406957181
 21
146.78252461607121
  0
LINE
  8
_f-a_250
  6
CONTINUOUS
 62
  250
 10
253.71989406957181
 20
146.78252461607121
 11
254.09988560094376
 21
146.91918614561217
  0
LINE
  8
_f-a_250
  6
CONTINUOUS
 62
  250
 10
253.74156631841225
 20
146.6058564489567
 11
253.74488033666177
 21
146.74421075040971
  0
LINE
  8
_f-a_250
  6
CONTINUOUS
 62
  250
 10
253.74488033666177
 20
146.74421075040971
 11
253.74156631841225
 21
146.6058564489567
  0
LINE
  8
_f-a_250
  6
CONTINUOUS
 62
  250
 10
253.74488033666177
 20
146.74421075040971
 11
253.74156631841225
 21
146.6058564489567
  0
LINE
  8
_f-a_250
  6
CONTINUOUS
 62
  250
 10
254.1032234610513
 20
146.71753171140824
 11
254.1032234610513
 21
146.88087227995072
  0
LINE
  8
_f-a_250
  6
CONTINUOUS
 62
  250
 10
254.1032234610513
 20
146.88087227995072
 11
254.1032234610513
 21
146.71753171140824
  0
LINE
  8
_f-a_250
  6
CONTINUOUS
 62
  250
 10
254.1032234610513
 20
146.88087227995072
 11
254.1032234610513
 21
146.71753171140824
  0
LINE
  8
_f-a_250
  6
CONTINUOUS
 62
  250
 10
253.74156631841225
 20
146.75586941892769
 11
253.77322830571677
 21
146.64085629636918
  0
LINE
  8
_f-a_250
  6
CONTINUOUS
 62
  250
 10
253.77322830571677
 20
146.64085629636918
 11
254.09988560094376
 21
146.7408728903022
  0
LINE
  8
_f-a_250
  6
CONTINUOUS
 62
  250
 10
254.09988560094376
 20
146.7408728903022
 11
254.06488575353177
 21
146.85252431089521
  0
LINE
  8
_f-a_250
  6
CONTINUOUS
 62
  250
 10
254.06488575353177
 20
146.85252431089521
 11
253.74156631841225
 21
146.75586941892769
  0
LINE
  8
_f-a_250
  6
CONTINUOUS
 62
  250
 10
254.09988560094376
 20
146.7408728903022
 11
253.77322830571677
 21
146.64085629636918
  0
LINE
  8
_f-a_250
  6
CONTINUOUS
 62
  250
 10
253.77322830571677
 20
146.64085629636918
 11
253.74156631841225
 21
146.75586941892769
  0
LINE
  8
_f-a_250
  6
CONTINUOUS
 62
  250
 10
253.74156631841225
 20
146.75586941892769
 11
254.06488575353177
 21
146.85252431089521
  0
LINE
  8
_f-a_250
  6
CONTINUOUS
 62
  250
 10
254.06488575353177
 20
146.85252431089521
 11
254.09988560094376
 21
146.7408728903022
  0
LINE
  8
_f-a_250
  6
CONTINUOUS
 62
  250
 10
260.3282371939618
 20
149.00754216367875
 11
260.33155121221125
 21
149.15920022184517
  0
LINE
  8
_f-a_250
  6
CONTINUOUS
 62
  250
 10
260.32323040380027
 20
149.15920022184517
 11
260.62487759007973
 21
149.0591836279122
  0
LINE
  8
_f-a_250
  6
CONTINUOUS
 62
  250
 10
260.86489357366128
 20
149.35251000578069
 11
261.1532131613688
 21
149.2541861837592
  0
LINE
  8
_f-a_250
  6
CONTINUOUS
 62
  250
 10
260.31488575353177
 20
149.01421788389322
 11
260.61324276341981
 21
148.9125085180487
  0
LINE
  8
_f-a_250
  6
CONTINUOUS
 62
  250
 10
260.61324276341981
 20
148.90919449979918
 11
260.61324276341981
 21
149.06917336637622
  0
LINE
  8
_f-a_250
  6
CONTINUOUS
 62
  250
 10
261.15988888158375
 20
149.09418347532417
 11
261.16823353185231
 21
149.25084832365172
  0
LINE
  8
_f-a_250
  6
CONTINUOUS
 62
  250
 10
260.61991848363431
 20
149.06585934812671
 11
261.16823353185231
 21
149.25084832365172
  0
LINE
  8
_f-a_250
  6
CONTINUOUS
 62
  250
 10
260.3282371939618
 20
149.16752103025573
 11
260.87321438207181
 21
149.35251000578069
  0
LINE
  8
_f-a_250
  6
CONTINUOUS
 62
  250
 10
260.61324276341981
 20
148.90919449979918
 11
260.71821846379777
 21
148.94419434721124
  0
LINE
  8
_f-a_250
  6
CONTINUOUS
 62
  250
 10
260.63822903050931
 20
148.9158463781562
 11
261.17154755010182
 21
149.09754517728922
  0
LINE
  8
_f-a_250
  6
CONTINUOUS
 62
  250
 10
260.71154274358327
 20
148.98253205473071
 11
260.70822872533375
 21
148.98253205473071
  0
LINE
  8
_f-a_250
  6
CONTINUOUS
 62
  250
 10
260.66989101781428
 20
149.10751107389569
 11
260.45989193334128
 21
149.17751076872017
  0
LINE
  8
_f-a_250
  6
CONTINUOUS
 62
  250
 10
260.45989193334128
 20
149.17751076872017
 11
260.66989101781428
 21
149.10751107389569
  0
LINE
  8
_f-a_250
  6
CONTINUOUS
 62
  250
 10
260.45989193334128
 20
149.17751076872017
 11
260.66989101781428
 21
149.10751107389569
  0
LINE
  8
_f-a_250
  6
CONTINUOUS
 62
  250
 10
261.04656853093678
 20
149.24751046354424
 11
260.83656944646378
 21
149.3158412283147
  0
LINE
  8
_f-a_250
  6
CONTINUOUS
 62
  250
 10
260.83656944646378
 20
149.3158412283147
 11
261.04656853093678
 21
149.24751046354424
  0
LINE
  8
_f-a_250
  6
CONTINUOUS
 62
  250
 10
260.84155239476723
 20
149.3158412283147
 11
261.04656853093678
 21
149.24751046354424
  0
LINE
  8
_f-a_250
  6
CONTINUOUS
 62
  250
 10
260.46322979344876
 20
149.18087247068522
 11
260.6665531577068
 21
149.10751107389569
  0
LINE
  8
_f-a_250
  6
CONTINUOUS
 62
  250
 10
260.6665531577068
 20
149.10751107389569
 11
261.04988254918629
 21
149.24255135709922
  0
LINE
  8
_f-a_250
  6
CONTINUOUS
 62
  250
 10
261.04988254918629
 20
149.24255135709922
 11
260.84655918492825
 21
149.31419614011918
  0
LINE
  8
_f-a_250
  6
CONTINUOUS
 62
  250
 10
260.84655918492825
 20
149.31419614011918
 11
260.46322979344876
 21
149.18087247068522
  0
LINE
  8
_f-a_250
  6
CONTINUOUS
 62
  250
 10
260.84655918492825
 20
149.31419614011918
 11
260.46322979344876
 21
149.18087247068522
  0
LINE
  8
_f-a_250
  6
CONTINUOUS
 62
  250
 10
260.46322979344876
 20
149.18087247068522
 11
260.6665531577068
 21
149.10751107389569
  0
LINE
  8
_f-a_250
  6
CONTINUOUS
 62
  250
 10
260.6665531577068
 20
149.10751107389569
 11
261.04988254918629
 21
149.24255135709922
  0
LINE
  8
_f-a_250
  6
CONTINUOUS
 62
  250
 10
260.68989433660073
 20
148.9341807668892
 11
260.68989433660073
 21
149.06917336637622
  0
LINE
  8
_f-a_250
  6
CONTINUOUS
 62
  250
 10
260.68989433660073
 20
149.06917336637622
 11
260.68989433660073
 21
148.9341807668892
  0
LINE
  8
_f-a_250
  6
CONTINUOUS
 62
  250
 10
260.68989433660073
 20
149.06917336637622
 11
260.68989433660073
 21
148.9341807668892
  0
LINE
  8
_f-a_250
  6
CONTINUOUS
 62
  250
 10
261.05324425115128
 20
149.04418709928672
 11
261.05324425115128
 21
149.20585873777526
  0
LINE
  8
_f-a_250
  6
CONTINUOUS
 62
  250
 10
261.05324425115128
 20
149.20585873777526
 11
261.05324425115128
 21
149.04418709928672
  0
LINE
  8
_f-a_250
  6
CONTINUOUS
 62
  250
 10
261.05324425115128
 20
149.20585873777526
 11
261.05324425115128
 21
149.04418709928672
  0
LINE
  8
_f-a_250
  6
CONTINUOUS
 62
  250
 10
260.68989433660073
 20
149.0808320348942
 11
260.72158016576327
 21
148.96751168424723
  0
LINE
  8
_f-a_250
  6
CONTINUOUS
 62
  250
 10
260.72158016576327
 20
148.96751168424723
 11
261.05324425115128
 21
149.06585934812671
  0
LINE
  8
_f-a_250
  6
CONTINUOUS
 62
  250
 10
261.05324425115128
 20
149.06585934812671
 11
261.01819672002375
 21
149.18087247068522
  0
LINE
  8
_f-a_250
  6
CONTINUOUS
 62
  250
 10
261.01819672002375
 20
149.18087247068522
 11
260.68989433660073
 21
149.0808320348942
  0
LINE
  8
_f-a_250
  6
CONTINUOUS
 62
  250
 10
261.05324425115128
 20
149.06585934812671
 11
260.72158016576327
 21
148.96751168424723
  0
LINE
  8
_f-a_250
  6
CONTINUOUS
 62
  250
 10
260.72158016576327
 20
148.96751168424723
 11
260.68989433660073
 21
149.0808320348942
  0
LINE
  8
_f-a_250
  6
CONTINUOUS
 62
  250
 10
260.68989433660073
 20
149.0808320348942
 11
261.01819672002375
 21
149.18087247068522
  0
LINE
  8
_f-a_250
  6
CONTINUOUS
 62
  250
 10
261.01819672002375
 20
149.18087247068522
 11
261.05324425115128
 21
149.06585934812671
  0
LINE
  8
_f-a_250
  6
CONTINUOUS
 62
  250
 10
241.89009049370665
 20
140.96517806033276
 11
241.89375073986176
 21
141.55163588521918
  0
LINE
  8
_0-0_0
  6
CONTINUOUS
 62
    7
 10
240.2854580958454
 20
141.55158492827186
 11
241.88189720033355
 21
140.96605710624956
  0
LINE
  8
_f-a_250
  6
CONTINUOUS
 62
  250
 10
241.89489252903789
 20
141.56026711817947
 11
240.28973334475464
 21
142.11237398564379
  0
LINE
  8
_f-a_250
  6
CONTINUOUS
 62
  250
 10
240.28973334475464
 20
142.11237398564379
 11
242.34204797606543
 21
142.83616436265635
  0
LINE
  8
_f-a_250
  6
CONTINUOUS
 62
  250
 10
242.34204797606543
 20
142.83616436265635
 11
243.95839306781085
 21
142.28832726583624
  0
LINE
  8
_0-0_0
  6
CONTINUOUS
 62
    7
 10
241.89691073423157
 20
141.56159395087053
 11
243.94876036695925
 21
142.28724808927424
  0
LINE
  8
_f-a_250
  6
CONTINUOUS
 62
  250
 10
243.94669165320167
 20
141.66441240280673
 11
243.95839306781085
 21
142.28832726583624
  0
LINE
  8
_f-a_250
  6
CONTINUOUS
 62
  250
 10
240.28659673604551
 20
141.54853909075996
 11
240.28973334475464
 21
142.11237398564379
  0
LINE
  8
_f-a_250
  6
CONTINUOUS
 62
  250
 10
243.61066199715827
 20
142.55186832347701
 11
243.61379860586737
 21
143.11570321836084
  0
LINE
  8
_f-a_250
  6
CONTINUOUS
 62
  250
 10
245.21895779015063
 20
142.56359635089652
 11
243.61379860586737
 21
143.11570321836084
  0
LINE
  8
_f-a_250
  6
CONTINUOUS
 62
  250
 10
247.2707569143144
 20
142.66774163552378
 11
247.28245832892358
 21
143.29165649855329
  0
LINE
  8
_0-0_0
  6
CONTINUOUS
 62
    7
 10
245.2209759953443
 20
142.56492318358758
 11
247.27282562807198
 21
143.29057732199129
  0
LINE
  8
_f-a_250
  6
CONTINUOUS
 62
  250
 10
243.61379860586737
 20
143.11570321836084
 11
245.66611323717817
 21
143.8394935953734
  0
LINE
  8
_f-a_250
  6
CONTINUOUS
 62
  250
 10
245.66611323717817
 20
143.8394935953734
 11
247.28245832892358
 21
143.29165649855329
  0
LINE
  8
_0-0_0
  6
CONTINUOUS
 62
    7
 10
247.19020279107912
 20
143.77892192673437
 11
248.78664189556727
 21
143.19339410471207
  0
LINE
  8
_f-a_250
  6
CONTINUOUS
 62
  250
 10
248.79963722427161
 20
143.78760411664197
 11
247.19447803998835
 21
144.33971098410626
  0
LINE
  8
_f-a_250
  6
CONTINUOUS
 62
  250
 10
247.19447803998835
 20
144.33971098410626
 11
249.24679267129915
 21
145.06350136111885
  0
LINE
  8
_f-a_250
  6
CONTINUOUS
 62
  250
 10
249.24679267129915
 20
145.06350136111885
 11
250.86313776304456
 21
144.51566426429875
  0
LINE
  8
_0-0_0
  6
CONTINUOUS
 62
    7
 10
248.80165542946528
 20
143.78893094933304
 11
250.85350506219297
 21
144.51458508773675
  0
LINE
  8
_f-a_250
  6
CONTINUOUS
 62
  250
 10
250.85143634843539
 20
143.89174940126921
 11
250.86313776304456
 21
144.51566426429875
  0
LINE
  8
_f-a_250
  6
CONTINUOUS
 62
  250
 10
247.19134143127923
 20
143.77587608922246
 11
247.19447803998835
 21
144.33971098410626
  0
LINE
  8
_f-a_250
  6
CONTINUOUS
 62
  250
 10
250.92037705574882
 20
145.06268457628929
 11
250.92351366445791
 21
145.62651947117308
  0
LINE
  8
_f-a_250
  6
CONTINUOUS
 62
  250
 10
252.52867284874117
 20
145.07441260370879
 11
250.92351366445791
 21
145.62651947117308
  0
LINE
  8
_f-a_250
  6
CONTINUOUS
 62
  250
 10
254.58047197290495
 20
145.17855788833603
 11
254.59217338751412
 21
145.80247275136557
  0
LINE
  8
_f-a_250
  6
CONTINUOUS
 62
  250
 10
252.52387081340993
 20
144.47932354586206
 11
252.52753105956504
 21
145.06578137074851
  0
LINE
  8
_0-0_0
  6
CONTINUOUS
 62
    7
 10
252.53069105393485
 20
145.07573943639986
 11
254.58254068666253
 21
145.80139357480357
  0
LINE
  8
_0-0_0
  6
CONTINUOUS
 62
    7
 10
250.9192384155487
 20
145.06573041380119
 11
252.51567752003683
 21
144.48020259177889
  0
LINE
  8
_f-a_250
  6
CONTINUOUS
 62
  250
 10
250.92351366445791
 20
145.62651947117308
 11
252.97582829576871
 21
146.35030984818567
  0
LINE
  8
_f-a_250
  6
CONTINUOUS
 62
  250
 10
252.97582829576871
 20
146.35030984818567
 11
254.59217338751412
 21
145.80247275136557
  0
LINE
  8
_f-a_250
  6
CONTINUOUS
 62
  250
 10
256.10455024753094
 20
145.70333131160751
 11
256.10821049368599
 21
146.28978913649394
  0
LINE
  8
_0-0_0
  6
CONTINUOUS
 62
    7
 10
254.49991784966966
 20
146.28973817954662
 11
256.09635695415778
 21
145.70421035752432
  0
LINE
  8
_f-a_250
  6
CONTINUOUS
 62
  250
 10
256.10935228286218
 20
146.29842036945422
 11
254.5041930985789
 21
146.85052723691854
  0
LINE
  8
_f-a_250
  6
CONTINUOUS
 62
  250
 10
254.5041930985789
 20
146.85052723691854
 11
256.55650772988969
 21
147.5743176139311
  0
LINE
  8
_f-a_250
  6
CONTINUOUS
 62
  250
 10
256.55650772988969
 20
147.5743176139311
 11
258.1728528216351
 21
147.026480517111
  0
LINE
  8
_0-0_0
  6
CONTINUOUS
 62
    7
 10
256.1113704880558
 20
146.29974720214528
 11
258.16322012078354
 21
147.025401340549
  0
LINE
  8
_f-a_250
  6
CONTINUOUS
 62
  250
 10
258.1611514070259
 20
146.40256565408149
 11
258.1728528216351
 21
147.026480517111
  0
LINE
  8
_f-a_250
  6
CONTINUOUS
 62
  250
 10
254.50105648986977
 20
146.28669234203471
 11
254.5041930985789
 21
146.85052723691854
  0
LINE
  8
_f-a_250
  6
CONTINUOUS
 62
  250
 10
258.27058915067505
 20
147.57350082910153
 11
258.27372575938409
 21
148.13733572398536
  0
LINE
  8
_f-a_250
  6
CONTINUOUS
 62
  250
 10
259.8788849436674
 20
147.58522885652104
 11
258.27372575938409
 21
148.13733572398536
  0
LINE
  8
_f-a_250
  6
CONTINUOUS
 62
  250
 10
261.93068406783118
 20
147.68937414114831
 11
261.94238548244033
 21
148.31328900417782
  0
LINE
  8
_f-a_250
  6
CONTINUOUS
 62
  250
 10
259.87408290833616
 20
146.99013979867431
 11
259.87774315449127
 21
147.57659762356076
  0
LINE
  8
_0-0_0
  6
CONTINUOUS
 62
    7
 10
259.88090314886108
 20
147.5865556892121
 11
261.93275278158876
 21
148.31220982761582
  0
LINE
  8
_0-0_0
  6
CONTINUOUS
 62
    7
 10
258.26945051047494
 20
147.57654666661344
 11
259.86588961496307
 21
146.99101884459114
  0
LINE
  8
_f-a_250
  6
CONTINUOUS
 62
  250
 10
258.27372575938409
 20
148.13733572398536
 11
260.32604039069491
 21
148.86112610099792
  0
LINE
  8
_f-a_250
  6
CONTINUOUS
 62
  250
 10
260.32604039069491
 20
148.86112610099792
 11
261.94238548244033
 21
148.31328900417782
  0
LINE
  8
_f-a_250
  6
CONTINUOUS
 62
  250
 10
263.45476234245712
 20
148.21414756441976
 11
263.45842258861222
 21
148.80060538930618
  0
LINE
  8
_0-0_0
  6
CONTINUOUS
 62
    7
 10
261.85012994459589
 20
148.80055443235889
 11
263.44656904908402
 21
148.21502661033659
  0
LINE
  8
_f-a_250
  6
CONTINUOUS
 62
  250
 10
263.45956437778835
 20
148.80923662226647
 11
261.8544051935051
 21
149.36134348973079
  0
LINE
  8
_f-a_250
  6
CONTINUOUS
 62
  250
 10
263.90671982481592
 20
150.08513386674338
 11
265.52306491656134
 21
149.53729676992324
  0
LINE
  8
_0-0_0
  6
CONTINUOUS
 62
    7
 10
263.46158258298203
 20
148.81056345495756
 11
265.51343221570971
 21
149.53621759336124
  0
LINE
  8
_f-a_250
  6
CONTINUOUS
 62
  250
 10
265.51136350195213
 20
148.91338190689373
 11
265.52306491656134
 21
149.53729676992324
  0
LINE
  8
_f-a_250
  6
CONTINUOUS
 62
  250
 10
261.851268584796
 20
148.79750859484696
 11
261.8544051935051
 21
149.36134348973079
  0
LINE
  8
_0-0_0
  6
CONTINUOUS
 62
    7
 10
263.49411945426067
 20
148.24836223994464
 11
265.51897127104473
 21
148.89631482131554
  0
LINE
  8
_0-0_0
  6
CONTINUOUS
 62
    7
 10
243.60952335695816
 20
142.55491416098891
 11
245.21414251605702
 21
141.9663861308492
  0
LINE
  8
_f-a_250
  6
CONTINUOUS
 62
  250
 10
245.21414251605702
 20
141.9663861308492
 11
245.21781600097449
 21
142.55496511793623
  0
LINE
  8
_0-0_0
  6
CONTINUOUS
 62
    7
 10
241.86161623515744
 20
140.98311397291175
 11
243.9634759020006
 21
141.6440079918676
  0
LINE
  8
_0-0_0
  6
CONTINUOUS
 62
    7
 10
245.20942364265508
 20
141.9365348527169
 11
247.26794599677984
 21
142.64076618439117
  0
LINE
  8
_0-0_0
  6
CONTINUOUS
 62
    7
 10
248.76308328556519
 20
143.19331692155097
 11
250.85410862422876
 21
143.88671392504563
  0
LINE
  8
_0-0_0
  6
CONTINUOUS
 62
    7
 10
252.52259516388779
 20
144.47176764674424
 11
254.55944886165332
 21
145.16516465023889
  0
LINE
  8
_0-0_0
  6
CONTINUOUS
 62
    7
 10
256.11959211951631
 20
145.69604673103947
 11
258.15644581728185
 21
146.40027806271374
  0
LINE
  8
_0-0_0
  6
CONTINUOUS
 62
    7
 10
259.8682696696593
 20
146.97449745623277
 11
261.93762635196367
 21
147.66789445972742
  0
LINE
  8
_f-a_250
  6
CONTINUOUS
 62
  250
 10
261.8544051935051
 20
149.36134348973079
 11
263.90671982481592
 21
150.08513386674338
  0
LINE
  8
_f-a_250
  6
CONTINUOUS
 62
  250
 10
273.23175274752577
 20
153.12782461738988
 11
275.28343998812625
 21
153.83115942573937
  0
LINE
  8
_f-a_250
  6
CONTINUOUS
 62
  250
 10
267.9401000680823
 20
151.42785246467992
 11
267.9401000680823
 21
151.57784159279237
  0
LINE
  8
_f-a_250
  6
CONTINUOUS
 62
  250
 10
267.9401000680823
 20
151.57450373268534
 11
268.24177109621974
 21
151.47284205055638
  0
LINE
  8
_f-a_250
  6
CONTINUOUS
 62
  250
 10
268.47842537783572
 20
151.77282030678185
 11
268.77008282565077
 21
151.67449648476037
  0
LINE
  8
_f-a_250
  6
CONTINUOUS
 62
  250
 10
267.93008648776026
 20
151.42785246467992
 11
268.23008858584376
 21
151.32950480080035
  0
LINE
  8
_f-a_250
  6
CONTINUOUS
 62
  250
 10
268.23008858584376
 20
151.32619078255084
 11
268.23008858584376
 21
151.48948366737739
  0
LINE
  8
_f-a_250
  6
CONTINUOUS
 62
  250
 10
268.77508961581179
 20
151.51117975807591
 11
268.77508961581179
 21
151.67115862465289
  0
LINE
  8
_f-a_250
  6
CONTINUOUS
 62
  250
 10
268.23509537600478
 20
151.47949392891337
 11
268.78176533602675
 21
151.66782076454541
  0
LINE
  8
_f-a_250
  6
CONTINUOUS
 62
  250
 10
267.9401000680823
 20
151.5811794528999
 11
268.48843895815821
 21
151.76452334022886
  0
LINE
  8
_f-a_250
  6
CONTINUOUS
 62
  250
 10
268.23008858584376
 20
151.32619078255084
 11
268.33175026797221
 21
151.36116678810487
  0
LINE
  8
_f-a_250
  6
CONTINUOUS
 62
  250
 10
268.24842297457621
 20
151.33284266090786
 11
268.78176533602675
 21
151.51449377632534
  0
LINE
  8
_f-a_250
  6
CONTINUOUS
 62
  250
 10
268.28676068209575
 20
151.52114565468236
 11
268.0767615976232
 21
151.59450705147191
  0
LINE
  8
_f-a_250
  6
CONTINUOUS
 62
  250
 10
268.0767615976232
 20
151.59450705147191
 11
268.28676068209575
 21
151.52114565468236
  0
LINE
  8
_f-a_250
  6
CONTINUOUS
 62
  250
 10
268.0767615976232
 20
151.59450705147191
 11
268.28676068209575
 21
151.52114565468236
  0
LINE
  8
_f-a_250
  6
CONTINUOUS
 62
  250
 10
268.65509354494975
 20
151.6645067462959
 11
268.45343911074576
 21
151.73283751106641
  0
LINE
  8
_f-a_250
  6
CONTINUOUS
 62
  250
 10
268.45343911074576
 20
151.73283751106641
 11
268.65509354494975
 21
151.6645067462959
  0
LINE
  8
_f-a_250
  6
CONTINUOUS
 62
  250
 10
268.45343911074576
 20
151.73283751106641
 11
268.65509354494975
 21
151.6645067462959
  0
LINE
  8
_f-a_250
  6
CONTINUOUS
 62
  250
 10
268.08174454592677
 20
151.59782106972133
 11
268.28008496188124
 21
151.52450735664735
  0
LINE
  8
_f-a_250
  6
CONTINUOUS
 62
  250
 10
268.28008496188124
 20
151.52450735664735
 11
268.66343819521876
 21
151.66116888618836
  0
LINE
  8
_f-a_250
  6
CONTINUOUS
 62
  250
 10
268.66343819521876
 20
151.66116888618836
 11
268.4600909891027
 21
151.73114473915484
  0
LINE
  8
_f-a_250
  6
CONTINUOUS
 62
  250
 10
268.4600909891027
 20
151.73114473915484
 11
268.08174454592677
 21
151.59782106972133
  0
LINE
  8
_f-a_250
  6
CONTINUOUS
 62
  250
 10
268.4600909891027
 20
151.73114473915484
 11
268.08174454592677
 21
151.59782106972133
  0
LINE
  8
_f-a_250
  6
CONTINUOUS
 62
  250
 10
268.08174454592677
 20
151.59782106972133
 11
268.28008496188124
 21
151.52450735664735
  0
LINE
  8
_f-a_250
  6
CONTINUOUS
 62
  250
 10
268.28008496188124
 20
151.52450735664735
 11
268.66343819521876
 21
151.66116888618836
  0
LINE
  8
_f-a_250
  6
CONTINUOUS
 62
  250
 10
268.30342614077517
 20
151.34783918953335
 11
268.30676400088271
 21
151.48948366737739
  0
LINE
  8
_f-a_250
  6
CONTINUOUS
 62
  250
 10
268.30676400088271
 20
151.48948366737739
 11
268.30342614077517
 21
151.34783918953335
  0
LINE
  8
_f-a_250
  6
CONTINUOUS
 62
  250
 10
268.30676400088271
 20
151.48616964912787
 11
268.30342614077517
 21
151.34783918953335
  0
LINE
  8
_f-a_250
  6
CONTINUOUS
 62
  250
 10
268.66675221346827
 20
151.46282847023389
 11
268.66675221346827
 21
151.62283117866889
  0
LINE
  8
_f-a_250
  6
CONTINUOUS
 62
  250
 10
268.66675221346827
 20
151.62283117866889
 11
268.66675221346827
 21
151.46282847023389
  0
LINE
  8
_f-a_250
  6
CONTINUOUS
 62
  250
 10
268.66675221346827
 20
151.62283117866889
 11
268.66675221346827
 21
151.46282847023389
  0
LINE
  8
_f-a_250
  6
CONTINUOUS
 62
  250
 10
268.30342614077517
 20
151.49615938759234
 11
268.33842598818728
 21
151.38283903694537
  0
LINE
  8
_f-a_250
  6
CONTINUOUS
 62
  250
 10
268.33842598818728
 20
151.38283903694537
 11
268.66675221346827
 21
151.48283178902037
  0
LINE
  8
_f-a_250
  6
CONTINUOUS
 62
  250
 10
268.66675221346827
 20
151.48283178902037
 11
268.63177620791373
 21
151.59782106972133
  0
LINE
  8
_f-a_250
  6
CONTINUOUS
 62
  250
 10
268.63177620791373
 20
151.59782106972133
 11
268.30342614077517
 21
151.49615938759234
  0
LINE
  8
_f-a_250
  6
CONTINUOUS
 62
  250
 10
268.66675221346827
 20
151.48283178902037
 11
268.33842598818728
 21
151.38283903694537
  0
LINE
  8
_f-a_250
  6
CONTINUOUS
 62
  250
 10
268.33842598818728
 20
151.38283903694537
 11
268.30342614077517
 21
151.49615938759234
  0
LINE
  8
_f-a_250
  6
CONTINUOUS
 62
  250
 10
268.30342614077517
 20
151.49615938759234
 11
268.63177620791373
 21
151.59782106972133
  0
LINE
  8
_f-a_250
  6
CONTINUOUS
 62
  250
 10
268.63177620791373
 20
151.59782106972133
 11
268.66675221346827
 21
151.48283178902037
  0
LINE
  8
_f-a_250
  6
CONTINUOUS
 62
  250
 10
275.58341824435172
 20
154.10948927498237
 11
275.58341824435172
 21
154.26784689522191
  0
LINE
  8
_f-a_250
  6
CONTINUOUS
 62
  250
 10
275.57843529604872
 20
154.26450903511437
 11
275.87676846407828
 21
154.16282351112739
  0
LINE
  8
_f-a_250
  6
CONTINUOUS
 62
  250
 10
276.12009846590922
 20
154.45948774910337
 11
276.41342484377822
 21
154.35782606697484
  0
LINE
  8
_f-a_250
  6
CONTINUOUS
 62
  250
 10
275.56675278567275
 20
154.11783392525086
 11
275.86675488375624
 21
154.01283438301488
  0
LINE
  8
_f-a_250
  6
CONTINUOUS
 62
  250
 10
275.86675488375624
 20
154.01118929481891
 11
275.86675488375624
 21
154.17448217964537
  0
LINE
  8
_f-a_250
  6
CONTINUOUS
 62
  250
 10
276.41342484377822
 20
154.19784720039735
 11
276.42176949404677
 21
154.35451204872538
  0
LINE
  8
_f-a_250
  6
CONTINUOUS
 62
  250
 10
275.87011658572123
 20
154.16783030128886
 11
276.42176949404677
 21
154.35451204872538
  0
LINE
  8
_f-a_250
  6
CONTINUOUS
 62
  250
 10
275.58341824435172
 20
154.26784689522191
 11
276.13175713442774
 21
154.45617373085386
  0
LINE
  8
_f-a_250
  6
CONTINUOUS
 62
  250
 10
275.86675488375624
 20
154.01283438301488
 11
275.97177826785025
 21
154.04449637031939
  0
LINE
  8
_f-a_250
  6
CONTINUOUS
 62
  250
 10
275.89510285281119
 20
154.02115519142535
 11
276.42343842410025
 21
154.19784720039735
  0
LINE
  8
_f-a_250
  6
CONTINUOUS
 62
  250
 10
275.92175804995475
 20
154.20950586891539
 11
275.71509682558974
 21
154.27783663368589
  0
LINE
  8
_f-a_250
  6
CONTINUOUS
 62
  250
 10
275.71509682558974
 20
154.27783663368589
 11
275.92175804995475
 21
154.20950586891539
  0
LINE
  8
_f-a_250
  6
CONTINUOUS
 62
  250
 10
275.71509682558974
 20
154.27783663368589
 11
275.92175804995475
 21
154.20950586891539
  0
LINE
  8
_f-a_250
  6
CONTINUOUS
 62
  250
 10
276.29509770297022
 20
154.34783632851037
 11
276.09344326876578
 21
154.4211738834419
  0
LINE
  8
_f-a_250
  6
CONTINUOUS
 62
  250
 10
276.09344326876578
 20
154.4211738834419
 11
276.29509770297022
 21
154.34783632851037
  0
LINE
  8
_f-a_250
  6
CONTINUOUS
 62
  250
 10
276.09344326876578
 20
154.4211738834419
 11
276.29509770297022
 21
154.34783632851037
  0
LINE
  8
_f-a_250
  6
CONTINUOUS
 62
  250
 10
275.71509682558974
 20
154.28451235390088
 11
275.92175804995475
 21
154.2128198871649
  0
LINE
  8
_f-a_250
  6
CONTINUOUS
 62
  250
 10
275.92175804995475
 20
154.2128198871649
 11
276.30177342318473
 21
154.34449846840289
  0
LINE
  8
_f-a_250
  6
CONTINUOUS
 62
  250
 10
276.30177342318473
 20
154.34449846840289
 11
276.10011898898074
 21
154.41783602333436
  0
LINE
  8
_f-a_250
  6
CONTINUOUS
 62
  250
 10
276.10011898898074
 20
154.41783602333436
 11
275.71509682558974
 21
154.28451235390088
  0
LINE
  8
_f-a_250
  6
CONTINUOUS
 62
  250
 10
276.10011898898074
 20
154.41783602333436
 11
275.71509682558974
 21
154.28117449379334
  0
LINE
  8
_f-a_250
  6
CONTINUOUS
 62
  250
 10
275.71509682558974
 20
154.28117449379334
 11
275.92175804995475
 21
154.2128198871649
  0
LINE
  8
_f-a_250
  6
CONTINUOUS
 62
  250
 10
275.92175804995475
 20
154.2128198871649
 11
276.30177342318473
 21
154.34783632851037
  0
LINE
  8
_f-a_250
  6
CONTINUOUS
 62
  250
 10
275.93842350863429
 20
154.03450663185487
 11
275.93842350863429
 21
154.17448217964537
  0
LINE
  8
_f-a_250
  6
CONTINUOUS
 62
  250
 10
275.93842350863429
 20
154.17448217964537
 11
275.93842350863429
 21
154.03450663185487
  0
LINE
  8
_f-a_250
  6
CONTINUOUS
 62
  250
 10
275.93842350863429
 20
154.17448217964537
 11
275.93842350863429
 21
154.03450663185487
  0
LINE
  8
_f-a_250
  6
CONTINUOUS
 62
  250
 10
276.30177342318473
 20
154.14949591255589
 11
276.30511128329226
 21
154.30949862099087
  0
LINE
  8
_f-a_250
  6
CONTINUOUS
 62
  250
 10
276.30511128329226
 20
154.30949862099087
 11
276.30177342318473
 21
154.14949591255589
  0
LINE
  8
_f-a_250
  6
CONTINUOUS
 62
  250
 10
276.30511128329226
 20
154.31283648109837
 11
276.30177342318473
 21
154.14949591255589
  0
LINE
  8
_f-a_250
  6
CONTINUOUS
 62
  250
 10
275.93842350863429
 20
154.18285067177186
 11
275.9784301462073
 21
154.07282049751683
  0
LINE
  8
_f-a_250
  6
CONTINUOUS
 62
  250
 10
275.9784301462073
 20
154.07282049751683
 11
276.30177342318473
 21
154.16949923134234
  0
LINE
  8
_f-a_250
  6
CONTINUOUS
 62
  250
 10
276.30177342318473
 20
154.16949923134234
 11
276.26841866396876
 21
154.28117449379334
  0
LINE
  8
_f-a_250
  6
CONTINUOUS
 62
  250
 10
276.26841866396876
 20
154.28117449379334
 11
275.93842350863429
 21
154.18285067177186
  0
LINE
  8
_f-a_250
  6
CONTINUOUS
 62
  250
 10
276.30177342318473
 20
154.16949923134234
 11
275.9784301462073
 21
154.07282049751683
  0
LINE
  8
_f-a_250
  6
CONTINUOUS
 62
  250
 10
275.9784301462073
 20
154.07282049751683
 11
275.93842350863429
 21
154.18285067177186
  0
LINE
  8
_f-a_250
  6
CONTINUOUS
 62
  250
 10
275.93842350863429
 20
154.18285067177186
 11
276.26841866396876
 21
154.28117449379334
  0
LINE
  8
_f-a_250
  6
CONTINUOUS
 62
  250
 10
276.26841866396876
 20
154.28117449379334
 11
276.30177342318473
 21
154.16949923134234
  0
LINE
  8
_f-a_250
  6
CONTINUOUS
 62
  250
 10
282.53010117434474
 20
156.43948252296838
 11
282.53010117434474
 21
156.58782656288537
  0
LINE
  8
_f-a_250
  6
CONTINUOUS
 62
  250
 10
282.52175652407573
 20
156.58782656288537
 11
282.82175862215922
 21
156.48282702064887
  0
LINE
  8
_f-a_250
  6
CONTINUOUS
 62
  250
 10
283.06508862399073
 20
156.78449804878636
 11
283.35510098360976
 21
156.68283636665737
  0
LINE
  8
_f-a_250
  6
CONTINUOUS
 62
  250
 10
282.51510464571925
 20
156.43948252296838
 11
282.81508290194472
 21
156.33782084083941
  0
LINE
  8
_f-a_250
  6
CONTINUOUS
 62
  250
 10
282.81508290194472
 20
156.33782084083941
 11
282.82175862215922
 21
156.49784739113238
  0
LINE
  8
_f-a_250
  6
CONTINUOUS
 62
  250
 10
283.36177670382472
 20
156.52617151832987
 11
283.36678349398574
 21
156.67949850654986
  0
LINE
  8
_f-a_250
  6
CONTINUOUS
 62
  250
 10
282.82175862215922
 20
156.4945095310249
 11
283.36678349398574
 21
156.67949850654986
  0
LINE
  8
_f-a_250
  6
CONTINUOUS
 62
  250
 10
282.53010117434474
 20
156.5911644229929
 11
283.07844006442019
 21
156.77951510048291
  0
LINE
  8
_f-a_250
  6
CONTINUOUS
 62
  250
 10
282.81508290194472
 20
156.33782084083941
 11
282.92010628603873
 21
156.37284453010938
  0
LINE
  8
_f-a_250
  6
CONTINUOUS
 62
  250
 10
282.83508622073123
 20
156.34449656105434
 11
283.37343537234278
 21
156.52617151832987
  0
LINE
  8
_f-a_250
  6
CONTINUOUS
 62
  250
 10
282.87175499819728
 20
156.53616125679389
 11
282.6617797555823
 21
156.60616095161839
  0
LINE
  8
_f-a_250
  6
CONTINUOUS
 62
  250
 10
282.6617797555823
 20
156.60616095161839
 11
282.87175499819728
 21
156.53616125679389
  0
LINE
  8
_f-a_250
  6
CONTINUOUS
 62
  250
 10
282.6617797555823
 20
156.60616095161839
 11
282.87843071841178
 21
156.53284723854438
  0
LINE
  8
_f-a_250
  6
CONTINUOUS
 62
  250
 10
283.24511849307021
 20
156.67117769813939
 11
283.04177128695426
 21
156.74616034126683
  0
LINE
  8
_f-a_250
  6
CONTINUOUS
 62
  250
 10
283.04177128695426
 20
156.74616034126683
 11
283.24511849307021
 21
156.67117769813939
  0
LINE
  8
_f-a_250
  6
CONTINUOUS
 62
  250
 10
283.04177128695426
 20
156.74616034126683
 11
283.24511849307021
 21
156.67117769813939
  0
LINE
  8
_f-a_250
  6
CONTINUOUS
 62
  250
 10
282.6650937738317
 20
156.60949881172587
 11
282.87175499819728
 21
156.53952295875939
  0
LINE
  8
_f-a_250
  6
CONTINUOUS
 62
  250
 10
282.87175499819728
 20
156.53952295875939
 11
283.2484086694617
 21
156.67117769813939
  0
LINE
  8
_f-a_250
  6
CONTINUOUS
 62
  250
 10
283.2484086694617
 20
156.67117769813939
 11
283.04844700716922
 21
156.74284632301737
  0
LINE
  8
_f-a_250
  6
CONTINUOUS
 62
  250
 10
283.04844700716922
 20
156.74284632301737
 11
282.6650937738317
 21
156.60949881172587
  0
LINE
  8
_f-a_250
  6
CONTINUOUS
 62
  250
 10
283.04844700716922
 20
156.74284632301737
 11
282.6650937738317
 21
156.60949881172587
  0
LINE
  8
_f-a_250
  6
CONTINUOUS
 62
  250
 10
282.6650937738317
 20
156.60949881172587
 11
282.87175499819728
 21
156.53952295875939
  0
LINE
  8
_f-a_250
  6
CONTINUOUS
 62
  250
 10
282.87175499819728
 20
156.53952295875939
 11
283.2484086694617
 21
156.67117769813939
  0
LINE
  8
_f-a_250
  6
CONTINUOUS
 62
  250
 10
282.88844429873427
 20
156.35782415962586
 11
282.88844429873427
 21
156.49784739113238
  0
LINE
  8
_f-a_250
  6
CONTINUOUS
 62
  250
 10
282.88844429873427
 20
156.49784739113238
 11
282.88844429873427
 21
156.35782415962586
  0
LINE
  8
_f-a_250
  6
CONTINUOUS
 62
  250
 10
282.88844429873427
 20
156.49784739113238
 11
282.88844429873427
 21
156.35782415962586
  0
LINE
  8
_f-a_250
  6
CONTINUOUS
 62
  250
 10
283.25508438967677
 20
156.47450621223834
 11
283.25508438967677
 21
156.63283999061986
  0
LINE
  8
_f-a_250
  6
CONTINUOUS
 62
  250
 10
283.25508438967677
 20
156.63283999061986
 11
283.25508438967677
 21
156.47450621223834
  0
LINE
  8
_f-a_250
  6
CONTINUOUS
 62
  250
 10
283.25508438967677
 20
156.63283999061986
 11
283.25508438967677
 21
156.47450621223834
  0
LINE
  8
_f-a_250
  6
CONTINUOUS
 62
  250
 10
282.88844429873427
 20
156.51284391975787
 11
282.92342030428824
 21
156.39451677894985
  0
LINE
  8
_f-a_250
  6
CONTINUOUS
 62
  250
 10
282.92342030428824
 20
156.39451677894985
 11
283.2484086694617
 21
156.4945095310249
  0
LINE
  8
_f-a_250
  6
CONTINUOUS
 62
  250
 10
283.2484086694617
 20
156.4945095310249
 11
283.21343266390772
 21
156.60949881172587
  0
LINE
  8
_f-a_250
  6
CONTINUOUS
 62
  250
 10
283.21343266390772
 20
156.60949881172587
 11
282.88844429873427
 21
156.51284391975787
  0
LINE
  8
_f-a_250
  6
CONTINUOUS
 62
  250
 10
283.2484086694617
 20
156.4945095310249
 11
282.92342030428824
 21
156.39451677894985
  0
LINE
  8
_f-a_250
  6
CONTINUOUS
 62
  250
 10
282.92342030428824
 20
156.39451677894985
 11
282.88844429873427
 21
156.51284391975787
  0
LINE
  8
_f-a_250
  6
CONTINUOUS
 62
  250
 10
282.88844429873427
 20
156.51284391975787
 11
283.21343266390772
 21
156.60949881172587
  0
LINE
  8
_f-a_250
  6
CONTINUOUS
 62
  250
 10
283.21343266390772
 20
156.60949881172587
 11
283.2484086694617
 21
156.4945095310249
  0
LINE
  8
_f-a_250
  6
CONTINUOUS
 62
  250
 10
265.64685622228433
 20
149.94671975301327
 11
265.64999283099343
 21
150.51055464789707
  0
LINE
  8
_f-a_250
  6
CONTINUOUS
 62
  250
 10
267.25515201527668
 20
149.95844778043278
 11
265.64999283099343
 21
150.51055464789707
  0
LINE
  8
_f-a_250
  6
CONTINUOUS
 62
  250
 10
269.30695113944046
 20
150.06259306506001
 11
269.31865255404966
 21
150.68650792808955
  0
LINE
  8
_f-a_250
  6
CONTINUOUS
 62
  250
 10
267.25034997994544
 20
149.36335872258604
 11
267.25401022610055
 21
149.94981654747249
  0
LINE
  8
_0-0_0
  6
CONTINUOUS
 62
    7
 10
267.25717022047036
 20
149.95977461312384
 11
269.30901985319804
 21
150.68542875152755
  0
LINE
  8
_0-0_0
  6
CONTINUOUS
 62
    7
 10
265.64571758208422
 20
149.94976559052517
 11
267.24215668657234
 21
149.36423776850287
  0
LINE
  8
_f-a_250
  6
CONTINUOUS
 62
  250
 10
265.64999283099343
 20
150.51055464789707
 11
267.70230746230425
 21
151.23434502490966
  0
LINE
  8
_f-a_250
  6
CONTINUOUS
 62
  250
 10
267.70230746230425
 20
151.23434502490966
 11
269.31865255404966
 21
150.68650792808955
  0
LINE
  8
_f-a_250
  6
CONTINUOUS
 62
  250
 10
270.83102941406645
 20
150.5873664883315
 11
270.83468966022156
 21
151.17382431321792
  0
LINE
  8
_0-0_0
  6
CONTINUOUS
 62
    7
 10
269.22639701620517
 20
151.1737733562706
 11
270.82283612069335
 21
150.5882455342483
  0
LINE
  8
_f-a_250
  6
CONTINUOUS
 62
  250
 10
270.83583144939769
 20
151.1824555461782
 11
269.23067226511444
 21
151.73456241364252
  0
LINE
  8
_f-a_250
  6
CONTINUOUS
 62
  250
 10
269.23067226511444
 20
151.73456241364252
 11
271.2829868964252
 21
152.45835279065508
  0
LINE
  8
_f-a_250
  6
CONTINUOUS
 62
  250
 10
271.2829868964252
 20
152.45835279065508
 11
272.89933198817062
 21
151.91051569383498
  0
LINE
  8
_0-0_0
  6
CONTINUOUS
 62
    7
 10
270.83784965459137
 20
151.18378237886927
 11
272.88969928731905
 21
151.90943651727298
  0
LINE
  8
_f-a_250
  6
CONTINUOUS
 62
  250
 10
272.88763057356147
 20
151.28660083080547
 11
272.89933198817062
 21
151.91051569383498
  0
LINE
  8
_f-a_250
  6
CONTINUOUS
 62
  250
 10
269.22753565640528
 20
151.1707275187587
 11
269.23067226511444
 21
151.73456241364252
  0
LINE
  8
_f-a_250
  6
CONTINUOUS
 62
  250
 10
273.19955349888892
 20
152.53853007849688
 11
273.20269010759807
 21
153.1023649733807
  0
LINE
  8
_f-a_250
  6
CONTINUOUS
 62
  250
 10
274.80784929188133
 20
152.55025810591638
 11
273.20269010759807
 21
153.1023649733807
  0
LINE
  8
_f-a_250
  6
CONTINUOUS
 62
  250
 10
276.85964841604505
 20
152.65440339054365
 11
276.87134983065425
 21
153.27831825357316
  0
LINE
  8
_f-a_250
  6
CONTINUOUS
 62
  250
 10
274.80304725655009
 20
151.95516904806968
 11
274.80670750270519
 21
152.5416268729561
  0
LINE
  8
_0-0_0
  6
CONTINUOUS
 62
    7
 10
274.80986749707495
 20
152.55158493860748
 11
276.86171712980268
 21
153.27723907701116
  0
LINE
  8
_0-0_0
  6
CONTINUOUS
 62
    7
 10
273.19841485868881
 20
152.54157591600881
 11
274.79485396317693
 21
151.95604809398651
  0
LINE
  8
_f-a_250
  6
CONTINUOUS
 62
  250
 10
275.25500473890884
 20
153.82615535039329
 11
276.87134983065425
 21
153.27831825357316
  0
LINE
  8
_f-a_250
  6
CONTINUOUS
 62
  250
 10
278.3837266906711
 20
153.1791768138151
 11
278.38738693682615
 21
153.76563463870156
  0
LINE
  8
_0-0_0
  6
CONTINUOUS
 62
    7
 10
276.77909429280982
 20
153.76558368175424
 11
278.37553339729794
 21
153.18005585973194
  0
LINE
  8
_f-a_250
  6
CONTINUOUS
 62
  250
 10
278.38852872600228
 20
153.77426587166184
 11
276.78336954171903
 21
154.32637273912616
  0
LINE
  8
_f-a_250
  6
CONTINUOUS
 62
  250
 10
276.78336954171903
 20
154.32637273912616
 11
278.83568417302985
 21
155.05016311613872
  0
LINE
  8
_f-a_250
  6
CONTINUOUS
 62
  250
 10
278.83568417302985
 20
155.05016311613872
 11
280.45202926477521
 21
154.50232601931862
  0
LINE
  8
_0-0_0
  6
CONTINUOUS
 62
    7
 10
278.39054693119596
 20
153.7755927043529
 11
280.44239656392369
 21
154.50124684275661
  0
LINE
  8
_f-a_250
  6
CONTINUOUS
 62
  250
 10
276.78023293300993
 20
153.76253784424233
 11
276.78336954171903
 21
154.32637273912616
  0
LINE
  8
_f-a_250
  6
CONTINUOUS
 62
  250
 10
280.43263513180625
 20
153.86021780493911
 11
280.4443365464154
 21
154.48413266796862
  0
LINE
  8
_f-a_250
  6
CONTINUOUS
 62
  250
 10
280.40802596664025
 20
154.96835225863779
 11
280.41116257534941
 21
155.53218715352159
  0
LINE
  8
_f-a_250
  6
CONTINUOUS
 62
  250
 10
282.01632175963266
 20
154.9800802860573
 11
280.41116257534941
 21
155.53218715352159
  0
LINE
  8
_f-a_250
  6
CONTINUOUS
 62
  250
 10
284.06812088379638
 20
155.08422557068454
 11
284.07982229840559
 21
155.70814043371408
  0
LINE
  8
_f-a_250
  6
CONTINUOUS
 62
  250
 10
282.01151972430142
 20
154.38499122821057
 11
282.01517997045653
 21
154.97144905309702
  0
LINE
  8
_0-0_0
  6
CONTINUOUS
 62
    7
 10
282.01833996482628
 20
154.98140711874836
 11
284.07018959755402
 21
155.70706125715208
  0
LINE
  8
_0-0_0
  6
CONTINUOUS
 62
    7
 10
280.40688732644014
 20
154.9713980961497
 11
282.00332643092827
 21
154.3858702741274
  0
LINE
  8
_f-a_250
  6
CONTINUOUS
 62
  250
 10
280.41116257534941
 20
155.53218715352159
 11
282.46347720666017
 21
156.25597753053418
  0
LINE
  8
_f-a_250
  6
CONTINUOUS
 62
  250
 10
282.46347720666017
 20
156.25597753053418
 11
284.07982229840559
 21
155.70814043371408
  0
LINE
  8
_f-a_250
  6
CONTINUOUS
 62
  250
 10
285.59219915842243
 20
155.60899899395602
 11
285.59585940457748
 21
156.19545681884244
  0
LINE
  8
_0-0_0
  6
CONTINUOUS
 62
    7
 10
283.98756676056115
 20
156.19540586189513
 11
285.58400586504928
 21
155.60987803987283
  0
LINE
  8
_f-a_250
  6
CONTINUOUS
 62
  250
 10
285.59700119375361
 20
156.20408805180273
 11
283.99184200947036
 21
156.75619491926705
  0
LINE
  8
_f-a_250
  6
CONTINUOUS
 62
  250
 10
283.99184200947036
 20
156.75619491926705
 11
286.04415664078118
 21
157.47998529627961
  0
LINE
  8
_f-a_250
  6
CONTINUOUS
 62
  250
 10
286.04415664078118
 20
157.47998529627961
 11
287.66050173252654
 21
156.9321481994595
  0
LINE
  8
_0-0_0
  6
CONTINUOUS
 62
    7
 10
285.59901939894729
 20
156.20541488449379
 11
287.65086903167503
 21
156.9310690228975
  0
LINE
  8
_f-a_250
  6
CONTINUOUS
 62
  250
 10
287.64880031791739
 20
156.30823333642999
 11
287.66050173252654
 21
156.9321481994595
  0
LINE
  8
_f-a_250
  6
CONTINUOUS
 62
  250
 10
283.98870540076126
 20
156.19236002438322
 11
283.99184200947036
 21
156.75619491926705
  0
LINE
  8
_0-0_0
  6
CONTINUOUS
 62
    7
 10
285.61130775205811
 20
155.6432136694809
 11
287.63615956884217
 21
156.2911662508518
  0
LINE
  8
_0-0_0
  6
CONTINUOUS
 62
    7
 10
282.06781707268595
 20
154.38780554307476
 11
284.11291740763789
 21
155.0965036789492
  0
LINE
  8
_0-0_0
  6
CONTINUOUS
 62
    7
 10
278.42308380247459
 20
153.17289445300432
 11
280.44793561925871
 21
153.88159258887873
  0
LINE
  8
_0-0_0
  6
CONTINUOUS
 62
    7
 10
270.85013800770213
 20
150.58108412752068
 11
272.87498982448619
 21
151.26953374522728
  0
LINE
  8
_0-0_0
  6
CONTINUOUS
 62
    7
 10
274.81884756859893
 20
151.97823188110169
 11
276.86394790355087
 21
152.68693001697613
  0
LINE
  8
_0-0_0
  6
CONTINUOUS
 62
    7
 10
267.24590177382646
 20
149.38642155561809
 11
269.33149914511409
 21
150.05462265515683
  0
LINE
  8
_f-a_250
  6
CONTINUOUS
 62
  250
 10
152.86271765185035
 20
113.15064048181527
 11
155.53332103310731
 21
114.01586561199701
  0
LINE
  8
_0-0_0
  6
CONTINUOUS
 62
    7
 10
156.84795166428736
 20
111.77667600839072
 11
159.5567578592285
 21
112.6313260912866
  0
LINE
  8
_0-0_0
  6
CONTINUOUS
 62
    7
 10
181.34401111935819
 20
120.0188069503476
 11
178.69785850042334
 21
119.12141606218708
  0
LINE
  8
_f-a_250
  6
CONTINUOUS
 62
  250
 10
174.50681363816267
 20
120.46697143757137
 11
177.1744873184864
 21
121.36841891994607
  0
LINE
  8
_f-a_250
  6
CONTINUOUS
 62
  250
 10
173.88912984941163
 20
120.66528182783367
 11
174.50681363816267
 21
120.46697143757137
  0
LINE
  8
_f-a_250
  6
CONTINUOUS
 62
  250
 10
176.5332982016244
 20
121.57596216666222
 11
177.1744873184864
 21
121.36841891994607
  0
LINE
  8
_0-0_0
  6
CONTINUOUS
 62
    7
 10
173.88912984941163
 20
120.66528182783367
 11
176.5332982016244
 21
121.57596216666222
  0
LINE
  8
_f-a_250
  6
CONTINUOUS
 62
  250
 10
152.24190736420664
 20
113.36467340367057
 11
152.86271765185035
 21
113.15064048181527
  0
LINE
  8
_0-0_0
  6
CONTINUOUS
 62
    7
 10
152.24190736420664
 20
113.36467340367057
 11
154.87198534560457
 21
114.24344353489593
  0
LINE
  8
_f-a_250
  6
CONTINUOUS
 62
  250
 10
154.87198534560457
 20
114.24344353489593
 11
155.53332103310731
 21
114.01586561199701
  0
LINE
  8
_f-a_250
  6
CONTINUOUS
 62
  250
 10
159.5567578592285
 20
112.6313260912866
 11
160.26159670173999
 21
112.38877792280205
  0
LINE
  8
_f-a_250
  6
CONTINUOUS
 62
  250
 10
156.84795166428736
 20
111.77667600839072
 11
157.6376813115952
 21
111.50440580402511
  0
LINE
  8
_0-0_0
  6
CONTINUOUS
 62
    7
 10
157.6376813115952
 20
111.50440580402511
 11
160.26159670173999
 21
112.38877792280205
  0
LINE
  8
_f-a_250
  6
CONTINUOUS
 62
  250
 10
178.69785850042334
 20
119.12141606218708
 11
179.5682228344314
 21
118.84198135159427
  0
LINE
  8
_f-a_250
  6
CONTINUOUS
 62
  250
 10
181.34401111935819
 20
120.0188069503476
 11
182.21818630548597
 21
119.73584962690521
  0
LINE
  8
_0-0_0
  6
CONTINUOUS
 62
    7
 10
179.5682228344314
 20
118.84198135159427
 11
182.21818630548597
 21
119.73584962690521
  0
LINE
  8
_0-0_0
  6
CONTINUOUS
 62
    7
 10
203.27858272321561
 20
127.37097297860861
 11
200.63243010428079
 21
126.4735820904481
  0
LINE
  8
_f-a_250
  6
CONTINUOUS
 62
  250
 10
200.63243010428079
 20
126.4735820904481
 11
201.50279443828884
 21
126.19414737985528
  0
LINE
  8
_f-a_250
  6
CONTINUOUS
 62
  250
 10
203.27858272321561
 20
127.37097297860861
 11
204.15275790934339
 21
127.08801565516622
  0
LINE
  8
_0-0_0
  6
CONTINUOUS
 62
    7
 10
201.50279443828884
 20
126.19414737985528
 11
204.15275790934339
 21
127.08801565516622
  0
LINE
  8
_0-0_0
  6
CONTINUOUS
 62
    7
 10
225.14838212851353
 20
134.70874032063114
 11
222.50222950957868
 21
133.81134943247062
  0
LINE
  8
_f-a_250
  6
CONTINUOUS
 62
  250
 10
222.50222950957868
 20
133.81134943247062
 11
223.37259384358677
 21
133.5319147218778
  0
LINE
  8
_f-a_250
  6
CONTINUOUS
 62
  250
 10
225.14838212851353
 20
134.70874032063114
 11
226.02255731464132
 21
134.42578299718875
  0
LINE
  8
_0-0_0
  6
CONTINUOUS
 62
    7
 10
223.37259384358677
 20
133.5319147218778
 11
226.02255731464132
 21
134.42578299718875
  0
LINE
  8
_0-0_0
  6
CONTINUOUS
 62
    7
 10
247.45825623750511
 20
142.16130975926941
 11
244.81210361857029
 21
141.2639188711089
  0
LINE
  8
_f-a_250
  6
CONTINUOUS
 62
  250
 10
244.81210361857029
 20
141.2639188711089
 11
245.68246795257835
 21
140.98448416051608
  0
LINE
  8
_f-a_250
  6
CONTINUOUS
 62
  250
 10
247.45825623750511
 20
142.16130975926941
 11
248.3324314236329
 21
141.87835243582703
  0
LINE
  8
_0-0_0
  6
CONTINUOUS
 62
    7
 10
245.68246795257835
 20
140.98448416051608
 11
248.3324314236329
 21
141.87835243582703
  0
LINE
  8
_0-0_0
  6
CONTINUOUS
 62
    7
 10
268.86884725634013
 20
149.35557448052228
 11
266.22269463740525
 21
148.45818359236176
  0
LINE
  8
_f-a_250
  6
CONTINUOUS
 62
  250
 10
266.22269463740525
 20
148.45818359236176
 11
267.09305897141331
 21
148.17874888176894
  0
LINE
  8
_f-a_250
  6
CONTINUOUS
 62
  250
 10
268.86884725634013
 20
149.35557448052228
 11
269.74302244246786
 21
149.07261715707989
  0
LINE
  8
_0-0_0
  6
CONTINUOUS
 62
    7
 10
267.09305897141331
 20
148.17874888176894
 11
269.74302244246786
 21
149.07261715707989
  0
LINE
  8
_f-a_250
  6
CONTINUOUS
 62
  250
 10
288.35079876008859
 20
155.83421829992287
 11
289.22116309409665
 21
155.55478358933004
  0
LINE
  8
_0-0_0
  6
CONTINUOUS
 62
    7
 10
136.23650402797585
 20
104.32963860200607
 11
290.91764810672373
 21
156.00727290444939
  0
LINE
  8
_f-a_250
  6
CONTINUOUS
 62
  250
 10
261.2062139182367
 20
150.06551045807663
 11
261.97175094367879
 21
149.81689930204877
  0
LINE
  8
_f-a_250
  6
CONTINUOUS
 62
  250
 10
261.97175094367879
 20
149.81689930204877
 11
264.62620922615918
 21
150.7172038021931
  0
LINE
  8
_0-0_0
  6
CONTINUOUS
 62
    7
 10
240.50005012878904
 20
142.72179730327645
 11
242.684661904911
 21
143.47743356830495
  0
LINE
  8
_f-a_250
  6
CONTINUOUS
 62
  250
 10
239.81029681341909
 20
142.95554418888642
 11
240.50005012878904
 21
142.72179730327645
  0
LINE
  8
_0-0_0
  6
CONTINUOUS
 62
    7
 10
239.81029681341909
 20
142.95554418888642
 11
241.99686769140678
 21
143.71051654415254
  0
LINE
  8
_f-a_250
  6
CONTINUOUS
 62
  250
 10
241.99686769140678
 20
143.71051654415254
 11
242.684661904911
 21
143.47743356830495
  0
LINE
  8
_0-0_0
  6
CONTINUOUS
 62
    7
 10
217.43677017908303
 20
135.39533865686008
 11
220.09006823076757
 21
136.30853337925558
  0
LINE
  8
_f-a_250
  6
CONTINUOUS
 62
  250
 10
220.09006823076757
 20
136.30853337925558
 11
220.78117558052921
 21
136.08388204010808
  0
LINE
  8
_f-a_250
  6
CONTINUOUS
 62
  250
 10
195.85119911721173
 20
128.08055180939513
 11
196.61471905686409
 21
127.82220559771517
  0
LINE
  8
_f-a_250
  6
CONTINUOUS
 62
  250
 10
196.61471905686409
 20
127.82220559771517
 11
199.28453394463472
 21
128.68222493561612
  0
LINE
  8
_f-a_250
  6
CONTINUOUS
 62
  250
 10
217.43677017908303
 20
135.39533865686008
 11
218.1665808727102
 21
135.16291458672154
  0
LINE
  8
_f-a_250
  6
CONTINUOUS
 62
  250
 10
218.1665808727102
 20
135.16291458672154
 11
220.82287499001421
 21
136.05889577301812
  0
LINE
  8
_f-a_250
  6
CONTINUOUS
 62
  250
 10
283.18663916007893
 20
157.5846022398286
 11
283.97222124884718
 21
157.31658408736749
  0
LINE
  8
_f-a_250
  6
CONTINUOUS
 62
  250
 10
293.18793935620977
 20
154.65335802092258
 11
290.95507284853005
 21
155.39350700230921
  0
LINE
  8
_0-0_0
  6
CONTINUOUS
 62
    7
 10
137.05664983229696
 20
101.33521145471494
 11
293.16908315702096
 21
153.4910271326265
  0
LINE
  8
_f-a_250
  6
CONTINUOUS
 62
  250
 10
293.16908315702096
 20
153.4910271326265
 11
293.18793935620977
 21
154.65335802092258
  0
LINE
  8
_0-0_0
  6
CONTINUOUS
 62
    7
 10
137.0810185931002
 20
102.50311860687235
 11
293.16488133829944
 21
154.64938910092013
  0
LINE
  8
_f-a_250
  6
CONTINUOUS
 62
  250
 10
290.9223078963816
 20
154.95449719116647
 11
290.93932180929022
 21
156.00326615602864
  0
LINE
  8
_0-0_0
  6
CONTINUOUS
 62
    7
 10
136.22426613419242
 20
103.27121751862558
 11
290.9223078963816
 21
154.95449719116647
  0
LINE
  8
_f-a_250
  6
CONTINUOUS
 62
  250
 10
315.48049919101726
 20
165.99435125891011
 11
314.12883274051677
 21
167.08769117895417
  0
LINE
  8
_f-a_250
  6
CONTINUOUS
 62
  250
 10
314.23881523105632
 20
167.77934347692766
 11
313.51049415561681
 21
168.36432730261163
  0
LINE
  8
_f-a_250
  6
CONTINUOUS
 62
  250
 10
316.35385028812431
 20
166.10266481939613
 11
315.58883659336078
 21
166.72269617620765
  0
LINE
  8
_f-a_250
  6
CONTINUOUS
 62
  250
 10
315.18717281314827
 20
168.18265234533612
 11
314.45718280765527
 21
168.76599108282366
  0
LINE
  8
_f-a_250
  6
CONTINUOUS
 62
  250
 10
324.56217281314827
 20
168.58269487921064
 11
321.53385154697429
 21
170.91769491735764
  0
LINE
  8
_f-a_250
  6
CONTINUOUS
 62
  250
 10
322.4471615979383
 20
168.69267736975013
 11
320.95048896762836
 21
169.85933100286763
  0
LINE
  8
_f-a_250
  6
CONTINUOUS
 62
  250
 10
322.55549900028228
 20
169.05764853063863
 11
320.98548881504081
 21
170.29768740240411
  0
LINE
  8
_f-a_250
  6
CONTINUOUS
 62
  250
 10
314.2021702954483
 20
167.7076748520501
 11
314.12883274051677
 21
167.12435995642014
  0
LINE
  8
_f-a_250
  6
CONTINUOUS
 62
  250
 10
315.18717281314827
 20
168.07269369665465
 11
315.11548034641277
 21
167.48768602911315
  0
LINE
  8
_f-a_250
  6
CONTINUOUS
 62
  250
 10
315.58883659336078
 20
166.72269617620765
 11
315.51549903842931
 21
166.06599604193013
  0
LINE
  8
_f-a_250
  6
CONTINUOUS
 62
  250
 10
316.35385028812431
 20
166.13938128057765
 11
315.77051155063629
 21
162.05436502996764
  0
LINE
  8
_f-a_250
  6
CONTINUOUS
 62
  250
 10
324.56217281314827
 20
168.47433363500915
 11
324.12384025547027
 21
165.33602987829514
  0
LINE
  8
_f-a_250
  6
CONTINUOUS
 62
  250
 10
320.95048896762836
 20
170.33435617986964
 11
320.87884418460834
 21
169.89599978033363
  0
LINE
  8
_f-a_250
  6
CONTINUOUS
 62
  250
 10
322.48385421726232
 20
169.09269606176667
 11
322.4471615979383
 21
168.69267736975013
  0
LINE
  8
_f-a_250
  6
CONTINUOUS
 62
  250
 10
316.7554902264788
 20
164.53434740606613
 11
316.57217018100727
 21
163.2926872879631
  0
LINE
  8
_f-a_250
  6
CONTINUOUS
 62
  250
 10
320.84050647708881
 20
166.13938128057765
 11
320.6588315198133
 21
164.64432989660565
  0
LINE
  8
_f-a_250
  6
CONTINUOUS
 62
  250
 10
314.9671601483538
 20
168.25434481207213
 11
321.49718276950824
 21
170.88102613989167
  0
LINE
  8
_f-a_250
  6
CONTINUOUS
 62
  250
 10
314.27550785037982
 20
167.74434362951564
 11
315.18717281314827
 21
168.10933863226214
  0
LINE
  8
_f-a_250
  6
CONTINUOUS
 62
  250
 10
314.2021702954483
 20
167.12435995642014
 11
315.0788354108048
 21
167.45268618170064
  0
LINE
  8
_f-a_250
  6
CONTINUOUS
 62
  250
 10
313.51049415561681
 20
168.36432730261163
 11
314.45718280765527
 21
168.76599108282366
  0
LINE
  8
_f-a_250
  6
CONTINUOUS
 62
  250
 10
317.30382911655431
 20
166.57768999639814
 11
316.57217018100727
 21
167.12435995642014
  0
LINE
  8
_f-a_250
  6
CONTINUOUS
 62
  250
 10
317.30382911655431
 20
166.46768366400062
 11
317.23049156162284
 21
165.88436876837068
  0
LINE
  8
_f-a_250
  6
CONTINUOUS
 62
  250
 10
316.39216415378581
 20
166.13938128057765
 11
317.26716033908832
 21
166.50268351141267
  0
LINE
  8
_f-a_250
  6
CONTINUOUS
 62
  250
 10
315.62550537082683
 20
166.75936495367364
 11
316.57217018100727
 21
167.12435995642014
  0
LINE
  8
_f-a_250
  6
CONTINUOUS
 62
  250
 10
317.30382911655431
 20
165.73766981664963
 11
324.52552787754081
 21
168.54602610174464
  0
LINE
  8
_f-a_250
  6
CONTINUOUS
 62
  250
 10
322.52052299472831
 20
168.65600859228414
 11
323.72384540531181
 21
169.12936483923264
  0
LINE
  8
_f-a_250
  6
CONTINUOUS
 62
  250
 10
316.82882778141033
 20
164.53434740606613
 11
320.76883785221077
 21
166.13938128057765
  0
LINE
  8
_f-a_250
  6
CONTINUOUS
 62
  250
 10
315.84384910556781
 20
161.98100363317766
 11
318.57882015201579
 21
163.11101233068763
  0
LINE
  8
_f-a_250
  6
CONTINUOUS
 62
  250
 10
319.74716655704486
 20
163.58434473577813
 11
324.05050270053886
 21
165.37267481390313
  0
LINE
  8
_f-a_250
  6
CONTINUOUS
 62
  250
 10
316.7554902264788
 20
164.49767862860017
 11
319.27383415195476
 21
164.31600367132464
  0
LINE
  8
_f-a_250
  6
CONTINUOUS
 62
  250
 10
319.27383415195476
 20
164.31600367132464
 11
320.73050014469135
 21
166.06599604193013
  0
LINE
  8
_f-a_250
  6
CONTINUOUS
 62
  250
 10
316.61048404666877
 20
163.2926872879631
 11
319.09049026462577
 21
163.11101233068763
  0
LINE
  8
_f-a_250
  6
CONTINUOUS
 62
  250
 10
319.20049659702278
 20
163.11101233068763
 11
320.6588315198133
 21
164.60766111913966
  0
LINE
  8
_f-a_250
  6
CONTINUOUS
 62
  250
 10
323.79715911838525
 20
169.12936483923264
 11
322.55549900028228
 21
169.05764853063863
  0
LINE
  8
_f-a_250
  6
CONTINUOUS
 62
  250
 10
322.1921729275893
 20
170.44266974035565
 11
320.95048896762836
 21
170.36933218542413
  0
LINE
  8
_0-0_0
  6
CONTINUOUS
 62
    7
 10
314.53392259205316
 20
165.0973137435783
 11
314.53716746419593
 21
165.09807091014179
  0
LINE
  8
_0-0_0
  6
CONTINUOUS
 62
    7
 10
314.53716746419593
 20
165.09807091014179
 11
314.54276235696824
 21
165.09937345950087
  0
LINE
  8
_0-0_0
  6
CONTINUOUS
 62
    7
 10
314.54276235696824
 20
165.09937345950087
 11
314.54835804315644
 21
165.10066792487891
  0
LINE
  8
_0-0_0
  6
CONTINUOUS
 62
    7
 10
314.54835804315644
 20
165.10066792487891
 11
314.55395502492252
 21
165.10194918983228
  0
LINE
  8
_0-0_0
  6
CONTINUOUS
 62
    7
 10
314.55395502492252
 20
165.10194918983228
 11
314.55955380442833
 21
165.1032121379173
  0
LINE
  8
_0-0_0
  6
CONTINUOUS
 62
    7
 10
314.55955380442833
 20
165.1032121379173
 11
314.56515488383593
 21
165.10445165269024
  0
LINE
  8
_0-0_0
  6
CONTINUOUS
 62
    7
 10
314.56515488383593
 20
165.10445165269024
 11
314.57075876530723
 21
165.10566261770748
  0
LINE
  8
_0-0_0
  6
CONTINUOUS
 62
    7
 10
314.57075876530723
 20
165.10566261770748
 11
314.57636595100416
 21
165.1068399165253
  0
LINE
  8
_0-0_0
  6
CONTINUOUS
 62
    7
 10
314.57636595100416
 20
165.1068399165253
 11
314.58197694308865
 21
165.10797843270007
  0
LINE
  8
_0-0_0
  6
CONTINUOUS
 62
    7
 10
314.58197694308865
 20
165.10797843270007
 11
314.58759224372272
 21
165.10907304978807
  0
LINE
  8
_0-0_0
  6
CONTINUOUS
 62
    7
 10
314.58759224372272
 20
165.10907304978807
 11
314.59321235506832
 21
165.1101186513456
  0
LINE
  8
_0-0_0
  6
CONTINUOUS
 62
    7
 10
314.59321235506832
 20
165.1101186513456
 11
314.59883777928735
 21
165.11111012092906
  0
LINE
  8
_0-0_0
  6
CONTINUOUS
 62
    7
 10
314.59883777928735
 20
165.11111012092906
 11
314.60446901854175
 21
165.11204234209472
  0
LINE
  8
_0-0_0
  6
CONTINUOUS
 62
    7
 10
314.60446901854175
 20
165.11204234209472
 11
314.61010657499355
 21
165.11291019839891
  0
LINE
  8
_0-0_0
  6
CONTINUOUS
 62
    7
 10
314.61010657499355
 20
165.11291019839891
 11
314.61575095080468
 21
165.11370857339796
  0
LINE
  8
_0-0_0
  6
CONTINUOUS
 62
    7
 10
314.61575095080468
 20
165.11370857339796
 11
314.62140264813706
 21
165.1144323506482
  0
LINE
  8
_0-0_0
  6
CONTINUOUS
 62
    7
 10
314.62140264813706
 20
165.1144323506482
 11
314.62706216915262
 21
165.11507641370591
  0
LINE
  8
_0-0_0
  6
CONTINUOUS
 62
    7
 10
314.62706216915262
 20
165.11507641370591
 11
314.6327300160134
 21
165.11563564612746
  0
LINE
  8
_0-0_0
  6
CONTINUOUS
 62
    7
 10
314.6327300160134
 20
165.11563564612746
 11
314.6384066908812
 21
165.11610493146912
  0
LINE
  8
_0-0_0
  6
CONTINUOUS
 62
    7
 10
314.6384066908812
 20
165.11610493146912
 11
314.64170340517535
 21
165.11633388707045
  0
LINE
  8
_0-0_0
  6
CONTINUOUS
 62
    7
 10
314.64170340517535
 20
165.11633388707045
 11
314.64457695807914
 21
165.11650658786075
  0
LINE
  8
_0-0_0
  6
CONTINUOUS
 62
    7
 10
314.64457695807914
 20
165.11650658786075
 11
314.64953657802431
 21
165.11674619175625
  0
LINE
  8
_0-0_0
  6
CONTINUOUS
 62
    7
 10
314.64953657802431
 20
165.11674619175625
 11
314.65450197788596
 21
165.11691305277634
  0
LINE
  8
_0-0_0
  6
CONTINUOUS
 62
    7
 10
314.65450197788596
 20
165.11691305277634
 11
314.65947219762131
 21
165.11700818536949
  0
LINE
  8
_0-0_0
  6
CONTINUOUS
 62
    7
 10
314.65947219762131
 20
165.11700818536949
 11
314.66444627718778
 21
165.11703260398411
  0
LINE
  8
_0-0_0
  6
CONTINUOUS
 62
    7
 10
314.66444627718778
 20
165.11703260398411
 11
314.66942325654259
 21
165.11698732306857
  0
LINE
  8
_0-0_0
  6
CONTINUOUS
 62
    7
 10
314.66942325654259
 20
165.11698732306857
 11
314.67440217564308
 21
165.11687335707137
  0
LINE
  8
_0-0_0
  6
CONTINUOUS
 62
    7
 10
314.67440217564308
 20
165.11687335707137
 11
314.67938207444661
 21
165.11669172044085
  0
LINE
  8
_0-0_0
  6
CONTINUOUS
 62
    7
 10
314.67938207444661
 20
165.11669172044085
 11
314.68436199291034
 21
165.11644342762548
  0
LINE
  8
_0-0_0
  6
CONTINUOUS
 62
    7
 10
314.68436199291034
 20
165.11644342762548
 11
314.68934097099179
 21
165.11612949307366
  0
LINE
  8
_0-0_0
  6
CONTINUOUS
 62
    7
 10
314.68934097099179
 20
165.11612949307366
 11
314.69431804864809
 21
165.1157509312338
  0
LINE
  8
_0-0_0
  6
CONTINUOUS
 62
    7
 10
314.69431804864809
 20
165.1157509312338
 11
314.69929226583668
 21
165.11530875655433
  0
LINE
  8
_0-0_0
  6
CONTINUOUS
 62
    7
 10
314.69929226583668
 20
165.11530875655433
 11
314.70426266251474
 21
165.11480398348368
  0
LINE
  8
_0-0_0
  6
CONTINUOUS
 62
    7
 10
314.70426266251474
 20
165.11480398348368
 11
314.70922827863967
 21
165.11423762647024
  0
LINE
  8
_0-0_0
  6
CONTINUOUS
 62
    7
 10
314.70922827863967
 20
165.11423762647024
 11
314.71418815416882
 21
165.11361069996246
  0
LINE
  8
_0-0_0
  6
CONTINUOUS
 62
    7
 10
314.71418815416882
 20
165.11361069996246
 11
314.71914132905943
 21
165.11292421840875
  0
LINE
  8
_0-0_0
  6
CONTINUOUS
 62
    7
 10
314.71914132905943
 20
165.11292421840875
 11
314.72408684326876
 21
165.1121791962575
  0
LINE
  8
_0-0_0
  6
CONTINUOUS
 62
    7
 10
314.72408684326876
 20
165.1121791962575
 11
314.72902373675424
 21
165.11137664795717
  0
LINE
  8
_0-0_0
  6
CONTINUOUS
 62
    7
 10
314.72902373675424
 20
165.11137664795717
 11
314.73395104947315
 21
165.11051758795614
  0
LINE
  8
_0-0_0
  6
CONTINUOUS
 62
    7
 10
314.73395104947315
 20
165.11051758795614
 11
314.7368041226361
 21
165.10999383923973
  0
LINE
  8
_0-0_0
  6
CONTINUOUS
 62
    7
 10
314.7368041226361
 20
165.10999383923973
 11
314.73998107885836
 21
165.10938802153217
  0
LINE
  8
_0-0_0
  6
CONTINUOUS
 62
    7
 10
314.73998107885836
 20
165.10938802153217
 11
314.74544717782436
 21
165.10828979934138
  0
LINE
  8
_0-0_0
  6
CONTINUOUS
 62
    7
 10
314.74544717782436
 20
165.10828979934138
 11
314.75089805885636
 21
165.10712393245035
  0
LINE
  8
_0-0_0
  6
CONTINUOUS
 62
    7
 10
314.75089805885636
 20
165.10712393245035
 11
314.75633282350617
 21
165.10589081766329
  0
LINE
  8
_0-0_0
  6
CONTINUOUS
 62
    7
 10
314.75633282350617
 20
165.10589081766329
 11
314.7617505733254
 21
165.10459085178442
  0
LINE
  8
_0-0_0
  6
CONTINUOUS
 62
    7
 10
314.7617505733254
 20
165.10459085178442
 11
314.76715040986585
 21
165.10322443161786
  0
LINE
  8
_0-0_0
  6
CONTINUOUS
 62
    7
 10
314.76715040986585
 20
165.10322443161786
 11
314.77253143467919
 21
165.10179195396782
  0
LINE
  8
_0-0_0
  6
CONTINUOUS
 62
    7
 10
314.77253143467919
 20
165.10179195396782
 11
314.77789274931718
 21
165.10029381563848
  0
LINE
  8
_0-0_0
  6
CONTINUOUS
 62
    7
 10
314.77789274931718
 20
165.10029381563848
 11
314.78323345533147
 21
165.098730413434
  0
LINE
  8
_0-0_0
  6
CONTINUOUS
 62
    7
 10
314.78323345533147
 20
165.098730413434
 11
314.78855265427387
 21
165.09710214415858
  0
LINE
  8
_0-0_0
  6
CONTINUOUS
 62
    7
 10
314.78855265427387
 20
165.09710214415858
 11
314.79384944769612
 21
165.09540940461639
  0
LINE
  8
_0-0_0
  6
CONTINUOUS
 62
    7
 10
314.79384944769612
 20
165.09540940461639
 11
314.79912293714983
 21
165.0936525916116
  0
LINE
  8
_0-0_0
  6
CONTINUOUS
 62
    7
 10
314.79912293714983
 20
165.0936525916116
 11
314.80437222418686
 21
165.0918321019484
  0
LINE
  8
_0-0_0
  6
CONTINUOUS
 62
    7
 10
314.80437222418686
 20
165.0918321019484
 11
314.80959641035878
 21
165.08994833243094
  0
LINE
  8
_0-0_0
  6
CONTINUOUS
 62
    7
 10
314.80959641035878
 20
165.08994833243094
 11
314.81479459721743
 21
165.08800167986345
  0
LINE
  8
_0-0_0
  6
CONTINUOUS
 62
    7
 10
314.81479459721743
 20
165.08800167986345
 11
314.81996588631444
 21
165.0859925410501
  0
LINE
  8
_0-0_0
  6
CONTINUOUS
 62
    7
 10
314.81996588631444
 20
165.0859925410501
 11
314.82510937920159
 21
165.08392131279504
  0
LINE
  8
_0-0_0
  6
CONTINUOUS
 62
    7
 10
314.82510937920159
 20
165.08392131279504
 11
314.83022417743064
 21
165.08178839190245
  0
LINE
  8
_0-0_0
  6
CONTINUOUS
 62
    7
 10
314.83022417743064
 20
165.08178839190245
 11
314.83530938255319
 21
165.07959417517654
  0
LINE
  8
_0-0_0
  6
CONTINUOUS
 62
    7
 10
314.83530938255319
 20
165.07959417517654
 11
314.8382448879276
 21
165.07829360008614
  0
LINE
  8
_0-0_0
  6
CONTINUOUS
 62
    7
 10
314.8382448879276
 20
165.07829360008614
 11
314.84105878320429
 21
165.07702333073328
  0
LINE
  8
_0-0_0
  6
CONTINUOUS
 62
    7
 10
314.84105878320429
 20
165.07702333073328
 11
314.84588810099922
 21
165.07478946393022
  0
LINE
  8
_0-0_0
  6
CONTINUOUS
 62
    7
 10
314.84588810099922
 20
165.07478946393022
 11
314.85068995506396
 21
165.07250112707672
  0
LINE
  8
_0-0_0
  6
CONTINUOUS
 62
    7
 10
314.85068995506396
 20
165.07250112707672
 11
314.85546512467232
 21
165.07015937388093
  0
LINE
  8
_0-0_0
  6
CONTINUOUS
 62
    7
 10
314.85546512467232
 20
165.07015937388093
 11
314.86021438909819
 21
165.06776525805094
  0
LINE
  8
_0-0_0
  6
CONTINUOUS
 62
    7
 10
314.86021438909819
 20
165.06776525805094
 11
314.86493852761555
 21
165.06531983329498
  0
LINE
  8
_0-0_0
  6
CONTINUOUS
 62
    7
 10
314.86493852761555
 20
165.06531983329498
 11
314.86963831949822
 21
165.06282415332112
  0
LINE
  8
_0-0_0
  6
CONTINUOUS
 62
    7
 10
314.86963831949822
 20
165.06282415332112
 11
314.87431454402019
 21
165.06027927183749
  0
LINE
  8
_0-0_0
  6
CONTINUOUS
 62
    7
 10
314.87431454402019
 20
165.06027927183749
 11
314.87896798045523
 21
165.05768624255228
  0
LINE
  8
_0-0_0
  6
CONTINUOUS
 62
    7
 10
314.87896798045523
 20
165.05768624255228
 11
314.88359940807732
 21
165.0550461191736
  0
LINE
  8
_0-0_0
  6
CONTINUOUS
 62
    7
 10
314.88359940807732
 20
165.0550461191736
 11
314.88820960616033
 21
165.05235995540954
  0
LINE
  8
_0-0_0
  6
CONTINUOUS
 62
    7
 10
314.88820960616033
 20
165.05235995540954
 11
314.89279935397821
 21
165.04962880496834
  0
LINE
  8
_0-0_0
  6
CONTINUOUS
 62
    7
 10
314.89279935397821
 20
165.04962880496834
 11
314.89736943080476
 21
165.04685372155805
  0
LINE
  8
_0-0_0
  6
CONTINUOUS
 62
    7
 10
314.89736943080476
 20
165.04685372155805
 11
314.90192061591398
 21
165.04403575888685
  0
LINE
  8
_0-0_0
  6
CONTINUOUS
 62
    7
 10
314.90192061591398
 20
165.04403575888685
 11
314.90645368857969
 21
165.04117597066283
  0
LINE
  8
_0-0_0
  6
CONTINUOUS
 62
    7
 10
314.90645368857969
 20
165.04117597066283
 11
314.91096942807587
 21
165.03827541059422
  0
LINE
  8
_0-0_0
  6
CONTINUOUS
 62
    7
 10
314.91096942807587
 20
165.03827541059422
 11
314.9154686136763
 21
165.03533513238906
  0
LINE
  8
_0-0_0
  6
CONTINUOUS
 62
    7
 10
314.9154686136763
 20
165.03533513238906
 11
314.91995202465495
 21
165.03235618975555
  0
LINE
  8
_0-0_0
  6
CONTINUOUS
 62
    7
 10
314.91995202465495
 20
165.03235618975555
 11
314.92442044028576
 21
165.0293396364018
  0
LINE
  8
_0-0_0
  6
CONTINUOUS
 62
    7
 10
314.92442044028576
 20
165.0293396364018
 11
314.92700555755761
 21
165.02757321744042
  0
LINE
  8
_0-0_0
  6
CONTINUOUS
 62
    7
 10
314.92700555755761
 20
165.02757321744042
 11
314.93006224145495
 21
165.02546449641935
  0
LINE
  8
_0-0_0
  6
CONTINUOUS
 62
    7
 10
314.93006224145495
 20
165.02546449641935
 11
314.93531285917044
 21
165.02178707040727
  0
LINE
  8
_0-0_0
  6
CONTINUOUS
 62
    7
 10
314.93531285917044
 20
165.02178707040727
 11
314.94053231525777
 21
165.01805408535012
  0
LINE
  8
_0-0_0
  6
CONTINUOUS
 62
    7
 10
314.94053231525777
 20
165.01805408535012
 11
314.9457131167066
 21
165.01426231556067
  0
LINE
  8
_0-0_0
  6
CONTINUOUS
 62
    7
 10
314.9457131167066
 20
165.01426231556067
 11
314.95084777050681
 21
165.01040853535167
  0
LINE
  8
_0-0_0
  6
CONTINUOUS
 62
    7
 10
314.95084777050681
 20
165.01040853535167
 11
314.95592878364812
 21
165.00648951903588
  0
LINE
  8
_0-0_0
  6
CONTINUOUS
 62
    7
 10
314.95592878364812
 20
165.00648951903588
 11
314.96094866312023
 21
165.00250204092612
  0
LINE
  8
_0-0_0
  6
CONTINUOUS
 62
    7
 10
314.96094866312023
 20
165.00250204092612
 11
314.96589991591293
 21
164.99844287533509
  0
LINE
  8
_0-0_0
  6
CONTINUOUS
 62
    7
 10
314.96589991591293
 20
164.99844287533509
 11
314.97077504901608
 21
164.99430879657558
  0
LINE
  8
_0-0_0
  6
CONTINUOUS
 62
    7
 10
314.97077504901608
 20
164.99430879657558
 11
314.9755665694193
 21
164.99009657896039
  0
LINE
  8
_0-0_0
  6
CONTINUOUS
 62
    7
 10
314.9755665694193
 20
164.99009657896039
 11
314.9802669841124
 21
164.98580299680222
  0
LINE
  8
_0-0_0
  6
CONTINUOUS
 62
    7
 10
314.9802669841124
 20
164.98580299680222
 11
314.98486880008522
 21
164.98142482441389
  0
LINE
  8
_0-0_0
  6
CONTINUOUS
 62
    7
 10
314.98486880008522
 20
164.98142482441389
 11
314.98936452432741
 21
164.97695883610814
  0
LINE
  8
_0-0_0
  6
CONTINUOUS
 62
    7
 10
314.98936452432741
 20
164.97695883610814
 11
314.99374666382874
 21
164.97240180619772
  0
LINE
  8
_0-0_0
  6
CONTINUOUS
 62
    7
 10
314.99374666382874
 20
164.97240180619772
 11
314.99800772557904
 21
164.96775050899544
  0
LINE
  8
_0-0_0
  6
CONTINUOUS
 62
    7
 10
314.99800772557904
 20
164.96775050899544
 11
315.00214021656802
 21
164.96300171881404
  0
LINE
  8
_0-0_0
  6
CONTINUOUS
 62
    7
 10
315.00214021656802
 20
164.96300171881404
 11
315.00613664378545
 21
164.95815220996627
  0
LINE
  8
_0-0_0
  6
CONTINUOUS
 62
    7
 10
315.00613664378545
 20
164.95815220996627
 11
315.0099895142211
 21
164.95319875676495
  0
LINE
  8
_0-0_0
  6
CONTINUOUS
 62
    7
 10
315.0099895142211
 20
164.95319875676495
 11
315.01369133486475
 21
164.94813813352278
  0
LINE
  8
_0-0_0
  6
CONTINUOUS
 62
    7
 10
315.01369133486475
 20
164.94813813352278
 11
315.01576622718767
 21
164.9451525956411
  0
LINE
  8
_0-0_0
  6
CONTINUOUS
 62
    7
 10
315.01576622718767
 20
164.9451525956411
 11
315.01719088008053
 21
164.94303361641406
  0
LINE
  8
_0-0_0
  6
CONTINUOUS
 62
    7
 10
315.01719088008053
 20
164.94303361641406
 11
315.01958628070417
 21
164.93933829868618
  0
LINE
  8
_0-0_0
  6
CONTINUOUS
 62
    7
 10
315.01958628070417
 20
164.93933829868618
 11
315.02190846986241
 21
164.93559270709446
  0
LINE
  8
_0-0_0
  6
CONTINUOUS
 62
    7
 10
315.02190846986241
 20
164.93559270709446
 11
315.02416195213266
 21
164.93180006347438
  0
LINE
  8
_0-0_0
  6
CONTINUOUS
 62
    7
 10
315.02416195213266
 20
164.93180006347438
 11
315.02635123209245
 21
164.92796358966132
  0
LINE
  8
_0-0_0
  6
CONTINUOUS
 62
    7
 10
315.02635123209245
 20
164.92796358966132
 11
315.0284808143191
 21
164.92408650749078
  0
LINE
  8
_0-0_0
  6
CONTINUOUS
 62
    7
 10
315.0284808143191
 20
164.92408650749078
 11
315.03055520339012
 21
164.92017203879817
  0
LINE
  8
_0-0_0
  6
CONTINUOUS
 62
    7
 10
315.03055520339012
 20
164.92017203879817
 11
315.03257890388295
 21
164.91622340541892
  0
LINE
  8
_0-0_0
  6
CONTINUOUS
 62
    7
 10
315.03257890388295
 20
164.91622340541892
 11
315.03455642037494
 21
164.91224382918847
  0
LINE
  8
_0-0_0
  6
CONTINUOUS
 62
    7
 10
315.03455642037494
 20
164.91224382918847
 11
315.03649225744363
 21
164.90823653194232
  0
LINE
  8
_0-0_0
  6
CONTINUOUS
 62
    7
 10
315.03649225744363
 20
164.90823653194232
 11
315.03839091966643
 21
164.90420473551583
  0
LINE
  8
_0-0_0
  6
CONTINUOUS
 62
    7
 10
315.03839091966643
 20
164.90420473551583
 11
315.0402569116207
 21
164.9001516617445
  0
LINE
  8
_0-0_0
  6
CONTINUOUS
 62
    7
 10
315.0402569116207
 20
164.9001516617445
 11
315.04209473788399
 21
164.89608053246377
  0
LINE
  8
_0-0_0
  6
CONTINUOUS
 62
    7
 10
315.04209473788399
 20
164.89608053246377
 11
315.0439089030337
 21
164.89199456950902
  0
LINE
  8
_0-0_0
  6
CONTINUOUS
 62
    7
 10
315.0439089030337
 20
164.89199456950902
 11
315.04570391164719
 21
164.88789699471576
  0
LINE
  8
_0-0_0
  6
CONTINUOUS
 62
    7
 10
315.04570391164719
 20
164.88789699471576
 11
315.04748426830201
 21
164.88379102991939
  0
LINE
  8
_0-0_0
  6
CONTINUOUS
 62
    7
 10
315.04748426830201
 20
164.88379102991939
 11
315.04925447757552
 21
164.87967989695539
  0
LINE
  8
_0-0_0
  6
CONTINUOUS
 62
    7
 10
315.04925447757552
 20
164.87967989695539
 11
315.05101904404523
 21
164.87556681765918
  0
LINE
  8
_0-0_0
  6
CONTINUOUS
 62
    7
 10
315.05101904404523
 20
164.87556681765918
 11
315.05278247228847
 21
164.87145501386618
  0
LINE
  8
_0-0_0
  6
CONTINUOUS
 62
    7
 10
315.05278247228847
 20
164.87145501386618
 11
315.05380651417192
 21
164.86907202167251
  0
LINE
  8
_0-0_0
  6
CONTINUOUS
 62
    7
 10
315.05380651417192
 20
164.86907202167251
 11
315.05504199686374
 21
164.86620517828305
  0
LINE
  8
_0-0_0
  6
CONTINUOUS
 62
    7
 10
315.05504199686374
 20
164.86620517828305
 11
315.05717689213429
 21
164.86126864684172
  0
LINE
  8
_0-0_0
  6
CONTINUOUS
 62
    7
 10
315.05717689213429
 20
164.86126864684172
 11
315.05931463403914
 21
164.85633859536077
  0
LINE
  8
_0-0_0
  6
CONTINUOUS
 62
    7
 10
315.05931463403914
 20
164.85633859536077
 11
315.06145153718313
 21
164.85141328286278
  0
LINE
  8
_0-0_0
  6
CONTINUOUS
 62
    7
 10
315.06145153718313
 20
164.85141328286278
 11
315.06358391617107
 21
164.84649096837032
  0
LINE
  8
_0-0_0
  6
CONTINUOUS
 62
    7
 10
315.06358391617107
 20
164.84649096837032
 11
315.06570808560775
 21
164.84156991090597
  0
LINE
  8
_0-0_0
  6
CONTINUOUS
 62
    7
 10
315.06570808560775
 20
164.84156991090597
 11
315.06782036009815
 21
164.83664836949239
  0
LINE
  8
_0-0_0
  6
CONTINUOUS
 62
    7
 10
315.06782036009815
 20
164.83664836949239
 11
315.06991705424707
 21
164.83172460315211
  0
LINE
  8
_0-0_0
  6
CONTINUOUS
 62
    7
 10
315.06991705424707
 20
164.83172460315211
 11
315.07199448265936
 21
164.82679687090771
  0
LINE
  8
_0-0_0
  6
CONTINUOUS
 62
    7
 10
315.07199448265936
 20
164.82679687090771
 11
315.07404895993983
 21
164.82186343178182
  0
LINE
  8
_0-0_0
  6
CONTINUOUS
 62
    7
 10
315.07404895993983
 20
164.82186343178182
 11
315.07607680069339
 21
164.81692254479699
  0
LINE
  8
_0-0_0
  6
CONTINUOUS
 62
    7
 10
315.07607680069339
 20
164.81692254479699
 11
315.07807431952483
 21
164.81197246897585
  0
LINE
  8
_0-0_0
  6
CONTINUOUS
 62
    7
 10
315.07807431952483
 20
164.81197246897585
 11
315.08003783103902
 21
164.80701146334098
  0
LINE
  8
_0-0_0
  6
CONTINUOUS
 62
    7
 10
315.08003783103902
 20
164.80701146334098
 11
315.08196364984082
 21
164.80203778691492
  0
LINE
  8
_0-0_0
  6
CONTINUOUS
 62
    7
 10
315.08196364984082
 20
164.80203778691492
 11
315.08384809053507
 21
164.79704969872034
  0
LINE
  8
_0-0_0
  6
CONTINUOUS
 62
    7
 10
315.08384809053507
 20
164.79704969872034
 11
315.08568746772659
 21
164.79204545777975
  0
LINE
  8
_0-0_0
  6
CONTINUOUS
 62
    7
 10
315.08568746772659
 20
164.79204545777975
 11
315.08747809602028
 21
164.78702332311579
  0
LINE
  8
_0-0_0
  6
CONTINUOUS
 62
    7
 10
315.08747809602028
 20
164.78702332311579
 11
315.08921629002094
 21
164.78198155375105
  0
LINE
  8
_0-0_0
  6
CONTINUOUS
 62
    7
 10
315.08921629002094
 20
164.78198155375105
 11
315.09089836433344
 21
164.77691840870807
  0
LINE
  8
_0-0_0
  6
CONTINUOUS
 62
    7
 10
315.09089836433344
 20
164.77691840870807
 11
315.09184680115624
 21
164.77397130421176
  0
LINE
  8
_0-0_0
  6
CONTINUOUS
 62
    7
 10
315.09184680115624
 20
164.77397130421176
 11
315.09272574575766
 21
164.77117340218592
  0
LINE
  8
_0-0_0
  6
CONTINUOUS
 62
    7
 10
315.09272574575766
 20
164.77117340218592
 11
315.09419723172255
 21
164.76633291647394
  0
LINE
  8
_0-0_0
  6
CONTINUOUS
 62
    7
 10
315.09419723172255
 20
164.76633291647394
 11
315.09561300708577
 21
164.76147238756735
  0
LINE
  8
_0-0_0
  6
CONTINUOUS
 62
    7
 10
315.09561300708577
 20
164.76147238756735
 11
315.09697296055276
 21
164.75659282014408
  0
LINE
  8
_0-0_0
  6
CONTINUOUS
 62
    7
 10
315.09697296055276
 20
164.75659282014408
 11
315.0982769808287
 21
164.75169521888199
  0
LINE
  8
_0-0_0
  6
CONTINUOUS
 62
    7
 10
315.0982769808287
 20
164.75169521888199
 11
315.09952495661906
 21
164.74678058845905
  0
LINE
  8
_0-0_0
  6
CONTINUOUS
 62
    7
 10
315.09952495661906
 20
164.74678058845905
 11
315.1007167766291
 21
164.74184993355317
  0
LINE
  8
_0-0_0
  6
CONTINUOUS
 62
    7
 10
315.1007167766291
 20
164.74184993355317
 11
315.10185232956411
 21
164.7369042588422
  0
LINE
  8
_0-0_0
  6
CONTINUOUS
 62
    7
 10
315.10185232956411
 20
164.7369042588422
 11
315.1029315041294
 21
164.7319445690041
  0
LINE
  8
_0-0_0
  6
CONTINUOUS
 62
    7
 10
315.1029315041294
 20
164.7319445690041
 11
315.10395418903045
 21
164.72697186871679
  0
LINE
  8
_0-0_0
  6
CONTINUOUS
 62
    7
 10
315.10395418903045
 20
164.72697186871679
 11
315.10492027297238
 21
164.72198716265814
  0
LINE
  8
_0-0_0
  6
CONTINUOUS
 62
    7
 10
315.10492027297238
 20
164.72198716265814
 11
315.10582964466062
 21
164.7169914555061
  0
LINE
  8
_0-0_0
  6
CONTINUOUS
 62
    7
 10
315.10582964466062
 20
164.7169914555061
 11
315.10668219280046
 21
164.71198575193856
  0
LINE
  8
_0-0_0
  6
CONTINUOUS
 62
    7
 10
315.10668219280046
 20
164.71198575193856
 11
315.10747780609734
 21
164.70697105663342
  0
LINE
  8
_0-0_0
  6
CONTINUOUS
 62
    7
 10
315.10747780609734
 20
164.70697105663342
 11
315.10821637325637
 21
164.70194837426862
  0
LINE
  8
_0-0_0
  6
CONTINUOUS
 62
    7
 10
315.10821637325637
 20
164.70194837426862
 11
315.10889778298304
 21
164.69691870952207
  0
LINE
  8
_0-0_0
  6
CONTINUOUS
 62
    7
 10
315.10889778298304
 20
164.69691870952207
 11
315.10952192398264
 21
164.69188306707164
  0
LINE
  8
_0-0_0
  6
CONTINUOUS
 62
    7
 10
315.10952192398264
 20
164.69188306707164
 11
315.11008868496049
 21
164.68684245159528
  0
LINE
  8
_0-0_0
  6
CONTINUOUS
 62
    7
 10
315.11008868496049
 20
164.68684245159528
 11
315.11059795462188
 21
164.68179786777088
  0
LINE
  8
_0-0_0
  6
CONTINUOUS
 62
    7
 10
315.11059795462188
 20
164.68179786777088
 11
315.11086694464836
 21
164.678870586751
  0
LINE
  8
_0-0_0
  6
CONTINUOUS
 62
    7
 10
315.11086694464836
 20
164.678870586751
 11
315.11115875182878
 21
164.67542500834008
  0
LINE
  8
_0-0_0
  6
CONTINUOUS
 62
    7
 10
315.11115875182878
 20
164.67542500834008
 11
315.11160100940543
 21
164.66948189178268
  0
LINE
  8
_0-0_0
  6
CONTINUOUS
 62
    7
 10
315.11160100940543
 20
164.66948189178268
 11
315.11196958889707
 21
164.6635358681709
  0
LINE
  8
_0-0_0
  6
CONTINUOUS
 62
    7
 10
315.11196958889707
 20
164.6635358681709
 11
315.1122683945789
 21
164.65758718412192
  0
LINE
  8
_0-0_0
  6
CONTINUOUS
 62
    7
 10
315.1122683945789
 20
164.65758718412192
 11
315.11250133072605
 21
164.65163608625295
  0
LINE
  8
_0-0_0
  6
CONTINUOUS
 62
    7
 10
315.11250133072605
 20
164.65163608625295
 11
315.11267230161371
 21
164.6456828211812
  0
LINE
  8
_0-0_0
  6
CONTINUOUS
 62
    7
 10
315.11267230161371
 20
164.6456828211812
 11
315.11278521151701
 21
164.63972763552385
  0
LINE
  8
_0-0_0
  6
CONTINUOUS
 62
    7
 10
315.11278521151701
 20
164.63972763552385
 11
315.1128439647112
 21
164.63377077589814
  0
LINE
  8
_0-0_0
  6
CONTINUOUS
 62
    7
 10
315.1128439647112
 20
164.63377077589814
 11
315.11285246547129
 21
164.62781248892128
  0
LINE
  8
_0-0_0
  6
CONTINUOUS
 62
    7
 10
315.11285246547129
 20
164.62781248892128
 11
315.1128146180726
 21
164.62185302121048
  0
LINE
  8
_0-0_0
  6
CONTINUOUS
 62
    7
 10
315.1128146180726
 20
164.62185302121048
 11
315.11273432679013
 21
164.61589261938292
  0
LINE
  8
_0-0_0
  6
CONTINUOUS
 62
    7
 10
315.11273432679013
 20
164.61589261938292
 11
315.11261549589915
 21
164.60993153005583
  0
LINE
  8
_0-0_0
  6
CONTINUOUS
 62
    7
 10
315.11261549589915
 20
164.60993153005583
 11
315.11246202967482
 21
164.60396999984641
  0
LINE
  8
_0-0_0
  6
CONTINUOUS
 62
    7
 10
315.11246202967482
 20
164.60396999984641
 11
315.11227783239218
 21
164.59800827537188
  0
LINE
  8
_0-0_0
  6
CONTINUOUS
 62
    7
 10
315.11227783239218
 20
164.59800827537188
 11
315.11206680832652
 21
164.59204660324943
  0
LINE
  8
_0-0_0
  6
CONTINUOUS
 62
    7
 10
315.11206680832652
 20
164.59204660324943
 11
315.11183286175293
 21
164.58608523009627
  0
LINE
  8
_0-0_0
  6
CONTINUOUS
 62
    7
 10
315.11183286175293
 20
164.58608523009627
 11
315.11157989694664
 21
164.58012440252963
  0
LINE
  8
_0-0_0
  6
CONTINUOUS
 62
    7
 10
315.11157989694664
 20
164.58012440252963
 11
315.11131181818268
 21
164.57416436716673
  0
LINE
  8
_0-0_0
  6
CONTINUOUS
 62
    7
 10
315.11131181818268
 20
164.57416436716673
 11
315.11103252973635
 21
164.56820537062472
  0
LINE
  8
_0-0_0
  6
CONTINUOUS
 62
    7
 10
315.11103252973635
 20
164.56820537062472
 11
315.11086694464836
 21
164.56474972579812
  0
LINE
  8
_0-0_0
  6
CONTINUOUS
 62
    7
 10
315.11086694464836
 20
164.56474972579812
 11
315.1107550780722
 21
164.56243824469959
  0
LINE
  8
_0-0_0
  6
CONTINUOUS
 62
    7
 10
315.1107550780722
 20
164.56243824469959
 11
315.11055933311877
 21
164.5584535172498
  0
LINE
  8
_0-0_0
  6
CONTINUOUS
 62
    7
 10
315.11055933311877
 20
164.5584535172498
 11
315.11035830627941
 21
164.55446965062092
  0
LINE
  8
_0-0_0
  6
CONTINUOUS
 62
    7
 10
315.11035830627941
 20
164.55446965062092
 11
315.11015008241816
 21
164.55048678502428
  0
LINE
  8
_0-0_0
  6
CONTINUOUS
 62
    7
 10
315.11015008241816
 20
164.55048678502428
 11
315.10993274639884
 21
164.54650506067105
  0
LINE
  8
_0-0_0
  6
CONTINUOUS
 62
    7
 10
315.10993274639884
 20
164.54650506067105
 11
315.10970438308527
 21
164.54252461777259
  0
LINE
  8
_0-0_0
  6
CONTINUOUS
 62
    7
 10
315.10970438308527
 20
164.54252461777259
 11
315.10946307734133
 21
164.5385455965401
  0
LINE
  8
_0-0_0
  6
CONTINUOUS
 62
    7
 10
315.10946307734133
 20
164.5385455965401
 11
315.10920691403089
 21
164.53456813718486
  0
LINE
  8
_0-0_0
  6
CONTINUOUS
 62
    7
 10
315.10920691403089
 20
164.53456813718486
 11
315.10893397801783
 21
164.53059237991812
  0
LINE
  8
_0-0_0
  6
CONTINUOUS
 62
    7
 10
315.10893397801783
 20
164.53059237991812
 11
315.10864235416602
 21
164.52661846495116
  0
LINE
  8
_0-0_0
  6
CONTINUOUS
 62
    7
 10
315.10864235416602
 20
164.52661846495116
 11
315.10833012733929
 21
164.52264653249523
  0
LINE
  8
_0-0_0
  6
CONTINUOUS
 62
    7
 10
315.10833012733929
 20
164.52264653249523
 11
315.1079953824015
 21
164.51867672276157
  0
LINE
  8
_0-0_0
  6
CONTINUOUS
 62
    7
 10
315.1079953824015
 20
164.51867672276157
 11
315.10763620421659
 21
164.51470917596149
  0
LINE
  8
_0-0_0
  6
CONTINUOUS
 62
    7
 10
315.10763620421659
 20
164.51470917596149
 11
315.10725067764832
 21
164.51074403230621
  0
LINE
  8
_0-0_0
  6
CONTINUOUS
 62
    7
 10
315.10725067764832
 20
164.51074403230621
 11
315.10683688756058
 21
164.50678143200702
  0
LINE
  8
_0-0_0
  6
CONTINUOUS
 62
    7
 10
315.10683688756058
 20
164.50678143200702
 11
315.10639291881733
 21
164.50282151527514
  0
LINE
  8
_0-0_0
  6
CONTINUOUS
 62
    7
 10
315.10639291881733
 20
164.50282151527514
 11
315.10591685628231
 21
164.49886442232187
  0
LINE
  8
_0-0_0
  6
CONTINUOUS
 62
    7
 10
315.10591685628231
 20
164.49886442232187
 11
315.10540678481948
 21
164.49491029335846
  0
LINE
  8
_0-0_0
  6
CONTINUOUS
 62
    7
 10
315.10540678481948
 20
164.49491029335846
 11
315.10486078929262
 21
164.49095926859616
  0
LINE
  8
_0-0_0
  6
CONTINUOUS
 62
    7
 10
315.10486078929262
 20
164.49095926859616
 11
315.10452689681767
 21
164.48866915182953
  0
LINE
  8
_0-0_0
  6
CONTINUOUS
 62
    7
 10
315.10452689681767
 20
164.48866915182953
 11
315.10401182358578
 21
164.48530117432108
  0
LINE
  8
_0-0_0
  6
CONTINUOUS
 62
    7
 10
315.10401182358578
 20
164.48530117432108
 11
315.10305729175161
 21
164.4795010728848
  0
LINE
  8
_0-0_0
  6
CONTINUOUS
 62
    7
 10
315.10305729175161
 20
164.4795010728848
 11
315.1020188560517
 21
164.47371113673802
  0
LINE
  8
_0-0_0
  6
CONTINUOUS
 62
    7
 10
315.1020188560517
 20
164.47371113673802
 11
315.10089679685638
 21
164.46793324142084
  0
LINE
  8
_0-0_0
  6
CONTINUOUS
 62
    7
 10
315.10089679685638
 20
164.46793324142084
 11
315.09969139453625
 21
164.46216926247325
  0
LINE
  8
_0-0_0
  6
CONTINUOUS
 62
    7
 10
315.09969139453625
 20
164.46216926247325
 11
315.09840292946183
 21
164.45642107543529
  0
LINE
  8
_0-0_0
  6
CONTINUOUS
 62
    7
 10
315.09840292946183
 20
164.45642107543529
 11
315.0970316820036
 21
164.45069055584702
  0
LINE
  8
_0-0_0
  6
CONTINUOUS
 62
    7
 10
315.0970316820036
 20
164.45069055584702
 11
315.09557793253214
 21
164.44497957924841
  0
LINE
  8
_0-0_0
  6
CONTINUOUS
 62
    7
 10
315.09557793253214
 20
164.44497957924841
 11
315.09404196141787
 21
164.43929002117954
  0
LINE
  8
_0-0_0
  6
CONTINUOUS
 62
    7
 10
315.09404196141787
 20
164.43929002117954
 11
315.09242404903142
 21
164.43362375718044
  0
LINE
  8
_0-0_0
  6
CONTINUOUS
 62
    7
 10
315.09242404903142
 20
164.43362375718044
 11
315.09072447574317
 21
164.42798266279112
  0
LINE
  8
_0-0_0
  6
CONTINUOUS
 62
    7
 10
315.09072447574317
 20
164.42798266279112
 11
315.0889435219238
 21
164.42236861355164
  0
LINE
  8
_0-0_0
  6
CONTINUOUS
 62
    7
 10
315.0889435219238
 20
164.42236861355164
 11
315.08708146794368
 21
164.41678348500201
  0
LINE
  8
_0-0_0
  6
CONTINUOUS
 62
    7
 10
315.08708146794368
 20
164.41678348500201
 11
315.08513859417337
 21
164.41122915268224
  0
LINE
  8
_0-0_0
  6
CONTINUOUS
 62
    7
 10
315.08513859417337
 20
164.41122915268224
 11
315.08311518098344
 21
164.40570749213239
  0
LINE
  8
_0-0_0
  6
CONTINUOUS
 62
    7
 10
315.08311518098344
 20
164.40570749213239
 11
315.08101150874438
 21
164.4002203788925
  0
LINE
  8
_0-0_0
  6
CONTINUOUS
 62
    7
 10
315.08101150874438
 20
164.4002203788925
 11
315.07882785782664
 21
164.39476968850261
  0
LINE
  8
_0-0_0
  6
CONTINUOUS
 62
    7
 10
315.07882785782664
 20
164.39476968850261
 11
315.07656450860077
 21
164.38935729650268
  0
LINE
  8
_0-0_0
  6
CONTINUOUS
 62
    7
 10
315.07656450860077
 20
164.38935729650268
 11
315.07422174143733
 21
164.38398507843283
  0
LINE
  8
_0-0_0
  6
CONTINUOUS
 62
    7
 10
315.07422174143733
 20
164.38398507843283
 11
315.07282665766411
 21
164.38088833870734
  0
LINE
  8
_0-0_0
  6
CONTINUOUS
 62
    7
 10
315.07282665766411
 20
164.38088833870734
 11
315.07175286882676
 21
164.3785532127483
  0
LINE
  8
_0-0_0
  6
CONTINUOUS
 62
    7
 10
315.07175286882676
 20
164.3785532127483
 11
315.0698684099205
 21
164.37454504566657
  0
LINE
  8
_0-0_0
  6
CONTINUOUS
 62
    7
 10
315.0698684099205
 20
164.37454504566657
 11
315.06794608499285
 21
164.3705570979044
  0
LINE
  8
_0-0_0
  6
CONTINUOUS
 62
    7
 10
315.06794608499285
 20
164.3705570979044
 11
315.06599058154006
 21
164.36658651562675
  0
LINE
  8
_0-0_0
  6
CONTINUOUS
 62
    7
 10
315.06599058154006
 20
164.36658651562675
 11
315.06400658705854
 21
164.36263044499856
  0
LINE
  8
_0-0_0
  6
CONTINUOUS
 62
    7
 10
315.06400658705854
 20
164.36263044499856
 11
315.06199878904448
 21
164.35868603218475
  0
LINE
  8
_0-0_0
  6
CONTINUOUS
 62
    7
 10
315.06199878904448
 20
164.35868603218475
 11
315.05997187499429
 21
164.35475042335034
  0
LINE
  8
_0-0_0
  6
CONTINUOUS
 62
    7
 10
315.05997187499429
 20
164.35475042335034
 11
315.05793053240421
 21
164.3508207646602
  0
LINE
  8
_0-0_0
  6
CONTINUOUS
 62
    7
 10
315.05793053240421
 20
164.3508207646602
 11
315.05587944877061
 21
164.34689420227932
  0
LINE
  8
_0-0_0
  6
CONTINUOUS
 62
    7
 10
315.05587944877061
 20
164.34689420227932
 11
315.05382331158978
 21
164.34296788237262
  0
LINE
  8
_0-0_0
  6
CONTINUOUS
 62
    7
 10
315.05382331158978
 20
164.34296788237262
 11
315.05176680835802
 21
164.33903895110507
  0
LINE
  8
_0-0_0
  6
CONTINUOUS
 62
    7
 10
315.05176680835802
 20
164.33903895110507
 11
315.0497146265717
 21
164.33510455464159
  0
LINE
  8
_0-0_0
  6
CONTINUOUS
 62
    7
 10
315.0497146265717
 20
164.33510455464159
 11
315.04767145372699
 21
164.33116183914714
  0
LINE
  8
_0-0_0
  6
CONTINUOUS
 62
    7
 10
315.04767145372699
 20
164.33116183914714
 11
315.04564197732037
 21
164.32720795078666
  0
LINE
  8
_0-0_0
  6
CONTINUOUS
 62
    7
 10
315.04564197732037
 20
164.32720795078666
 11
315.04363088484803
 21
164.32324003572512
  0
LINE
  8
_0-0_0
  6
CONTINUOUS
 62
    7
 10
315.04363088484803
 20
164.32324003572512
 11
315.04164286380637
 21
164.3192552401274
  0
LINE
  8
_0-0_0
  6
CONTINUOUS
 62
    7
 10
315.04164286380637
 20
164.3192552401274
 11
315.03968260169165
 21
164.31525071015852
  0
LINE
  8
_0-0_0
  6
CONTINUOUS
 62
    7
 10
315.03968260169165
 20
164.31525071015852
 11
315.03775478600016
 21
164.31122359198341
  0
LINE
  8
_0-0_0
  6
CONTINUOUS
 62
    7
 10
315.03775478600016
 20
164.31122359198341
 11
315.03586410422827
 21
164.30717103176698
  0
LINE
  8
_0-0_0
  6
CONTINUOUS
 62
    7
 10
315.03586410422827
 20
164.30717103176698
 11
315.0347863706798
 21
164.30480776473874
  0
LINE
  8
_0-0_0
  6
CONTINUOUS
 62
    7
 10
315.0347863706798
 20
164.30480776473874
 11
315.03372316687665
 21
164.30243472716123
  0
LINE
  8
_0-0_0
  6
CONTINUOUS
 62
    7
 10
315.03372316687665
 20
164.30243472716123
 11
315.03191997630614
 21
164.29832333335369
  0
LINE
  8
_0-0_0
  6
CONTINUOUS
 62
    7
 10
315.03191997630614
 20
164.29832333335369
 11
315.03014669452602
 21
164.29419229861543
  0
LINE
  8
_0-0_0
  6
CONTINUOUS
 62
    7
 10
315.03014669452602
 20
164.29419229861543
 11
315.02839406117334
 21
164.29004814837052
  0
LINE
  8
_0-0_0
  6
CONTINUOUS
 62
    7
 10
315.02839406117334
 20
164.29004814837052
 11
315.0266528158852
 21
164.28589740804293
  0
LINE
  8
_0-0_0
  6
CONTINUOUS
 62
    7
 10
315.0266528158852
 20
164.28589740804293
 11
315.0249136982988
 21
164.28174660305675
  0
LINE
  8
_0-0_0
  6
CONTINUOUS
 62
    7
 10
315.0249136982988
 20
164.28174660305675
 11
315.02316744805114
 21
164.27760225883597
  0
LINE
  8
_0-0_0
  6
CONTINUOUS
 62
    7
 10
315.02316744805114
 20
164.27760225883597
 11
315.02140480477931
 21
164.27347090080465
  0
LINE
  8
_0-0_0
  6
CONTINUOUS
 62
    7
 10
315.02140480477931
 20
164.27347090080465
 11
315.01961650812052
 21
164.26935905438683
  0
LINE
  8
_0-0_0
  6
CONTINUOUS
 62
    7
 10
315.01961650812052
 20
164.26935905438683
 11
315.01779329771176
 21
164.26527324500651
  0
LINE
  8
_0-0_0
  6
CONTINUOUS
 62
    7
 10
315.01779329771176
 20
164.26527324500651
 11
315.01592591319019
 21
164.26121999808771
  0
LINE
  8
_0-0_0
  6
CONTINUOUS
 62
    7
 10
315.01592591319019
 20
164.26121999808771
 11
315.0140050941929
 21
164.25720583905454
  0
LINE
  8
_0-0_0
  6
CONTINUOUS
 62
    7
 10
315.0140050941929
 20
164.25720583905454
 11
315.01202158035699
 21
164.25323729333093
  0
LINE
  8
_0-0_0
  6
CONTINUOUS
 62
    7
 10
315.01202158035699
 20
164.25323729333093
 11
315.00996611131956
 21
164.249320886341
  0
LINE
  8
_0-0_0
  6
CONTINUOUS
 62
    7
 10
315.00996611131956
 20
164.249320886341
 11
315.00782942671771
 21
164.24546314350872
  0
LINE
  8
_0-0_0
  6
CONTINUOUS
 62
    7
 10
315.00782942671771
 20
164.24546314350872
 11
315.00560226618853
 21
164.24167059025817
  0
LINE
  8
_0-0_0
  6
CONTINUOUS
 62
    7
 10
315.00560226618853
 20
164.24167059025817
 11
315.00327536936913
 21
164.23794975201335
  0
LINE
  8
_0-0_0
  6
CONTINUOUS
 62
    7
 10
315.00327536936913
 20
164.23794975201335
 11
315.00083947589661
 21
164.23430715419829
  0
LINE
  8
_0-0_0
  6
CONTINUOUS
 62
    7
 10
315.00083947589661
 20
164.23430715419829
 11
314.99828532540812
 21
164.23074932223705
  0
LINE
  8
_0-0_0
  6
CONTINUOUS
 62
    7
 10
314.99828532540812
 20
164.23074932223705
 11
314.99674608369548
 21
164.22872719077014
  0
LINE
  8
_0-0_0
  6
CONTINUOUS
 62
    7
 10
314.99674608369548
 20
164.22872719077014
 11
314.99591706415583
 21
164.22767414782282
  0
LINE
  8
_0-0_0
  6
CONTINUOUS
 62
    7
 10
314.99591706415583
 20
164.22767414782282
 11
314.99445965434683
 21
164.2258786364097
  0
LINE
  8
_0-0_0
  6
CONTINUOUS
 62
    7
 10
314.99445965434683
 20
164.2258786364097
 11
314.99296837510667
 21
164.22410735714254
  0
LINE
  8
_0-0_0
  6
CONTINUOUS
 62
    7
 10
314.99296837510667
 20
164.22410735714254
 11
314.99144515302407
 21
164.22235893162846
  0
LINE
  8
_0-0_0
  6
CONTINUOUS
 62
    7
 10
314.99144515302407
 20
164.22235893162846
 11
314.98989191468797
 21
164.22063198147467
  0
LINE
  8
_0-0_0
  6
CONTINUOUS
 62
    7
 10
314.98989191468797
 20
164.22063198147467
 11
314.98831058668708
 21
164.2189251282883
  0
LINE
  8
_0-0_0
  6
CONTINUOUS
 62
    7
 10
314.98831058668708
 20
164.2189251282883
 11
314.98670309561021
 21
164.21723699367658
  0
LINE
  8
_0-0_0
  6
CONTINUOUS
 62
    7
 10
314.98670309561021
 20
164.21723699367658
 11
314.98507136804614
 21
164.21556619924664
  0
LINE
  8
_0-0_0
  6
CONTINUOUS
 62
    7
 10
314.98507136804614
 20
164.21556619924664
 11
314.98341733058373
 21
164.21391136660566
  0
LINE
  8
_0-0_0
  6
CONTINUOUS
 62
    7
 10
314.98341733058373
 20
164.21391136660566
 11
314.98174290981183
 21
164.21227111736081
  0
LINE
  8
_0-0_0
  6
CONTINUOUS
 62
    7
 10
314.98174290981183
 20
164.21227111736081
 11
314.98005003231913
 21
164.21064407311928
  0
LINE
  8
_0-0_0
  6
CONTINUOUS
 62
    7
 10
314.98005003231913
 20
164.21064407311928
 11
314.97834062469445
 21
164.20902885548819
  0
LINE
  8
_0-0_0
  6
CONTINUOUS
 62
    7
 10
314.97834062469445
 20
164.20902885548819
 11
314.97661661352663
 21
164.20742408607478
  0
LINE
  8
_0-0_0
  6
CONTINUOUS
 62
    7
 10
314.97661661352663
 20
164.20742408607478
 11
314.97487992540454
 21
164.20582838648616
  0
LINE
  8
_0-0_0
  6
CONTINUOUS
 62
    7
 10
314.97487992540454
 20
164.20582838648616
 11
314.97313248691688
 21
164.20424037832953
  0
LINE
  8
_0-0_0
  6
CONTINUOUS
 62
    7
 10
314.97313248691688
 20
164.20424037832953
 11
314.97137622465254
 21
164.20265868321206
  0
LINE
  8
_0-0_0
  6
CONTINUOUS
 62
    7
 10
314.97137622465254
 20
164.20265868321206
 11
314.96961306520018
 21
164.20108192274091
  0
LINE
  8
_0-0_0
  6
CONTINUOUS
 62
    7
 10
314.96961306520018
 20
164.20108192274091
 11
314.96784493514883
 21
164.19950871852328
  0
LINE
  8
_0-0_0
  6
CONTINUOUS
 62
    7
 10
314.96784493514883
 20
164.19950871852328
 11
314.96607376108705
 21
164.19793769216631
  0
LINE
  8
_0-0_0
  6
CONTINUOUS
 62
    7
 10
314.96607376108705
 20
164.19793769216631
 11
314.96504584454192
 21
164.19702695161655
  0
LINE
  8
_0-0_0
  6
CONTINUOUS
 62
    7
 10
294.11792044666765
 20
157.90689727451047
 11
314.96975741819978
 21
164.19344753096786
  0
ARC
  8
_0-0_0
  6
CONTINUOUS
 62
    7
 10
290.2259846670313
 20
156.30854898998882
 40
0.5462840146203054
 50
141.86369191462705
 51
308.00807465333162
  0
ARC
  8
_0-0_0
  6
CONTINUOUS
 62
    7
 10
296.5219000814526
 20
149.51203045701675
 40
9.8186818369695175
 50
106.3769594564975
 51
133.21230647254455
  0
ARC
  8
_0-0_0
  6
CONTINUOUS
 62
    7
 10
296.5219000814526
 20
149.51203045701675
 40
8.7186818369695178
 50
106.3769594564975
 51
133.10481884348823
  0
LINE
  8
_0-0_0
  6
CONTINUOUS
 62
    7
 10
289.69150432678794
 20
156.28889236167308
 11
288.35079876008859
 21
155.83421829992287
  0
LINE
  8
_f-a_250
  6
CONTINUOUS
 62
  250
 10
290.91764810672373
 20
156.00727290444939
 11
290.7299211870228
 21
156.06950048855154
  0
LINE
  8
_0-0_0
  6
CONTINUOUS
 62
    7
 10
289.22116309409665
 20
155.55478358933004
 11
289.99117116570949
 21
155.81451765527706
  0
LINE
  8
_0-0_0
  6
CONTINUOUS
 62
    7
 10
314.50251378882371
 20
165.08796882399386
 11
293.11147473161435
 21
158.73817322395806
  0
ARC
  8
_0-0_0
  6
CONTINUOUS
 62
    7
 10
284.44083280779023
 20
190.40349175616078
 40
32.213150783327087
 50
270.57136565907223
 51
287.30793967232808
  0
LINE
  8
_f-a_250
  6
CONTINUOUS
 62
  250
 10
314.24635876809464
 20
165.64619217202326
 11
294.02047884572391
 21
159.64226674350897
  0
LINE
  8
_0-0_0
  6
CONTINUOUS
 62
    7
 10
314.24839445058933
 20
165.64481363482923
 11
314.23962770796015
 21
165.64568511982631
  0
LINE
  8
_0-0_0
  6
CONTINUOUS
 62
    7
 10
314.26349921698102
 20
165.64329163556474
 11
314.24839445058933
 21
165.64481363482923
  0
LINE
  8
_0-0_0
  6
CONTINUOUS
 62
    7
 10
314.27857535252053
 20
165.6417156392871
 11
314.26349921698102
 21
165.64329163556474
  0
LINE
  8
_0-0_0
  6
CONTINUOUS
 62
    7
 10
314.2936047364152
 20
165.64005147067155
 11
314.27857535252053
 21
165.6417156392871
  0
LINE
  8
_0-0_0
  6
CONTINUOUS
 62
    7
 10
314.30856924787247
 20
165.63826495439335
 11
314.2936047364152
 21
165.64005147067155
  0
LINE
  8
_0-0_0
  6
CONTINUOUS
 62
    7
 10
314.32345076609988
 20
165.6363219151277
 11
314.30856924787247
 21
165.63826495439335
  0
LINE
  8
_0-0_0
  6
CONTINUOUS
 62
    7
 10
314.33823117030465
 20
165.63418817754985
 11
314.32345076609988
 21
165.6363219151277
  0
LINE
  8
_0-0_0
  6
CONTINUOUS
 62
    7
 10
314.35289233969434
 20
165.63182956633503
 11
314.33823117030465
 21
165.63418817754985
  0
LINE
  8
_0-0_0
  6
CONTINUOUS
 62
    7
 10
314.36741615347648
 20
165.62921190615845
 11
314.35289233969434
 21
165.63182956633503
  0
LINE
  8
_0-0_0
  6
CONTINUOUS
 62
    7
 10
314.38178449085831
 20
165.62630102169535
 11
314.36741615347648
 21
165.62921190615845
  0
LINE
  8
_0-0_0
  6
CONTINUOUS
 62
    7
 10
314.39597923104736
 20
165.62306273762098
 11
314.38178449085831
 21
165.62630102169535
  0
LINE
  8
_0-0_0
  6
CONTINUOUS
 62
    7
 10
314.40998225325109
 20
165.61946287861056
 11
314.39597923104736
 21
165.62306273762098
  0
LINE
  8
_0-0_0
  6
CONTINUOUS
 62
    7
 10
314.42377543667692
 20
165.61546726933932
 11
314.40998225325109
 21
165.61946287861056
  0
LINE
  8
_0-0_0
  6
CONTINUOUS
 62
    7
 10
314.43734066053219
 20
165.61104173448248
 11
314.42377543667692
 21
165.61546726933932
  0
LINE
  8
_0-0_0
  6
CONTINUOUS
 62
    7
 10
314.45065980402444
 20
165.60615209871528
 11
314.43734066053219
 21
165.61104173448248
  0
LINE
  8
_0-0_0
  6
CONTINUOUS
 62
    7
 10
314.46371474636112
 20
165.60076418671298
 11
314.45065980402444
 21
165.60615209871528
  0
LINE
  8
_0-0_0
  6
CONTINUOUS
 62
    7
 10
314.47648736674955
 20
165.5948438231508
 11
314.46371474636112
 21
165.60076418671298
  0
LINE
  8
_0-0_0
  6
CONTINUOUS
 62
    7
 10
314.48895954439729
 20
165.58835683270394
 11
314.47648736674955
 21
165.5948438231508
  0
LINE
  8
_0-0_0
  6
CONTINUOUS
 62
    7
 10
314.50111315851177
 20
165.58126904004763
 11
314.48895954439729
 21
165.58835683270394
  0
LINE
  8
_0-0_0
  6
CONTINUOUS
 62
    7
 10
314.50800914835258
 20
165.57686936587956
 11
314.50111315851177
 21
165.58126904004763
  0
LINE
  8
_0-0_0
  6
CONTINUOUS
 62
    7
 10
314.51643070629848
 20
165.57108792924012
 11
314.50800914835258
 21
165.57686936587956
  0
LINE
  8
_0-0_0
  6
CONTINUOUS
 62
    7
 10
314.53051719726966
 20
165.56035172803794
 11
314.51643070629848
 21
165.57108792924012
  0
LINE
  8
_0-0_0
  6
CONTINUOUS
 62
    7
 10
314.54404234902302
 20
165.54869364114685
 11
314.53051719726966
 21
165.56035172803794
  0
LINE
  8
_0-0_0
  6
CONTINUOUS
 62
    7
 10
314.55699141110131
 20
165.53617242232306
 11
314.54404234902302
 21
165.54869364114685
  0
LINE
  8
_0-0_0
  6
CONTINUOUS
 62
    7
 10
314.56934963304741
 20
165.52284682532277
 11
314.55699141110131
 21
165.53617242232306
  0
LINE
  8
_0-0_0
  6
CONTINUOUS
 62
    7
 10
314.58110226440431
 20
165.50877560390217
 11
314.56934963304741
 21
165.52284682532277
  0
LINE
  8
_0-0_0
  6
CONTINUOUS
 62
    7
 10
314.59223455471476
 20
165.4940175118175
 11
314.58110226440431
 21
165.50877560390217
  0
LINE
  8
_0-0_0
  6
CONTINUOUS
 62
    7
 10
314.60273175352177
 20
165.47863130282494
 11
314.59223455471476
 21
165.4940175118175
  0
LINE
  8
_0-0_0
  6
CONTINUOUS
 62
    7
 10
314.61257911036807
 20
165.46267573068073
 11
314.60273175352177
 21
165.47863130282494
  0
LINE
  8
_0-0_0
  6
CONTINUOUS
 62
    7
 10
314.62176187479679
 20
165.44620954914109
 11
314.61257911036807
 21
165.46267573068073
  0
LINE
  8
_0-0_0
  6
CONTINUOUS
 62
    7
 10
314.63026529635056
 20
165.42929151196219
 11
314.62176187479679
 21
165.44620954914109
  0
LINE
  8
_0-0_0
  6
CONTINUOUS
 62
    7
 10
314.6380746245726
 20
165.4119803729003
 11
314.63026529635056
 21
165.42929151196219
  0
LINE
  8
_0-0_0
  6
CONTINUOUS
 62
    7
 10
314.64517510900544
 20
165.39433488571157
 11
314.6380746245726
 21
165.4119803729003
  0
LINE
  8
_0-0_0
  6
CONTINUOUS
 62
    7
 10
314.65155199919218
 20
165.37641380415224
 11
314.64517510900544
 21
165.39433488571157
  0
LINE
  8
_0-0_0
  6
CONTINUOUS
 62
    7
 10
314.6571905446757
 20
165.3582758819785
 11
314.65155199919218
 21
165.37641380415224
  0
LINE
  8
_0-0_0
  6
CONTINUOUS
 62
    7
 10
314.66207599499887
 20
165.3399798729466
 11
314.6571905446757
 21
165.3582758819785
  0
LINE
  8
_0-0_0
  6
CONTINUOUS
 62
    7
 10
314.66619359970457
 20
165.32158453081271
 11
314.66207599499887
 21
165.3399798729466
  0
LINE
  8
_0-0_0
  6
CONTINUOUS
 62
    7
 10
314.66952860833567
 20
165.30314860933308
 11
314.66619359970457
 21
165.32158453081271
  0
LINE
  8
_0-0_0
  6
CONTINUOUS
 62
    7
 10
314.67206627043504
 20
165.28473086226387
 11
314.66952860833567
 21
165.30314860933308
  0
LINE
  8
_0-0_0
  6
CONTINUOUS
 62
    7
 10
314.67316695782483
 20
165.27408004851375
 11
314.67206627043504
 21
165.28473086226387
  0
LINE
  8
_0-0_0
  6
CONTINUOUS
 62
    7
 10
314.6740214776886
 20
165.26303044714618
 11
314.67316695782483
 21
165.27408004851375
  0
LINE
  8
_0-0_0
  6
CONTINUOUS
 62
    7
 10
314.67481867344543
 20
165.2440708647637
 11
314.6740214776886
 21
165.26303044714618
  0
LINE
  8
_0-0_0
  6
CONTINUOUS
 62
    7
 10
314.67479994274015
 20
165.22522164849332
 11
314.67481867344543
 21
165.2440708647637
  0
LINE
  8
_0-0_0
  6
CONTINUOUS
 62
    7
 10
314.67401169777179
 20
165.20647652039918
 11
314.67479994274015
 21
165.22522164849332
  0
LINE
  8
_0-0_0
  6
CONTINUOUS
 62
    7
 10
314.67250035073982
 20
165.18782920254543
 11
314.67401169777179
 21
165.20647652039918
  0
LINE
  8
_0-0_0
  6
CONTINUOUS
 62
    7
 10
314.67031231384317
 20
165.16927341699628
 11
314.67250035073982
 21
165.18782920254543
  0
LINE
  8
_0-0_0
  6
CONTINUOUS
 62
    7
 10
314.66749399928131
 20
165.15080288581584
 11
314.67031231384317
 21
165.16927341699628
  0
LINE
  8
_0-0_0
  6
CONTINUOUS
 62
    7
 10
314.66409181925337
 20
165.13241133106828
 11
314.66749399928131
 21
165.15080288581584
  0
LINE
  8
_0-0_0
  6
CONTINUOUS
 62
    7
 10
314.66051522960396
 20
165.11578058735418
 11
314.66409181925337
 21
165.13241133106828
  0
LINE
  8
_f-a_250
  6
CONTINUOUS
 62
  250
 10
313.47382537815082
 20
168.36432730261163
 11
313.07420114519573
 21
165.27218996873631
  0
LINE
  8
_f-a_250
  6
CONTINUOUS
 62
  250
 10
315.80718032810233
 20
161.94433485571213
 11
313.52951129484848
 21
163.79840772355846
  0
ARC
  8
_0-0_0
  6
CONTINUOUS
 62
    7
 10
284.77233367948804
 20
157.79389999821623
 40
0.3928979033025285
 50
92.140901366322012
 51
274.2758411126311
  0
LINE
  8
_f-a_250
  6
CONTINUOUS
 62
  250
 10
289.68741994986505
 20
156.41506804761642
 11
286.5081842401209
 21
157.46891881032965
  0
LINE
  8
_f-a_250
  6
CONTINUOUS
 62
  250
 10
283.97222124884718
 20
157.31658408736749
 11
284.4617731976972
 21
157.47387403950859
  0
LINE
  8
_f-a_250
  6
CONTINUOUS
 62
  250
 10
283.18663916007893
 20
157.59962261031166
 11
284.42199310437258
 21
157.99653403765183
  0
ARC
  8
_0-0_0
  6
CONTINUOUS
 62
    7
 10
284.48321279698797
 20
190.212781804771
 40
32.813150783327089
 50
270.57136565907223
 51
272.46242964546735
  0
ARC
  8
_0-0_0
  6
CONTINUOUS
 62
    7
 10
284.48321279698797
 20
190.212781804771
 40
32.813150783327089
 50
272.91921508941851
 51
283.34296179163402
  0
LINE
  8
_f-a_250
  6
CONTINUOUS
 62
  250
 10
130.76899180412528
 20
105.0982201008465
 11
132.70212402871451
 21
104.30343983583818
  0
LINE
  8
_0-0_0
  6
CONTINUOUS
 62
    7
 10
129.565567897243
 20
104.40365097083665
 11
131.11038280828598
 21
103.76852193580729
  0
LINE
  8
_0-0_0
  6
CONTINUOUS
 62
    7
 10
132.64468405888837
 20
103.13771544515686
 11
137.05664983229696
 21
101.32379745134637
  0
LINE
  8
_f-a_250
  6
CONTINUOUS
 62
  250
 10
134.25669046722595
 20
103.66430159673727
 11
137.0810185931002
 21
102.50311860687233
  0
ENDSEC
  0
EOF
