  0
SECTION
  2
HEADER
  9
$ACADVER
  1
AC1009
  9
$INSBASE
 10
0
 20
0
 30
0
  9
$EXTMIN
 10
0
 20
0
  9
$EXTMAX
 10
420
 20
297
  9
$LIMMIN
 10
0
 20
0
  9
$LIMMAX
 10
420
 20
297
  9
$LTSCALE
 40
1
  0
ENDSEC
  0
SECTION
  2
TABLES
  0
TABLE
  2
LTYPE
 70
     9
  0
LTYPE
  2
CONTINUOUS
 70
    64
  3
実線
 72
    65
 73
     0
 40
0.0
  0
LTYPE
  2
DASHED1
 70
    64
  3
--  --  --  --  --  --  --  --  
 72
    65
 73
     2
 40
2.5
 49
1.25
 49
-1.25
  0
LTYPE
  2
DASHED2
 70
    64
  3
----    ----    ----    ----    
 72
    65
 73
     2
 40
5.0
 49
2.5
 49
-2.5
  0
LTYPE
  2
DASHED3
 70
    64
  3
------  ------  ------  ------  
 72
    65
 73
     2
 40
5.0
 49
3.75
 49
-1.25
  0
LTYPE
  2
CENTER1
 70
    64
  3
----- - ----- - ----- - ----- - 
 72
    65
 73
     4
 40
10.0
 49
6.25
 49
-1.25
 49
1.25
 49
-1.25
  0
LTYPE
  2
CENTER2
 70
    64
  3
----------  --  ----------  --  
 72
    65
 73
     4
 40
20.0
 49
12.5
 49
-2.5
 49
2.5
 49
-2.5
  0
LTYPE
  2
PHANTOM1
 70
    64
  3
--- - - --- - - --- - - --- - - 
 72
    65
 73
     6
 40
10.0
 49
3.25
 49
-1.25
 49
1.25
 49
-1.25
 49
1.25
 49
-1.25
  0
LTYPE
  2
PHANTOM2
 70
    64
  3
--------  -  -  --------  -  -  
 72
    65
 73
     6
 40
20.0
 49
10.0
 49
-2.5
 49
1.25
 49
-2.5
 49
1.25
 49
-2.5
  0
LTYPE
  2
DOT
 70
    64
  3
-   -   -   -   -   -   -   -   
 72
    65
 73
     2
 40
2.5
 49
0.625
 49
-1.875
  0
LTYPE
  2
DUMMY
 70
    64
  3
ダミー
 72
    65
 73
     0
 40
0.0
  0
LTYPE
  2
RAND1
 70
    64
  3
ランダム線1
 72
    65
 73
     4
 40
10.0
 49
1.0
 49
-2.0
 49
3.0
 49
-4.0
  0
LTYPE
  2
RAND2
 70
    64
  3
ランダム線2
 72
    65
 73
     4
 40
14.0
 49
2.0
 49
-3.0
 49
4.0
 49
-5.0
  0
LTYPE
  2
RAND3
 70
    64
  3
ランダム線3
 72
    65
 73
     4
 40
18.0
 49
3.0
 49
-4.0
 49
5.0
 49
-6.0
  0
LTYPE
  2
RAND4
 70
    64
  3
ランダム線4
 72
    65
 73
     4
 40
22.0
 49
4.0
 49
-5.0
 49
6.0
 49
-7.0
  0
LTYPE
  2
RAND5
 70
    64
  3
ランダム線5
 72
    65
 73
     4
 40
26.0
 49
5.0
 49
-6.0
 49
7.0
 49
-8.0
  0
LTYPE
  2
LONG1
 70
    64
  3
----------  --  ----------  --  
 72
    65
 73
     4
 40
40.0
 49
32.5
 49
-2.5
 49
2.5
 49
-2.5
  0
LTYPE
  2
LONG2
 70
    64
  3
--------  -  -  --------  -  -  
 72
    65
 73
     6
 40
40.0
 49
30.0
 49
-2.5
 49
1.25
 49
-2.5
 49
1.25
 49
-2.5
  0
LTYPE
  2
LONG3
 70
    64
  3
+++++++++++++++..+++++++++++++++
 72
    65
 73
     2
 40
40.0
 49
37.5
 49
-2.5
  0
LTYPE
  2
LONG4
 70
    64
  3
+++++++++++++++..+++++++++++++++
 72
    65
 73
     2
 40
80.0
 49
75.0
 49
-5.0
  0
LTYPE
  2
LONG5
 70
    64
  3
----------  --  ----------  --  
 72
    65
 73
     4
 40
60.0
 49
37.5
 49
-7.5
 49
7.5
 49
-7.5
  0
LTYPE
  2
dashed
 70
   64
  3
-------   -------------   ------
 72
   65
 73
    2
 40
7.5
 49
6
 49
-1.5
  0
LTYPE
  2
dashed_spaced
 70
   64
  3
----        --------        ----
 72
   65
 73
    2
 40
12
 49
6
 49
-6
  0
LTYPE
  2
long_dashed_dotted
 70
   64
  3
------------- --- --------------
 72
   65
 73
    4
 40
15.25
 49
12
 49
-1.5
 49
0.25
 49
-1.5
  0
LTYPE
  2
long_dashed_double-dotted
 70
   64
  3
----------- --- --- ------------
 72
   65
 73
    6
 40
17
 49
12
 49
-1.5
 49
0.25
 49
-1.5
 49
0.25
 49
-1.5
  0
LTYPE
  2
long_dashed_triplicate-dotted
 70
   64
  3
--------- --- --- --- ----------
 72
   65
 73
    8
 40
18.75
 49
12
 49
-1.5
 49
0.25
 49
-1.5
 49
0.25
 49
-1.5
 49
0.25
 49
-1.5
  0
LTYPE
  2
dotted
 70
   64
  3
   -       -       -       -    
 72
   65
 73
    2
 40
1.75
 49
0.25
 49
-1.5
  0
LTYPE
  2
chain
 70
   64
  3
-------------- -- --------------
 72
   65
 73
    4
 40
18.5
 49
12
 49
-1.5
 49
3.5
 49
-1.5
  0
LTYPE
  2
chain_double_dash
 70
   64
  3
------------ -- -- -------------
 72
   65
 73
    6
 40
23.5
 49
12
 49
-1.5
 49
3.5
 49
-1.5
 49
3.5
 49
-1.5
  0
LTYPE
  2
dashed_dotted
 70
   64
  3
-----------     -     ----------
 72
   65
 73
    4
 40
9.25
 49
6
 49
-1.5
 49
0.25
 49
-1.5
  0
LTYPE
  2
double-dashed_dotted
 70
   64
  3
------   -----------   -   -----
 72
   65
 73
    6
 40
16.75
 49
6
 49
-1.5
 49
6
 49
-1.5
 49
0.25
 49
-1.5
  0
LTYPE
  2
dashed_double-dotted
 70
   64
  3
---------    -    -    ---------
 72
   65
 73
    6
 40
11
 49
6
 49
-1.5
 49
0.25
 49
-1.5
 49
0.25
 49
-1.5
  0
LTYPE
  2
double-dashed_double-dotted
 70
   64
  3
-----   ---------   -   -   ----
 72
   65
 73
    8
 40
18.5
 49
6
 49
-1.5
 49
6
 49
-1.5
 49
0.25
 49
-1.5
 49
0.25
 49
-1.5
  0
LTYPE
  2
dashed_triplicate-dotted
 70
   64
  3
-------    -    -    -    ------
 72
   65
 73
    8
 40
12.75
 49
6
 49
-1.5
 49
0.25
 49
-1.5
 49
0.25
 49
-1.5
 49
0.25
 49
-1.5
  0
LTYPE
  2
double-dashed_triplicate-dotted
 70
   64
  3
-----  ---------  -  -  -  -----
 72
   65
 73
   10
 40
20.25
 49
6
 49
-1.5
 49
6
 49
-1.5
 49
0.25
 49
-1.5
 49
0.25
 49
-1.5
 49
0.25
 49
-1.5
  0
LTYPE
  2
undefined
 70
   64
  3
--------------------------------
 72
   65
 73
    0
 40
0
  0
ENDTAB
  0
TABLE
  2
STYLE
  5
3
100
AcDbSymbolTable
 70
     1
  0
STYLE
  5
10
100
AcDbSymbolTableRecord
100
AcDbTextStyleTableRecord
  2
STANDARD
 70
     0
 40
0.0
 41
1.0
 50
0.0
 71
     0
 42
0.2
  3
txt
  4
bigfont.shx
  0
STYLE
  5
26
100
AcDbSymbolTableRecord
100
AcDbTextStyleTableRecord
  2
TATEGAKI
 70
    68
 40
0.0
 41
1.0
 50
0.0
 71
     0
 42
1.0
  3
txt
  4
bigfont.shx
  0
ENDTAB
  0
TABLE
  2
LAYER
 70
    3
  0
LAYER
  2
_0-0_
 70
   64
 62
    7
  6
CONTINUOUS
  0
LAYER
  2
_1-0_
 70
   64
 62
    7
  6
CONTINUOUS
  0
LAYER
  2
ADD_LINE
 70
   64
 62
    7
  6
CONTINUOUS
  0
ENDTAB
  0
ENDSEC
  0
SECTION
  2
BLOCKS
  0
ENDSEC
  0
SECTION
  2
ENTITIES
  0
LINE
  8
_0-0_
  6
CONTINUOUS
 62
    7
 10
130.80041949133243
 20
133.82963944433592
 11
130.80041949133243
 21
129.65381726003773
  0
LINE
  8
_1-0_
  6
CONTINUOUS
 62
    7
 10
124.17072224205046
 20
137.70920396939098
 11
127.63482385718824
 21
139.70920396939096
  0
ARC
  8
_1-0_
  6
CONTINUOUS
 62
    7
 10
129.8448238571882
 20
135.88137168466375
 40
4.4200000000000008
 50
14.999999999999998
 51
119.99999999999997
  0
LINE
  8
_0-0_
  6
CONTINUOUS
 62
    7
 10
131.70495226547641
 20
125.17096306637579
 11
132.13474910520551
 21
125.17096306637579
  0
LINE
  8
_0-0_
  6
CONTINUOUS
 62
    7
 10
132.13474910520551
 20
125.17096306637579
 11
132.13474910520551
 21
123.96753191513426
  0
LINE
  8
_0-0_
  6
CONTINUOUS
 62
    7
 10
131.70495226547641
 20
128.37239583000041
 11
131.70495226547641
 21
125.17096306637579
  0
LINE
  8
_0-0_
  6
CONTINUOUS
 62
    7
 10
130.80041949133243
 20
129.65381726003773
 11
131.70495226547641
 21
128.37239583000041
  0
LINE
  8
_0-0_
  6
CONTINUOUS
 62
    7
 10
134.1142160093859
 20
137.0253518640169
 11
134.1142160093859
 21
131.56703856243348
  0
LINE
  8
_0-0_
  6
CONTINUOUS
 62
    7
 10
132.34355452815862
 20
125.55241043599261
 11
132.77335136788776
 21
125.55241043599261
  0
LINE
  8
_0-0_
  6
CONTINUOUS
 62
    7
 10
132.77335136788776
 20
125.55241043599261
 11
132.77335136788776
 21
124.3489792847511
  0
LINE
  8
_0-0_
  6
CONTINUOUS
 62
    7
 10
132.34355452815862
 20
128.75384319961728
 11
132.34355452815862
 21
125.55241043599261
  0
LINE
  8
_0-0_
  6
CONTINUOUS
 62
    7
 10
131.44541597411438
 20
130.02620615117991
 11
132.34355452815862
 21
128.75384319961728
  0
LINE
  8
_0-0_
  6
CONTINUOUS
 62
    7
 10
260.86123952364062
 20
208.92028853435238
 11
260.86123952364062
 21
204.74446635005418
  0
LINE
  8
_1-0_
  6
CONTINUOUS
 62
    7
 10
254.23154227435867
 20
212.79985305940744
 11
257.69564388949641
 21
214.79985305940741
  0
ARC
  8
_1-0_
  6
CONTINUOUS
 62
    7
 10
259.90564388949645
 20
210.97202077468017
 40
4.4200000000000008
 50
14.999999999999998
 51
119.99999999999997
  0
LINE
  8
_0-0_
  6
CONTINUOUS
 62
    7
 10
264.17503604169411
 20
212.11600095403335
 11
264.17503604169411
 21
206.65768765244991
  0
ARC
  8
_1-0_
  6
CONTINUOUS
 62
    7
 10
256.44154227435865
 20
208.9720207746802
 40
4.4200000000000008
 50
359.32938762172489
 51
144.56334422156525
  0
LINE
  8
_0-0_
  6
CONTINUOUS
 62
    7
 10
264.43457233305611
 20
201.80244456764581
 11
264.86436917278525
 21
201.80244456764581
  0
LINE
  8
_0-0_
  6
CONTINUOUS
 62
    7
 10
264.86436917278525
 20
201.80244456764581
 11
264.86436917278525
 21
200.59901341640426
  0
LINE
  8
_0-0_
  6
CONTINUOUS
 62
    7
 10
264.43457233305611
 20
205.00387733127042
 11
264.43457233305611
 21
201.80244456764581
  0
LINE
  8
_0-0_
  6
CONTINUOUS
 62
    7
 10
263.53003955891211
 20
206.28529876130773
 11
264.43457233305611
 21
205.00387733127042
  0
LINE
  8
_0-0_
  6
CONTINUOUS
 62
    7
 10
265.07317459573835
 20
202.18389193726264
 11
265.50297143546743
 21
202.18389193726264
  0
LINE
  8
_0-0_
  6
CONTINUOUS
 62
    7
 10
265.50297143546743
 20
202.18389193726264
 11
265.50297143546743
 21
200.9804607860211
  0
LINE
  8
_0-0_
  6
CONTINUOUS
 62
    7
 10
265.07317459573835
 20
205.38532470088728
 11
265.07317459573835
 21
202.18389193726264
  0
LINE
  8
_0-0_
  6
CONTINUOUS
 62
    7
 10
264.17503604169411
 20
206.65768765244991
 11
265.07317459573835
 21
205.38532470088728
  0
LINE
  8
_1-0_
  6
CONTINUOUS
 62
    7
 10
130.80041949133243
 20
129.65381726003773
 11
264.17503604169406
 21
206.65768765244997
  0
LINE
  8
_1-0_
  6
CONTINUOUS
 62
    7
 10
131.70495226547641
 20
128.37239583000041
 11
265.07869558698133
 21
205.37576206349954
  0
LINE
  8
_1-0_
  6
CONTINUOUS
 62
    7
 10
131.70495226547641
 20
125.17096306637579
 11
265.07869558698138
 21
202.1743292998749
  0
LINE
  8
_1-0_
  6
CONTINUOUS
 62
    7
 10
132.13474910520551
 20
125.17096306637579
 11
265.5084924267104
 21
202.17432929987493
  0
LINE
  8
_1-0_
  6
CONTINUOUS
 62
    7
 10
132.13474910520551
 20
123.96753191513426
 11
265.50849242671046
 21
200.97089814863335
  0
LINE
  8
_1-0_
  6
CONTINUOUS
 62
    7
 10
253.43957433075258
 20
211.88072984668472
 11
129.42605075076597
 21
140.28148862462541
  0
ARC
  8
_0-0_
  6
CONTINUOUS
 62
    7
 10
256.44154227435865
 20
208.9720207746802
 40
4.1800000000000006
 50
359.32938762172489
 51
135.90393983553719
  0
LINE
  8
_0-0_
  6
CONTINUOUS
 62
    7
 10
260.62123952364061
 20
208.92028853435238
 11
260.62123952364061
 21
204.60590228612534
  0
LINE
  8
_0-0_
  6
CONTINUOUS
 62
    7
 10
122.89466516177576
 20
131.4023847171762
 11
122.24996990218209
 21
130.41385198579923
  0
LINE
  8
_0-0_
  6
CONTINUOUS
 62
    7
 10
122.24996990218209
 20
130.41385198579923
 11
122.24996990218209
 21
127.29913555024079
  0
LINE
  8
_0-0_
  6
CONTINUOUS
 62
    7
 10
122.24996990218209
 20
127.29913555024079
 11
121.9491121143717
 21
127.29913555024079
  0
LINE
  8
_0-0_
  6
CONTINUOUS
 62
    7
 10
121.9491121143717
 20
127.29913555024079
 11
121.9491121143717
 21
126.05272471502636
  0
LINE
  8
_0-0_
  6
CONTINUOUS
 62
    7
 10
121.9491121143717
 20
126.05272471502636
 11
132.13474910520551
 21
123.96753191513426
  0
LINE
  8
_0-0_
  6
CONTINUOUS
 62
    7
 10
122.89466516177576
 20
135.215593748158
 11
122.89466516177576
 21
131.4023847171762
  0
ARC
  8
_1-0_
  6
CONTINUOUS
 62
    7
 10
126.38072224205045
 20
133.88137168466375
 40
4.4200000000000008
 50
359.32938762172489
 51
110.01668155468586
  0
ARC
  8
_0-0_
  6
CONTINUOUS
 62
    7
 10
125.89466516177576
 20
135.215593748158
 40
3
 50
110.0166815546859
 51
180
  0
ARC
  8
_1-0_
  6
CONTINUOUS
 62
    7
 10
124.36515408238591
 20
129.34410866552048
 40
0.72
 50
90
 51
180
  0
LINE
  8
_1-0_
  6
CONTINUOUS
 62
    7
 10
123.60915444238594
 20
129.34410902552048
 11
123.64515408238591
 21
129.34410902552048
  0
ARC
  8
_1-0_
  6
CONTINUOUS
 62
    7
 10
124.36515408238591
 20
129.34410866552048
 40
0.756
 50
90
 51
180
  0
LINE
  8
_1-0_
  6
CONTINUOUS
 62
    7
 10
124.34062031731406
 20
129.53045837799428
 11
124.34062031731406
 21
127.37045801799431
  0
ARC
  8
_1-0_
  6
CONTINUOUS
 62
    7
 10
125.06062031731406
 20
127.37045801799428
 40
0.72
 50
179.99999099999999
 51
270
  0
ARC
  8
_1-0_
  6
CONTINUOUS
 62
    7
 10
125.06062031731405
 20
129.53045837799431
 40
0.72
 50
132.16788779762288
 51
180
  0
LINE
  8
_1-0_
  6
CONTINUOUS
 62
    7
 10
123.64515408238591
 20
129.34410866552048
 11
123.64515408238591
 21
127.18410830552048
  0
ARC
  8
_1-0_
  6
CONTINUOUS
 62
    7
 10
124.36515408238594
 20
127.18410830552048
 40
0.72
 50
179.99999099999999
 51
270
  0
ARC
  8
_1-0_
  6
CONTINUOUS
 62
    7
 10
124.36515408238594
 20
127.18410830552048
 40
0.756
 50
179.99999099999999
 51
270
  0
LINE
  8
_1-0_
  6
CONTINUOUS
 62
    7
 10
123.60915408238594
 20
127.18410866552048
 11
123.60915408238594
 21
129.34410866552048
  0
LINE
  8
_1-0_
  6
CONTINUOUS
 62
    7
 10
124.36515408238594
 20
130.10010866552048
 11
128.37819604914461
 21
129.1955048809748
  0
LINE
  8
_1-0_
  6
CONTINUOUS
 62
    7
 10
128.37819604914461
 20
129.15950488097479
 11
128.37819604914461
 21
129.1955048809748
  0
LINE
  8
_1-0_
  6
CONTINUOUS
 62
    7
 10
128.37819604914461
 20
129.15950488097479
 11
124.36515408238594
 21
130.06410866552051
  0
LINE
  8
_1-0_
  6
CONTINUOUS
 62
    7
 10
125.06062031731405
 20
126.65045801799431
 11
128.86153585779192
 21
125.7458542334486
  0
LINE
  8
_1-0_
  6
CONTINUOUS
 62
    7
 10
124.36515408238591
 20
126.46410830552048
 11
128.37819604914461
 21
125.55950452097478
  0
ARC
  8
_1-0_
  6
CONTINUOUS
 62
    7
 10
128.37819604914461
 20
126.27950452097478
 40
0.72
 50
270
 51
0.0000090000000228
  0
LINE
  8
_1-0_
  6
CONTINUOUS
 62
    7
 10
129.09819604914458
 20
126.27950452097478
 11
129.09819604914458
 21
128.43950488097479
  0
ARC
  8
_1-0_
  6
CONTINUOUS
 62
    7
 10
128.37819604914461
 20
128.43950488097479
 40
0.72
 50
0
 51
90
  0
ARC
  8
_1-0_
  6
CONTINUOUS
 62
    7
 10
128.37819604914461
 20
128.43950488097479
 40
0.756
 50
0
 51
90
  0
LINE
  8
_1-0_
  6
CONTINUOUS
 62
    7
 10
129.13419604914458
 20
128.4395052409748
 11
129.09819604914458
 21
128.4395052409748
  0
LINE
  8
_1-0_
  6
CONTINUOUS
 62
    7
 10
128.37819604914461
 20
125.5235045209748
 11
124.36515408238591
 21
126.4281083055205
  0
ARC
  8
_1-0_
  6
CONTINUOUS
 62
    7
 10
128.37819604914461
 20
126.27950452097478
 40
0.756
 50
270
 51
0.0000090000000228
  0
LINE
  8
_1-0_
  6
CONTINUOUS
 62
    7
 10
129.13419604914458
 20
128.43950488097479
 11
129.13419604914458
 21
126.27950452097478
  0
LINE
  8
_0-0_
  6
CONTINUOUS
 62
    7
 10
124.27251501587546
 20
131.18132245590786
 11
124.27251501587546
 21
131.18132245590786
  0
LINE
  8
_0-0_
  6
CONTINUOUS
 62
    7
 10
124.27251501587546
 20
131.18132245590786
 11
124.31625886702977
 21
131.23580884792872
  0
LINE
  8
_0-0_
  6
CONTINUOUS
 62
    7
 10
124.31625886702977
 20
131.23580884792872
 11
124.34793104253571
 21
131.299382239366
  0
LINE
  8
_0-0_
  6
CONTINUOUS
 62
    7
 10
124.34793104253571
 20
131.299382239366
 11
124.36656919936739
 21
131.37011098489054
  0
LINE
  8
_0-0_
  6
CONTINUOUS
 62
    7
 10
124.36656919936739
 20
131.37011098489054
 11
124.37160702656085
 21
131.44584602736009
  0
LINE
  8
_0-0_
  6
CONTINUOUS
 62
    7
 10
124.37160702656085
 20
131.44584602736009
 11
124.36289145228608
 21
131.52428619583299
  0
LINE
  8
_0-0_
  6
CONTINUOUS
 62
    7
 10
124.36289145228608
 20
131.52428619583299
 11
124.34068729485713
 21
131.60304812548281
  0
LINE
  8
_0-0_
  6
CONTINUOUS
 62
    7
 10
124.34068729485713
 20
131.60304812548281
 11
124.30566921636164
 21
131.67973867493262
  0
LINE
  8
_0-0_
  6
CONTINUOUS
 62
    7
 10
124.30566921636164
 20
131.67973867493262
 11
124.25890122339467
 21
131.75202764064466
  0
LINE
  8
_0-0_
  6
CONTINUOUS
 62
    7
 10
124.25890122339467
 20
131.75202764064466
 11
124.2018043377568
 21
131.81771855897577
  0
LINE
  8
_0-0_
  6
CONTINUOUS
 62
    7
 10
124.2018043377568
 20
131.81771855897577
 11
124.1361134194257
 21
131.87481544461363
  0
LINE
  8
_0-0_
  6
CONTINUOUS
 62
    7
 10
124.1361134194257
 20
131.87481544461363
 11
124.06382445371366
 21
131.92158343758061
  0
LINE
  8
_0-0_
  6
CONTINUOUS
 62
    7
 10
124.06382445371366
 20
131.92158343758061
 11
123.98713390426386
 21
131.95660151607609
  0
LINE
  8
_0-0_
  6
CONTINUOUS
 62
    7
 10
123.98713390426386
 20
131.95660151607609
 11
123.90837197461404
 21
131.97880567350504
  0
LINE
  8
_0-0_
  6
CONTINUOUS
 62
    7
 10
123.90837197461404
 20
131.97880567350504
 11
123.82993180614115
 21
131.9875212477798
  0
LINE
  8
_0-0_
  6
CONTINUOUS
 62
    7
 10
123.82993180614115
 20
131.9875212477798
 11
123.75419676367159
 21
131.98248342058633
  0
LINE
  8
_0-0_
  6
CONTINUOUS
 62
    7
 10
123.75419676367159
 20
131.98248342058633
 11
123.68346801814704
 21
131.96384526375468
  0
LINE
  8
_0-0_
  6
CONTINUOUS
 62
    7
 10
123.68346801814704
 20
131.96384526375468
 11
123.61989462670977
 21
131.93217308824873
  0
LINE
  8
_0-0_
  6
CONTINUOUS
 62
    7
 10
123.61989462670977
 20
131.93217308824873
 11
123.5654082346889
 21
131.88842923709441
  0
LINE
  8
_0-0_
  6
CONTINUOUS
 62
    7
 10
123.5654082346889
 20
131.88842923709441
 11
123.52166438353458
 21
131.83394284507355
  0
LINE
  8
_0-0_
  6
CONTINUOUS
 62
    7
 10
123.52166438353458
 20
131.83394284507355
 11
123.48999220802865
 21
131.77036945363628
  0
LINE
  8
_0-0_
  6
CONTINUOUS
 62
    7
 10
123.48999220802865
 20
131.77036945363628
 11
123.47135405119697
 21
131.69964070811173
  0
LINE
  8
_0-0_
  6
CONTINUOUS
 62
    7
 10
123.47135405119697
 20
131.69964070811173
 11
123.46631622400351
 21
131.62390566564218
  0
LINE
  8
_0-0_
  6
CONTINUOUS
 62
    7
 10
123.46631622400351
 20
131.62390566564218
 11
123.47503179827828
 21
131.54546549716929
  0
LINE
  8
_0-0_
  6
CONTINUOUS
 62
    7
 10
123.47503179827828
 20
131.54546549716929
 11
123.49723595570723
 21
131.46670356751946
  0
LINE
  8
_0-0_
  6
CONTINUOUS
 62
    7
 10
123.49723595570723
 20
131.46670356751946
 11
123.53225403420272
 21
131.39001301806965
  0
LINE
  8
_0-0_
  6
CONTINUOUS
 62
    7
 10
123.53225403420272
 20
131.39001301806965
 11
123.57902202716969
 21
131.31772405235762
  0
LINE
  8
_0-0_
  6
CONTINUOUS
 62
    7
 10
123.57902202716969
 20
131.31772405235762
 11
123.63611891280756
 21
131.25203313402653
  0
LINE
  8
_0-0_
  6
CONTINUOUS
 62
    7
 10
123.63611891280756
 20
131.25203313402653
 11
123.70180983113866
 21
131.19493624838864
  0
LINE
  8
_0-0_
  6
CONTINUOUS
 62
    7
 10
123.70180983113866
 20
131.19493624838864
 11
123.77409879685069
 21
131.14816825542169
  0
LINE
  8
_0-0_
  6
CONTINUOUS
 62
    7
 10
123.77409879685069
 20
131.14816825542169
 11
123.8507893463005
 21
131.11315017692618
  0
LINE
  8
_0-0_
  6
CONTINUOUS
 62
    7
 10
123.8507893463005
 20
131.11315017692618
 11
123.92955127595032
 21
131.09094601949724
  0
LINE
  8
_0-0_
  6
CONTINUOUS
 62
    7
 10
123.92955127595032
 20
131.09094601949724
 11
124.00799144442321
 21
131.08223044522248
  0
LINE
  8
_0-0_
  6
CONTINUOUS
 62
    7
 10
124.00799144442321
 20
131.08223044522248
 11
124.08372648689277
 21
131.08726827241594
  0
LINE
  8
_0-0_
  6
CONTINUOUS
 62
    7
 10
124.08372648689277
 20
131.08726827241594
 11
124.15445523241732
 21
131.1059064292476
  0
LINE
  8
_0-0_
  6
CONTINUOUS
 62
    7
 10
124.15445523241732
 20
131.1059064292476
 11
124.21802862385459
 21
131.13757860475354
  0
LINE
  8
_0-0_
  6
CONTINUOUS
 62
    7
 10
124.21802862385459
 20
131.13757860475354
 11
124.27251501587546
 21
131.18132245590786
  0
LINE
  8
_0-0_
  6
CONTINUOUS
 62
    7
 10
124.27251501587546
 20
131.18132245590786
 11
124.27251501587546
 21
131.18132245590786
  0
LINE
  8
_0-0_
  6
CONTINUOUS
 62
    7
 10
123.79822170047551
 20
131.85586055887705
 11
123.9982217004755
 21
131.81491677103605
  0
LINE
  8
_0-0_
  6
CONTINUOUS
 62
    7
 10
124.1982217004755
 20
131.56982501293135
 11
124.1982217004755
 21
131.3656770426677
  0
LINE
  8
_0-0_
  6
CONTINUOUS
 62
    7
 10
123.79822170047551
 20
131.24341664808611
 11
123.9982217004755
 21
131.20247286024508
  0
LINE
  8
_0-0_
  6
CONTINUOUS
 62
    7
 10
123.59822170047551
 20
131.69265637645444
 11
123.59822170047551
 21
131.48850840619079
  0
LINE
  8
_0-0_
  6
CONTINUOUS
 62
    7
 10
123.59822170047551
 20
131.69265637645444
 11
123.79822170047551
 21
131.65171258861341
  0
LINE
  8
_0-0_
  6
CONTINUOUS
 62
    7
 10
123.9982217004755
 20
131.61076880077238
 11
124.1982217004755
 21
131.56982501293135
  0
LINE
  8
_0-0_
  6
CONTINUOUS
 62
    7
 10
123.59822170047551
 20
131.48850840619079
 11
123.79822170047551
 21
131.44756461834976
  0
LINE
  8
_0-0_
  6
CONTINUOUS
 62
    7
 10
123.9982217004755
 20
131.40662083050873
 11
124.1982217004755
 21
131.3656770426677
  0
LINE
  8
_0-0_
  6
CONTINUOUS
 62
    7
 10
123.9982217004755
 20
131.81491677103605
 11
123.9982217004755
 21
131.61076880077238
  0
LINE
  8
_0-0_
  6
CONTINUOUS
 62
    7
 10
123.9982217004755
 20
131.40662083050873
 11
123.9982217004755
 21
131.20247286024508
  0
LINE
  8
_0-0_
  6
CONTINUOUS
 62
    7
 10
123.79822170047551
 20
131.85586055887705
 11
123.79822170047551
 21
131.65171258861341
  0
LINE
  8
_0-0_
  6
CONTINUOUS
 62
    7
 10
123.79822170047551
 20
131.44756461834976
 11
123.79822170047551
 21
131.24341664808611
  0
LINE
  8
_0-0_
  6
CONTINUOUS
 62
    7
 10
124.27958608368732
 20
131.174251388096
 11
124.27958608368732
 21
131.174251388096
  0
LINE
  8
_0-0_
  6
CONTINUOUS
 62
    7
 10
124.27958608368732
 20
131.174251388096
 11
124.32445038747267
 21
131.2300730835652
  0
LINE
  8
_0-0_
  6
CONTINUOUS
 62
    7
 10
124.32445038747267
 20
131.2300730835652
 11
124.35699412040607
 21
131.2951560567486
  0
LINE
  8
_0-0_
  6
CONTINUOUS
 62
    7
 10
124.35699412040607
 20
131.2951560567486
 11
124.37622845763028
 21
131.36752279443954
  0
LINE
  8
_0-0_
  6
CONTINUOUS
 62
    7
 10
124.37622845763028
 20
131.36752279443954
 11
124.38156897354176
 21
131.44497446993262
  0
LINE
  8
_0-0_
  6
CONTINUOUS
 62
    7
 10
124.38156897354176
 20
131.44497446993262
 11
124.372853399267
 21
131.52515775326046
  0
LINE
  8
_0-0_
  6
CONTINUOUS
 62
    7
 10
124.372853399267
 20
131.52515775326046
 11
124.35034655312002
 21
131.60563631593385
  0
LINE
  8
_0-0_
  6
CONTINUOUS
 62
    7
 10
124.35034655312002
 20
131.60563631593385
 11
124.314732294232
 21
131.68396485755002
  0
LINE
  8
_0-0_
  6
CONTINUOUS
 62
    7
 10
124.314732294232
 20
131.68396485755002
 11
124.26709274383757
 21
131.75776340500818
  0
LINE
  8
_0-0_
  6
CONTINUOUS
 62
    7
 10
124.26709274383757
 20
131.75776340500818
 11
124.20887540556866
 21
131.82478962678763
  0
LINE
  8
_0-0_
  6
CONTINUOUS
 62
    7
 10
124.20887540556866
 20
131.82478962678763
 11
124.1418491837892
 21
131.88300696505652
  0
LINE
  8
_0-0_
  6
CONTINUOUS
 62
    7
 10
124.1418491837892
 20
131.88300696505652
 11
124.06805063633107
 21
131.93064651545097
  0
LINE
  8
_0-0_
  6
CONTINUOUS
 62
    7
 10
124.06805063633107
 20
131.93064651545097
 11
123.98972209471489
 21
131.96626077433899
  0
LINE
  8
_0-0_
  6
CONTINUOUS
 62
    7
 10
123.98972209471489
 20
131.96626077433899
 11
123.90924353204151
 21
131.98876762048596
  0
LINE
  8
_0-0_
  6
CONTINUOUS
 62
    7
 10
123.90924353204151
 20
131.98876762048596
 11
123.82906024871367
 21
131.99748319476072
  0
LINE
  8
_0-0_
  6
CONTINUOUS
 62
    7
 10
123.82906024871367
 20
131.99748319476072
 11
123.75160857322057
 21
131.99214267884923
  0
LINE
  8
_0-0_
  6
CONTINUOUS
 62
    7
 10
123.75160857322057
 20
131.99214267884923
 11
123.67924183552962
 21
131.97290834162504
  0
LINE
  8
_0-0_
  6
CONTINUOUS
 62
    7
 10
123.67924183552962
 20
131.97290834162504
 11
123.61415886234624
 21
131.94036460869162
  0
LINE
  8
_0-0_
  6
CONTINUOUS
 62
    7
 10
123.61415886234624
 20
131.94036460869162
 11
123.55833716687704
 21
131.89550030490628
  0
LINE
  8
_0-0_
  6
CONTINUOUS
 62
    7
 10
123.55833716687704
 20
131.89550030490628
 11
123.51347286309169
 21
131.83967860943707
  0
LINE
  8
_0-0_
  6
CONTINUOUS
 62
    7
 10
123.51347286309169
 20
131.83967860943707
 11
123.48092913015829
 21
131.77459563625368
  0
LINE
  8
_0-0_
  6
CONTINUOUS
 62
    7
 10
123.48092913015829
 20
131.77459563625368
 11
123.46169479293408
 21
131.70222889856274
  0
LINE
  8
_0-0_
  6
CONTINUOUS
 62
    7
 10
123.46169479293408
 20
131.70222889856274
 11
123.4563542770226
 21
131.62477722306966
  0
LINE
  8
_0-0_
  6
CONTINUOUS
 62
    7
 10
123.4563542770226
 20
131.62477722306966
 11
123.46506985129736
 21
131.54459393974182
  0
LINE
  8
_0-0_
  6
CONTINUOUS
 62
    7
 10
123.46506985129736
 20
131.54459393974182
 11
123.48757669744434
 21
131.46411537706842
  0
LINE
  8
_0-0_
  6
CONTINUOUS
 62
    7
 10
123.48757669744434
 20
131.46411537706842
 11
123.52319095633236
 21
131.38578683545225
  0
LINE
  8
_0-0_
  6
CONTINUOUS
 62
    7
 10
123.52319095633236
 20
131.38578683545225
 11
123.57083050672679
 21
131.3119882879941
  0
LINE
  8
_0-0_
  6
CONTINUOUS
 62
    7
 10
123.57083050672679
 20
131.3119882879941
 11
123.6290478449957
 21
131.24496206621464
  0
LINE
  8
_0-0_
  6
CONTINUOUS
 62
    7
 10
123.6290478449957
 20
131.24496206621464
 11
123.69607406677514
 21
131.18674472794575
  0
LINE
  8
_0-0_
  6
CONTINUOUS
 62
    7
 10
123.69607406677514
 20
131.18674472794575
 11
123.76987261423329
 21
131.1391051775513
  0
LINE
  8
_0-0_
  6
CONTINUOUS
 62
    7
 10
123.76987261423329
 20
131.1391051775513
 11
123.84820115584947
 21
131.10349091866328
  0
LINE
  8
_0-0_
  6
CONTINUOUS
 62
    7
 10
123.84820115584947
 20
131.10349091866328
 11
123.92867971852284
 21
131.08098407251632
  0
LINE
  8
_0-0_
  6
CONTINUOUS
 62
    7
 10
123.92867971852284
 20
131.08098407251632
 11
124.00886300185068
 21
131.07226849824156
  0
LINE
  8
_0-0_
  6
CONTINUOUS
 62
    7
 10
124.00886300185068
 20
131.07226849824156
 11
124.08631467734379
 21
131.07760901415304
  0
LINE
  8
_0-0_
  6
CONTINUOUS
 62
    7
 10
124.08631467734379
 20
131.07760901415304
 11
124.15868141503474
 21
131.09684335137723
  0
LINE
  8
_0-0_
  6
CONTINUOUS
 62
    7
 10
124.15868141503474
 20
131.09684335137723
 11
124.22376438821811
 21
131.12938708431065
  0
LINE
  8
_0-0_
  6
CONTINUOUS
 62
    7
 10
124.22376438821811
 20
131.12938708431065
 11
124.27958608368732
 21
131.174251388096
  0
LINE
  8
_0-0_
  6
CONTINUOUS
 62
    7
 10
124.27958608368732
 20
131.174251388096
 11
124.27958608368732
 21
131.174251388096
  0
LINE
  8
_0-0_
  6
CONTINUOUS
 62
    7
 10
129.63795184783012
 20
129.88304925640122
 11
129.63795184783012
 21
129.88304925640122
  0
LINE
  8
_0-0_
  6
CONTINUOUS
 62
    7
 10
129.63795184783012
 20
129.88304925640122
 11
129.69088190772686
 21
129.94897779074645
  0
LINE
  8
_0-0_
  6
CONTINUOUS
 62
    7
 10
129.69088190772686
 20
129.94897779074645
 11
129.72920524008904
 21
130.02590159438554
  0
LINE
  8
_0-0_
  6
CONTINUOUS
 62
    7
 10
129.72920524008904
 20
130.02590159438554
 11
129.75175740985537
 21
130.11148337647026
  0
LINE
  8
_0-0_
  6
CONTINUOUS
 62
    7
 10
129.75175740985537
 20
130.11148337647026
 11
129.75785318075947
 21
130.20312277785843
  0
LINE
  8
_0-0_
  6
CONTINUOUS
 62
    7
 10
129.75785318075947
 20
130.20312277785843
 11
129.747307335887
 21
130.29803538171063
  0
LINE
  8
_0-0_
  6
CONTINUOUS
 62
    7
 10
129.747307335887
 20
130.29803538171063
 11
129.72044030539797
 21
130.39333731658689
  0
LINE
  8
_0-0_
  6
CONTINUOUS
 62
    7
 10
129.72044030539797
 20
130.39333731658689
 11
129.67806843041842
 21
130.48613288142116
  0
LINE
  8
_0-0_
  6
CONTINUOUS
 62
    7
 10
129.67806843041842
 20
130.48613288142116
 11
129.62147915892839
 21
130.57360252993274
  0
LINE
  8
_0-0_
  6
CONTINUOUS
 62
    7
 10
129.62147915892839
 20
130.57360252993274
 11
129.55239192730656
 21
130.65308854111336
  0
LINE
  8
_0-0_
  6
CONTINUOUS
 62
    7
 10
129.55239192730656
 20
130.65308854111336
 11
129.47290591612594
 21
130.7221757727352
  0
LINE
  8
_0-0_
  6
CONTINUOUS
 62
    7
 10
129.47290591612594
 20
130.7221757727352
 11
129.38543626761435
 21
130.77876504422522
  0
LINE
  8
_0-0_
  6
CONTINUOUS
 62
    7
 10
129.38543626761435
 20
130.77876504422522
 11
129.29264070278012
 21
130.82113691920478
  0
LINE
  8
_0-0_
  6
CONTINUOUS
 62
    7
 10
129.29264070278012
 20
130.82113691920478
 11
129.19733876790383
 21
130.8480039496938
  0
LINE
  8
_0-0_
  6
CONTINUOUS
 62
    7
 10
129.19733876790383
 20
130.8480039496938
 11
129.10242616405162
 21
130.85854979456627
  0
LINE
  8
_0-0_
  6
CONTINUOUS
 62
    7
 10
129.10242616405162
 20
130.85854979456627
 11
129.01078676266346
 21
130.85245402366218
  0
LINE
  8
_0-0_
  6
CONTINUOUS
 62
    7
 10
129.01078676266346
 20
130.85245402366218
 11
128.92520498057874
 21
130.82990185389585
  0
LINE
  8
_0-0_
  6
CONTINUOUS
 62
    7
 10
128.92520498057874
 20
130.82990185389585
 11
128.84828117693965
 21
130.79157852153367
  0
LINE
  8
_0-0_
  6
CONTINUOUS
 62
    7
 10
128.84828117693965
 20
130.79157852153367
 11
128.78235264259442
 21
130.73864846163693
  0
LINE
  8
_0-0_
  6
CONTINUOUS
 62
    7
 10
128.78235264259442
 20
130.73864846163693
 11
128.72942258269768
 21
130.67271992729169
  0
LINE
  8
_0-0_
  6
CONTINUOUS
 62
    7
 10
128.72942258269768
 20
130.67271992729169
 11
128.6910992503355
 21
130.5957961236526
  0
LINE
  8
_0-0_
  6
CONTINUOUS
 62
    7
 10
128.6910992503355
 20
130.5957961236526
 11
128.66854708056917
 21
130.51021434156789
  0
LINE
  8
_0-0_
  6
CONTINUOUS
 62
    7
 10
128.66854708056917
 20
130.51021434156789
 11
128.66245130966507
 21
130.41857494017972
  0
LINE
  8
_0-0_
  6
CONTINUOUS
 62
    7
 10
128.66245130966507
 20
130.41857494017972
 11
128.67299715453754
 21
130.32366233632752
  0
LINE
  8
_0-0_
  6
CONTINUOUS
 62
    7
 10
128.67299715453754
 20
130.32366233632752
 11
128.69986418502657
 21
130.22836040145125
  0
LINE
  8
_0-0_
  6
CONTINUOUS
 62
    7
 10
128.69986418502657
 20
130.22836040145125
 11
128.74223606000612
 21
130.13556483661699
  0
LINE
  8
_0-0_
  6
CONTINUOUS
 62
    7
 10
128.74223606000612
 20
130.13556483661699
 11
128.79882533149615
 21
130.04809518810541
  0
LINE
  8
_0-0_
  6
CONTINUOUS
 62
    7
 10
128.79882533149615
 20
130.04809518810541
 11
128.86791256311798
 21
129.96860917692479
  0
LINE
  8
_0-0_
  6
CONTINUOUS
 62
    7
 10
128.86791256311798
 20
129.96860917692479
 11
128.9473985742986
 21
129.89952194530295
  0
LINE
  8
_0-0_
  6
CONTINUOUS
 62
    7
 10
128.9473985742986
 20
129.89952194530295
 11
129.03486822281019
 21
129.84293267381292
  0
LINE
  8
_0-0_
  6
CONTINUOUS
 62
    7
 10
129.03486822281019
 20
129.84293267381292
 11
129.12766378764442
 21
129.80056079883337
  0
LINE
  8
_0-0_
  6
CONTINUOUS
 62
    7
 10
129.12766378764442
 20
129.80056079883337
 11
129.22296572252071
 21
129.77369376834434
  0
LINE
  8
_0-0_
  6
CONTINUOUS
 62
    7
 10
129.22296572252071
 20
129.77369376834434
 11
129.31787832637292
 21
129.76314792347188
  0
LINE
  8
_0-0_
  6
CONTINUOUS
 62
    7
 10
129.31787832637292
 20
129.76314792347188
 11
129.40951772776108
 21
129.76924369437597
  0
LINE
  8
_0-0_
  6
CONTINUOUS
 62
    7
 10
129.40951772776108
 20
129.76924369437597
 11
129.4950995098458
 21
129.7917958641423
  0
LINE
  8
_0-0_
  6
CONTINUOUS
 62
    7
 10
129.4950995098458
 20
129.7917958641423
 11
129.57202331348489
 21
129.83011919650448
  0
LINE
  8
_0-0_
  6
CONTINUOUS
 62
    7
 10
129.57202331348489
 20
129.83011919650448
 11
129.63795184783012
 21
129.88304925640122
  0
LINE
  8
_0-0_
  6
CONTINUOUS
 62
    7
 10
129.63795184783012
 20
129.88304925640122
 11
129.63795184783012
 21
129.88304925640122
  0
LINE
  8
_0-0_
  6
CONTINUOUS
 62
    7
 10
129.06405693619618
 20
130.69924036099397
 11
129.30605693619617
 21
130.64969837770633
  0
LINE
  8
_0-0_
  6
CONTINUOUS
 62
    7
 10
129.54805693619616
 20
130.35313735039966
 11
129.54805693619616
 21
130.10611830638064
  0
LINE
  8
_0-0_
  6
CONTINUOUS
 62
    7
 10
129.06405693619618
 20
129.95818322893689
 11
129.30605693619617
 21
129.90864124564925
  0
LINE
  8
_0-0_
  6
CONTINUOUS
 62
    7
 10
128.82205693619619
 20
130.50176330026258
 11
128.82205693619619
 21
130.25474425624355
  0
LINE
  8
_0-0_
  6
CONTINUOUS
 62
    7
 10
128.82205693619619
 20
130.50176330026258
 11
129.06405693619618
 21
130.45222131697494
  0
LINE
  8
_0-0_
  6
CONTINUOUS
 62
    7
 10
129.30605693619617
 20
130.4026793336873
 11
129.54805693619616
 21
130.35313735039966
  0
LINE
  8
_0-0_
  6
CONTINUOUS
 62
    7
 10
128.82205693619619
 20
130.25474425624355
 11
129.06405693619618
 21
130.20520227295592
  0
LINE
  8
_0-0_
  6
CONTINUOUS
 62
    7
 10
129.30605693619617
 20
130.15566028966828
 11
129.54805693619616
 21
130.10611830638064
  0
LINE
  8
_0-0_
  6
CONTINUOUS
 62
    7
 10
129.30605693619617
 20
130.64969837770633
 11
129.30605693619617
 21
130.4026793336873
  0
LINE
  8
_0-0_
  6
CONTINUOUS
 62
    7
 10
129.30605693619617
 20
130.15566028966828
 11
129.30605693619617
 21
129.90864124564925
  0
LINE
  8
_0-0_
  6
CONTINUOUS
 62
    7
 10
129.06405693619618
 20
130.69924036099397
 11
129.06405693619618
 21
130.45222131697494
  0
LINE
  8
_0-0_
  6
CONTINUOUS
 62
    7
 10
129.06405693619618
 20
130.20520227295592
 11
129.06405693619618
 21
129.95818322893689
  0
LINE
  8
_0-0_
  6
CONTINUOUS
 62
    7
 10
129.6465078398825
 20
129.87449326434884
 11
129.6465078398825
 21
129.87449326434884
  0
LINE
  8
_0-0_
  6
CONTINUOUS
 62
    7
 10
129.6465078398825
 20
129.87449326434884
 11
129.70079364746277
 21
129.94203751586659
  0
LINE
  8
_0-0_
  6
CONTINUOUS
 62
    7
 10
129.70079364746277
 20
129.94203751586659
 11
129.74017156431219
 21
130.02078791341847
  0
LINE
  8
_0-0_
  6
CONTINUOUS
 62
    7
 10
129.74017156431219
 20
130.02078791341847
 11
129.76344511235348
 21
130.10835166602453
  0
LINE
  8
_0-0_
  6
CONTINUOUS
 62
    7
 10
129.76344511235348
 20
130.10835166602453
 11
129.76990713660638
 21
130.20206819337119
  0
LINE
  8
_0-0_
  6
CONTINUOUS
 62
    7
 10
129.76990713660638
 20
130.20206819337119
 11
129.75936129173391
 21
130.29908996619787
  0
LINE
  8
_0-0_
  6
CONTINUOUS
 62
    7
 10
129.75936129173391
 20
130.29908996619787
 11
129.73212800789605
 21
130.39646902703265
  0
LINE
  8
_0-0_
  6
CONTINUOUS
 62
    7
 10
129.73212800789605
 20
130.39646902703265
 11
129.68903475464157
 21
130.49124656238823
  0
LINE
  8
_0-0_
  6
CONTINUOUS
 62
    7
 10
129.68903475464157
 20
130.49124656238823
 11
129.63139089866428
 21
130.58054280481258
  0
LINE
  8
_0-0_
  6
CONTINUOUS
 62
    7
 10
129.63139089866428
 20
130.58054280481258
 11
129.56094791935891
 21
130.66164453316571
  0
LINE
  8
_0-0_
  6
CONTINUOUS
 62
    7
 10
129.56094791935891
 20
130.66164453316571
 11
129.47984619100578
 21
130.73208751247108
  0
LINE
  8
_0-0_
  6
CONTINUOUS
 62
    7
 10
129.47984619100578
 20
130.73208751247108
 11
129.39054994858142
 21
130.78973136844837
  0
LINE
  8
_0-0_
  6
CONTINUOUS
 62
    7
 10
129.39054994858142
 20
130.78973136844837
 11
129.29577241322585
 21
130.83282462170285
  0
LINE
  8
_0-0_
  6
CONTINUOUS
 62
    7
 10
129.29577241322585
 20
130.83282462170285
 11
129.19839335239107
 21
130.86005790554071
  0
LINE
  8
_0-0_
  6
CONTINUOUS
 62
    7
 10
129.19839335239107
 20
130.86005790554071
 11
129.10137157956439
 21
130.87060375041318
  0
LINE
  8
_0-0_
  6
CONTINUOUS
 62
    7
 10
129.10137157956439
 20
130.87060375041318
 11
129.00765505221773
 21
130.86414172616028
  0
LINE
  8
_0-0_
  6
CONTINUOUS
 62
    7
 10
129.00765505221773
 20
130.86414172616028
 11
128.92009129961167
 21
130.840868178119
  0
LINE
  8
_0-0_
  6
CONTINUOUS
 62
    7
 10
128.92009129961167
 20
130.840868178119
 11
128.84134090205978
 21
130.80149026126958
  0
LINE
  8
_0-0_
  6
CONTINUOUS
 62
    7
 10
128.84134090205978
 20
130.80149026126958
 11
128.77379665054204
 21
130.74720445368931
  0
LINE
  8
_0-0_
  6
CONTINUOUS
 62
    7
 10
128.77379665054204
 20
130.74720445368931
 11
128.71951084296177
 21
130.67966020217156
  0
LINE
  8
_0-0_
  6
CONTINUOUS
 62
    7
 10
128.71951084296177
 20
130.67966020217156
 11
128.68013292611235
 21
130.60090980461968
  0
LINE
  8
_0-0_
  6
CONTINUOUS
 62
    7
 10
128.68013292611235
 20
130.60090980461968
 11
128.65685937807106
 21
130.51334605201362
  0
LINE
  8
_0-0_
  6
CONTINUOUS
 62
    7
 10
128.65685937807106
 20
130.51334605201362
 11
128.65039735381816
 21
130.41962952466696
  0
LINE
  8
_0-0_
  6
CONTINUOUS
 62
    7
 10
128.65039735381816
 20
130.41962952466696
 11
128.66094319869063
 21
130.32260775184028
  0
LINE
  8
_0-0_
  6
CONTINUOUS
 62
    7
 10
128.66094319869063
 20
130.32260775184028
 11
128.68817648252849
 21
130.2252286910055
  0
LINE
  8
_0-0_
  6
CONTINUOUS
 62
    7
 10
128.68817648252849
 20
130.2252286910055
 11
128.73126973578297
 21
130.13045115564992
  0
LINE
  8
_0-0_
  6
CONTINUOUS
 62
    7
 10
128.73126973578297
 20
130.13045115564992
 11
128.78891359176026
 21
130.04115491322557
  0
LINE
  8
_0-0_
  6
CONTINUOUS
 62
    7
 10
128.78891359176026
 20
130.04115491322557
 11
128.85935657106563
 21
129.96005318487244
  0
LINE
  8
_0-0_
  6
CONTINUOUS
 62
    7
 10
128.85935657106563
 20
129.96005318487244
 11
128.94045829941876
 21
129.88961020556707
  0
LINE
  8
_0-0_
  6
CONTINUOUS
 62
    7
 10
128.94045829941876
 20
129.88961020556707
 11
129.02975454184312
 21
129.83196634958978
  0
LINE
  8
_0-0_
  6
CONTINUOUS
 62
    7
 10
129.02975454184312
 20
129.83196634958978
 11
129.12453207719869
 21
129.78887309633529
  0
LINE
  8
_0-0_
  6
CONTINUOUS
 62
    7
 10
129.12453207719869
 20
129.78887309633529
 11
129.22191113803348
 21
129.76163981249744
  0
LINE
  8
_0-0_
  6
CONTINUOUS
 62
    7
 10
129.22191113803348
 20
129.76163981249744
 11
129.31893291086016
 21
129.75109396762497
  0
LINE
  8
_0-0_
  6
CONTINUOUS
 62
    7
 10
129.31893291086016
 20
129.75109396762497
 11
129.41264943820681
 21
129.75755599187787
  0
LINE
  8
_0-0_
  6
CONTINUOUS
 62
    7
 10
129.41264943820681
 20
129.75755599187787
 11
129.50021319081287
 21
129.78082953991915
  0
LINE
  8
_0-0_
  6
CONTINUOUS
 62
    7
 10
129.50021319081287
 20
129.78082953991915
 11
129.57896358836476
 21
129.82020745676857
  0
LINE
  8
_0-0_
  6
CONTINUOUS
 62
    7
 10
129.57896358836476
 20
129.82020745676857
 11
129.64650783988247
 21
129.87449326434884
  0
LINE
  8
_0-0_
  6
CONTINUOUS
 62
    7
 10
129.64650783988247
 20
129.87449326434884
 11
129.6465078398825
 21
129.87449326434884
  0
ENDSEC
  0
EOF
